0
SECTION
  2
HEADER
  9
$ACADVER
  1
AC1027
  9
$ACADMAINTVER
 70
     8
  9
$DWGCODEPAGE
  3
ANSI_1252
  9
$REQUIREDVERSIONS
160
                 0
  9
$COMMENTS
  1
File was created by Cadenas
  9
$CUSTOMPROPERTYTAG
  1
NN
  9
$CUSTOMPROPERTY
  1
Flange Bearing -  Non-Expansion - Inch
  9
$CUSTOMPROPERTYTAG
  1
NT
  9
$CUSTOMPROPERTY
  1
Type K
  9
$CUSTOMPROPERTYTAG
  1
NB
  9
$CUSTOMPROPERTY
  1
023220
  9
$CUSTOMPROPERTYTAG
  1
NBSYN
  9
$CUSTOMPROPERTY
  1
$PN.
  9
$CUSTOMPROPERTYTAG
  1
LINA
  9
$CUSTOMPROPERTY
  1
023220
  9
$CUSTOMPROPERTYTAG
  1
SS
  9
$CUSTOMPROPERTY
  1
2
  9
$CUSTOMPROPERTYTAG
  1
PN
  9
$CUSTOMPROPERTY
  1
023220
  9
$CUSTOMPROPERTYTAG
  1
PNA
  9
$CUSTOMPROPERTY
  1
F4B-K-200R
  9
$CUSTOMPROPERTYTAG
  1
WEIGHT
  9
$CUSTOMPROPERTY
  1
14
  9
$CUSTOMPROPERTYTAG
  1
A
  9
$CUSTOMPROPERTY
  1
3-1/8
  9
$CUSTOMPROPERTYTAG
  1
B
  9
$CUSTOMPROPERTY
  1
6-7/8
  9
$CUSTOMPROPERTYTAG
  1
C
  9
$CUSTOMPROPERTY
  1
2-9/16
  9
$CUSTOMPROPERTYTAG
  1
D
  9
$CUSTOMPROPERTY
  1
5-5/16
  9
$CUSTOMPROPERTYTAG
  1
E
  9
$CUSTOMPROPERTY
  1
5/32
  9
$CUSTOMPROPERTYTAG
  1
F
  9
$CUSTOMPROPERTY
  1
5/8
  9
$CUSTOMPROPERTYTAG
  1
G
  9
$CUSTOMPROPERTY
  1
7-1/4
  9
$CUSTOMPROPERTYTAG
  1
H
  9
$CUSTOMPROPERTY
  1
9/16
  9
$CUSTOMPROPERTYTAG
  1
J
  9
$CUSTOMPROPERTY
  1
5-5/16
  9
$CUSTOMPROPERTYTAG
  1
L
  9
$CUSTOMPROPERTY
  1
3-7/16
  9
$CUSTOMPROPERTYTAG
  1
CS
  9
$CUSTOMPROPERTY
  1
43000
  9
$CUSTOMPROPERTYTAG
  1
CD
  9
$CUSTOMPROPERTY
  1
8070
  9
$CUSTOMPROPERTYTAG
  1
RN
  9
$CUSTOMPROPERTY
  1
17
  9
$CUSTOMPROPERTYTAG
  1
RM
  9
$CUSTOMPROPERTY
  1
.41
  9
$CUSTOMPROPERTYTAG
  1
PDI
  9
$CUSTOMPROPERTY
  1
2.709
  9
$CUSTOMPROPERTYTAG
  1
EP
  9
$CUSTOMPROPERTY
  1
.004-0.12
  9
$CUSTOMPROPERTYTAG
  1
SC
  9
$CUSTOMPROPERTY
  1
3/8-16*3/4
  9
$CUSTOMPROPERTYTAG
  1
TC
  9
$CUSTOMPROPERTY
  1
290
  9
$CUSTOMPROPERTYTAG
  1
MH
  9
$CUSTOMPROPERTY
  1
C.I. ASTM A48 CLASS 30
  9
$CUSTOMPROPERTYTAG
  1
MC
  9
$CUSTOMPROPERTY
  1
4118 CASE CARB.
  9
$CUSTOMPROPERTYTAG
  1
MCU
  9
$CUSTOMPROPERTY
  1
4118 CASE CARB.
  9
$CUSTOMPROPERTYTAG
  1
MR
  9
$CUSTOMPROPERTY
  1
STEEL
  9
$CUSTOMPROPERTYTAG
  1
MRO
  9
$CUSTOMPROPERTY
  1
4118 CASE CARB.
  9
$CUSTOMPROPERTYTAG
  1
SM
  9
$CUSTOMPROPERTY
  1
4.54
  9
$CUSTOMPROPERTYTAG
  1
COMPANY
  9
$CUSTOMPROPERTY
  1
baldor
  9
$INSBASE
 10
0.0
 20
0.0
 30
0.0
  9
$EXTMIN
 10
1.000000000000000E+20
 20
1.000000000000000E+20
 30
1.000000000000000E+20
  9
$EXTMAX
 10
-1.000000000000000E+20
 20
-1.000000000000000E+20
 30
-1.000000000000000E+20
  9
$LIMMIN
 10
0.0
 20
0.0
  9
$LIMMAX
 10
12.0
 20
9.0
  9
$ORTHOMODE
 70
     0
  9
$REGENMODE
 70
     1
  9
$FILLMODE
 70
     1
  9
$QTEXTMODE
 70
     0
  9
$MIRRTEXT
 70
     1
  9
$LTSCALE
 40
1.0
  9
$ATTMODE
 70
     1
  9
$TEXTSIZE
 40
0.2
  9
$TRACEWID
 40
0.05
  9
$TEXTSTYLE
  7
Standard
  9
$CLAYER
  8
0
  9
$CELTYPE
  6
ByLayer
  9
$CECOLOR
 62
   256
  9
$CELTSCALE
 40
1.0
  9
$DISPSILH
 70
     0
  9
$DIMSCALE
 40
1.0
  9
$DIMASZ
 40
0.18
  9
$DIMEXO
 40
0.0625
  9
$DIMDLI
 40
0.38
  9
$DIMRND
 40
0.0
  9
$DIMDLE
 40
0.0
  9
$DIMEXE
 40
0.18
  9
$DIMTP
 40
0.0
  9
$DIMTM
 40
0.0
  9
$DIMTXT
 40
0.18
  9
$DIMCEN
 40
0.09
  9
$DIMTSZ
 40
0.0
  9
$DIMTOL
 70
     0
  9
$DIMLIM
 70
     0
  9
$DIMTIH
 70
     1
  9
$DIMTOH
 70
     1
  9
$DIMSE1
 70
     0
  9
$DIMSE2
 70
     0
  9
$DIMTAD
 70
     0
  9
$DIMZIN
 70
     0
  9
$DIMBLK
  1

  9
$DIMASO
 70
     1
  9
$DIMSHO
 70
     1
  9
$DIMPOST
  1

  9
$DIMAPOST
  1

  9
$DIMALT
 70
     0
  9
$DIMALTD
 70
     2
  9
$DIMALTF
 40
25.4
  9
$DIMLFAC
 40
1.0
  9
$DIMTOFL
 70
     0
  9
$DIMTVP
 40
0.0
  9
$DIMTIX
 70
     0
  9
$DIMSOXD
 70
     0
  9
$DIMSAH
 70
     0
  9
$DIMBLK1
  1

  9
$DIMBLK2
  1

  9
$DIMSTYLE
  2
Standard
  9
$DIMCLRD
 70
     0
  9
$DIMCLRE
 70
     0
  9
$DIMCLRT
 70
     0
  9
$DIMTFAC
 40
1.0
  9
$DIMGAP
 40
0.09
  9
$DIMJUST
 70
     0
  9
$DIMSD1
 70
     0
  9
$DIMSD2
 70
     0
  9
$DIMTOLJ
 70
     1
  9
$DIMTZIN
 70
     0
  9
$DIMALTZ
 70
     0
  9
$DIMALTTZ
 70
     0
  9
$DIMUPT
 70
     0
  9
$DIMDEC
 70
     4
  9
$DIMTDEC
 70
     4
  9
$DIMALTU
 70
     2
  9
$DIMALTTD
 70
     2
  9
$DIMTXSTY
  7
Standard
  9
$DIMAUNIT
 70
     0
  9
$DIMADEC
 70
     0
  9
$DIMALTRND
 40
0.0
  9
$DIMAZIN
 70
     0
  9
$DIMDSEP
 70
    46
  9
$DIMATFIT
 70
     3
  9
$DIMFRAC
 70
     0
  9
$DIMLDRBLK
  1

  9
$DIMLUNIT
 70
     2
  9
$DIMLWD
 70
    -2
  9
$DIMLWE
 70
    -2
  9
$DIMTMOVE
 70
     0
  9
$DIMFXL
 40
1.0
  9
$DIMFXLON
 70
     0
  9
$DIMJOGANG
 40
0.7853981633974483
  9
$DIMTFILL
 70
     0
  9
$DIMTFILLCLR
 70
     0
  9
$DIMARCSYM
 70
     0
  9
$DIMLTYPE
  6

  9
$DIMLTEX1
  6

  9
$DIMLTEX2
  6

  9
$DIMTXTDIRECTION
 70
     0
  9
$LUNITS
 70
     2
  9
$LUPREC
 70
     4
  9
$SKETCHINC
 40
0.1
  9
$FILLETRAD
 40
0.5
  9
$AUNITS
 70
     0
  9
$AUPREC
 70
     0
  9
$MENU
  1
.
  9
$ELEVATION
 40
0.0
  9
$PELEVATION
 40
0.0
  9
$THICKNESS
 40
0.0
  9
$LIMCHECK
 70
     0
  9
$CHAMFERA
 40
0.0
  9
$CHAMFERB
 40
0.0
  9
$CHAMFERC
 40
0.0
  9
$CHAMFERD
 40
0.0
  9
$SKPOLY
 70
     0
  9
$TDCREATE
 40
2458168.974901319
  9
$TDUCREATE
 40
2458168.933234653
  9
$TDUPDATE
 40
2458168.974901505
  9
$TDUUPDATE
 40
2458168.933234838
  9
$TDINDWG
 40
0.0000000116
  9
$TDUSRTIMER
 40
0.0000000116
  9
$USRTIMER
 70
     1
  9
$ANGBASE
 50
0.0
  9
$ANGDIR
 70
     0
  9
$PDMODE
 70
     0
  9
$PDSIZE
 40
0.0
  9
$PLINEWID
 40
0.0
  9
$SPLFRAME
 70
     0
  9
$SPLINETYPE
 70
     6
  9
$SPLINESEGS
 70
     8
  9
$HANDSEED
  5
214
  9
$SURFTAB1
 70
     6
  9
$SURFTAB2
 70
     6
  9
$SURFTYPE
 70
     6
  9
$SURFU
 70
     6
  9
$SURFV
 70
     6
  9
$UCSBASE
  2

  9
$UCSNAME
  2

  9
$UCSORG
 10
0.0
 20
0.0
 30
0.0
  9
$UCSXDIR
 10
1.0
 20
0.0
 30
0.0
  9
$UCSYDIR
 10
0.0
 20
1.0
 30
0.0
  9
$UCSORTHOREF
  2

  9
$UCSORTHOVIEW
 70
     0
  9
$UCSORGTOP
 10
0.0
 20
0.0
 30
0.0
  9
$UCSORGBOTTOM
 10
0.0
 20
0.0
 30
0.0
  9
$UCSORGLEFT
 10
0.0
 20
0.0
 30
0.0
  9
$UCSORGRIGHT
 10
0.0
 20
0.0
 30
0.0
  9
$UCSORGFRONT
 10
0.0
 20
0.0
 30
0.0
  9
$UCSORGBACK
 10
0.0
 20
0.0
 30
0.0
  9
$PUCSBASE
  2

  9
$PUCSNAME
  2

  9
$PUCSORG
 10
0.0
 20
0.0
 30
0.0
  9
$PUCSXDIR
 10
1.0
 20
0.0
 30
0.0
  9
$PUCSYDIR
 10
0.0
 20
1.0
 30
0.0
  9
$PUCSORTHOREF
  2

  9
$PUCSORTHOVIEW
 70
     0
  9
$PUCSORGTOP
 10
0.0
 20
0.0
 30
0.0
  9
$PUCSORGBOTTOM
 10
0.0
 20
0.0
 30
0.0
  9
$PUCSORGLEFT
 10
0.0
 20
0.0
 30
0.0
  9
$PUCSORGRIGHT
 10
0.0
 20
0.0
 30
0.0
  9
$PUCSORGFRONT
 10
0.0
 20
0.0
 30
0.0
  9
$PUCSORGBACK
 10
0.0
 20
0.0
 30
0.0
  9
$USERI1
 70
     0
  9
$USERI2
 70
     0
  9
$USERI3
 70
     0
  9
$USERI4
 70
     0
  9
$USERI5
 70
     0
  9
$USERR1
 40
0.0
  9
$USERR2
 40
0.0
  9
$USERR3
 40
0.0
  9
$USERR4
 40
0.0
  9
$USERR5
 40
0.0
  9
$WORLDVIEW
 70
     1
  9
$SHADEDGE
 70
     3
  9
$SHADEDIF
 70
    70
  9
$TILEMODE
 70
     1
  9
$MAXACTVP
 70
    64
  9
$PINSBASE
 10
0.0
 20
0.0
 30
0.0
  9
$PLIMCHECK
 70
     0
  9
$PEXTMIN
 10
1.000000000000000E+20
 20
1.000000000000000E+20
 30
1.000000000000000E+20
  9
$PEXTMAX
 10
-1.000000000000000E+20
 20
-1.000000000000000E+20
 30
-1.000000000000000E+20
  9
$PLIMMIN
 10
0.0
 20
0.0
  9
$PLIMMAX
 10
12.0
 20
9.0
  9
$UNITMODE
 70
     0
  9
$VISRETAIN
 70
     1
  9
$PLINEGEN
 70
     0
  9
$PSLTSCALE
 70
     1
  9
$TREEDEPTH
 70
  3020
  9
$CMLSTYLE
  2
Standard
  9
$CMLJUST
 70
     0
  9
$CMLSCALE
 40
1.0
  9
$PROXYGRAPHICS
 70
     1
  9
$MEASUREMENT
 70
     0
  9
$CELWEIGHT
370
    -1
  9
$ENDCAPS
280
     0
  9
$JOINSTYLE
280
     0
  9
$LWDISPLAY
290
     0
  9
$INSUNITS
 70
     1
  9
$HYPERLINKBASE
  1

  9
$STYLESHEET
  1

  9
$XEDIT
290
     1
  9
$CEPSNTYPE
380
     0
  9
$PSTYLEMODE
290
     1
  9
$FINGERPRINTGUID
  2
{BA08B775-006F-4154-AE01-4D5E95CABBF4}
  9
$VERSIONGUID
  2
{FAEB1C32-E019-11D5-929B-00C0DF256EC4}
  9
$EXTNAMES
290
     1
  9
$PSVPSCALE
 40
0.0
  9
$OLESTARTUP
290
     0
  9
$SORTENTS
280
   127
  9
$INDEXCTL
280
     0
  9
$HIDETEXT
280
     1
  9
$XCLIPFRAME
280
     2
  9
$HALOGAP
280
     0
  9
$OBSCOLOR
 70
   257
  9
$OBSLTYPE
280
     0
  9
$INTERSECTIONDISPLAY
280
     0
  9
$INTERSECTIONCOLOR
 70
   257
  9
$DIMASSOC
280
     2
  9
$PROJECTNAME
  1

  9
$CAMERADISPLAY
290
     0
  9
$LENSLENGTH
 40
50.0
  9
$CAMERAHEIGHT
 40
0.0
  9
$STEPSPERSEC
 40
2.0
  9
$STEPSIZE
 40
6.0
  9
$3DDWFPREC
 40
2.0
  9
$PSOLWIDTH
 40
0.25
  9
$PSOLHEIGHT
 40
4.0
  9
$LOFTANG1
 40
1.570796326794897
  9
$LOFTANG2
 40
1.570796326794897
  9
$LOFTMAG1
 40
0.0
  9
$LOFTMAG2
 40
0.0
  9
$LOFTPARAM
 70
     7
  9
$LOFTNORMALS
280
     1
  9
$LATITUDE
 40
37.795
  9
$LONGITUDE
 40
-122.394
  9
$NORTHDIRECTION
 40
0.0
  9
$TIMEZONE
 70
 -8000
  9
$LIGHTGLYPHDISPLAY
280
     1
  9
$TILEMODELIGHTSYNCH
280
     1
  9
$CMATERIAL
347
44
  9
$SOLIDHIST
280
     0
  9
$SHOWHIST
280
     1
  9
$DWFFRAME
280
     2
  9
$DGNFRAME
280
     2
  9
$REALWORLDSCALE
290
     1
  9
$INTERFERECOLOR
 62
   256
  9
$CSHADOW
280
     0
  9
$SHADOWPLANELOCATION
 40
0.0
  0
ENDSEC
  0
SECTION
  2
CLASSES
  0
CLASS
  1
ACDBDICTIONARYWDFLT
  2
AcDbDictionaryWithDefault
  3
ObjectDBX Classes
 90
        0
 91
        4
280
     0
281
     0
  0
CLASS
  1
VISUALSTYLE
  2
AcDbVisualStyle
  3
ObjectDBX Classes
 90
     4095
 91
        4
280
     0
281
     0
  0
CLASS
  1
MATERIAL
  2
AcDbMaterial
  3
ObjectDBX Classes
 90
     1153
 91
        4
280
     0
281
     0
  0
CLASS
  1
SCALE
  2
AcDbScale
  3
ObjectDBX Classes
 90
     1153
 91
        4
280
     0
281
     0
  0
CLASS
  1
TABLESTYLE
  2
AcDbTableStyle
  3
ObjectDBX Classes
 90
     4095
 91
        4
280
     0
281
     0
  0
CLASS
  1
MLEADERSTYLE
  2
AcDbMLeaderStyle
  3
ACDB_MLEADERSTYLE_CLASS
 90
     4095
 91
        4
280
     0
281
     0
  0
CLASS
  1
SUN
  2
AcDbSun
  3
SCENEOE
 90
     1153
 91
        4
280
     0
281
     0
  0
CLASS
  1
DICTIONARYVAR
  2
AcDbDictionaryVar
  3
ObjectDBX Classes
 90
        0
 91
        4
280
     0
281
     0
  0
CLASS
  1
CELLSTYLEMAP
  2
AcDbCellStyleMap
  3
ObjectDBX Classes
 90
     1152
 91
        4
280
     0
281
     0
  0
ENDSEC
  0
SECTION
  2
TABLES
  0
TABLE
  2
VPORT
  5
8
330
0
100
AcDbSymbolTable
 70
     1
  0
VPORT
  5
29
330
8
100
AcDbSymbolTableRecord
100
AcDbViewportTableRecord
  2
*Active
 70
     0
 10
0.0
 20
0.0
 11
1.0
 21
1.0
 12
-1.563281249999999
 22
0.6874999999999991
 13
0.0
 23
0.0
 14
0.5
 24
0.5
 15
0.5
 25
0.5
 16
0.0
 26
0.0
 36
1.0
 17
0.0
 27
0.0
 37
0.0
 40
8.415000000000004
 41
0.4145833333333333
 42
50.0
 43
0.0
 44
0.0
 50
0.0
 51
0.0
 71
     0
 72
   100
 73
     1
 74
     3
 75
     0
 76
     0
 77
     0
 78
     0
281
     0
 65
     1
110
0.0
120
0.0
130
0.0
111
1.0
121
0.0
131
0.0
112
0.0
122
1.0
132
0.0
 79
     0
146
0.0
348
2F
 60
     3
 61
     5
292
     1
282
     1
141
0.0
142
0.0
 63
   250
361
6D
  0
ENDTAB
  0
TABLE
  2
LTYPE
  5
5
330
0
100
AcDbSymbolTable
 70
     3
  0
LTYPE
  5
14
330
5
100
AcDbSymbolTableRecord
100
AcDbLinetypeTableRecord
  2
ByBlock
 70
     0
  3

 72
    65
 73
     0
 40
0.0
  0
LTYPE
  5
15
330
5
100
AcDbSymbolTableRecord
100
AcDbLinetypeTableRecord
  2
ByLayer
 70
     0
  3

 72
    65
 73
     0
 40
0.0
  0
LTYPE
  5
16
330
5
100
AcDbSymbolTableRecord
100
AcDbLinetypeTableRecord
  2
Continuous
 70
     0
  3
Solid line
 72
    65
 73
     0
 40
0.0
  0
LTYPE
  5
AA
330
5
100
AcDbSymbolTableRecord
100
AcDbLinetypeTableRecord
  2
Dashed
 70
     0
  3

 72
    65
 73
     2
 40
2.0
 49
1.0
 74
     0
 49
-1.0
 74
     0
  0
LTYPE
  5
C6
330
5
100
AcDbSymbolTableRecord
100
AcDbLinetypeTableRecord
  2
Center
 70
     0
  3

 72
    65
 73
     4
 40
1.5
 49
0.45
 74
     0
 49
-0.5
 74
     0
 49
0.05
 74
     0
 49
-0.5
 74
     0
  0
ENDTAB
  0
TABLE
  2
LAYER
  5
2
330
0
100
AcDbSymbolTable
 70
     7
  0
LAYER
  5
10
330
2
100
AcDbSymbolTableRecord
100
AcDbLayerTableRecord
  2
0
 70
     0
 62
     7
  6
Continuous
370
    -3
390
F
347
46
348
0
  0
LAYER
  5
72
330
2
100
AcDbSymbolTableRecord
100
AcDbLayerTableRecord
  2
AM_6
 70
     0
 62
    -2
  6
Continuous
370
    35
390
F
347
46
348
0
  0
LAYER
  5
AB
330
2
100
AcDbSymbolTableRecord
100
AcDbLayerTableRecord
  2
AM_9
 70
     0
 62
     6
  6
Dashed
370
    25
390
F
347
46
348
0
  0
LAYER
  5
C4
330
2
100
AcDbSymbolTableRecord
100
AcDbLayerTableRecord
  2
AM_5
 70
     0
 62
     3
  6
Continuous
370
    25
390
F
347
46
348
0
  0
LAYER
  5
C7
330
2
100
AcDbSymbolTableRecord
100
AcDbLayerTableRecord
  2
AM_7
 70
     0
 62
     7
  6
Center
370
    25
390
F
347
46
348
0
  0
LAYER
  5
C9
330
2
100
AcDbSymbolTableRecord
100
AcDbLayerTableRecord
  2
AM_4
 70
     0
 62
     7
  6
Continuous
370
    50
390
F
347
46
348
0
  0
LAYER
  5
204
330
2
100
AcDbSymbolTableRecord
100
AcDbLayerTableRecord
  2
ConnectionPoints
 70
     0
 62
     7
  6
Continuous
370
    50
390
F
347
46
348
0
  0
ENDTAB
  0
TABLE
  2
STYLE
  5
3
330
0
100
AcDbSymbolTable
 70
     1
  0
STYLE
  5
11
330
3
100
AcDbSymbolTableRecord
100
AcDbTextStyleTableRecord
  2
Standard
 70
     0
 40
0.0
 41
1.0
 50
0.0
 71
     0
 42
0.2
  3
txt
  4

  0
ENDTAB
  0
TABLE
  2
VIEW
  5
6
330
0
100
AcDbSymbolTable
 70
     0
  0
ENDTAB
  0
TABLE
  2
UCS
  5
7
330
0
100
AcDbSymbolTable
 70
     0
  0
ENDTAB
  0
TABLE
  2
APPID
  5
9
330
0
100
AcDbSymbolTable
 70
     1
  0
APPID
  5
12
330
9
100
AcDbSymbolTableRecord
100
AcDbRegAppTableRecord
  2
ACAD
 70
     0
  0
ENDTAB
  0
TABLE
  2
DIMSTYLE
  5
A
330
0
100
AcDbSymbolTable
 70
     1
100
AcDbDimStyleTable
  0
DIMSTYLE
105
27
330
A
100
AcDbSymbolTableRecord
100
AcDbDimStyleTableRecord
  2
Standard
 70
     0
178
     0
340
11
  0
ENDTAB
  0
TABLE
  2
BLOCK_RECORD
  5
1
330
0
100
AcDbSymbolTable
 70
     6
  0
BLOCK_RECORD
  5
1F
330
1
100
AcDbSymbolTableRecord
100
AcDbBlockTableRecord
  2
*Model_Space
340
22
 70
     0
280
     1
281
     0
  0
BLOCK_RECORD
  5
1B
330
1
100
AcDbSymbolTableRecord
100
AcDbBlockTableRecord
  2
*Paper_Space
340
1E
 70
     0
280
     1
281
     0
  0
BLOCK_RECORD
  5
23
330
1
100
AcDbSymbolTableRecord
100
AcDbBlockTableRecord
  2
*Paper_Space0
340
26
 70
     0
280
     1
281
     0
  0
BLOCK_RECORD
  5
6E
330
1
100
AcDbSymbolTableRecord
100
AcDbBlockTableRecord
  2
1_023220_2
340
0
102
{BLKREFS
331
6F
102
}
 70
     0
280
     1
281
     0
  0
BLOCK_RECORD
  5
95
330
1
100
AcDbSymbolTableRecord
100
AcDbBlockTableRecord
  2
2_2C_0_in_023220_2
340
0
102
{BLKREFS
331
96
102
}
 70
     0
280
     1
281
     0
  0
BLOCK_RECORD
  5
D5
330
1
100
AcDbSymbolTableRecord
100
AcDbBlockTableRecord
  2
3_405020c_Inch_0_in_023220_2
340
0
102
{BLKREFS
331
D6
102
}
 70
     0
280
     1
281
     0
  0
BLOCK_RECORD
  5
119
330
1
100
AcDbSymbolTableRecord
100
AcDbBlockTableRecord
  2
4_S1U_K_200R_0_in_023220_2
340
0
102
{BLKREFS
331
11A
102
}
 70
     0
280
     1
281
     0
  0
BLOCK_RECORD
  5
18A
330
1
100
AcDbSymbolTableRecord
100
AcDbBlockTableRecord
  2
5_F4B_K_200R_0_in_023220_2
340
0
102
{BLKREFS
331
18B
102
}
 70
     0
280
     1
281
     0
  0
ENDTAB
  0
ENDSEC
  0
SECTION
  2
BLOCKS
  0
BLOCK
  5
20
330
1F
100
AcDbEntity
  8
0
100
AcDbBlockBegin
  2
*Model_Space
 70
     0
 10
0.0
 20
0.0
 30
0.0
  3
*Model_Space
  1

  0
ENDBLK
  5
21
330
1F
100
AcDbEntity
  8
0
100
AcDbBlockEnd
  0
BLOCK
  5
1C
330
1B
100
AcDbEntity
 67
     1
  8
0
100
AcDbBlockBegin
  2
*Paper_Space
 70
     0
 10
0.0
 20
0.0
 30
0.0
  3
*Paper_Space
  1

  0
ENDBLK
  5
1D
330
1B
100
AcDbEntity
 67
     1
  8
0
100
AcDbBlockEnd
  0
BLOCK
  5
24
330
23
100
AcDbEntity
  8
0
100
AcDbBlockBegin
  2
*Paper_Space0
 70
     0
 10
0.0
 20
0.0
 30
0.0
  3
*Paper_Space0
  1

  0
ENDBLK
  5
25
330
23
100
AcDbEntity
  8
0
100
AcDbBlockEnd
  0
BLOCK
  5
70
330
6E
100
AcDbEntity
  8
0
100
AcDbBlockBegin
  2
1_023220_2
 70
     2
 10
0.0
 20
0.0
 30
0.0
  3
1_023220_2
  1

  0
ATTDEF
  5
73
330
6E
100
AcDbEntity
  8
AM_6
100
AcDbText
 10
5.146875
 20
4.8125
 30
0.0
 40
0.5
  1
Flange Bearing -  Non-Expansion - Inch
100
AcDbAttributeDefinition
  3

  2
NN
 70
     8
280
     0
  0
ATTDEF
  5
74
330
6E
100
AcDbEntity
  8
AM_6
100
AcDbText
 10
5.146875
 20
4.3125
 30
0.0
 40
0.5
  1
Type K
100
AcDbAttributeDefinition
  3

  2
NT
 70
     8
280
     0
  0
ATTDEF
  5
75
330
6E
100
AcDbEntity
  8
AM_6
100
AcDbText
 10
5.146875
 20
3.8125
 30
0.0
 40
0.5
  1
023220
100
AcDbAttributeDefinition
  3

  2
NB
 70
     8
280
     0
  0
ATTDEF
  5
76
330
6E
100
AcDbEntity
  8
AM_6
100
AcDbText
 10
5.146875
 20
3.3125
 30
0.0
 40
0.5
  1
$PN.
100
AcDbAttributeDefinition
  3

  2
NBSYN
 70
     8
280
     0
  0
ATTDEF
  5
77
330
6E
100
AcDbEntity
  8
AM_6
100
AcDbText
 10
5.146875
 20
2.8125
 30
0.0
 40
0.5
  1
023220
100
AcDbAttributeDefinition
  3

  2
LINA
 70
     8
280
     0
  0
ATTDEF
  5
78
330
6E
100
AcDbEntity
  8
AM_6
100
AcDbText
 10
5.146875
 20
2.3125
 30
0.0
 40
0.5
  1
2
100
AcDbAttributeDefinition
  3

  2
SS
 70
     8
280
     0
  0
ATTDEF
  5
79
330
6E
100
AcDbEntity
  8
AM_6
100
AcDbText
 10
5.146875
 20
1.8125
 30
0.0
 40
0.5
  1
023220
100
AcDbAttributeDefinition
  3

  2
PN
 70
     8
280
     0
  0
ATTDEF
  5
7A
330
6E
100
AcDbEntity
  8
AM_6
100
AcDbText
 10
5.146875
 20
1.3125
 30
0.0
 40
0.5
  1
F4B-K-200R
100
AcDbAttributeDefinition
  3

  2
PNA
 70
     8
280
     0
  0
ATTDEF
  5
7B
330
6E
100
AcDbEntity
  8
AM_6
100
AcDbText
 10
5.146875
 20
0.8125
 30
0.0
 40
0.5
  1
14
100
AcDbAttributeDefinition
  3

  2
WEIGHT
 70
     8
280
     0
  0
ATTDEF
  5
7C
330
6E
100
AcDbEntity
  8
AM_6
100
AcDbText
 10
5.146875
 20
0.3125
 30
0.0
 40
0.5
  1
3-1/8
100
AcDbAttributeDefinition
  3

  2
A
 70
     8
280
     0
  0
ATTDEF
  5
7D
330
6E
100
AcDbEntity
  8
AM_6
100
AcDbText
 10
5.146875
 20
-0.1875
 30
0.0
 40
0.5
  1
6-7/8
100
AcDbAttributeDefinition
  3

  2
B
 70
     8
280
     0
  0
ATTDEF
  5
7E
330
6E
100
AcDbEntity
  8
AM_6
100
AcDbText
 10
5.146875
 20
-0.6875
 30
0.0
 40
0.5
  1
2-9/16
100
AcDbAttributeDefinition
  3

  2
C
 70
     8
280
     0
  0
ATTDEF
  5
7F
330
6E
100
AcDbEntity
  8
AM_6
100
AcDbText
 10
5.146875
 20
-1.1875
 30
0.0
 40
0.5
  1
5-5/16
100
AcDbAttributeDefinition
  3

  2
D
 70
     8
280
     0
  0
ATTDEF
  5
80
330
6E
100
AcDbEntity
  8
AM_6
100
AcDbText
 10
5.146875
 20
-1.6875
 30
0.0
 40
0.5
  1
5/32
100
AcDbAttributeDefinition
  3

  2
E
 70
     8
280
     0
  0
ATTDEF
  5
81
330
6E
100
AcDbEntity
  8
AM_6
100
AcDbText
 10
5.146875
 20
-2.1875
 30
0.0
 40
0.5
  1
5/8
100
AcDbAttributeDefinition
  3

  2
F
 70
     8
280
     0
  0
ATTDEF
  5
82
330
6E
100
AcDbEntity
  8
AM_6
100
AcDbText
 10
5.146875
 20
-2.6875
 30
0.0
 40
0.5
  1
7-1/4
100
AcDbAttributeDefinition
  3

  2
G
 70
     8
280
     0
  0
ATTDEF
  5
83
330
6E
100
AcDbEntity
  8
AM_6
100
AcDbText
 10
5.146875
 20
-3.1875
 30
0.0
 40
0.5
  1
9/16
100
AcDbAttributeDefinition
  3

  2
H
 70
     8
280
     0
  0
ATTDEF
  5
84
330
6E
100
AcDbEntity
  8
AM_6
100
AcDbText
 10
5.146875
 20
-3.6875
 30
0.0
 40
0.5
  1
5-5/16
100
AcDbAttributeDefinition
  3

  2
J
 70
     8
280
     0
  0
ATTDEF
  5
85
330
6E
100
AcDbEntity
  8
AM_6
100
AcDbText
 10
5.146875
 20
-4.1875
 30
0.0
 40
0.5
  1
3-7/16
100
AcDbAttributeDefinition
  3

  2
L
 70
     8
280
     0
  0
ATTDEF
  5
86
330
6E
100
AcDbEntity
  8
AM_6
100
AcDbText
 10
5.146875
 20
-4.6875
 30
0.0
 40
0.5
  1
43000
100
AcDbAttributeDefinition
  3

  2
CS
 70
     8
280
     0
  0
ATTDEF
  5
87
330
6E
100
AcDbEntity
  8
AM_6
100
AcDbText
 10
5.146875
 20
-5.1875
 30
0.0
 40
0.5
  1
8070
100
AcDbAttributeDefinition
  3

  2
CD
 70
     8
280
     0
  0
ATTDEF
  5
88
330
6E
100
AcDbEntity
  8
AM_6
100
AcDbText
 10
5.146875
 20
-5.6875
 30
0.0
 40
0.5
  1
17
100
AcDbAttributeDefinition
  3

  2
RN
 70
     8
280
     0
  0
ATTDEF
  5
89
330
6E
100
AcDbEntity
  8
AM_6
100
AcDbText
 10
5.146875
 20
-6.1875
 30
0.0
 40
0.5
  1
.41
100
AcDbAttributeDefinition
  3

  2
RM
 70
     8
280
     0
  0
ATTDEF
  5
8A
330
6E
100
AcDbEntity
  8
AM_6
100
AcDbText
 10
5.146875
 20
-6.6875
 30
0.0
 40
0.5
  1
2.709
100
AcDbAttributeDefinition
  3

  2
PDI
 70
     8
280
     0
  0
ATTDEF
  5
8B
330
6E
100
AcDbEntity
  8
AM_6
100
AcDbText
 10
5.146875
 20
-7.1875
 30
0.0
 40
0.5
  1
.004-0.12
100
AcDbAttributeDefinition
  3

  2
EP
 70
     8
280
     0
  0
ATTDEF
  5
8C
330
6E
100
AcDbEntity
  8
AM_6
100
AcDbText
 10
5.146875
 20
-7.6875
 30
0.0
 40
0.5
  1
3/8-16*3/4
100
AcDbAttributeDefinition
  3

  2
SC
 70
     8
280
     0
  0
ATTDEF
  5
8D
330
6E
100
AcDbEntity
  8
AM_6
100
AcDbText
 10
5.146875
 20
-8.1875
 30
0.0
 40
0.5
  1
290
100
AcDbAttributeDefinition
  3

  2
TC
 70
     8
280
     0
  0
ATTDEF
  5
8E
330
6E
100
AcDbEntity
  8
AM_6
100
AcDbText
 10
5.146875
 20
-8.6875
 30
0.0
 40
0.5
  1
C.I. ASTM A48 CLASS 30
100
AcDbAttributeDefinition
  3

  2
MH
 70
     8
280
     0
  0
ATTDEF
  5
8F
330
6E
100
AcDbEntity
  8
AM_6
100
AcDbText
 10
5.146875
 20
-9.1875
 30
0.0
 40
0.5
  1
4118 CASE CARB.
100
AcDbAttributeDefinition
  3

  2
MC
 70
     8
280
     0
  0
ATTDEF
  5
90
330
6E
100
AcDbEntity
  8
AM_6
100
AcDbText
 10
5.146875
 20
-9.6875
 30
0.0
 40
0.5
  1
4118 CASE CARB.
100
AcDbAttributeDefinition
  3

  2
MCU
 70
     8
280
     0
  0
ATTDEF
  5
91
330
6E
100
AcDbEntity
  8
AM_6
100
AcDbText
 10
5.146875
 20
-10.1875
 30
0.0
 40
0.5
  1
STEEL
100
AcDbAttributeDefinition
  3

  2
MR
 70
     8
280
     0
  0
ATTDEF
  5
92
330
6E
100
AcDbEntity
  8
AM_6
100
AcDbText
 10
5.146875
 20
-10.6875
 30
0.0
 40
0.5
  1
4118 CASE CARB.
100
AcDbAttributeDefinition
  3

  2
MRO
 70
     8
280
     0
  0
ATTDEF
  5
93
330
6E
100
AcDbEntity
  8
AM_6
100
AcDbText
 10
5.146875
 20
-11.1875
 30
0.0
 40
0.5
  1
4.54
100
AcDbAttributeDefinition
  3

  2
SM
 70
     8
280
     0
  0
ATTDEF
  5
94
330
6E
100
AcDbEntity
  8
AM_6
100
AcDbText
 10
5.146875
 20
-11.6875
 30
0.0
 40
0.5
  1
baldor
100
AcDbAttributeDefinition
  3

  2
COMPANY
 70
     8
280
     0
  0
INSERT
  5
96
330
6E
100
AcDbEntity
  8
0
100
AcDbBlockReference
  2
2_2C_0_in_023220_2
 10
0.0
 20
0.0
 30
0.0
  0
INSERT
  5
D6
330
6E
100
AcDbEntity
  8
0
100
AcDbBlockReference
  2
3_405020c_Inch_0_in_023220_2
 10
0.0
 20
0.0
 30
0.0
  0
INSERT
  5
11A
330
6E
100
AcDbEntity
  8
0
100
AcDbBlockReference
  2
4_S1U_K_200R_0_in_023220_2
 10
0.0
 20
0.0
 30
0.0
  0
INSERT
  5
18B
330
6E
100
AcDbEntity
  8
0
100
AcDbBlockReference
  2
5_F4B_K_200R_0_in_023220_2
 10
0.0
 20
0.0
 30
0.0
  0
ENDBLK
  5
71
330
6E
100
AcDbEntity
  8
0
100
AcDbBlockEnd
  0
BLOCK
  5
97
330
95
100
AcDbEntity
  8
0
100
AcDbBlockBegin
  2
2_2C_0_in_023220_2
 70
     2
 10
0.0
 20
0.0
 30
0.0
  3
2_2C_0_in_023220_2
  1

  0
ATTDEF
  5
99
330
95
100
AcDbEntity
  8
AM_6
100
AcDbText
 10
2.495000000000001
 20
1.7481875
 30
0.0
 40
0.5
  1
E-Type Collar -Inch
100
AcDbAttributeDefinition
  3

  2
NN
 70
     8
280
     0
  0
ATTDEF
  5
9A
330
95
100
AcDbEntity
  8
AM_6
100
AcDbText
 10
2.495000000000001
 20
1.2481875
 30
0.0
 40
0.5
  1
E-Type Bearings
100
AcDbAttributeDefinition
  3

  2
NT
 70
     8
280
     0
  0
ATTDEF
  5
9B
330
95
100
AcDbEntity
  8
AM_6
100
AcDbText
 10
2.495000000000001
 20
0.7481874999999998
 30
0.0
 40
0.5
  1
2C
100
AcDbAttributeDefinition
  3

  2
NB
 70
     8
280
     0
  0
ATTDEF
  5
9C
330
95
100
AcDbEntity
  8
AM_6
100
AcDbText
 10
2.495000000000001
 20
0.2481874999999998
 30
0.0
 40
0.5
  1
$BORE.C
100
AcDbAttributeDefinition
  3

  2
NBSYN
 70
     8
280
     0
  0
ATTDEF
  5
9D
330
95
100
AcDbEntity
  8
AM_6
100
AcDbText
 10
2.495000000000001
 20
-0.2518125000000002
 30
0.0
 40
0.5
  1
2C
100
AcDbAttributeDefinition
  3

  2
LINA
 70
     8
280
     0
  0
ATTDEF
  5
9E
330
95
100
AcDbEntity
  8
AM_6
100
AcDbText
 10
2.495000000000001
 20
-0.7518125000000002
 30
0.0
 40
0.5
  1
2
100
AcDbAttributeDefinition
  3

  2
BORE
 70
     8
280
     0
  0
ATTDEF
  5
9F
330
95
100
AcDbEntity
  8
AM_6
100
AcDbText
 10
2.495000000000001
 20
-1.2518125
 30
0.0
 40
0.5
  1
3.43750
100
AcDbAttributeDefinition
  3

  2
L
 70
     8
280
     0
  0
ATTDEF
  5
A0
330
95
100
AcDbEntity
  8
AM_6
100
AcDbText
 10
2.495000000000001
 20
-1.7518125
 30
0.0
 40
0.5
  1
3.50
100
AcDbAttributeDefinition
  3

  2
A
 70
     8
280
     0
  0
ATTDEF
  5
A1
330
95
100
AcDbEntity
  8
AM_6
100
AcDbText
 10
2.495000000000001
 20
-2.2518125
 30
0.0
 40
0.5
  1
1.62
100
AcDbAttributeDefinition
  3

  2
B
 70
     8
280
     0
  0
ATTDEF
  5
A2
330
95
100
AcDbEntity
  8
AM_6
100
AcDbText
 10
2.495000000000001
 20
-2.7518125
 30
0.0
 40
0.5
  1
2.31
100
AcDbAttributeDefinition
  3

  2
C
 70
     8
280
     0
  0
ATTDEF
  5
A3
330
95
100
AcDbEntity
  8
AM_6
100
AcDbText
 10
2.495000000000001
 20
-3.2518125
 30
0.0
 40
0.5
  1
3.50
100
AcDbAttributeDefinition
  3

  2
D
 70
     8
280
     0
  0
ATTDEF
  5
A4
330
95
100
AcDbEntity
  8
AM_6
100
AcDbText
 10
2.495000000000001
 20
-3.7518125
 30
0.0
 40
0.5
  1
0.41
100
AcDbAttributeDefinition
  3

  2
E
 70
     8
280
     0
  0
ATTDEF
  5
A5
330
95
100
AcDbEntity
  8
AM_6
100
AcDbText
 10
2.495000000000001
 20
-4.2518125
 30
0.0
 40
0.5
  1
0.31
100
AcDbAttributeDefinition
  3

  2
F
 70
     8
280
     0
  0
ATTDEF
  5
A6
330
95
100
AcDbEntity
  8
AM_6
100
AcDbText
 10
2.495000000000001
 20
-4.7518125
 30
0.0
 40
0.5
  1
3/8-16
100
AcDbAttributeDefinition
  3

  2
CS
 70
     8
280
     0
  0
ATTDEF
  5
A7
330
95
100
AcDbEntity
  8
AM_6
100
AcDbText
 10
2.495000000000001
 20
-5.2518125
 30
0.0
 40
0.5
  1
0.3750
100
AcDbAttributeDefinition
  3

  2
NDM
 70
     8
280
     0
  0
ATTDEF
  5
A8
330
95
100
AcDbEntity
  8
AM_6
100
AcDbText
 10
2.495000000000001
 20
-5.7518125
 30
0.0
 40
0.5
  1
0.3070
100
AcDbAttributeDefinition
  3

  2
KDM
 70
     8
280
     0
  0
ATTDEF
  5
A9
330
95
100
AcDbEntity
  8
AM_6
100
AcDbText
 10
2.495000000000001
 20
-6.2518125
 30
0.0
 40
0.5
  1
baldor
100
AcDbAttributeDefinition
  3

  2
COMPANY
 70
     8
280
     0
  0
LINE
  5
AC
330
95
100
AcDbEntity
  8
AM_9
100
AcDbLine
 10
-2.66135
 20
1.16385
 30
0.0
 11
-2.66135
 21
1.6849
 31
0.0
  0
LINE
  5
AD
330
95
100
AcDbEntity
  8
AM_9
100
AcDbLine
 10
-2.96865
 20
1.6849
 30
0.0
 11
-2.96865
 21
1.16385
 31
0.0
  0
LINE
  5
AE
330
95
100
AcDbEntity
  8
AM_9
100
AcDbLine
 10
-2.96865
 20
1.16385
 30
0.0
 11
-2.66135
 21
1.16385
 31
0.0
  0
LINE
  5
AF
330
95
100
AcDbEntity
  8
AM_9
100
AcDbLine
 10
-2.96865
 20
1.16385
 30
0.0
 11
-2.977333859590502
 21
1.155166140409497
 31
0.0
  0
LINE
  5
B0
330
95
100
AcDbEntity
  8
AM_9
100
AcDbLine
 10
-2.652768486589464
 20
1.155268486589464
 30
0.0
 11
-2.66135
 21
1.16385
 31
0.0
  0
LINE
  5
B1
330
95
100
AcDbEntity
  8
AM_9
100
AcDbLine
 10
-2.96865
 20
1.6849
 30
0.0
 11
-2.66135
 21
1.6849
 31
0.0
  0
LINE
  5
B2
330
95
100
AcDbEntity
  8
AM_9
100
AcDbLine
 10
-2.66135
 20
1.6849
 30
0.0
 11
-2.6275
 21
1.71875
 31
0.0
  0
LINE
  5
B3
330
95
100
AcDbEntity
  8
AM_9
100
AcDbLine
 10
-3.0025
 20
1.71875
 30
0.0
 11
-2.96865
 21
1.6849
 31
0.0
  0
LWPOLYLINE
  5
B4
330
95
100
AcDbEntity
  8
AM_9
100
AcDbPolyline
 90
       14
 70
     0
 43
0.0
 10
-2.965412388269808
 20
0.4271553398816708
 10
-2.958504583658789
 20
0.412279727198437
 10
-2.94243230373832
 20
0.3872468336572869
 10
-2.921972829888135
 20
0.3650564070238982
 10
-2.898678283758052
 20
0.3473968064820103
 10
-2.872411069580452
 20
0.3340073621826994
 10
-2.846336514347769
 20
0.326183497435596
 10
-2.819224615848441
 20
0.3229852316942739
 10
-2.794021520915243
 20
0.3243871284980401
 10
-2.76941924203597
 20
0.3298323777881105
 10
-2.746355322039371
 20
0.3390024523154557
 10
-2.725078384257333
 20
0.3514964254536931
 10
-2.709336269731257
 20
0.3638867207156669
 10
-2.695270700757611
 20
0.3779306153227041
  0
LWPOLYLINE
  5
B5
330
95
100
AcDbEntity
  8
AM_9
100
AcDbPolyline
 90
        7
 70
     0
 43
0.0
 10
-2.962836600894567
 20
0.5531497361341623
 10
-2.965080868890708
 20
0.5482122720450485
 10
-2.973404421512374
 20
0.5232951791991903
 10
-2.977292849706193
 20
0.4958213139565704
 10
-2.97617665001329
 20
0.4677970280308608
 10
-2.969858942332217
 20
0.4394979658413338
 10
-2.965412388269808
 20
0.4271553398816708
  0
LWPOLYLINE
  5
B6
330
95
100
AcDbEntity
  8
AM_9
100
AcDbPolyline
 90
       22
 70
     0
 43
0.0
 10
-2.695270700757611
 20
0.3779306153227041
 10
-2.680573278082183
 20
0.3969823851245571
 10
-2.668808271443681
 20
0.4176293360648106
 10
-2.658801432537046
 20
0.4439182519710256
 10
-2.653431658753936
 20
0.4710708270096689
 10
-2.652922827735137
 20
0.4993266874148434
 10
-2.657506840884038
 20
0.5269257457283391
 10
-2.667264255474736
 20
0.5533184649773232
 10
-2.681916029846857
 20
0.5775465560041892
 10
-2.700828571350548
 20
0.5985069496908871
 10
-2.723740925088391
 20
0.6160441469379795
 10
-2.748509356111882
 20
0.6288048404677834
 10
-2.775615795223777
 20
0.6374696658014961
 10
-2.801671165229202
 20
0.6414014566813423
 10
-2.828147638067585
 20
0.6414329664232039
 10
-2.8526973154402
 20
0.6378349976865151
 10
-2.876212472618772
 20
0.6309080904423755
 10
-2.898400298022891
 20
0.6206741931724533
 10
-2.91843708596584
 20
0.607567336934737
 10
-2.937064809653997
 20
0.5906952130942349
 10
-2.952445301954543
 20
0.5713661406842143
 10
-2.962836600894567
 20
0.5531497361341623
  0
LINE
  5
B7
330
95
100
AcDbEntity
  8
AM_9
100
AcDbLine
 10
-3.125
 20
-1.155
 30
0.0
 11
-2.504999999999999
 21
-1.155
 31
0.0
  0
LINE
  5
B8
330
95
100
AcDbEntity
  8
AM_9
100
AcDbLine
 10
-2.504999999999999
 20
1.155
 30
0.0
 11
-2.653141874627085
 21
1.155
 31
0.0
  0
LINE
  5
B9
330
95
100
AcDbEntity
  8
AM_9
100
AcDbLine
 10
-2.977102342789093
 20
1.155
 30
0.0
 11
-3.125
 21
1.155
 31
0.0
  0
LWPOLYLINE
  5
BA
330
95
100
AcDbEntity
  8
AM_9
100
AcDbPolyline
 90
       18
 70
     0
 43
0.0
 10
-2.963460140495753
 20
1.152795690354657
 10
-2.951198885410673
 20
1.151026350938733
 10
-2.933385052348584
 20
1.148717802829725
 10
-2.910771329989637
 20
1.146240524342773
 10
-2.886815148278001
 20
1.144177281125706
 10
-2.859423654001466
 20
1.142534733138016
 10
-2.833763695572541
 20
1.141696141547657
 10
-2.806641036554752
 20
1.1415500348332
 10
-2.782239733160894
 20
1.14206930960979
 10
-2.758078803751197
 20
1.143188797776558
 10
-2.735897546785489
 20
1.144743350316933
 10
-2.715242928870741
 20
1.146640022566709
 10
-2.696398942507807
 20
1.148743921308349
 10
-2.680287017588639
 20
1.150821876167579
 10
-2.667095250353039
 20
1.152712392277049
 10
-2.657858838042085
 20
1.154136323883433
 10
-2.653073151141622
 20
1.154906315782236
 10
-2.652500000000017
 20
1.154999999999997
  0
LINE
  5
BB
330
95
100
AcDbEntity
  8
AM_9
100
AcDbLine
 10
-2.977499999999293
 20
1.154999999999884
 30
0.0
 11
-2.963460140495753
 21
1.152795690354657
 31
0.0
  0
ELLIPSE
  5
BC
330
95
100
AcDbEntity
  8
AM_9
100
AcDbEllipse
 10
-2.815
 20
0.4918642639269122
 30
0.0
 11
0.1536500000000007
 21
0.0
 31
0.0
210
0.0
220
0.0
230
1.0
 40
0.9063077870366498
 41
2.229707554477689
 42
3.141592653589793
  0
LINE
  5
BD
330
95
100
AcDbEntity
  8
AM_9
100
AcDbLine
 10
-2.66135
 20
0.491864263926913
 30
0.0
 11
-2.66135
 21
0.7120695092069046
 31
0.0
  0
LINE
  5
BE
330
95
100
AcDbEntity
  8
AM_9
100
AcDbLine
 10
-2.96865
 20
0.7120695092069046
 30
0.0
 11
-2.96865
 21
0.491864263926913
 31
0.0
  0
ELLIPSE
  5
BF
330
95
100
AcDbEntity
  8
AM_9
100
AcDbEllipse
 10
-2.815
 20
0.491864263926913
 30
0.0
 11
0.1536500000000003
 21
0.0
 31
0.0
210
0.0
220
0.0
230
1.0
 40
0.9063077870366496
 41
3.141592653589793
 42
6.283185307179586
  0
ELLIPSE
  5
C0
330
95
100
AcDbEntity
  8
AM_9
100
AcDbEllipse
 10
-2.814999999999998
 20
0.4918642639269135
 30
0.0
 11
0.1536499999999985
 21
0.0
 31
0.0
210
0.0
220
0.0
230
1.0
 40
0.9063077870366502
 41
0.0
 42
0.9118850991121074
  0
LINE
  5
C1
330
95
100
AcDbEntity
  8
AM_9
100
AcDbLine
 10
-2.59375
 20
-1.71875
 30
0.0
 11
-2.504999999999999
 21
-1.71875
 31
0.0
  0
LINE
  5
C2
330
95
100
AcDbEntity
  8
AM_9
100
AcDbLine
 10
-2.504999999999999
 20
1.71875
 30
0.0
 11
-2.59375
 21
1.71875
 31
0.0
  0
LINE
  5
C3
330
95
100
AcDbEntity
  8
AM_9
100
AcDbLine
 10
-2.504999999999999
 20
1.71875
 30
0.0
 11
-2.504999999999999
 21
-1.71875
 31
0.0
  0
LINE
  5
C5
330
95
100
AcDbEntity
  8
AM_5
100
AcDbLine
 10
-2.6275
 20
1.71875
 30
0.0
 11
-2.6275
 21
1.155
 31
0.0
  0
LINE
  5
C8
330
95
100
AcDbEntity
  8
AM_7
100
AcDbLine
 10
-2.815
 20
1.7481875
 30
0.0
 11
-2.815
 21
1.1005625
 31
0.0
  0
ELLIPSE
  5
CA
330
95
100
AcDbEntity
  8
AM_4
100
AcDbEllipse
 10
-2.815
 20
0.4918642639269141
 30
0.0
 11
0.1536499999999985
 21
0.0
 31
0.0
210
0.0
220
0.0
230
1.0
 40
0.906307787036651
 41
0.9118850991120926
 42
2.229707554477693
  0
LINE
  5
CB
330
95
100
AcDbEntity
  8
AM_4
100
AcDbLine
 10
-3.125
 20
1.615416666666667
 30
0.0
 11
-3.125
 21
-1.615416666666667
 31
0.0
  0
ARC
  5
CC
330
95
100
AcDbEntity
  8
AM_4
100
AcDbCircle
 10
-3.021666666666667
 20
-1.615416666666667
 30
0.0
 40
0.1033333333333331
100
AcDbArc
 50
180.0
 51
270.0
  0
ARC
  5
CD
330
95
100
AcDbEntity
  8
AM_4
100
AcDbCircle
 10
-3.021666666666667
 20
1.615416666666667
 30
0.0
 40
0.1033333333333335
100
AcDbArc
 50
90.0
 51
180.0
  0
LWPOLYLINE
  5
CE
330
95
100
AcDbEntity
  8
AM_4
100
AcDbPolyline
 90
       39
 70
     0
 43
0.0
 10
-2.671930807006646
 20
0.620401127536357
 10
-2.691514390619004
 20
0.6026772403173434
 10
-2.713652563181371
 20
0.5877464461645956
 10
-2.74153292523478
 20
0.5744856075499754
 10
-2.771319497257078
 20
0.5655918426281173
 10
-2.803388967470955
 20
0.5612671253337135
 10
-2.83577568009637
 20
0.5619696181972664
 10
-2.868116697527709
 20
0.5678900374206147
 10
-2.898941721387244
 20
0.5788362043451798
 10
-2.927119366843909
 20
0.5944649060961977
 10
-2.952004661601931
 20
0.6143379728590015
 10
-2.972099450482889
 20
0.6371373069737768
 10
-2.987586246790908
 20
0.6627039385728177
 10
-2.997389013083795
 20
0.6888285276339489
 10
-3.002107159433268
 20
0.7159190693475173
 10
-3.0016042099721
 20
0.7419184397725251
 10
-2.996299623303222
 20
0.7672769790728751
 10
-2.986447793556051
 20
0.7910366203213197
 10
-2.972422983049049
 20
0.8129052086842058
 10
-2.954059853466125
 20
0.8328886625445291
 10
-2.932316266457222
 20
0.849951747685816
 10
-2.906497738300273
 20
0.8643395065520344
 10
-2.878357658603039
 20
0.8749220561279052
 10
-2.847271594632546
 20
0.8816808926539007
 10
-2.815318634536983
 20
0.8839933237186927
 10
-2.782583310751253
 20
0.8816586394749941
 10
-2.750761669974212
 20
0.8746595853048477
 10
-2.720765251530746
 20
0.8630451330807581
 10
-2.693516415794893
 20
0.8470944708211451
 10
-2.670463197498034
 20
0.8275917740042813
 10
-2.651671691984436
 20
0.8047035046119496
 10
-2.638450346773515
 20
0.7802161807407949
 10
-2.630259034383965
 20
0.7538414137987154
 10
-2.62752732013253
 20
0.7277339641470991
 10
-2.629745591100707
 20
0.7013834469947793
 10
-2.636682101193913
 20
0.6761688379620842
 10
-2.648013566975309
 20
0.6521659761147418
 10
-2.658974000299966
 20
0.6356672519861406
 10
-2.671930806951132
 20
0.6204011274540294
  0
LINE
  5
CF
330
95
100
AcDbEntity
  8
AM_4
100
AcDbLine
 10
-3.021666666666667
 20
-1.71875
 30
0.0
 11
-2.59375
 21
-1.71875
 31
0.0
  0
LINE
  5
D0
330
95
100
AcDbEntity
  8
AM_4
100
AcDbLine
 10
-2.59375
 20
1.71875
 30
0.0
 11
-2.6275
 21
1.71875
 31
0.0
  0
LINE
  5
D1
330
95
100
AcDbEntity
  8
AM_4
100
AcDbLine
 10
-3.0025
 20
1.71875
 30
0.0
 11
-3.021666666666667
 21
1.71875
 31
0.0
  0
LINE
  5
D2
330
95
100
AcDbEntity
  8
AM_4
100
AcDbLine
 10
-3.021666666666667
 20
1.71875
 30
0.0
 11
-3.021666666666667
 21
-1.71875
 31
0.0
  0
LWPOLYLINE
  5
D3
330
95
100
AcDbEntity
  8
AM_4
100
AcDbPolyline
 90
       20
 70
     0
 43
0.0
 10
-2.627500000000037
 20
1.718749999999996
 10
-2.629754850172967
 20
1.718529519557033
 10
-2.636557762316057
 20
1.717880195165575
 10
-2.648040450456119
 20
1.716838375755907
 10
-2.663508929883739
 20
1.715542845283204
 10
-2.683116984994908
 20
1.714079377104359
 10
-2.706371207655331
 20
1.712604011323974
 10
-2.732993906127274
 20
1.71126321852817
 10
-2.762302242362799
 20
1.710218916693832
 10
-2.793819167410728
 20
1.709602465016823
 10
-2.826025836554177
 20
1.709515843880191
 10
-2.858831687781893
 20
1.709992380340885
 10
-2.889752581646669
 20
1.710962566616508
 10
-2.919389028344101
 20
1.712365553290242
 10
-2.94472240319613
 20
1.713930378857723
 10
-2.966938761563095
 20
1.715578595844378
 10
-2.983299306696605
 20
1.716956419087102
 10
-2.99519335997593
 20
1.718045056547901
 10
-3.001214696784885
 20
1.718624001717391
 10
-3.002499999999895
 20
1.71874999999999
  0
ELLIPSE
  5
D4
330
95
100
AcDbEntity
  8
AM_4
100
AcDbEllipse
 10
-2.815
 20
0.7120695092069046
 30
0.0
 11
0.1536500000000003
 21
0.0
 31
0.0
210
0.0
220
0.0
230
1.0
 40
0.9063077870366485
 41
0.0
 42
6.283185307179586
  0
ENDBLK
  5
98
330
95
100
AcDbEntity
  8
0
100
AcDbBlockEnd
  0
BLOCK
  5
D7
330
D5
100
AcDbEntity
  8
0
100
AcDbBlockBegin
  2
3_405020c_Inch_0_in_023220_2
 70
     2
 10
0.0
 20
0.0
 30
0.0
  3
3_405020c_Inch_0_in_023220_2
  1

  0
ATTDEF
  5
D9
330
D5
100
AcDbEntity
  8
AM_6
100
AcDbText
 10
3.787408630723042
 20
3.1635
 30
0.0
 40
0.5
  1
405020C -Inch
100
AcDbAttributeDefinition
  3

  2
NN
 70
     8
280
     0
  0
ATTDEF
  5
DA
330
D5
100
AcDbEntity
  8
AM_6
100
AcDbText
 10
3.787408630723042
 20
2.6635
 30
0.0
 40
0.5
  1
Grease fitting
100
AcDbAttributeDefinition
  3

  2
NT
 70
     8
280
     0
  0
ATTDEF
  5
DB
330
D5
100
AcDbEntity
  8
AM_6
100
AcDbText
 10
3.787408630723042
 20
2.1635
 30
0.0
 40
0.5
  1
405020c-Inch
100
AcDbAttributeDefinition
  3

  2
NB
 70
     8
280
     0
  0
ATTDEF
  5
DC
330
D5
100
AcDbEntity
  8
AM_6
100
AcDbText
 10
3.787408630723042
 20
1.6635
 30
0.0
 40
0.5
  1
$MN.-Inch
100
AcDbAttributeDefinition
  3

  2
NBSYN
 70
     8
280
     0
  0
ATTDEF
  5
DD
330
D5
100
AcDbEntity
  8
AM_6
100
AcDbText
 10
3.787408630723042
 20
1.1635
 30
0.0
 40
0.5
  1
405020c
100
AcDbAttributeDefinition
  3

  2
LINA
 70
     8
280
     0
  0
ATTDEF
  5
DE
330
D5
100
AcDbEntity
  8
AM_6
100
AcDbText
 10
3.787408630723042
 20
0.6635000000000004
 30
0.0
 40
0.5
  1
405020c
100
AcDbAttributeDefinition
  3

  2
MN
 70
     8
280
     0
  0
ATTDEF
  5
DF
330
D5
100
AcDbEntity
  8
AM_6
100
AcDbText
 10
3.787408630723042
 20
0.1635000000000004
 30
0.0
 40
0.5
  1
0.230
100
AcDbAttributeDefinition
  3

  2
NDR
 70
     8
280
     0
  0
ATTDEF
  5
E0
330
D5
100
AcDbEntity
  8
AM_6
100
AcDbText
 10
3.787408630723042
 20
-0.3364999999999996
 30
0.0
 40
0.5
  1
0.210
100
AcDbAttributeDefinition
  3

  2
KDR
 70
     8
280
     0
  0
ATTDEF
  5
E1
330
D5
100
AcDbEntity
  8
AM_6
100
AcDbText
 10
3.787408630723042
 20
-0.8364999999999996
 30
0.0
 40
0.5
  1
0.157
100
AcDbAttributeDefinition
  3

  2
BZE
 70
     8
280
     0
  0
ATTDEF
  5
E2
330
D5
100
AcDbEntity
  8
AM_6
100
AcDbText
 10
3.787408630723042
 20
-1.3365
 30
0.0
 40
0.5
  1
9/32
100
AcDbAttributeDefinition
  3

  2
WAF
 70
     8
280
     0
  0
ATTDEF
  5
E3
330
D5
100
AcDbEntity
  8
AM_6
100
AcDbText
 10
3.787408630723042
 20
-1.8365
 30
0.0
 40
0.5
  1
0.2813
100
AcDbAttributeDefinition
  3

  2
WAF1
 70
     8
280
     0
  0
ATTDEF
  5
E4
330
D5
100
AcDbEntity
  8
AM_6
100
AcDbText
 10
3.787408630723042
 20
-2.3365
 30
0.0
 40
0.5
  1
0.545
100
AcDbAttributeDefinition
  3

  2
BL
 70
     8
280
     0
  0
ATTDEF
  5
E5
330
D5
100
AcDbEntity
  8
AM_6
100
AcDbText
 10
3.787408630723042
 20
-2.8365
 30
0.0
 40
0.5
  1
0.200
100
AcDbAttributeDefinition
  3

  2
TL
 70
     8
280
     0
  0
ATTDEF
  5
E6
330
D5
100
AcDbEntity
  8
AM_6
100
AcDbText
 10
3.787408630723042
 20
-3.3365
 30
0.0
 40
0.5
  1
baldor
100
AcDbAttributeDefinition
  3

  2
COMPANY
 70
     8
280
     0
  0
LINE
  5
E7
330
D5
100
AcDbEntity
  8
AM_9
100
AcDbLine
 10
-1.23435
 20
2.8185
 30
0.0
 11
-1.212591369276958
 21
2.824330207530646
 31
0.0
  0
LINE
  5
E8
330
D5
100
AcDbEntity
  8
AM_9
100
AcDbLine
 10
-1.537408630723042
 20
2.824330207530646
 30
0.0
 11
-1.51565
 21
2.8185
 31
0.0
  0
LINE
  5
E9
330
D5
100
AcDbEntity
  8
AM_9
100
AcDbLine
 10
-1.212591369276958
 20
2.87933645913602
 30
0.0
 11
-1.23435
 21
2.885166666666667
 31
0.0
  0
LINE
  5
EA
330
D5
100
AcDbEntity
  8
AM_9
100
AcDbLine
 10
-1.51565
 20
2.885166666666667
 30
0.0
 11
-1.537408630723042
 21
2.87933645913602
 31
0.0
  0
LINE
  5
EB
330
D5
100
AcDbEntity
  8
AM_9
100
AcDbLine
 10
-1.294193570283272
 20
3.1635
 30
0.0
 11
-1.455806426985621
 21
3.1635
 31
0.0
  0
ARC
  5
EC
330
D5
100
AcDbEntity
  8
AM_9
100
AcDbCircle
 10
-1.455806429716727
 20
3.138500000000001
 30
0.0
 40
0.0249999999999999
100
AcDbArc
 50
90.0
 51
157.0000000000015
  0
ARC
  5
ED
330
D5
100
AcDbEntity
  8
AM_9
100
AcDbCircle
 10
-1.294193570283272
 20
3.138500000000001
 30
0.0
 40
0.0249999999999999
100
AcDbArc
 50
22.99999999999866
 51
90.0
  0
ARC
  5
EE
330
D5
100
AcDbEntity
  8
AM_9
100
AcDbCircle
 10
-1.519684789639099
 20
2.951842555146222
 30
0.0
 40
0.0499999999999999
100
AcDbArc
 50
315.0
 51
25.0000000000002
  0
ARC
  5
EF
330
D5
100
AcDbEntity
  8
AM_9
100
AcDbCircle
 10
-1.230315210360901
 20
2.951842555146223
 30
0.0
 40
0.0500000000000003
100
AcDbArc
 50
155.0000000000005
 51
225.0
  0
LINE
  5
F0
330
D5
100
AcDbEntity
  8
AM_9
100
AcDbLine
 10
-1.274911377296342
 20
2.6185
 30
0.0
 11
-1.475088622703658
 21
2.6185
 31
0.0
  0
LINE
  5
F1
330
D5
100
AcDbEntity
  8
AM_9
100
AcDbLine
 10
-1.274911377296342
 20
2.6185
 30
0.0
 11
-1.264583740406011
 21
2.628827636890331
 31
0.0
  0
LINE
  5
F2
330
D5
100
AcDbEntity
  8
AM_9
100
AcDbLine
 10
-1.485416259593989
 20
2.628827636890331
 30
0.0
 11
-1.475088622703658
 21
2.6185
 31
0.0
  0
LINE
  5
F3
330
D5
100
AcDbEntity
  8
AM_9
100
AcDbLine
 10
-1.264583740406011
 20
2.628827636890331
 30
0.0
 11
-1.485416259593989
 21
2.628827636890331
 31
0.0
  0
LINE
  5
F4
330
D5
100
AcDbEntity
  8
AM_9
100
AcDbLine
 10
-1.264583740406011
 20
2.628827636890331
 30
0.0
 11
-1.258656182846723
 21
2.8185
 31
0.0
  0
LINE
  5
F5
330
D5
100
AcDbEntity
  8
AM_9
100
AcDbLine
 10
-1.491343817153277
 20
2.8185
 30
0.0
 11
-1.485416259593989
 21
2.628827636890331
 31
0.0
  0
LINE
  5
F6
330
D5
100
AcDbEntity
  8
AM_9
100
AcDbLine
 10
-1.275630599712734
 20
2.972973468233258
 30
0.0
 11
-1.474369400287266
 21
2.972973468233258
 31
0.0
  0
LINE
  5
F7
330
D5
100
AcDbEntity
  8
AM_9
100
AcDbLine
 10
-1.275630599712734
 20
2.972973468233258
 30
0.0
 11
-1.243758088653109
 21
3.04132428877464
 31
0.0
  0
LINE
  5
F8
330
D5
100
AcDbEntity
  8
AM_9
100
AcDbLine
 10
-1.506241911346891
 20
3.04132428877464
 30
0.0
 11
-1.474369400287266
 21
2.972973468233258
 31
0.0
  0
LINE
  5
F9
330
D5
100
AcDbEntity
  8
AM_9
100
AcDbLine
 10
-1.271180948946961
 20
3.148268278212232
 30
0.0
 11
-1.478819051053039
 21
3.148268278212232
 31
0.0
  0
LINE
  5
FA
330
D5
100
AcDbEntity
  8
AM_9
100
AcDbLine
 10
-1.478819051053039
 20
3.148268278212232
 30
0.0
 11
-1.50695176466768
 21
3.081991758286138
 31
0.0
  0
LINE
  5
FB
330
D5
100
AcDbEntity
  8
AM_9
100
AcDbLine
 10
-1.24304823533232
 20
3.081991758286138
 30
0.0
 11
-1.271180948946961
 21
3.148268278212232
 31
0.0
  0
LINE
  5
FC
330
D5
100
AcDbEntity
  8
AM_9
100
AcDbLine
 10
-1.24304823533232
 20
3.081991758286138
 30
0.0
 11
-1.50695176466768
 21
3.081991758286138
 31
0.0
  0
LINE
  5
FD
330
D5
100
AcDbEntity
  8
AM_9
100
AcDbLine
 10
-1.243758088653109
 20
3.04132428877464
 30
0.0
 11
-1.506241911346891
 21
3.04132428877464
 31
0.0
  0
ARC
  5
FE
330
D5
100
AcDbEntity
  8
AM_9
100
AcDbCircle
 10
-1.460926521995056
 20
3.062455201861674
 30
0.0
 40
0.0500000000000013
100
AcDbArc
 50
157.000000000001
 51
204.999999999999
  0
ARC
  5
FF
330
D5
100
AcDbEntity
  8
AM_9
100
AcDbCircle
 10
-1.289073478004939
 20
3.062455201861674
 30
0.0
 40
0.0499999999999969
100
AcDbArc
 50
334.9999999999987
 51
23.00000000000122
  0
LWPOLYLINE
  5
100
330
D5
100
AcDbEntity
  8
AM_9
100
AcDbPolyline
 90
        3
 70
     0
 43
0.0
 10
-1.456204315361521
 20
2.87933645913602
 10
-1.415784715914745
 20
2.883614196110488
 10
-1.375
 20
2.885166666666667
  0
LWPOLYLINE
  5
101
330
D5
100
AcDbEntity
  8
AM_9
100
AcDbPolyline
 90
        4
 70
     0
 43
0.0
 10
-1.293795684638479
 20
2.824330207530646
 10
-1.312698248156097
 20
2.822031798436252
 10
-1.343757174379179
 20
2.819418591732273
 10
-1.375
 20
2.8185
  0
LINE
  5
102
330
D5
100
AcDbEntity
  8
AM_9
100
AcDbLine
 10
-1.293795684638479
 20
2.87933645913602
 30
0.0
 11
-1.293795684638479
 21
2.824330207530646
 31
0.0
  0
LWPOLYLINE
  5
103
330
D5
100
AcDbEntity
  8
AM_9
100
AcDbPolyline
 90
        3
 70
     0
 43
0.0
 10
-1.253193526957719
 20
2.8185
 10
-1.273494605798099
 20
2.820038875462469
 10
-1.293795684638479
 20
2.824330207530646
  0
LWPOLYLINE
  5
104
330
D5
100
AcDbEntity
  8
AM_9
100
AcDbPolyline
 90
        3
 70
     0
 43
0.0
 10
-1.212591369276958
 20
2.824330207530646
 10
-1.232801169000346
 20
2.820052470556178
 10
-1.253193526957719
 20
2.8185
  0
LINE
  5
105
330
D5
100
AcDbEntity
  8
AM_9
100
AcDbLine
 10
-1.212591369276958
 20
2.87933645913602
 30
0.0
 11
-1.212591369276958
 21
2.824330207530646
 31
0.0
  0
LWPOLYLINE
  5
106
330
D5
100
AcDbEntity
  8
AM_9
100
AcDbPolyline
 90
        3
 70
     0
 43
0.0
 10
-1.253193526957719
 20
2.885166666666667
 10
-1.232892448117338
 20
2.883627791204198
 10
-1.212591369276958
 20
2.87933645913602
  0
LWPOLYLINE
  5
107
330
D5
100
AcDbEntity
  8
AM_9
100
AcDbPolyline
 90
        4
 70
     0
 43
0.0
 10
-1.375
 20
2.885166666666667
 10
-1.343849124078049
 20
2.884253410066301
 10
-1.312698248156097
 20
2.881634868230415
 10
-1.293795684638479
 20
2.87933645913602
  0
LWPOLYLINE
  5
108
330
D5
100
AcDbEntity
  8
AM_9
100
AcDbPolyline
 90
        3
 70
     0
 43
0.0
 10
-1.293795684638479
 20
2.87933645913602
 10
-1.273585884915092
 20
2.883614196110488
 10
-1.253193526957719
 20
2.885166666666667
  0
LWPOLYLINE
  5
109
330
D5
100
AcDbEntity
  8
AM_9
100
AcDbPolyline
 90
        3
 70
     0
 43
0.0
 10
-1.375
 20
2.8185
 10
-1.41560215768076
 20
2.820038875462469
 10
-1.456204315361521
 20
2.824330207530646
  0
LINE
  5
10A
330
D5
100
AcDbEntity
  8
AM_9
100
AcDbLine
 10
-1.537408630723042
 20
2.87933645913602
 30
0.0
 11
-1.537408630723042
 21
2.824330207530646
 31
0.0
  0
LWPOLYLINE
  5
10B
330
D5
100
AcDbEntity
  8
AM_9
100
AcDbPolyline
 90
        3
 70
     0
 43
0.0
 10
-1.496806473042281
 20
2.8185
 10
-1.517107551882662
 20
2.820038875462469
 10
-1.537408630723042
 20
2.824330207530646
  0
LWPOLYLINE
  5
10C
330
D5
100
AcDbEntity
  8
AM_9
100
AcDbPolyline
 90
        3
 70
     0
 43
0.0
 10
-1.456204315361521
 20
2.824330207530646
 10
-1.476414115084908
 20
2.820052470556178
 10
-1.496806473042281
 20
2.8185
  0
LINE
  5
10D
330
D5
100
AcDbEntity
  8
AM_9
100
AcDbLine
 10
-1.456204315361521
 20
2.87933645913602
 30
0.0
 11
-1.456204315361521
 21
2.824330207530646
 31
0.0
  0
LWPOLYLINE
  5
10E
330
D5
100
AcDbEntity
  8
AM_9
100
AcDbPolyline
 90
        3
 70
     0
 43
0.0
 10
-1.496806473042281
 20
2.885166666666667
 10
-1.476505394201901
 20
2.883627791204198
 10
-1.456204315361521
 20
2.87933645913602
  0
LWPOLYLINE
  5
10F
330
D5
100
AcDbEntity
  8
AM_9
100
AcDbPolyline
 90
        3
 70
     0
 43
0.0
 10
-1.537408630723042
 20
2.87933645913602
 10
-1.517198830999654
 20
2.883614196110488
 10
-1.496806473042281
 20
2.885166666666667
  0
LINE
  5
110
330
D5
100
AcDbEntity
  8
AM_9
100
AcDbLine
 10
-1.23435
 20
2.885166666666667
 30
0.0
 11
-1.51565
 21
2.885166666666667
 31
0.0
  0
LINE
  5
111
330
D5
100
AcDbEntity
  8
AM_9
100
AcDbLine
 10
-1.265670549420228
 20
2.916487216086895
 30
0.0
 11
-1.484329450579771
 21
2.916487216086895
 31
0.0
  0
LINE
  5
112
330
D5
100
AcDbEntity
  8
AM_9
100
AcDbLine
 10
-1.484329450579771
 20
2.916487216086895
 30
0.0
 11
-1.51565
 21
2.885166666666667
 31
0.0
  0
LINE
  5
113
330
D5
100
AcDbEntity
  8
AM_9
100
AcDbLine
 10
-1.23435
 20
2.885166666666667
 30
0.0
 11
-1.265670549420228
 21
2.916487216086895
 31
0.0
  0
LINE
  5
114
330
D5
100
AcDbEntity
  8
AM_5
100
AcDbLine
 10
-1.480766386187874
 20
2.800179352154371
 30
0.0
 11
-1.475088622703658
 21
2.6185
 31
0.0
  0
LINE
  5
115
330
D5
100
AcDbEntity
  8
AM_5
100
AcDbLine
 10
-1.491343817153277
 20
2.8185
 30
0.0
 11
-1.480766386187874
 21
2.800179352154371
 31
0.0
  0
LINE
  5
116
330
D5
100
AcDbEntity
  8
AM_5
100
AcDbLine
 10
-1.25922873170333
 20
2.800179352154371
 30
0.0
 11
-1.49077126829667
 21
2.800179352154371
 31
0.0
  0
LINE
  5
117
330
D5
100
AcDbEntity
  8
AM_5
100
AcDbLine
 10
-1.269233613812125
 20
2.800179352154371
 30
0.0
 11
-1.274911377296342
 21
2.6185
 31
0.0
  0
LINE
  5
118
330
D5
100
AcDbEntity
  8
AM_5
100
AcDbLine
 10
-1.258656182846723
 20
2.8185
 30
0.0
 11
-1.269233613812125
 21
2.800179352154371
 31
0.0
  0
ENDBLK
  5
D8
330
D5
100
AcDbEntity
  8
0
100
AcDbBlockEnd
  0
BLOCK
  5
11B
330
119
100
AcDbEntity
  8
0
100
AcDbBlockBegin
  2
4_S1U_K_200R_0_in_023220_2
 70
     2
 10
0.0
 20
0.0
 30
0.0
  3
4_S1U_K_200R_0_in_023220_2
  1

  0
ATTDEF
  5
11D
330
119
100
AcDbEntity
  8
AM_6
100
AcDbText
 10
5.146875
 20
3.19075
 30
0.0
 40
0.5
  1
Type K Units - Inch
100
AcDbAttributeDefinition
  3

  2
NN
 70
     8
280
     0
  0
ATTDEF
  5
11E
330
119
100
AcDbEntity
  8
AM_6
100
AcDbText
 10
5.146875
 20
2.69075
 30
0.0
 40
0.5
  1
Type K
100
AcDbAttributeDefinition
  3

  2
NT
 70
     8
280
     0
  0
ATTDEF
  5
11F
330
119
100
AcDbEntity
  8
AM_6
100
AcDbText
 10
5.146875
 20
2.19075
 30
0.0
 40
0.5
  1
S1U-K-200R
100
AcDbAttributeDefinition
  3

  2
NB
 70
     8
280
     0
  0
ATTDEF
  5
120
330
119
100
AcDbEntity
  8
AM_6
100
AcDbText
 10
5.146875
 20
1.69075
 30
0.0
 40
0.5
  1
$PN.
100
AcDbAttributeDefinition
  3

  2
NBSYN
 70
     8
280
     0
  0
ATTDEF
  5
121
330
119
100
AcDbEntity
  8
AM_6
100
AcDbText
 10
5.146875
 20
1.19075
 30
0.0
 40
0.5
  1
S1U-K-200R
100
AcDbAttributeDefinition
  3

  2
LINA
 70
     8
280
     0
  0
ATTDEF
  5
122
330
119
100
AcDbEntity
  8
AM_6
100
AcDbText
 10
5.146875
 20
0.6907500000000004
 30
0.0
 40
0.5
  1
2
100
AcDbAttributeDefinition
  3

  2
SS
 70
     8
280
     0
  0
ATTDEF
  5
123
330
119
100
AcDbEntity
  8
AM_6
100
AcDbText
 10
5.146875
 20
0.1907500000000004
 30
0.0
 40
0.5
  1
2.000000
100
AcDbAttributeDefinition
  3

  2
SS1
 70
     8
280
     0
  0
ATTDEF
  5
124
330
119
100
AcDbEntity
  8
AM_6
100
AcDbText
 10
5.146875
 20
-0.3092499999999996
 30
0.0
 40
0.5
  1
S1U-K-200R
100
AcDbAttributeDefinition
  3

  2
PN
 70
     8
280
     0
  0
ATTDEF
  5
125
330
119
100
AcDbEntity
  8
AM_6
100
AcDbText
 10
5.146875
 20
-0.8092499999999996
 30
0.0
 40
0.5
  1
S1U-K-200R
100
AcDbAttributeDefinition
  3

  2
PNA
 70
     8
280
     0
  0
ATTDEF
  5
126
330
119
100
AcDbEntity
  8
AM_6
100
AcDbText
 10
5.146875
 20
-1.30925
 30
0.0
 40
0.5
  1
7
100
AcDbAttributeDefinition
  3

  2
WEIGHT
 70
     8
280
     0
  0
ATTDEF
  5
127
330
119
100
AcDbEntity
  8
AM_6
100
AcDbText
 10
5.146875
 20
-1.80925
 30
0.0
 40
0.5
  1
2-31/32
100
AcDbAttributeDefinition
  3

  2
A
 70
     8
280
     0
  0
ATTDEF
  5
128
330
119
100
AcDbEntity
  8
AM_6
100
AcDbText
 10
5.146875
 20
-2.30925
 30
0.0
 40
0.5
  1
2.968750
100
AcDbAttributeDefinition
  3

  2
A1
 70
     8
280
     0
  0
ATTDEF
  5
129
330
119
100
AcDbEntity
  8
AM_6
100
AcDbText
 10
5.146875
 20
-2.80925
 30
0.0
 40
0.5
  1
2-7/16
100
AcDbAttributeDefinition
  3

  2
B
 70
     8
280
     0
  0
ATTDEF
  5
12A
330
119
100
AcDbEntity
  8
AM_6
100
AcDbText
 10
5.146875
 20
-3.30925
 30
0.0
 40
0.5
  1
2.437500
100
AcDbAttributeDefinition
  3

  2
B1
 70
     8
280
     0
  0
ATTDEF
  5
12B
330
119
100
AcDbEntity
  8
AM_6
100
AcDbText
 10
5.146875
 20
-3.80925
 30
0.0
 40
0.5
  1
1-1/2
100
AcDbAttributeDefinition
  3

  2
C
 70
     8
280
     0
  0
ATTDEF
  5
12C
330
119
100
AcDbEntity
  8
AM_6
100
AcDbText
 10
5.146875
 20
-4.30925
 30
0.0
 40
0.5
  1
1.500000
100
AcDbAttributeDefinition
  3

  2
C1
 70
     8
280
     0
  0
ATTDEF
  5
12D
330
119
100
AcDbEntity
  8
AM_6
100
AcDbText
 10
5.146875
 20
-4.80925
 30
0.0
 40
0.5
  1
4-1/4
100
AcDbAttributeDefinition
  3

  2
D
 70
     8
280
     0
  0
ATTDEF
  5
12E
330
119
100
AcDbEntity
  8
AM_6
100
AcDbText
 10
5.146875
 20
-5.30925
 30
0.0
 40
0.5
  1
4.250000
100
AcDbAttributeDefinition
  3

  2
D1
 70
     8
280
     0
  0
ATTDEF
  5
12F
330
119
100
AcDbEntity
  8
AM_6
100
AcDbText
 10
5.146875
 20
-5.80925
 30
0.0
 40
0.5
  1
0.450
100
AcDbAttributeDefinition
  3

  2
E
 70
     8
280
     0
  0
ATTDEF
  5
130
330
119
100
AcDbEntity
  8
AM_6
100
AcDbText
 10
5.146875
 20
-6.30925
 30
0.0
 40
0.5
  1
4.125
100
AcDbAttributeDefinition
  3

  2
EM
 70
     8
280
     0
  0
ATTDEF
  5
131
330
119
100
AcDbEntity
  8
AM_6
100
AcDbText
 10
5.146875
 20
-6.80925
 30
0.0
 40
0.5
  1
4.180
100
AcDbAttributeDefinition
  3

  2
EC
 70
     8
280
     0
  0
ATTDEF
  5
132
330
119
100
AcDbEntity
  8
AM_6
100
AcDbText
 10
5.146875
 20
-7.30925
 30
0.0
 40
0.5
  1
11/16
100
AcDbAttributeDefinition
  3

  2
H
 70
     8
280
     0
  0
ATTDEF
  5
133
330
119
100
AcDbEntity
  8
AM_6
100
AcDbText
 10
5.146875
 20
-7.80925
 30
0.0
 40
0.5
  1
0.687500
100
AcDbAttributeDefinition
  3

  2
H1
 70
     8
280
     0
  0
ATTDEF
  5
134
330
119
100
AcDbEntity
  8
AM_6
100
AcDbText
 10
5.146875
 20
-8.309249999999999
 30
0.0
 40
0.5
  1
3
100
AcDbAttributeDefinition
  3

  2
J
 70
     8
280
     0
  0
ATTDEF
  5
135
330
119
100
AcDbEntity
  8
AM_6
100
AcDbText
 10
5.146875
 20
-8.809249999999999
 30
0.0
 40
0.5
  1
3.000000
100
AcDbAttributeDefinition
  3

  2
J1
 70
     8
280
     0
  0
ATTDEF
  5
136
330
119
100
AcDbEntity
  8
AM_6
100
AcDbText
 10
5.146875
 20
-9.309249999999999
 30
0.0
 40
0.5
  1
4.562
100
AcDbAttributeDefinition
  3

  2
K
 70
     8
280
     0
  0
ATTDEF
  5
137
330
119
100
AcDbEntity
  8
AM_6
100
AcDbText
 10
5.146875
 20
-9.809249999999999
 30
0.0
 40
0.5
  1
3-7/16
100
AcDbAttributeDefinition
  3

  2
L
 70
     8
280
     0
  0
ATTDEF
  5
138
330
119
100
AcDbEntity
  8
AM_6
100
AcDbText
 10
5.146875
 20
-10.30925
 30
0.0
 40
0.5
  1
3.437500
100
AcDbAttributeDefinition
  3

  2
L1
 70
     8
280
     0
  0
ATTDEF
  5
139
330
119
100
AcDbEntity
  8
AM_6
100
AcDbText
 10
5.146875
 20
-10.80925
 30
0.0
 40
0.5
  1
3-1/16
100
AcDbAttributeDefinition
  3

  2
M
 70
     8
280
     0
  0
ATTDEF
  5
13A
330
119
100
AcDbEntity
  8
AM_6
100
AcDbText
 10
5.146875
 20
-11.30925
 30
0.0
 40
0.5
  1
3.062500
100
AcDbAttributeDefinition
  3

  2
M1
 70
     8
280
     0
  0
ATTDEF
  5
13B
330
119
100
AcDbEntity
  8
AM_6
100
AcDbText
 10
5.146875
 20
-11.80925
 30
0.0
 40
0.5
  1
1-13/64
100
AcDbAttributeDefinition
  3

  2
R
 70
     8
280
     0
  0
ATTDEF
  5
13C
330
119
100
AcDbEntity
  8
AM_6
100
AcDbText
 10
5.146875
 20
-12.30925
 30
0.0
 40
0.5
  1
1.203125
100
AcDbAttributeDefinition
  3

  2
R1
 70
     8
280
     0
  0
ATTDEF
  5
13D
330
119
100
AcDbEntity
  8
AM_6
100
AcDbText
 10
5.146875
 20
-12.80925
 30
0.0
 40
0.5
  1
1-3/4
100
AcDbAttributeDefinition
  3

  2
S
 70
     8
280
     0
  0
ATTDEF
  5
13E
330
119
100
AcDbEntity
  8
AM_6
100
AcDbText
 10
5.146875
 20
-13.30925
 30
0.0
 40
0.5
  1
1.750000
100
AcDbAttributeDefinition
  3

  2
S1
 70
     8
280
     0
  0
ATTDEF
  5
13F
330
119
100
AcDbEntity
  8
AM_6
100
AcDbText
 10
5.146875
 20
-13.80925
 30
0.0
 40
0.5
  1
2.3100
100
AcDbAttributeDefinition
  3

  2
CC
 70
     8
280
     0
  0
ATTDEF
  5
140
330
119
100
AcDbEntity
  8
AM_6
100
AcDbText
 10
5.146875
 20
-14.30925
 30
0.0
 40
0.5
  1
baldor
100
AcDbAttributeDefinition
  3

  2
COMPANY
 70
     8
280
     0
  0
LINE
  5
141
330
119
100
AcDbEntity
  8
AM_9
100
AcDbLine
 10
-2.975
 20
1.155
 30
0.0
 11
-2.975
 21
1.0
 31
0.0
  0
LINE
  5
142
330
119
100
AcDbEntity
  8
AM_9
100
AcDbLine
 10
-2.525
 20
1.0
 30
0.0
 11
-2.525
 21
1.155
 31
0.0
  0
LINE
  5
143
330
119
100
AcDbEntity
  8
AM_9
100
AcDbLine
 10
-1.069683630845856
 20
2.8185
 30
0.0
 11
-1.680316368924566
 21
2.8185
 31
0.0
  0
ARC
  5
144
330
119
100
AcDbEntity
  8
AM_9
100
AcDbCircle
 10
-1.680316369154144
 20
2.7735
 30
0.0
 40
0.0449999999999995
100
AcDbArc
 50
90.0
 51
171.0000000000007
  0
ARC
  5
145
330
119
100
AcDbEntity
  8
AM_9
100
AcDbCircle
 10
-1.069683630845857
 20
2.773499999999999
 30
0.0
 40
0.045000000000001
100
AcDbArc
 50
9.000000000000716
 51
90.0
  0
LINE
  5
146
330
119
100
AcDbEntity
  8
AM_9
100
AcDbLine
 10
-1.025237655519075
 20
2.78053955092681
 30
0.0
 11
-1.724762344480925
 21
2.78053955092681
 31
0.0
  0
LINE
  5
147
330
119
100
AcDbEntity
  8
AM_9
100
AcDbLine
 10
-1.724762344480925
 20
2.78053955092681
 30
0.0
 11
-1.80481745348101
 21
2.275091485220045
 31
0.0
  0
LINE
  5
148
330
119
100
AcDbEntity
  8
AM_9
100
AcDbLine
 10
-0.928052847847172
 20
2.166938824284931
 30
0.0
 11
-1.025237655519075
 21
2.78053955092681
 31
0.0
  0
LINE
  5
149
330
119
100
AcDbEntity
  8
AM_9
100
AcDbLine
 10
-3.125
 20
-1.0
 30
0.0
 11
-0.15625
 21
-1.0
 31
0.0
  0
LINE
  5
14A
330
119
100
AcDbEntity
  8
AM_9
100
AcDbLine
 10
-0.15625
 20
1.0
 30
0.0
 11
-2.525
 21
1.0
 31
0.0
  0
LINE
  5
14B
330
119
100
AcDbEntity
  8
AM_9
100
AcDbLine
 10
-2.975
 20
0.9999999999999999
 30
0.0
 11
-3.125
 21
1.0
 31
0.0
  0
LWPOLYLINE
  5
14C
330
119
100
AcDbEntity
  8
AM_9
100
AcDbPolyline
 90
       21
 70
     0
 43
0.0
 10
-2.974999999996754
 20
0.9999999999992698
 10
-2.974867500319723
 20
0.9999701959058782
 10
-2.970362295105276
 20
0.9989667367355456
 10
-2.960135661062718
 20
0.9967607516602294
 10
-2.943914495763633
 20
0.9934675795753298
 10
-2.922683729614592
 20
0.9895426572278757
 10
-2.896058359105881
 20
0.9852451696226188
 10
-2.865563909908607
 20
0.9811880641718818
 10
-2.830758640778848
 20
0.977699830244665
 10
-2.794806491907391
 20
0.9753884465775916
 10
-2.756412072290611
 20
0.974379861589442
 10
-2.719796255790904
 20
0.9748267877752685
 10
-2.682993773600248
 20
0.9766600403294562
 10
-2.649200336522699
 20
0.9795588661010306
 10
-2.617287599595305
 20
0.9833552670429828
 10
-2.58923417779023
 20
0.9875326068494059
 10
-2.564949108949069
 20
0.9917755957265452
 10
-2.546204593398206
 20
0.9954434025859986
 10
-2.532842749806518
 20
0.9982646299011072
 10
-2.527007276868453
 20
0.9995502761590447
 10
-2.525
 20
1.0
  0
LWPOLYLINE
  5
14D
330
119
100
AcDbEntity
  8
AM_9
100
AcDbPolyline
 90
       11
 70
     0
 43
0.0
 10
-2.75
 20
0.2078625548569352
 10
-2.713299706172223
 20
0.210885546575438
 10
-2.676599412344446
 20
0.2201852925326264
 10
-2.643003552434892
 20
0.2348705575916515
 10
-2.611492132779548
 20
0.2552196575372574
 10
-2.584185376061295
 20
0.2798641822706385
 10
-2.560822213331576
 20
0.3090774397366572
 10
-2.543164818406701
 20
0.3406880021043432
 10
-2.531013339265875
 20
0.3752243298627344
 10
-2.525496142037375
 20
0.409036533084438
 10
-2.525000000474759
 20
0.4226050146586804
  0
LINE
  5
14E
330
119
100
AcDbEntity
  8
AM_9
100
AcDbLine
 10
-2.975
 20
0.488098052705873
 30
0.0
 11
-2.975
 21
0.4225771247544126
 31
0.0
  0
LINE
  5
14F
330
119
100
AcDbEntity
  8
AM_9
100
AcDbLine
 10
-2.525
 20
0.4225446084850729
 30
0.0
 11
-2.525
 21
0.4880614050479837
 31
0.0
  0
LWPOLYLINE
  5
150
330
119
100
AcDbEntity
  8
AM_9
100
AcDbPolyline
 90
        3
 70
     0
 43
0.0
 10
-2.972206407597211
 20
0.4543881932401616
 10
-2.974906981880343
 20
0.4284724314501296
 10
-2.974999998822025
 20
0.4226391281500081
  0
LWPOLYLINE
  5
151
330
119
100
AcDbEntity
  8
AM_9
100
AcDbPolyline
 90
        7
 70
     0
 43
0.0
 10
-2.874490489127074
 20
0.5849915148941731
 10
-2.894198452787659
 20
0.5728032531880646
 10
-2.921114718202248
 20
0.5504937429993592
 10
-2.943034571587889
 20
0.5245515277658103
 10
-2.959999794330816
 20
0.4944469314016766
 10
-2.970486282815222
 20
0.4628337421497483
 10
-2.972206407597211
 20
0.4543881932401616
  0
LWPOLYLINE
  5
152
330
119
100
AcDbEntity
  8
AM_9
100
AcDbPolyline
 90
        3
 70
     0
 43
0.0
 10
-2.709294323162035
 20
0.6126953530106222
 10
-2.720906958045541
 20
0.6141727181012643
 10
-2.745679612199666
 20
0.6156675104330088
  0
LWPOLYLINE
  5
153
330
119
100
AcDbEntity
  8
AM_9
100
AcDbPolyline
 90
        5
 70
     0
 43
0.0
 10
-2.593372348101819
 20
0.5634664228319242
 10
-2.615459919497015
 20
0.5791360344688788
 10
-2.648174963833442
 20
0.5958664462746349
 10
-2.683001197729312
 20
0.6074229911035093
 10
-2.709294323162035
 20
0.6126953530106222
  0
LWPOLYLINE
  5
154
330
119
100
AcDbEntity
  8
AM_9
100
AcDbPolyline
 90
        4
 70
     0
 43
0.0
 10
-2.562333407770763
 20
0.5318428036776698
 10
-2.563810284464177
 20
0.5337232556969452
 10
-2.587458265582116
 20
0.5584756596641247
 10
-2.593372348101819
 20
0.5634664228319242
  0
LWPOLYLINE
  5
155
330
119
100
AcDbEntity
  8
AM_9
100
AcDbPolyline
 90
        4
 70
     0
 43
0.0
 10
-2.527989287428536
 20
0.4554655840720372
 10
-2.532932416587011
 20
0.4755455343174633
 10
-2.545770559797547
 20
0.5063046902042831
 10
-2.562333407770763
 20
0.5318428036776698
  0
LWPOLYLINE
  5
156
330
119
100
AcDbEntity
  8
AM_9
100
AcDbPolyline
 90
        3
 70
     0
 43
0.0
 10
-2.525000000474759
 20
0.4226050146586804
 10
-2.526214460154351
 20
0.4436616682674229
 10
-2.527989287428536
 20
0.4554655840720372
  0
LWPOLYLINE
  5
157
330
119
100
AcDbEntity
  8
AM_9
100
AcDbPolyline
 90
       11
 70
     0
 43
0.0
 10
-2.974999998822025
 20
0.4226391281500081
 10
-2.972967858591329
 20
0.3950809710269098
 10
-2.964792687643887
 20
0.3609452995620006
 10
-2.951143385865545
 20
0.3290830951850683
 10
-2.931649819779339
 20
0.2985445797978573
 10
-2.907371282961202
 20
0.2713764400824042
 10
-2.877953906618429
 20
0.2475822513033535
 10
-2.845318620710474
 20
0.2290310496190805
 10
-2.808852908694317
 20
0.2157125009745557
 10
-2.779970287163603
 20
0.2098744283231526
 10
-2.75
 20
0.2078625548569352
  0
LWPOLYLINE
  5
158
330
119
100
AcDbEntity
  8
AM_9
100
AcDbPolyline
 90
        4
 70
     0
 43
0.0
 10
-2.962889081964455
 20
0.5531532496511739
 10
-2.97100984576664
 20
0.5259134177735999
 10
-2.974959658137634
 20
0.4919821329129138
 10
-2.974999999064344
 20
0.4881426891113204
  0
LWPOLYLINE
  5
159
330
119
100
AcDbEntity
  8
AM_9
100
AcDbPolyline
 90
        4
 70
     0
 43
0.0
 10
-2.923333277867076
 20
0.6143625009331515
 10
-2.944496711684645
 20
0.588257293588668
 10
-2.960814590618602
 20
0.5582520149085232
 10
-2.962889081964455
 20
0.5531532496511739
  0
LWPOLYLINE
  5
15A
330
119
100
AcDbEntity
  8
AM_9
100
AcDbPolyline
 90
       10
 70
     0
 43
0.0
 10
-2.669217988518802
 20
0.6703113101635189
 10
-2.684946921554362
 20
0.6747521872533869
 10
-2.722259423027717
 20
0.6812795557696311
 10
-2.759781024016529
 20
0.6824994811263592
 10
-2.797022675932335
 20
0.6786011181109584
 10
-2.832587563330523
 20
0.6697107635997158
 10
-2.865868815681336
 20
0.6560712278181953
 10
-2.896293076447996
 20
0.6376564345968522
 10
-2.922666094194792
 20
0.6150470875414309
 10
-2.923333277867076
 20
0.6143625009331515
  0
LWPOLYLINE
  5
15B
330
119
100
AcDbEntity
  8
AM_9
100
AcDbPolyline
 90
        4
 70
     0
 43
0.0
 10
-2.593413753997052
 20
0.6297590305349756
 10
-2.617135618053337
 20
0.6466005291394771
 10
-2.64953773273676
 20
0.6631151513315349
 10
-2.669217988518802
 20
0.6703113101635189
  0
LWPOLYLINE
  5
15C
330
119
100
AcDbEntity
  8
AM_9
100
AcDbPolyline
 90
        4
 70
     0
 43
0.0
 10
-2.562200339974641
 20
0.597616607029694
 10
-2.564856592117526
 20
0.6009673911103868
 10
-2.588511855797327
 20
0.6256067998894769
 10
-2.593413753997052
 20
0.6297590305349756
  0
LWPOLYLINE
  5
15D
330
119
100
AcDbEntity
  8
AM_9
100
AcDbPolyline
 90
        5
 70
     0
 43
0.0
 10
-2.525000000625065
 20
0.4881088922158783
 10
-2.526285481564317
 20
0.5097853072771509
 10
-2.53332954053907
 20
0.5423469984482059
 10
-2.546244296591577
 20
0.5729519615972988
 10
-2.562200339974641
 20
0.597616607029694
  0
LWPOLYLINE
  5
15E
330
119
100
AcDbEntity
  8
AM_9
100
AcDbPolyline
 90
       10
 70
     0
 43
0.0
 10
-2.965028944627079
 20
0.4272881564947798
 10
-2.964028420533357
 20
0.4243411843009046
 10
-2.949641701416642
 20
0.3921427362558639
 10
-2.929859791061159
 20
0.3622482395577043
 10
-2.904742267802759
 20
0.3352094681719483
 10
-2.875302628426597
 20
0.3123211861006335
 10
-2.841940833811555
 20
0.2942551604607019
 10
-2.805903124180134
 20
0.2818302824414142
 10
-2.778180252505343
 20
0.276615137656665
 10
-2.75
 20
0.274853335753764
  0
LWPOLYLINE
  5
15F
330
119
100
AcDbEntity
  8
AM_9
100
AcDbPolyline
 90
        3
 70
     0
 43
0.0
 10
-2.974999999064344
 20
0.4881426891113204
 10
-2.972538194649552
 20
0.4579780561906123
 10
-2.965028944627079
 20
0.4272881564947798
  0
LINE
  5
160
330
119
100
AcDbEntity
  8
AM_9
100
AcDbLine
 10
-2.963530057343069
 20
1.152820491398784
 30
0.0
 11
-2.974999999998231
 21
1.154999999999655
 31
0.0
  0
LWPOLYLINE
  5
161
330
119
100
AcDbEntity
  8
AM_9
100
AcDbPolyline
 90
       14
 70
     0
 43
0.0
 10
-2.593425960768679
 20
1.143641302927282
 10
-2.598455948272568
 20
1.142963516309233
 10
-2.628848508074115
 20
1.13933212190119
 10
-2.662084880244398
 20
1.136278605044397
 10
-2.698922589228487
 20
1.134023325108934
 10
-2.735727586808297
 20
1.132962356734907
 10
-2.774046208431192
 20
1.13312762747182
 10
-2.810077381410194
 20
1.134464319296604
 10
-2.845420611818149
 20
1.136883940057097
 10
-2.877379729930785
 20
1.140011226083866
 10
-2.906644763031962
 20
1.143650987751657
 10
-2.931234371367265
 20
1.147277602572668
 10
-2.951319519883552
 20
1.150621375208258
 10
-2.963128979308777
 20
1.152746269489171
  0
LINE
  5
162
330
119
100
AcDbEntity
  8
AM_9
100
AcDbLine
 10
-2.561835964462241
 20
1.148392661187738
 30
0.0
 11
-2.593425960768679
 21
1.143641302927282
 31
0.0
  0
LWPOLYLINE
  5
163
330
119
100
AcDbEntity
  8
AM_9
100
AcDbPolyline
 90
        5
 70
     0
 43
0.0
 10
-2.525
 20
1.155
 10
-2.528037053716258
 20
1.154412209534774
 10
-2.537408377183302
 20
1.152647039683804
 10
-2.552299089095248
 20
1.149993760927671
 10
-2.561835964462241
 20
1.148392661187738
  0
LWPOLYLINE
  5
164
330
119
100
AcDbEntity
  8
AM_9
100
AcDbPolyline
 90
        6
 70
     0
 43
0.0
 10
-2.562280431094052
 20
0.3728809360257069
 10
-2.560411785955476
 20
0.3756165930065114
 10
-2.54269627708512
 20
0.4075057339509062
 10
-2.530878657276569
 20
0.4413371799754571
 10
-2.525443748258816
 20
0.4756347900654985
 10
-2.525000000625065
 20
0.4881088922158783
  0
LWPOLYLINE
  5
165
330
119
100
AcDbEntity
  8
AM_9
100
AcDbPolyline
 90
        3
 70
     0
 43
0.0
 10
-2.593221621640175
 20
0.3370698633913358
 10
-2.583366018041699
 20
0.3469293474126643
 10
-2.562280431094052
 20
0.3728809360257069
  0
LWPOLYLINE
  5
166
330
119
100
AcDbEntity
  8
AM_9
100
AcDbPolyline
 90
        6
 70
     0
 43
0.0
 10
-2.75
 20
0.274853335753764
 10
-2.712632694779448
 20
0.2779703081320717
 10
-2.676328570539554
 20
0.2871054873678807
 10
-2.64215391601881
 20
0.3019928111340789
 10
-2.610975551930869
 20
0.3220291841491442
 10
-2.593221621640175
 20
0.3370698633913358
  0
LINE
  5
167
330
119
100
AcDbEntity
  8
AM_9
100
AcDbLine
 10
-3.125
 20
-1.155
 30
0.0
 11
-2.375
 21
-1.155
 31
0.0
  0
LINE
  5
168
330
119
100
AcDbEntity
  8
AM_9
100
AcDbLine
 10
-2.375
 20
1.155
 30
0.0
 11
-2.525
 21
1.155
 31
0.0
  0
LINE
  5
169
330
119
100
AcDbEntity
  8
AM_9
100
AcDbLine
 10
-2.975
 20
1.155
 30
0.0
 11
-3.125
 21
1.155
 31
0.0
  0
LINE
  5
16A
330
119
100
AcDbEntity
  8
AM_9
100
AcDbLine
 10
-0.15625
 20
1.432291666666666
 30
0.0
 11
-0.6406249999999998
 21
1.432291666666667
 31
0.0
  0
LINE
  5
16B
330
119
100
AcDbEntity
  8
AM_9
100
AcDbLine
 10
-0.6406250000000001
 20
-1.432291666666667
 30
0.0
 11
-0.15625
 21
-1.432291666666667
 31
0.0
  0
LINE
  5
16C
330
119
100
AcDbEntity
  8
AM_9
100
AcDbLine
 10
-2.375
 20
1.762820512820513
 30
0.0
 11
-2.59375
 21
1.80139203985049
 31
0.0
  0
LINE
  5
16D
330
119
100
AcDbEntity
  8
AM_9
100
AcDbLine
 10
-2.59375
 20
-1.80139203985049
 30
0.0
 11
-2.375
 21
-1.762820512820513
 31
0.0
  0
LINE
  5
16E
330
119
100
AcDbEntity
  8
AM_9
100
AcDbLine
 10
-2.375
 20
1.762820512820513
 30
0.0
 11
-2.375
 21
-1.762820512820513
 31
0.0
  0
LINE
  5
16F
330
119
100
AcDbEntity
  8
AM_9
100
AcDbLine
 10
-0.6406250000000002
 20
-1.762820512820513
 30
0.0
 11
-0.6406249999999997
 21
1.762820512820513
 31
0.0
  0
LINE
  5
170
330
119
100
AcDbEntity
  8
AM_9
100
AcDbLine
 10
-0.6406250000000002
 20
-1.762820512820513
 30
0.0
 11
-0.15625
 21
-1.848228894101175
 31
0.0
  0
LINE
  5
171
330
119
100
AcDbEntity
  8
AM_9
100
AcDbLine
 10
-0.15625
 20
1.848228894101175
 30
0.0
 11
-0.6406249999999997
 21
1.762820512820513
 31
0.0
  0
LINE
  5
172
330
119
100
AcDbEntity
  8
AM_9
100
AcDbLine
 10
-2.544270833333333
 20
-2.0625
 30
0.0
 11
-2.125
 21
-2.0625
 31
0.0
  0
LINE
  5
173
330
119
100
AcDbEntity
  8
AM_9
100
AcDbLine
 10
-2.125
 20
2.0625
 30
0.0
 11
-2.544270833333333
 21
2.0625
 31
0.0
  0
ARC
  5
174
330
119
100
AcDbEntity
  8
AM_9
100
AcDbCircle
 10
-2.54427083333333
 20
-2.013020833333313
 30
0.0
 40
0.0494791666666874
100
AcDbArc
 50
248.3817275778472
 51
270.0
  0
ARC
  5
175
330
119
100
AcDbEntity
  8
AM_9
100
AcDbCircle
 10
-2.54427083333333
 20
2.013020833333313
 30
0.0
 40
0.0494791666666874
100
AcDbArc
 50
90.0
 51
111.6182724221529
  0
LINE
  5
176
330
119
100
AcDbEntity
  8
AM_9
100
AcDbLine
 10
-2.544270833333333
 20
2.0625
 30
0.0
 11
-2.544270833333333
 21
-2.0625
 31
0.0
  0
LINE
  5
177
330
119
100
AcDbEntity
  8
AM_9
100
AcDbLine
 10
-0.15625
 20
2.040520833333334
 30
0.0
 11
-0.15625
 21
-2.040520833333334
 31
0.0
  0
ARC
  5
178
330
119
100
AcDbEntity
  8
AM_9
100
AcDbCircle
 10
-0.2057291666666666
 20
-2.040520833333333
 30
0.0
 40
0.0494791666666665
100
AcDbArc
 50
270.0
 51
0.0
  0
ARC
  5
179
330
119
100
AcDbEntity
  8
AM_9
100
AcDbCircle
 10
-0.2057291666666666
 20
2.040520833333333
 30
0.0
 40
0.0494791666666666
100
AcDbArc
 50
0.0
 51
90.0
  0
LINE
  5
17A
330
119
100
AcDbEntity
  8
AM_9
100
AcDbLine
 10
-0.625
 20
-2.09
 30
0.0
 11
-0.2057291666666665
 21
-2.09
 31
0.0
  0
LINE
  5
17B
330
119
100
AcDbEntity
  8
AM_9
100
AcDbLine
 10
-0.2057291666666665
 20
2.09
 30
0.0
 11
-0.625
 21
2.09
 31
0.0
  0
LINE
  5
17C
330
119
100
AcDbEntity
  8
AM_9
100
AcDbLine
 10
-0.625
 20
2.09
 30
0.0
 11
-0.625
 21
-2.09
 31
0.0
  0
LINE
  5
17D
330
119
100
AcDbEntity
  8
AM_9
100
AcDbLine
 10
-0.2057291666666665
 20
2.09
 30
0.0
 11
-0.2057291666666665
 21
-2.09
 31
0.0
  0
ARC
  5
17E
330
119
100
AcDbEntity
  8
AM_9
100
AcDbCircle
 10
-1.64062499999951
 20
0.0000000000011813
 30
0.0
 40
2.280999999998724
100
AcDbArc
 50
63.56039168292354
 51
71.80520689736572
  0
ARC
  5
17F
330
119
100
AcDbEntity
  8
AM_9
100
AcDbCircle
 10
-1.640625000000209
 20
0.0000000000014357
 30
0.0
 40
2.280999999998552
100
AcDbArc
 50
94.12214483239508
 51
102.2602234299028
  0
ARC
  5
180
330
119
100
AcDbEntity
  8
AM_9
100
AcDbCircle
 10
-1.640625000005914
 20
0.0000000000475544
 30
0.0
 40
2.281000000045219
100
AcDbArc
 50
257.7397765704986
 51
296.4396083166754
  0
LINE
  5
181
330
119
100
AcDbEntity
  8
AM_9
100
AcDbLine
 10
-2.125
 20
2.228977761076812
 30
0.0
 11
-2.125
 21
-2.228977761076818
 31
0.0
  0
LINE
  5
182
330
119
100
AcDbEntity
  8
AM_9
100
AcDbLine
 10
-0.9280365800956767
 20
2.166836113742334
 30
0.0
 11
-1.804818841754864
 21
2.275082719883699
 31
0.0
  0
LINE
  5
183
330
119
100
AcDbEntity
  8
AM_7
100
AcDbLine
 10
-3.2734375
 20
0.0
 30
0.0
 11
0.146875
 21
-0.0000000000000002
 31
0.0
  0
LINE
  5
184
330
119
100
AcDbEntity
  8
AM_7
100
AcDbLine
 10
-2.75
 20
-0.0859375
 30
0.0
 11
-2.75
 21
1.8046875
 31
0.0
  0
LINE
  5
185
330
119
100
AcDbEntity
  8
AM_7
100
AcDbLine
 10
-1.375
 20
3.19075
 30
0.0
 11
-1.375
 21
2.096625
 31
0.0
  0
LWPOLYLINE
  5
186
330
119
100
AcDbEntity
  8
AM_4
100
AcDbPolyline
 90
        6
 70
     0
 43
0.0
 10
-2.745679612199666
 20
0.6156675104330088
 10
-2.757766692721926
 20
0.6155926159516061
 10
-2.795486331318175
 20
0.6119390369442121
 10
-2.830419642058028
 20
0.6036310568806089
 10
-2.864068078977668
 20
0.5903650972849256
 10
-2.874490489127074
 20
0.5849915148941731
  0
LINE
  5
187
330
119
100
AcDbEntity
  8
AM_4
100
AcDbLine
 10
-2.59375
 20
2.013020833333334
 30
0.0
 11
-2.59375
 21
-2.013020833333334
 31
0.0
  0
ARC
  5
188
330
119
100
AcDbEntity
  8
AM_4
100
AcDbCircle
 10
-2.544270833333332
 20
-2.013020833333333
 30
0.0
 40
0.0494791666666683
100
AcDbArc
 50
180.0
 51
248.3817275778406
  0
ARC
  5
189
330
119
100
AcDbEntity
  8
AM_4
100
AcDbCircle
 10
-2.544270833333332
 20
2.013020833333333
 30
0.0
 40
0.0494791666666682
100
AcDbArc
 50
111.6182724221595
 51
180.0
  0
ENDBLK
  5
11C
330
119
100
AcDbEntity
  8
0
100
AcDbBlockEnd
  0
BLOCK
  5
18C
330
18A
100
AcDbEntity
  8
0
100
AcDbBlockBegin
  2
5_F4B_K_200R_0_in_023220_2
 70
     2
 10
0.0
 20
0.0
 30
0.0
  3
5_F4B_K_200R_0_in_023220_2
  1

  0
ATTDEF
  5
18E
330
18A
100
AcDbEntity
  8
AM_6
100
AcDbText
 10
5.028125
 20
4.8125
 30
0.0
 40
0.5
  1
Flange Bearing -Body -  Non-Expansion - Inch
100
AcDbAttributeDefinition
  3

  2
NN
 70
     8
280
     0
  0
ATTDEF
  5
18F
330
18A
100
AcDbEntity
  8
AM_6
100
AcDbText
 10
5.028125
 20
4.3125
 30
0.0
 40
0.5
  1
Type K
100
AcDbAttributeDefinition
  3

  2
NT
 70
     8
280
     0
  0
ATTDEF
  5
190
330
18A
100
AcDbEntity
  8
AM_6
100
AcDbText
 10
5.028125
 20
3.8125
 30
0.0
 40
0.5
  1
F4B-K-200R
100
AcDbAttributeDefinition
  3

  2
NB
 70
     8
280
     0
  0
ATTDEF
  5
191
330
18A
100
AcDbEntity
  8
AM_6
100
AcDbText
 10
5.028125
 20
3.3125
 30
0.0
 40
0.5
  1
$PN.
100
AcDbAttributeDefinition
  3

  2
NBSYN
 70
     8
280
     0
  0
ATTDEF
  5
192
330
18A
100
AcDbEntity
  8
AM_6
100
AcDbText
 10
5.028125
 20
2.8125
 30
0.0
 40
0.5
  1
F4B-K-200R
100
AcDbAttributeDefinition
  3

  2
LINA
 70
     8
280
     0
  0
ATTDEF
  5
193
330
18A
100
AcDbEntity
  8
AM_6
100
AcDbText
 10
5.028125
 20
2.3125
 30
0.0
 40
0.5
  1
2
100
AcDbAttributeDefinition
  3

  2
SS
 70
     8
280
     0
  0
ATTDEF
  5
194
330
18A
100
AcDbEntity
  8
AM_6
100
AcDbText
 10
5.028125
 20
1.8125
 30
0.0
 40
0.5
  1
2.000000
100
AcDbAttributeDefinition
  3

  2
SS1
 70
     8
280
     0
  0
ATTDEF
  5
195
330
18A
100
AcDbEntity
  8
AM_6
100
AcDbText
 10
5.028125
 20
1.3125
 30
0.0
 40
0.5
  1
F4B-K-200R
100
AcDbAttributeDefinition
  3

  2
PN
 70
     8
280
     0
  0
ATTDEF
  5
196
330
18A
100
AcDbEntity
  8
AM_6
100
AcDbText
 10
5.028125
 20
0.8125
 30
0.0
 40
0.5
  1
F4B-K-200R
100
AcDbAttributeDefinition
  3

  2
PNA
 70
     8
280
     0
  0
ATTDEF
  5
197
330
18A
100
AcDbEntity
  8
AM_6
100
AcDbText
 10
5.028125
 20
0.3125
 30
0.0
 40
0.5
  1
14
100
AcDbAttributeDefinition
  3

  2
WEIGHT
 70
     8
280
     0
  0
ATTDEF
  5
198
330
18A
100
AcDbEntity
  8
AM_6
100
AcDbText
 10
5.028125
 20
-0.1875
 30
0.0
 40
0.5
  1
4.125000
100
AcDbAttributeDefinition
  3

  2
BOD
 70
     8
280
     0
  0
ATTDEF
  5
199
330
18A
100
AcDbEntity
  8
AM_6
100
AcDbText
 10
5.028125
 20
-0.6875
 30
0.0
 40
0.5
  1
3-1/8
100
AcDbAttributeDefinition
  3

  2
A
 70
     8
280
     0
  0
ATTDEF
  5
19A
330
18A
100
AcDbEntity
  8
AM_6
100
AcDbText
 10
5.028125
 20
-1.1875
 30
0.0
 40
0.5
  1
3.125000
100
AcDbAttributeDefinition
  3

  2
A1
 70
     8
280
     0
  0
ATTDEF
  5
19B
330
18A
100
AcDbEntity
  8
AM_6
100
AcDbText
 10
5.028125
 20
-1.6875
 30
0.0
 40
0.5
  1
6-7/8
100
AcDbAttributeDefinition
  3

  2
B
 70
     8
280
     0
  0
ATTDEF
  5
19C
330
18A
100
AcDbEntity
  8
AM_6
100
AcDbText
 10
5.028125
 20
-2.1875
 30
0.0
 40
0.5
  1
6.875000
100
AcDbAttributeDefinition
  3

  2
B1
 70
     8
280
     0
  0
ATTDEF
  5
19D
330
18A
100
AcDbEntity
  8
AM_6
100
AcDbText
 10
5.028125
 20
-2.6875
 30
0.0
 40
0.5
  1
2-9/16
100
AcDbAttributeDefinition
  3

  2
C
 70
     8
280
     0
  0
ATTDEF
  5
19E
330
18A
100
AcDbEntity
  8
AM_6
100
AcDbText
 10
5.028125
 20
-3.1875
 30
0.0
 40
0.5
  1
2.562500
100
AcDbAttributeDefinition
  3

  2
C1
 70
     8
280
     0
  0
ATTDEF
  5
19F
330
18A
100
AcDbEntity
  8
AM_6
100
AcDbText
 10
5.028125
 20
-3.6875
 30
0.0
 40
0.5
  1
5-5/16
100
AcDbAttributeDefinition
  3

  2
D
 70
     8
280
     0
  0
ATTDEF
  5
1A0
330
18A
100
AcDbEntity
  8
AM_6
100
AcDbText
 10
5.028125
 20
-4.1875
 30
0.0
 40
0.5
  1
5.312500
100
AcDbAttributeDefinition
  3

  2
D1
 70
     8
280
     0
  0
ATTDEF
  5
1A1
330
18A
100
AcDbEntity
  8
AM_6
100
AcDbText
 10
5.028125
 20
-4.6875
 30
0.0
 40
0.5
  1
5/32
100
AcDbAttributeDefinition
  3

  2
E
 70
     8
280
     0
  0
ATTDEF
  5
1A2
330
18A
100
AcDbEntity
  8
AM_6
100
AcDbText
 10
5.028125
 20
-5.1875
 30
0.0
 40
0.5
  1
0.156250
100
AcDbAttributeDefinition
  3

  2
E1
 70
     8
280
     0
  0
ATTDEF
  5
1A3
330
18A
100
AcDbEntity
  8
AM_6
100
AcDbText
 10
5.028125
 20
-5.6875
 30
0.0
 40
0.5
  1
5/8
100
AcDbAttributeDefinition
  3

  2
F
 70
     8
280
     0
  0
ATTDEF
  5
1A4
330
18A
100
AcDbEntity
  8
AM_6
100
AcDbText
 10
5.028125
 20
-6.1875
 30
0.0
 40
0.5
  1
0.625000
100
AcDbAttributeDefinition
  3

  2
F1
 70
     8
280
     0
  0
ATTDEF
  5
1A5
330
18A
100
AcDbEntity
  8
AM_6
100
AcDbText
 10
5.028125
 20
-6.6875
 30
0.0
 40
0.5
  1
7-1/4
100
AcDbAttributeDefinition
  3

  2
G
 70
     8
280
     0
  0
ATTDEF
  5
1A6
330
18A
100
AcDbEntity
  8
AM_6
100
AcDbText
 10
5.028125
 20
-7.1875
 30
0.0
 40
0.5
  1
7.250000
100
AcDbAttributeDefinition
  3

  2
G1
 70
     8
280
     0
  0
ATTDEF
  5
1A7
330
18A
100
AcDbEntity
  8
AM_6
100
AcDbText
 10
5.028125
 20
-7.6875
 30
0.0
 40
0.5
  1
9/16
100
AcDbAttributeDefinition
  3

  2
H
 70
     8
280
     0
  0
ATTDEF
  5
1A8
330
18A
100
AcDbEntity
  8
AM_6
100
AcDbText
 10
5.028125
 20
-8.1875
 30
0.0
 40
0.5
  1
0.562500
100
AcDbAttributeDefinition
  3

  2
H1
 70
     8
280
     0
  0
ATTDEF
  5
1A9
330
18A
100
AcDbEntity
  8
AM_6
100
AcDbText
 10
5.028125
 20
-8.6875
 30
0.0
 40
0.5
  1
5-5/16
100
AcDbAttributeDefinition
  3

  2
J
 70
     8
280
     0
  0
ATTDEF
  5
1AA
330
18A
100
AcDbEntity
  8
AM_6
100
AcDbText
 10
5.028125
 20
-9.1875
 30
0.0
 40
0.5
  1
5.312500
100
AcDbAttributeDefinition
  3

  2
J1
 70
     8
280
     0
  0
ATTDEF
  5
1AB
330
18A
100
AcDbEntity
  8
AM_6
100
AcDbText
 10
5.028125
 20
-9.6875
 30
0.0
 40
0.5
  1
3-7/16
100
AcDbAttributeDefinition
  3

  2
L
 70
     8
280
     0
  0
ATTDEF
  5
1AC
330
18A
100
AcDbEntity
  8
AM_6
100
AcDbText
 10
5.028125
 20
-10.1875
 30
0.0
 40
0.5
  1
3.437500
100
AcDbAttributeDefinition
  3

  2
L1
 70
     8
280
     0
  0
ATTDEF
  5
1AD
330
18A
100
AcDbEntity
  8
AM_6
100
AcDbText
 10
5.028125
 20
-10.6875
 30
0.0
 40
0.5
  1
3/16
100
AcDbAttributeDefinition
  3

  2
EXP
 70
     8
280
     0
  0
ATTDEF
  5
1AE
330
18A
100
AcDbEntity
  8
AM_6
100
AcDbText
 10
5.028125
 20
-11.1875
 30
0.0
 40
0.5
  1
0.187500
100
AcDbAttributeDefinition
  3

  2
EXP1
 70
     8
280
     0
  0
ATTDEF
  5
1AF
330
18A
100
AcDbEntity
  8
AM_6
100
AcDbText
 10
5.028125
 20
-11.6875
 30
0.0
 40
0.5
  1
f4b_flange_ne_i_templ.prj
100
AcDbAttributeDefinition
  3

  2
PPATH
 70
     8
280
     0
  0
ATTDEF
  5
1B0
330
18A
100
AcDbEntity
  8
AM_6
100
AcDbText
 10
5.028125
 20
-12.1875
 30
0.0
 40
0.5
  1
baldor
100
AcDbAttributeDefinition
  3

  2
COMPANY
 70
     8
280
     0
  0
LINE
  5
1B1
330
18A
100
AcDbEntity
  8
AM_9
100
AcDbLine
 10
-0.5624999999999999
 20
3.238440860215054
 30
0.0
 11
-0.5382543103448276
 21
3.238440860215054
 31
0.0
  0
LINE
  5
1B2
330
18A
100
AcDbEntity
  8
AM_9
100
AcDbLine
 10
-0.5625000000000001
 20
3.138440860215054
 30
0.0
 11
-0.5382543103448276
 21
3.138440860215054
 31
0.0
  0
LINE
  5
1B3
330
18A
100
AcDbEntity
  8
AM_9
100
AcDbLine
 10
-0.5382543103448276
 20
3.138440860215054
 30
0.0
 11
-0.5382543103448276
 21
3.238440860215054
 31
0.0
  0
LINE
  5
1B4
330
18A
100
AcDbEntity
  8
AM_9
100
AcDbLine
 10
-2.0625
 20
3.138440860215054
 30
0.0
 11
-2.0625
 21
2.0625
 31
0.0
  0
LINE
  5
1B5
330
18A
100
AcDbEntity
  8
AM_9
100
AcDbLine
 10
-0.78125
 20
2.0625
 30
0.0
 11
-0.78125
 21
3.138440860215054
 31
0.0
  0
LWPOLYLINE
  5
1B6
330
18A
100
AcDbEntity
  8
AM_9
100
AcDbPolyline
 90
       11
 70
     0
 43
0.0
 10
0.0
 20
2.520016216162357
 10
-0.0020425305041198
 20
2.534912337735714
 10
-0.0082512532833687
 20
2.549511119011717
 10
-0.0182094783900968
 20
2.562794837349204
 10
-0.0322861564650051
 20
2.575094581293784
 10
-0.0462540354976958
 20
2.583674757426583
 10
-0.0627806148105654
 20
2.591013325614185
 10
-0.0783084478243773
 20
2.595870071712919
 10
-0.0952063321055941
 20
2.59938488089261
 10
-0.1142573122443369
 20
2.601392882368714
 10
-0.1337195592180162
 20
2.601507440274321
  0
ARC
  5
1B7
330
18A
100
AcDbEntity
  8
AM_9
100
AcDbCircle
 10
-0.1250000000000008
 20
2.662006542825861
 30
0.0
 40
0.1250000000000007
100
AcDbArc
 50
0.0
 51
93.9999999999999
  0
LWPOLYLINE
  5
1B8
330
18A
100
AcDbEntity
  8
AM_9
100
AcDbPolyline
 90
       12
 70
     0
 43
0.0
 10
-0.1337195592180162
 20
-2.601507440274321
 10
-0.1164933292876327
 20
-2.601508873322244
 10
-0.0995250500580235
 20
-2.600015206127886
 10
-0.0833674170537726
 20
-2.597102786690086
 10
-0.0683230720798613
 20
-2.592948624956662
 10
-0.0540193153380718
 20
-2.587440492220111
 10
-0.0413834762576498
 20
-2.58098460132834
 10
-0.0258994962616911
 20
-2.570107809189943
 10
-0.0141518825080608
 20
-2.558101368506918
 10
-0.004475480954497
 20
-2.541926790600427
 10
-0.0002407676353768
 20
-2.525163794428863
 10
0.0
 20
-2.520016216162357
  0
ARC
  5
1B9
330
18A
100
AcDbEntity
  8
AM_9
100
AcDbCircle
 10
-0.1250000000000003
 20
-2.662006542825862
 30
0.0
 40
0.1250000000000001
100
AcDbArc
 50
265.9999999999999
 51
0.0
  0
LINE
  5
1BA
330
18A
100
AcDbEntity
  8
AM_9
100
AcDbLine
 10
-2.5625
 20
-2.0625
 30
0.0
 11
0.0
 21
-2.0625
 31
0.0
  0
LINE
  5
1BB
330
18A
100
AcDbEntity
  8
AM_9
100
AcDbLine
 10
0.0
 20
2.0625
 30
0.0
 11
-0.78125
 21
2.0625
 31
0.0
  0
LINE
  5
1BC
330
18A
100
AcDbEntity
  8
AM_9
100
AcDbLine
 10
-2.0625
 20
2.0625
 30
0.0
 11
-2.5625
 21
2.0625
 31
0.0
  0
LWPOLYLINE
  5
1BD
330
18A
100
AcDbEntity
  8
AM_9
100
AcDbPolyline
 90
       40
 70
     0
 43
0.0
 10
-2.06249999999961
 20
2.062499999999879
 10
-2.062463482717504
 20
2.062488657802829
 10
-2.059629504656508
 20
2.061609133053248
 10
-2.052320153961531
 20
2.059360811399638
 10
-2.041308252659055
 20
2.056015676441137
 10
-2.026427351010268
 20
2.051582171029725
 10
-2.007212182261858
 20
2.046001789395891
 10
-1.984183968302967
 20
2.039533582760761
 10
-1.957583242212959
 20
2.032360305859613
 10
-1.927541519723837
 20
2.024649226049939
 10
-1.893304161637091
 20
2.01637104442348
 10
-1.855862903826351
 20
2.00794705110533
 10
-1.814982879077882
 20
1.99951063206327
 10
-1.771319616225601
 20
1.991385798679919
 10
-1.723748998533644
 20
1.983592784296733
 10
-1.673838307776847
 20
1.976611081584046
 10
-1.623703600983089
 20
1.970849900448503
 10
-1.572052111481782
 20
1.966229646859189
 10
-1.517551176936712
 20
1.962822551986737
 10
-1.462262833611598
 20
1.960902097627222
 10
-1.410731347647353
 20
1.960520332584327
 10
-1.359279341877833
 20
1.961485170933175
 10
-1.306756792712603
 20
1.963865619580207
 10
-1.25509388891899
 20
1.967567482550069
 10
-1.206734844142261
 20
1.97225701611294
 10
-1.159809480000606
 20
1.977924213954506
 10
-1.113414997776837
 20
1.984605326865507
 10
-1.069112771406323
 20
1.991970644687661
 10
-1.026702302186144
 20
1.999917515920686
 10
-0.986949781521967
 20
2.008149846262266
 10
-0.949136500979574
 20
2.016677572484245
 10
-0.9146159439659879
 20
2.025047557294277
 10
-0.8835310147017558
 20
2.033056594983858
 10
-0.8562089789801774
 20
2.040461689596596
 10
-0.8322243867386133
 20
2.047239773436359
 10
-0.812655415296613
 20
2.052962338125365
 10
-0.7991624470002849
 20
2.057006077981739
 10
-0.7893805788399094
 20
2.059989090304518
 10
-0.7832908966506761
 20
2.061866110159002
 10
-0.78125
 20
2.0625
  0
LINE
  5
1BE
330
18A
100
AcDbEntity
  8
AM_9
100
AcDbLine
 10
-0.1337195592180162
 20
-2.601507440274321
 30
0.0
 11
-0.1337195592180163
 21
-2.78670204910834
 31
0.0
  0
LINE
  5
1BF
330
18A
100
AcDbEntity
  8
AM_9
100
AcDbLine
 10
-0.1337195592180162
 20
-2.601507440274321
 30
0.0
 11
-0.5625
 21
-2.582149181658609
 31
0.0
  0
LINE
  5
1C0
330
18A
100
AcDbEntity
  8
AM_9
100
AcDbLine
 10
-0.5625
 20
2.582149181658608
 30
0.0
 11
-0.1337195592180162
 21
2.601507440274321
 31
0.0
  0
LINE
  5
1C1
330
18A
100
AcDbEntity
  8
AM_9
100
AcDbLine
 10
-0.5625000000000001
 20
-2.756718799860722
 30
0.0
 11
-0.1337195592180163
 21
-2.78670204910834
 31
0.0
  0
LINE
  5
1C2
330
18A
100
AcDbEntity
  8
AM_9
100
AcDbLine
 10
-0.1337195592180163
 20
2.78670204910834
 30
0.0
 11
-0.5625000000000007
 21
2.756718799860722
 31
0.0
  0
LINE
  5
1C3
330
18A
100
AcDbEntity
  8
AM_9
100
AcDbLine
 10
-0.1337195592180163
 20
2.78670204910834
 30
0.0
 11
-0.1337195592180162
 21
2.601507440274321
 31
0.0
  0
LINE
  5
1C4
330
18A
100
AcDbEntity
  8
AM_9
100
AcDbLine
 10
-0.5624999999999999
 20
2.34375
 30
0.0
 11
0.0000000000000002
 21
2.34375
 31
0.0
  0
LINE
  5
1C5
330
18A
100
AcDbEntity
  8
AM_9
100
AcDbLine
 10
0.0000000000000002
 20
2.96875
 30
0.0
 11
-0.5624999999999999
 21
2.96875
 31
0.0
  0
LINE
  5
1C6
330
18A
100
AcDbEntity
  8
AM_9
100
AcDbLine
 10
-0.5624999999999999
 20
-2.96875
 30
0.0
 11
0.0000000000000002
 21
-2.96875
 31
0.0
  0
LINE
  5
1C7
330
18A
100
AcDbEntity
  8
AM_9
100
AcDbLine
 10
0.0000000000000002
 20
-2.34375
 30
0.0
 11
-0.5624999999999999
 21
-2.34375
 31
0.0
  0
LINE
  5
1C8
330
18A
100
AcDbEntity
  8
AM_9
100
AcDbLine
 10
-0.5624999999999999
 20
3.332832346706593
 30
0.0
 11
0.0000000000000001
 21
3.332832346706593
 31
0.0
  0
LINE
  5
1C9
330
18A
100
AcDbEntity
  8
AM_9
100
AcDbLine
 10
-0.5624999999999999
 20
-3.332832346706594
 30
0.0
 11
0.0000000000000001
 21
-3.332832346706594
 31
0.0
  0
LINE
  5
1CA
330
18A
100
AcDbEntity
  8
AM_7
100
AcDbLine
 10
0.0281249999999998
 20
2.65625
 30
0.0
 11
-0.5906250000000001
 21
2.65625
 31
0.0
  0
LINE
  5
1CB
330
18A
100
AcDbEntity
  8
AM_7
100
AcDbLine
 10
0.0281249999999998
 20
-2.65625
 30
0.0
 11
-0.5906250000000001
 21
-2.65625
 31
0.0
  0
LINE
  5
1CC
330
18A
100
AcDbEntity
  8
AM_7
100
AcDbLine
 10
-1.421875
 20
-0.265625
 30
0.0
 11
-1.421875
 21
4.8125
 31
0.0
  0
LINE
  5
1CD
330
18A
100
AcDbEntity
  8
AM_4
100
AcDbLine
 10
-2.305495689655173
 20
3.238440860215054
 30
0.0
 11
-2.305495689655173
 21
3.138440860215054
 31
0.0
  0
LINE
  5
1CE
330
18A
100
AcDbEntity
  8
AM_4
100
AcDbLine
 10
-2.305495689655173
 20
3.238440860215054
 30
0.0
 11
-0.5624999999999999
 21
3.238440860215054
 31
0.0
  0
LINE
  5
1CF
330
18A
100
AcDbEntity
  8
AM_4
100
AcDbLine
 10
-2.28125
 20
2.607098911926901
 30
0.0
 11
-2.28125
 21
3.138440860215054
 31
0.0
  0
LINE
  5
1D0
330
18A
100
AcDbEntity
  8
AM_4
100
AcDbLine
 10
-1.569821006479841
 20
3.338440860215054
 30
0.0
 11
-1.569821006479841
 21
3.238440860215054
 31
0.0
  0
LINE
  5
1D1
330
18A
100
AcDbEntity
  8
AM_4
100
AcDbLine
 10
-1.569821006479841
 20
3.338440860215054
 30
0.0
 11
-1.273928993520158
 21
3.338440860215054
 31
0.0
  0
LINE
  5
1D2
330
18A
100
AcDbEntity
  8
AM_4
100
AcDbLine
 10
-1.273928993520158
 20
3.338440860215054
 30
0.0
 11
-1.273928993520158
 21
3.238440860215054
 31
0.0
  0
LINE
  5
1D3
330
18A
100
AcDbEntity
  8
AM_4
100
AcDbLine
 10
-1.347901996760079
 20
3.338440860215054
 30
0.0
 11
-1.347901996760079
 21
3.238440860215054
 31
0.0
  0
LINE
  5
1D4
330
18A
100
AcDbEntity
  8
AM_4
100
AcDbLine
 10
-1.495848003239921
 20
3.338440860215054
 30
0.0
 11
-1.495848003239921
 21
3.238440860215054
 31
0.0
  0
LINE
  5
1D5
330
18A
100
AcDbEntity
  8
AM_4
100
AcDbLine
 10
-0.7970608183480936
 20
3.238440860215054
 30
0.0
 11
-0.7970608183480936
 21
3.138440860215054
 31
0.0
  0
LINE
  5
1D6
330
18A
100
AcDbEntity
  8
AM_4
100
AcDbLine
 10
-2.046689181651906
 20
3.238440860215054
 30
0.0
 11
-2.046689181651906
 21
3.138440860215054
 31
0.0
  0
LINE
  5
1D7
330
18A
100
AcDbEntity
  8
AM_4
100
AcDbLine
 10
-1.240678887320947
 20
3.238440860215054
 30
0.0
 11
-1.240678887320947
 21
3.138440860215054
 31
0.0
  0
LINE
  5
1D8
330
18A
100
AcDbEntity
  8
AM_4
100
AcDbLine
 10
-1.603071112679052
 20
3.238440860215054
 30
0.0
 11
-1.603071112679052
 21
3.138440860215054
 31
0.0
  0
LINE
  5
1D9
330
18A
100
AcDbEntity
  8
AM_4
100
AcDbLine
 10
-0.637860710371253
 20
2.667592832640103
 30
0.0
 11
-0.637860710371253
 21
3.138440860215054
 31
0.0
  0
LINE
  5
1DA
330
18A
100
AcDbEntity
  8
AM_4
100
AcDbLine
 10
-2.205889289628747
 20
2.55434853692597
 30
0.0
 11
-2.205889289628747
 21
3.138440860215054
 31
0.0
  0
LINE
  5
1DB
330
18A
100
AcDbEntity
  8
AM_4
100
AcDbLine
 10
-1.799939881604791
 20
2.287605439150778
 30
0.0
 11
-1.799939881604791
 21
3.138440860215054
 31
0.0
  0
LINE
  5
1DC
330
18A
100
AcDbEntity
  8
AM_4
100
AcDbLine
 10
-0.5625
 20
3.138440860215054
 30
0.0
 11
-2.305495689655173
 21
3.138440860215054
 31
0.0
  0
LINE
  5
1DD
330
18A
100
AcDbEntity
  8
AM_4
100
AcDbLine
 10
-1.043810118395208
 20
2.349106215328719
 30
0.0
 11
-1.043810118395208
 21
3.138440860215054
 31
0.0
  0
LINE
  5
1DE
330
18A
100
AcDbEntity
  8
AM_4
100
AcDbLine
 10
-1.287379763209582
 20
2.240247644903991
 30
0.0
 11
-1.287379763209582
 21
3.138440860215054
 31
0.0
  0
LINE
  5
1DF
330
18A
100
AcDbEntity
  8
AM_4
100
AcDbLine
 10
-1.556370232599466
 20
2.217490557049803
 30
0.0
 11
-1.556370232599466
 21
3.138440860215054
 31
0.0
  0
LINE
  5
1E0
330
18A
100
AcDbEntity
  8
AM_4
100
AcDbLine
 10
-2.5625
 20
2.558582983090098
 30
0.0
 11
-2.5625
 21
-2.558582983090098
 31
0.0
  0
ARC
  5
1E1
330
18A
100
AcDbEntity
  8
AM_4
100
AcDbCircle
 10
-2.500000000000001
 20
-2.558582983090099
 30
0.0
 40
0.0624999999999991
100
AcDbArc
 50
180.0
 51
266.000000000001
  0
ARC
  5
1E2
330
18A
100
AcDbEntity
  8
AM_4
100
AcDbCircle
 10
-2.500000000000001
 20
2.558582983090099
 30
0.0
 40
0.0624999999999987
100
AcDbArc
 50
93.99999999999903
 51
180.0
  0
LWPOLYLINE
  5
1E3
330
18A
100
AcDbEntity
  8
AM_4
100
AcDbPolyline
 90
        7
 70
     0
 43
0.0
 10
-0.5625000000000007
 20
2.728582380433411
 10
-0.5644595917093534
 20
2.721276629581359
 10
-0.5703535706195332
 20
2.712888651476078
 10
-0.5803598417793923
 20
2.70333479642363
 10
-0.5943898380315848
 20
2.692826663066511
 10
-0.6138788034515402
 20
2.680609715797968
 10
-0.637860710371253
 20
2.667592832640103
  0
LWPOLYLINE
  5
1E4
330
18A
100
AcDbEntity
  8
AM_4
100
AcDbPolyline
 90
        5
 70
     0
 43
0.0
 10
-0.6378607103712532
 20
2.667592832640103
 10
-0.7704740147692444
 20
2.588952234758512
 10
-0.8986223096079248
 20
2.490608147118309
 10
-1.021330308985515
 20
2.373309027608219
 10
-1.043810118395209
 20
2.349106215328718
  0
LWPOLYLINE
  5
1E5
330
18A
100
AcDbEntity
  8
AM_4
100
AcDbPolyline
 90
       10
 70
     0
 43
0.0
 10
-1.043810118395208
 20
2.349106215328719
 10
-1.07251333577317
 20
2.322321706511739
 10
-1.090169741405545
 20
2.309130242196303
 10
-1.109725394469069
 20
2.296518051585367
 10
-1.130556687022867
 20
2.284939669575857
 10
-1.153043363100586
 20
2.274238167599811
 10
-1.178055265522415
 20
2.264245218173123
 10
-1.204556255445938
 20
2.255613469681375
 10
-1.24452373699279
 20
2.246084753918457
 10
-1.287379763209582
 20
2.240247644903991
  0
LINE
  5
1E6
330
18A
100
AcDbEntity
  8
AM_4
100
AcDbLine
 10
-1.287379763209582
 20
2.240247644903991
 30
0.0
 11
-1.556370232599466
 21
2.217490557049803
 31
0.0
  0
LWPOLYLINE
  5
1E7
330
18A
100
AcDbEntity
  8
AM_4
100
AcDbPolyline
 90
        9
 70
     0
 43
0.0
 10
-1.556370232599466
 20
2.217490557049803
 10
-1.596647755600429
 20
2.216083588381061
 10
-1.636053866153947
 20
2.218603133932985
 10
-1.673342126670039
 20
2.224890268131711
 10
-1.707765730548322
 20
2.234452338530843
 10
-1.739883116480729
 20
2.247366060392926
 10
-1.767760957586429
 20
2.262631138408256
 10
-1.785047069959653
 20
2.274758061242851
 10
-1.799939881604791
 20
2.287605439150778
  0
LWPOLYLINE
  5
1E8
330
18A
100
AcDbEntity
  8
AM_4
100
AcDbPolyline
 90
        5
 70
     0
 43
0.0
 10
-1.799939881604792
 20
2.287605439150778
 10
-1.917938203080271
 20
2.389628851397863
 10
-2.040625450271035
 20
2.47346574518846
 10
-2.167067899145378
 20
2.538478071138722
 10
-2.205889289628747
 20
2.55434853692597
  0
LWPOLYLINE
  5
1E9
330
18A
100
AcDbEntity
  8
AM_4
100
AcDbPolyline
 90
        7
 70
     0
 43
0.0
 10
-2.205889289628747
 20
2.55434853692597
 10
-2.227684587273071
 20
2.56341718283332
 10
-2.246037383457896
 20
2.57248209064423
 10
-2.260932920732186
 20
2.581531349717393
 10
-2.271885706229229
 20
2.590301539370714
 10
-2.278880024015976
 20
2.598970961089099
 10
-2.28125
 20
2.607098911926901
  0
LINE
  5
1EA
330
18A
100
AcDbEntity
  8
AM_4
100
AcDbLine
 10
-2.504359779609008
 20
-2.620930736231337
 30
0.0
 11
-0.5625000000000001
 21
-2.756718799860722
 31
0.0
  0
LINE
  5
1EB
330
18A
100
AcDbEntity
  8
AM_4
100
AcDbLine
 10
-2.28125
 20
2.636532091832814
 30
0.0
 11
-2.504359779609008
 21
2.620930736231337
 31
0.0
  0
LINE
  5
1EC
330
18A
100
AcDbEntity
  8
AM_4
100
AcDbLine
 10
-2.504359779609008
 20
2.620930736231337
 30
0.0
 11
-2.504359779609008
 21
-2.620930736231337
 31
0.0
  0
LINE
  5
1ED
330
18A
100
AcDbEntity
  8
AM_4
100
AcDbLine
 10
-0.1337195592180161
 20
0.9989331052187481
 30
0.0
 11
-0.1337195592180161
 21
-0.9989331052187491
 31
0.0
  0
LINE
  5
1EE
330
18A
100
AcDbEntity
  8
AM_4
100
AcDbLine
 10
-0.5624999999999999
 20
-3.437500000000003
 30
0.0
 11
-0.5624999999999999
 21
-0.9654036177502769
 31
0.0
  0
LINE
  5
1EF
330
18A
100
AcDbEntity
  8
AM_4
100
AcDbLine
 10
-0.5624999999999999
 20
-0.9654036177502769
 30
0.0
 11
-0.1337195592180161
 21
-0.9989331052187491
 31
0.0
  0
LWPOLYLINE
  5
1F0
330
18A
100
AcDbEntity
  8
AM_4
100
AcDbPolyline
 90
       11
 70
     0
 43
0.0
 10
0.0000000000000001
 20
-0.8577861646858463
 10
-0.0020425305041187
 20
-0.8835870040866177
 10
-0.0082512532833645
 20
-0.9088728349852341
 10
-0.0182094783900913
 20
-0.9318809100591973
 10
-0.0322861564649987
 20
-0.9531846914913
 10
-0.0462540354976894
 20
-0.9680459924911994
 10
-0.0627806148105594
 20
-0.980756765446936
 10
-0.0783084478243709
 20
-0.9891688964494066
 10
-0.0952063321055875
 20
-0.9952567245275433
 10
-0.1142573122443335
 20
-0.9987346851058289
 10
-0.1337195592180161
 20
-0.9989331052187491
  0
LINE
  5
1F1
330
18A
100
AcDbEntity
  8
AM_4
100
AcDbLine
 10
-0.5624999999999999
 20
0.965403617750276
 30
0.0
 11
-0.5624999999999999
 21
3.437500000000003
 31
0.0
  0
LINE
  5
1F2
330
18A
100
AcDbEntity
  8
AM_4
100
AcDbLine
 10
-0.1337195592180161
 20
0.9989331052187481
 30
0.0
 11
-0.5624999999999999
 21
0.965403617750276
 31
0.0
  0
LWPOLYLINE
  5
1F3
330
18A
100
AcDbEntity
  8
AM_4
100
AcDbPolyline
 90
       12
 70
     0
 43
0.0
 10
-0.1337195592180161
 20
0.9989331052187481
 10
-0.1164933292876326
 20
0.998935587330559
 10
-0.0995250500580234
 20
0.9963484798603328
 10
-0.0833674170537725
 20
0.9913040214211123
 10
-0.0683230720798612
 20
0.9841088022359646
 10
-0.0540193153380717
 20
0.974568436481424
 10
-0.0413834762576496
 20
0.9633865054487555
 10
-0.025899496261691
 20
0.9445473488416856
 10
-0.0141518825080607
 20
0.9237515835606243
 10
-0.0044754809544969
 20
0.8957363928356004
 10
-0.0002407676353767
 20
0.8667020317793708
 10
0.0000000000000001
 20
0.8577861646858449
  0
LINE
  5
1F4
330
18A
100
AcDbEntity
  8
AM_4
100
AcDbLine
 10
-1.201656081756484
 20
0.9375
 30
0.0
 11
-1.201656081756484
 21
0.625
 31
0.0
  0
LINE
  5
1F5
330
18A
100
AcDbEntity
  8
AM_4
100
AcDbLine
 10
-1.923343918243515
 20
0.9375
 30
0.0
 11
-1.201656081756484
 21
0.9375
 31
0.0
  0
LINE
  5
1F6
330
18A
100
AcDbEntity
  8
AM_4
100
AcDbLine
 10
-1.923343918243515
 20
0.9375
 30
0.0
 11
-1.923343918243515
 21
0.625
 31
0.0
  0
LINE
  5
1F7
330
18A
100
AcDbEntity
  8
AM_4
100
AcDbLine
 10
-1.382078040878243
 20
0.9375
 30
0.0
 11
-1.382078040878243
 21
0.625
 31
0.0
  0
LINE
  5
1F8
330
18A
100
AcDbEntity
  8
AM_4
100
AcDbLine
 10
-1.742921959121758
 20
0.9375
 30
0.0
 11
-1.742921959121758
 21
0.625
 31
0.0
  0
LINE
  5
1F9
330
18A
100
AcDbEntity
  8
AM_4
100
AcDbLine
 10
0.0000000000000002
 20
-3.437500000000003
 30
0.0
 11
0.0000000000000002
 21
3.437500000000003
 31
0.0
  0
LINE
  5
1FA
330
18A
100
AcDbEntity
  8
AM_4
100
AcDbLine
 10
-0.5624999999999998
 20
2.265625
 30
0.0
 11
0.0000000000000002
 21
2.265625
 31
0.0
  0
LINE
  5
1FB
330
18A
100
AcDbEntity
  8
AM_4
100
AcDbLine
 10
0.0000000000000002
 20
3.437500000000003
 30
0.0
 11
-0.5624999999999999
 21
3.437500000000003
 31
0.0
  0
LINE
  5
1FC
330
18A
100
AcDbEntity
  8
AM_4
100
AcDbLine
 10
-0.5624999999999998
 20
-2.265625
 30
0.0
 11
0.0000000000000002
 21
-2.265625
 31
0.0
  0
LINE
  5
1FD
330
18A
100
AcDbEntity
  8
AM_4
100
AcDbLine
 10
-0.5624999999999999
 20
-3.437500000000003
 30
0.0
 11
0.0000000000000002
 21
-3.437500000000003
 31
0.0
  0
LINE
  5
1FE
330
18A
100
AcDbEntity
  8
AM_4
100
AcDbLine
 10
-2.28125
 20
0.625
 30
0.0
 11
-2.28125
 21
-0.625
 31
0.0
  0
LINE
  5
1FF
330
18A
100
AcDbEntity
  8
AM_4
100
AcDbLine
 10
-1.71875
 20
0.625
 30
0.0
 11
-1.71875
 21
-0.625
 31
0.0
  0
LINE
  5
200
330
18A
100
AcDbEntity
  8
AM_4
100
AcDbLine
 10
-2.28125
 20
0.625
 30
0.0
 11
-0.8437499999999993
 21
0.625
 31
0.0
  0
LINE
  5
201
330
18A
100
AcDbEntity
  8
AM_4
100
AcDbLine
 10
-2.28125
 20
-0.625
 30
0.0
 11
-0.8437499999999993
 21
-0.625
 31
0.0
  0
LINE
  5
202
330
18A
100
AcDbEntity
  8
AM_4
100
AcDbLine
 10
-0.8437499999999993
 20
0.625
 30
0.0
 11
-0.8437499999999993
 21
-0.625
 31
0.0
  0
LINE
  5
203
330
18A
100
AcDbEntity
  8
AM_4
100
AcDbLine
 10
-1.40625
 20
0.625
 30
0.0
 11
-1.40625
 21
-0.625
 31
0.0
  0
ENDBLK
  5
18D
330
18A
100
AcDbEntity
  8
0
100
AcDbBlockEnd
  0
ENDSEC
  0
SECTION
  2
ENTITIES
  0
INSERT
  5
6F
330
1F
100
AcDbEntity
  8
0
100
AcDbBlockReference
  2
1_023220_2
 10
0.0
 20
0.0
 30
0.0
  0
POINT
  5
205
330
1F
100
AcDbEntity
  8
ConnectionPoints
100
AcDbPoint
 10
-1.375
 20
2.8185
 30
0.0000000000000001
  0
POINT
  5
206
330
1F
100
AcDbEntity
  8
ConnectionPoints
100
AcDbPoint
 10
-1.375
 20
2.8185
 30
0.0000000000000001
  0
POINT
  5
207
330
1F
100
AcDbEntity
  8
ConnectionPoints
100
AcDbPoint
 10
-1.375
 20
0.0
 30
0.0000000000000001
  0
POINT
  5
208
330
1F
100
AcDbEntity
  8
ConnectionPoints
100
AcDbPoint
 10
-3.125
 20
0.0
 30
0.0000000000000002
  0
POINT
  5
209
330
1F
100
AcDbEntity
  8
ConnectionPoints
100
AcDbPoint
 10
0.1103749999999999
 20
0.0
 30
0.0
  0
POINT
  5
20A
330
1F
100
AcDbEntity
  8
ConnectionPoints
100
AcDbPoint
 10
-3.125
 20
0.0
 30
0.0000000000000002
  0
ENDSEC
  0
SECTION
  2
OBJECTS
  0
DICTIONARY
  5
C
330
0
100
AcDbDictionary
281
     1
  3
ACAD_DETAILVIEWSTYLE
350
212
  3
ACAD_GROUP
350
D
  3
ACAD_LAYOUT
350
1A
  3
ACAD_MATERIAL
350
43
  3
ACAD_MLEADERSTYLE
350
6B
  3
ACAD_MLINESTYLE
350
17
  3
ACAD_PLOTSETTINGS
350
19
  3
ACAD_PLOTSTYLENAME
350
E
  3
ACAD_SCALELIST
350
47
  3
ACAD_SECTIONVIEWSTYLE
350
213
  3
ACAD_TABLESTYLE
350
69
  3
ACAD_VISUALSTYLE
350
2A
  3
ACDB_RECOMPOSE_DATA
350
20F
  3
AcDbVariableDictionary
350
20B
  0
SUN
  5
6D
330
29
100
AcDbSun
 90
        1
290
     0
 63
     7
421
 16777215
 40
1.0
291
     1
 91
  2455826
 92
 54000000
292
     0
 70
     2
 71
   256
280
     1
  0
DICTIONARY
  5
212
102
{ACAD_REACTORS
330
C
102
}
330
C
100
AcDbDictionary
281
     1
  0
DICTIONARY
  5
D
102
{ACAD_REACTORS
330
C
102
}
330
C
100
AcDbDictionary
281
     1
  0
DICTIONARY
  5
1A
102
{ACAD_REACTORS
330
C
102
}
330
C
100
AcDbDictionary
281
     1
  3
Layout1
350
1E
  3
Layout2
350
26
  3
Model
350
22
  0
DICTIONARY
  5
43
102
{ACAD_REACTORS
330
C
102
}
330
C
100
AcDbDictionary
281
     1
  3
ByBlock
350
45
  3
ByLayer
350
44
  3
Global
350
46
  0
DICTIONARY
  5
6B
102
{ACAD_REACTORS
330
C
102
}
330
C
100
AcDbDictionary
281
     1
  3
Standard
350
6C
  0
DICTIONARY
  5
17
102
{ACAD_REACTORS
330
C
102
}
330
C
100
AcDbDictionary
281
     1
  3
Standard
350
18
  0
DICTIONARY
  5
19
102
{ACAD_REACTORS
330
C
102
}
330
C
100
AcDbDictionary
281
     1
  0
ACDBDICTIONARYWDFLT
  5
E
102
{ACAD_REACTORS
330
C
102
}
330
C
100
AcDbDictionary
281
     1
  3
Normal
350
F
100
AcDbDictionaryWithDefault
340
F
  0
DICTIONARY
  5
47
102
{ACAD_REACTORS
330
C
102
}
330
C
100
AcDbDictionary
281
     1
  3
A0
350
48
  3
A1
350
49
  3
A2
350
4A
  3
A3
350
4B
  3
A4
350
4C
  3
A5
350
4D
  3
A6
350
4E
  3
A7
350
4F
  3
A8
350
50
  3
A9
350
51
  3
B0
350
52
  3
B1
350
53
  3
B2
350
54
  3
B3
350
55
  3
B4
350
56
  3
B5
350
57
  3
B6
350
58
  3
B7
350
59
  3
B8
350
5A
  3
B9
350
5B
  3
C0
350
5C
  3
C1
350
5D
  3
C2
350
5E
  3
C3
350
5F
  3
C4
350
60
  3
C5
350
61
  3
C6
350
62
  3
C7
350
63
  3
C8
350
64
  3
C9
350
65
  3
D0
350
66
  3
D1
350
67
  3
D2
350
68
  0
DICTIONARY
  5
213
102
{ACAD_REACTORS
330
C
102
}
330
C
100
AcDbDictionary
281
     1
  0
DICTIONARY
  5
69
102
{ACAD_REACTORS
330
C
102
}
330
C
100
AcDbDictionary
281
     1
  3
Standard
350
6A
  0
DICTIONARY
  5
2A
102
{ACAD_REACTORS
330
C
102
}
330
C
100
AcDbDictionary
281
     1
  3
2dWireframe
350
2F
  3
Basic
350
32
  3
Brighten
350
36
  3
ColorChange
350
3A
  3
Conceptual
350
34
  3
Dim
350
35
  3
EdgeColorOff
350
3D
  3
Facepattern
350
39
  3
Flat
350
2B
  3
FlatWithEdges
350
2C
  3
Gouraud
350
2D
  3
GouraudWithEdges
350
2E
  3
Hidden
350
31
  3
JitterOff
350
3B
  3
Linepattern
350
38
  3
OverhangOff
350
3C
  3
Realistic
350
33
  3
Shaded
350
42
  3
Shaded with edges
350
41
  3
Shades of Gray
350
3E
  3
Sketchy
350
3F
  3
Thicken
350
37
  3
Wireframe
350
30
  3
X-Ray
350
40
  0
XRECORD
  5
20F
102
{ACAD_REACTORS
330
C
102
}
330
C
100
AcDbXrecord
280
     1
 90
        1
330
6A
  0
DICTIONARY
  5
20B
102
{ACAD_REACTORS
330
C
102
}
330
C
100
AcDbDictionary
281
     1
  3
CANNOSCALE
350
20C
  3
CMLEADERSTYLE
350
211
  3
CTABLESTYLE
350
210
  0
LAYOUT
  5
1E
102
{ACAD_REACTORS
330
1A
102
}
330
1A
100
AcDbPlotSettings
  1

  2
none_device
  4

  6

 40
0.0
 41
0.0
 42
0.0
 43
0.0
 44
0.0
 45
0.0
 46
0.0
 47
0.0
 48
0.0
 49
0.0
140
0.0
141
0.0
142
1.0
143
1.0
 70
   688
 72
     0
 73
     0
 74
     5
  7

 75
    16
 76
     0
 77
     2
 78
   300
147
1.0
148
0.0
149
0.0
100
AcDbLayout
  1
Layout1
 70
     1
 71
     1
 10
0.0
 20
0.0
 11
12.0
 21
9.0
 12
0.0
 22
0.0
 32
0.0
 14
1.000000000000000E+20
 24
1.000000000000000E+20
 34
1.000000000000000E+20
 15
-1.000000000000000E+20
 25
-1.000000000000000E+20
 35
-1.000000000000000E+20
146
0.0
 13
0.0
 23
0.0
 33
0.0
 16
1.0
 26
0.0
 36
0.0
 17
0.0
 27
1.0
 37
0.0
 76
     0
330
1B
  0
LAYOUT
  5
26
102
{ACAD_REACTORS
330
1A
102
}
330
1A
100
AcDbPlotSettings
  1

  2
none_device
  4

  6

 40
0.0
 41
0.0
 42
0.0
 43
0.0
 44
0.0
 45
0.0
 46
0.0
 47
0.0
 48
0.0
 49
0.0
140
0.0
141
0.0
142
1.0
143
1.0
 70
   688
 72
     0
 73
     0
 74
     5
  7

 75
    16
 76
     0
 77
     2
 78
   300
147
1.0
148
0.0
149
0.0
100
AcDbLayout
  1
Layout2
 70
     1
 71
     2
 10
0.0
 20
0.0
 11
0.0
 21
0.0
 12
0.0
 22
0.0
 32
0.0
 14
0.0
 24
0.0
 34
0.0
 15
0.0
 25
0.0
 35
0.0
146
0.0
 13
0.0
 23
0.0
 33
0.0
 16
1.0
 26
0.0
 36
0.0
 17
0.0
 27
1.0
 37
0.0
 76
     0
330
23
  0
LAYOUT
  5
22
102
{ACAD_REACTORS
330
1A
102
}
330
1A
100
AcDbPlotSettings
  1

  2
none_device
  4
Letter_(8.50_x_11.00_Inches)
  6

 40
6.35
 41
6.35
 42
6.35000508
 43
6.35000508
 44
215.9
 45
279.4
 46
0.0
 47
0.0
 48
0.0
 49
0.0
140
0.0
141
0.0
142
1.0
143
1.0
 70
  1712
 72
     0
 73
     0
 74
     0
  7

 75
     0
 76
     0
 77
     2
 78
   300
147
1.0
148
0.0
149
0.0
100
AcDbLayout
  1
Model
 70
     1
 71
     0
 10
0.0
 20
0.0
 11
12.0
 21
9.0
 12
0.0
 22
0.0
 32
0.0
 14
1.000000000000000E+20
 24
1.000000000000000E+20
 34
1.000000000000000E+20
 15
-1.000000000000000E+20
 25
-1.000000000000000E+20
 35
-1.000000000000000E+20
146
0.0
 13
0.0
 23
0.0
 33
0.0
 16
1.0
 26
0.0
 36
0.0
 17
0.0
 27
1.0
 37
0.0
 76
     0
330
1F
331
29
  0
MATERIAL
  5
45
102
{ACAD_REACTORS
330
43
102
}
330
43
100
AcDbMaterial
  1
ByBlock
 72
     1
 94
      127
  0
MATERIAL
  5
44
102
{ACAD_REACTORS
330
43
102
}
330
43
100
AcDbMaterial
  1
ByLayer
 72
     1
 94
      127
  0
MATERIAL
  5
46
102
{ACAD_REACTORS
330
43
102
}
330
43
100
AcDbMaterial
  1
Global
 72
     1
 94
      127
  0
MLEADERSTYLE
  5
6C
102
{ACAD_REACTORS
330
6B
102
}
330
6B
100
AcDbMLeaderStyle
179
     2
170
     2
171
     1
172
     0
 90
        2
 40
0.0
 41
0.0
173
     1
 91
-1056964608
340
14
 92
       -2
290
     1
 42
0.09
291
     1
 43
0.36
  3
Standard
341
0
 44
0.18
300

342
11
174
     1
178
     6
175
     1
176
     0
 93
-1056964608
 45
0.18
292
     0
297
     0
 46
0.18
343
0
 94
-1056964608
 47
1.0
 49
1.0
140
1.0
293
     1
141
0.0
294
     1
177
     0
142
1.0
295
     0
296
     0
143
0.125
271
     0
272
     9
273
     9
298
     0
  0
MLINESTYLE
  5
18
102
{ACAD_REACTORS
330
17
102
}
330
17
100
AcDbMlineStyle
  2
Standard
 70
     0
  3

 62
   256
 51
90.0
 52
90.0
 71
     2
 49
0.5
 62
   256
  6
BYLAYER
 49
-0.5
 62
   256
  6
BYLAYER
  0
ACDBPLACEHOLDER
  5
F
102
{ACAD_REACTORS
330
E
102
}
330
E
  0
SCALE
  5
48
102
{ACAD_REACTORS
330
47
102
}
330
47
100
AcDbScale
 70
     0
300
1:1
140
1.0
141
1.0
290
     1
  0
SCALE
  5
49
102
{ACAD_REACTORS
330
47
102
}
330
47
100
AcDbScale
 70
     0
300
1:2
140
1.0
141
2.0
290
     0
  0
SCALE
  5
4A
102
{ACAD_REACTORS
330
47
102
}
330
47
100
AcDbScale
 70
     0
300
1:4
140
1.0
141
4.0
290
     0
  0
SCALE
  5
4B
102
{ACAD_REACTORS
330
47
102
}
330
47
100
AcDbScale
 70
     0
300
1:5
140
1.0
141
5.0
290
     0
  0
SCALE
  5
4C
102
{ACAD_REACTORS
330
47
102
}
330
47
100
AcDbScale
 70
     0
300
1:8
140
1.0
141
8.0
290
     0
  0
SCALE
  5
4D
102
{ACAD_REACTORS
330
47
102
}
330
47
100
AcDbScale
 70
     0
300
1:10
140
1.0
141
10.0
290
     0
  0
SCALE
  5
4E
102
{ACAD_REACTORS
330
47
102
}
330
47
100
AcDbScale
 70
     0
300
1:16
140
1.0
141
16.0
290
     0
  0
SCALE
  5
4F
102
{ACAD_REACTORS
330
47
102
}
330
47
100
AcDbScale
 70
     0
300
1:20
140
1.0
141
20.0
290
     0
  0
SCALE
  5
50
102
{ACAD_REACTORS
330
47
102
}
330
47
100
AcDbScale
 70
     0
300
1:30
140
1.0
141
30.0
290
     0
  0
SCALE
  5
51
102
{ACAD_REACTORS
330
47
102
}
330
47
100
AcDbScale
 70
     0
300
1:40
140
1.0
141
40.0
290
     0
  0
SCALE
  5
52
102
{ACAD_REACTORS
330
47
102
}
330
47
100
AcDbScale
 70
     0
300
1:50
140
1.0
141
50.0
290
     0
  0
SCALE
  5
53
102
{ACAD_REACTORS
330
47
102
}
330
47
100
AcDbScale
 70
     0
300
1:100
140
1.0
141
100.0
290
     0
  0
SCALE
  5
54
102
{ACAD_REACTORS
330
47
102
}
330
47
100
AcDbScale
 70
     0
300
2:1
140
2.0
141
1.0
290
     0
  0
SCALE
  5
55
102
{ACAD_REACTORS
330
47
102
}
330
47
100
AcDbScale
 70
     0
300
4:1
140
4.0
141
1.0
290
     0
  0
SCALE
  5
56
102
{ACAD_REACTORS
330
47
102
}
330
47
100
AcDbScale
 70
     0
300
8:1
140
8.0
141
1.0
290
     0
  0
SCALE
  5
57
102
{ACAD_REACTORS
330
47
102
}
330
47
100
AcDbScale
 70
     0
300
10:1
140
10.0
141
1.0
290
     0
  0
SCALE
  5
58
102
{ACAD_REACTORS
330
47
102
}
330
47
100
AcDbScale
 70
     0
300
100:1
140
100.0
141
1.0
290
     0
  0
SCALE
  5
59
102
{ACAD_REACTORS
330
47
102
}
330
47
100
AcDbScale
 70
     0
300
1/128" = 1'-0"
140
0.0078125
141
12.0
290
     0
  0
SCALE
  5
5A
102
{ACAD_REACTORS
330
47
102
}
330
47
100
AcDbScale
 70
     0
300
1/64" = 1'-0"
140
0.015625
141
12.0
290
     0
  0
SCALE
  5
5B
102
{ACAD_REACTORS
330
47
102
}
330
47
100
AcDbScale
 70
     0
300
1/32" = 1'-0"
140
0.03125
141
12.0
290
     0
  0
SCALE
  5
5C
102
{ACAD_REACTORS
330
47
102
}
330
47
100
AcDbScale
 70
     0
300
1/16" = 1'-0"
140
0.0625
141
12.0
290
     0
  0
SCALE
  5
5D
102
{ACAD_REACTORS
330
47
102
}
330
47
100
AcDbScale
 70
     0
300
3/32" = 1'-0"
140
0.09375
141
12.0
290
     0
  0
SCALE
  5
5E
102
{ACAD_REACTORS
330
47
102
}
330
47
100
AcDbScale
 70
     0
300
1/8" = 1'-0"
140
0.125
141
12.0
290
     0
  0
SCALE
  5
5F
102
{ACAD_REACTORS
330
47
102
}
330
47
100
AcDbScale
 70
     0
300
3/16" = 1'-0"
140
0.1875
141
12.0
290
     0
  0
SCALE
  5
60
102
{ACAD_REACTORS
330
47
102
}
330
47
100
AcDbScale
 70
     0
300
1/4" = 1'-0"
140
0.25
141
12.0
290
     0
  0
SCALE
  5
61
102
{ACAD_REACTORS
330
47
102
}
330
47
100
AcDbScale
 70
     0
300
3/8" = 1'-0"
140
0.375
141
12.0
290
     0
  0
SCALE
  5
62
102
{ACAD_REACTORS
330
47
102
}
330
47
100
AcDbScale
 70
     0
300
1/2" = 1'-0"
140
0.5
141
12.0
290
     0
  0
SCALE
  5
63
102
{ACAD_REACTORS
330
47
102
}
330
47
100
AcDbScale
 70
     0
300
3/4" = 1'-0"
140
0.75
141
12.0
290
     0
  0
SCALE
  5
64
102
{ACAD_REACTORS
330
47
102
}
330
47
100
AcDbScale
 70
     0
300
1" = 1'-0"
140
1.0
141
12.0
290
     0
  0
SCALE
  5
65
102
{ACAD_REACTORS
330
47
102
}
330
47
100
AcDbScale
 70
     0
300
1-1/2" = 1'-0"
140
1.5
141
12.0
290
     0
  0
SCALE
  5
66
102
{ACAD_REACTORS
330
47
102
}
330
47
100
AcDbScale
 70
     0
300
3" = 1'-0"
140
3.0
141
12.0
290
     0
  0
SCALE
  5
67
102
{ACAD_REACTORS
330
47
102
}
330
47
100
AcDbScale
 70
     0
300
6" = 1'-0"
140
6.0
141
12.0
290
     0
  0
SCALE
  5
68
102
{ACAD_REACTORS
330
47
102
}
330
47
100
AcDbScale
 70
     0
300
1'-0" = 1'-0"
140
12.0
141
12.0
290
     0
  0
TABLESTYLE
  5
6A
102
{ACAD_REACTORS
330
69
102
}
102
{ACAD_XDICTIONARY
360
20D
102
}
330
69
100
AcDbTableStyle
  3
Standard
 70
     0
 71
     0
 40
0.06
 41
0.06
280
     0
281
     0
  7
Standard
140
0.18
170
     2
 62
     0
 63
   257
283
     0
 90
        4
 91
        0
  1

274
    -2
284
     1
 64
     0
275
    -2
285
     1
 65
     0
276
    -2
286
     1
 66
     0
277
    -2
287
     1
 67
     0
278
    -2
288
     1
 68
     0
279
    -2
289
     1
 69
     0
  7
Standard
140
0.25
170
     5
 62
     0
 63
   257
283
     0
 90
        4
 91
        0
  1

274
    -2
284
     1
 64
     0
275
    -2
285
     1
 65
     0
276
    -2
286
     1
 66
     0
277
    -2
287
     1
 67
     0
278
    -2
288
     1
 68
     0
279
    -2
289
     1
 69
     0
  7
Standard
140
0.18
170
     5
 62
     0
 63
   257
283
     0
 90
        4
 91
        0
  1

274
    -2
284
     1
 64
     0
275
    -2
285
     1
 65
     0
276
    -2
286
     1
 66
     0
277
    -2
287
     1
 67
     0
278
    -2
288
     1
 68
     0
279
    -2
289
     1
 69
     0
  0
VISUALSTYLE
  5
2F
102
{ACAD_REACTORS
330
2A
102
}
330
2A
100
AcDbVisualStyle
  2
2dWireframe
 70
     4
177
     3
291
     0
 70
    58
 90
        0
176
     1
 90
        2
176
     1
 90
        0
176
     1
 90
        0
176
     1
 40
0.6
176
     1
 40
30.0
176
     1
 62
     7
420
 16777215
176
     1
 90
        1
176
     1
 90
        4
176
     1
 62
     7
176
     1
 62
   257
176
     1
 90
        1
176
     1
 90
        1
176
     1
 40
1.0
176
     1
 90
        0
176
     1
 62
   257
176
     1
 40
1.0
176
     1
 90
        1
176
     1
 90
        6
176
     1
 90
        2
176
     1
 62
     7
176
     1
 90
        5
176
     1
 90
        0
176
     1
 90
        0
176
     1
290
     0
176
     1
 90
        1
176
     1
 40
0.0
176
     1
 90
        0
176
     1
290
     1
176
     1
290
     1
176
     1
290
     0
176
     1
290
     0
176
     1
290
     0
176
     1
290
     0
176
     1
290
     0
176
     1
290
     0
176
     1
290
     0
176
     1
 90
       50
176
     1
 40
0.0
176
     1
 40
1.0
176
     1
 90
        0
176
     1
 62
    18
420
        0
176
     1
 90
       50
176
     1
 90
        3
176
     1
 62
     5
420
      255
176
     1
290
     0
176
     1
 90
       50
176
     1
 90
       50
176
     1
 90
       50
176
     1
290
     0
176
     1
 90
       50
176
     1
 62
   256
176
     0
 40
1.0
176
     0
 90
        2
176
     1
  1
strokes_ogs.tif
176
     1
290
     0
176
     1
 40
1.0
176
     1
 40
1.0
176
     1
  0
VISUALSTYLE
  5
32
102
{ACAD_REACTORS
330
2A
102
}
330
2A
100
AcDbVisualStyle
  2
Basic
 70
     7
177
     3
291
     1
 70
    58
 90
        1
176
     1
 90
        0
176
     1
 90
        1
176
     1
 90
        0
176
     1
 40
0.6
176
     1
 40
30.0
176
     1
 62
     7
420
 16777215
176
     1
 90
        0
176
     1
 90
        4
176
     1
 62
     7
176
     1
 62
   257
176
     1
 90
        1
176
     1
 90
        1
176
     1
 40
1.0
176
     1
 90
        8
176
     1
 62
     7
176
     1
 40
1.0
176
     1
 90
        1
176
     1
 90
        6
176
     1
 90
        2
176
     1
 62
     7
176
     1
 90
        5
176
     1
 90
        0
176
     1
 90
        0
176
     1
290
     0
176
     1
 90
        1
176
     1
 40
0.0
176
     1
 90
        0
176
     1
290
     0
176
     1
290
     1
176
     1
290
     1
176
     1
290
     0
176
     1
290
     0
176
     1
290
     0
176
     1
290
     0
176
     1
290
     0
176
     1
290
     0
176
     1
 90
       50
176
     1
 40
0.0
176
     1
 40
1.0
176
     1
 90
        0
176
     1
 62
    18
420
        0
176
     1
 90
       50
176
     1
 90
        3
176
     1
 62
     5
420
      255
176
     1
290
     0
176
     1
 90
       50
176
     1
 90
       50
176
     1
 90
       50
176
     1
290
     0
176
     1
 90
       50
176
     1
 62
   256
176
     0
 40
1.0
176
     0
 90
        2
176
     1
  1
strokes_ogs.tif
176
     1
290
     0
176
     1
 40
1.0
176
     1
 40
1.0
176
     1
  0
VISUALSTYLE
  5
36
102
{ACAD_REACTORS
330
2A
102
}
330
2A
100
AcDbVisualStyle
  2
Brighten
 70
    12
177
     3
291
     1
 70
    58
 90
        2
176
     1
 90
        2
176
     1
 90
        0
176
     1
 90
        0
176
     1
 40
0.6
176
     1
 40
30.0
176
     1
 62
     7
420
 16777215
176
     1
 90
        1
176
     1
 90
        4
176
     1
 62
     7
176
     1
 62
   257
176
     1
 90
        1
176
     1
 90
        1
176
     1
 40
1.0
176
     1
 90
        8
176
     1
 62
     7
176
     1
 40
1.0
176
     1
 90
        1
176
     1
 90
        6
176
     1
 90
        2
176
     1
 62
     7
176
     1
 90
        5
176
     1
 90
        0
176
     1
 90
        0
176
     1
290
     0
176
     1
 90
        1
176
     1
 40
50.0
176
     1
 90
        0
176
     1
290
     0
176
     1
290
     1
176
     1
290
     1
176
     1
290
     0
176
     1
290
     0
176
     1
290
     0
176
     1
290
     0
176
     1
290
     0
176
     1
290
     0
176
     1
 90
       50
176
     1
 40
0.0
176
     1
 40
1.0
176
     1
 90
        0
176
     1
 62
    18
420
        0
176
     1
 90
       50
176
     1
 90
        3
176
     1
 62
     5
420
      255
176
     1
290
     0
176
     1
 90
       50
176
     1
 90
       50
176
     1
 90
       50
176
     1
290
     0
176
     1
 90
       50
176
     1
 62
   256
176
     0
 40
1.0
176
     0
 90
        2
176
     1
  1
strokes_ogs.tif
176
     1
290
     0
176
     1
 40
1.0
176
     1
 40
1.0
176
     1
  0
VISUALSTYLE
  5
3A
102
{ACAD_REACTORS
330
2A
102
}
330
2A
100
AcDbVisualStyle
  2
ColorChange
 70
    16
177
     3
291
     1
 70
    58
 90
        2
176
     1
 90
        2
176
     1
 90
        3
176
     1
 90
        0
176
     1
 40
0.6
176
     1
 40
30.0
176
     1
 62
     8
420
  8421504
176
     1
 90
        1
176
     1
 90
        4
176
     1
 62
     7
176
     1
 62
   257
176
     1
 90
        1
176
     1
 90
        1
176
     1
 40
1.0
176
     1
 90
        8
176
     1
 62
     8
420
  8421504
176
     1
 40
1.0
176
     1
 90
        1
176
     1
 90
        6
176
     1
 90
        2
176
     1
 62
     7
176
     1
 90
        5
176
     1
 90
        0
176
     1
 90
        0
176
     1
290
     0
176
     1
 90
        1
176
     1
 40
0.0
176
     1
 90
        0
176
     1
290
     0
176
     1
290
     1
176
     1
290
     1
176
     1
290
     0
176
     1
290
     0
176
     1
290
     0
176
     1
290
     0
176
     1
290
     0
176
     1
290
     0
176
     1
 90
       50
176
     1
 40
0.0
176
     1
 40
1.0
176
     1
 90
        0
176
     1
 62
    18
420
        0
176
     1
 90
       50
176
     1
 90
        3
176
     1
 62
     5
420
      255
176
     1
290
     0
176
     1
 90
       50
176
     1
 90
       50
176
     1
 90
       50
176
     1
290
     0
176
     1
 90
       50
176
     1
 62
   256
176
     0
 40
1.0
176
     0
 90
        2
176
     1
  1
strokes_ogs.tif
176
     1
290
     0
176
     1
 40
1.0
176
     1
 40
1.0
176
     1
  0
VISUALSTYLE
  5
34
102
{ACAD_REACTORS
330
2A
102
}
330
2A
100
AcDbVisualStyle
  2
Conceptual
 70
     9
177
     3
291
     0
 70
    58
 90
        3
176
     1
 90
        2
176
     1
 90
        0
176
     1
 90
        0
176
     1
 40
0.6
176
     1
 40
30.0
176
     1
 62
     7
420
 16777215
176
     1
 90
        2
176
     1
 90
        2
176
     1
 62
     7
176
     1
 62
   257
176
     1
 90
        1
176
     1
 90
        1
176
     1
 40
179.0
176
     1
 90
        8
176
     1
 62
     7
176
     1
 40
1.0
176
     1
 90
        1
176
     1
 90
        6
176
     1
 90
        2
176
     1
 62
     7
176
     1
 90
        3
176
     1
 90
        0
176
     1
 90
        0
176
     1
290
     0
176
     1
 90
        1
176
     1
 40
0.0
176
     1
 90
        0
176
     1
290
     0
176
     1
290
     1
176
     1
290
     1
176
     1
290
     0
176
     1
290
     0
176
     1
290
     0
176
     1
290
     0
176
     1
290
     0
176
     1
290
     0
176
     1
 90
       50
176
     1
 40
0.0
176
     1
 40
1.0
176
     1
 90
        0
176
     1
 62
    18
420
        0
176
     1
 90
       50
176
     1
 90
        3
176
     1
 62
     5
420
      255
176
     1
290
     0
176
     1
 90
       50
176
     1
 90
       50
176
     1
 90
       50
176
     1
290
     0
176
     1
 90
       50
176
     1
 62
   256
176
     0
 40
1.0
176
     0
 90
        2
176
     1
  1
strokes_ogs.tif
176
     1
290
     0
176
     1
 40
1.0
176
     1
 40
1.0
176
     1
  0
VISUALSTYLE
  5
35
102
{ACAD_REACTORS
330
2A
102
}
330
2A
100
AcDbVisualStyle
  2
Dim
 70
    11
177
     3
291
     1
 70
    58
 90
        2
176
     1
 90
        2
176
     1
 90
        0
176
     1
 90
        0
176
     1
 40
0.6
176
     1
 40
30.0
176
     1
 62
     7
420
 16777215
176
     1
 90
        1
176
     1
 90
        4
176
     1
 62
     7
176
     1
 62
   257
176
     1
 90
        1
176
     1
 90
        1
176
     1
 40
1.0
176
     1
 90
        8
176
     1
 62
     7
176
     1
 40
1.0
176
     1
 90
        1
176
     1
 90
        6
176
     1
 90
        2
176
     1
 62
     7
176
     1
 90
        5
176
     1
 90
        0
176
     1
 90
        0
176
     1
290
     0
176
     1
 90
        1
176
     1
 40
-50.0
176
     1
 90
        0
176
     1
290
     0
176
     1
290
     1
176
     1
290
     1
176
     1
290
     0
176
     1
290
     0
176
     1
290
     0
176
     1
290
     0
176
     1
290
     0
176
     1
290
     0
176
     1
 90
       50
176
     1
 40
0.0
176
     1
 40
1.0
176
     1
 90
        0
176
     1
 62
    18
420
        0
176
     1
 90
       50
176
     1
 90
        3
176
     1
 62
     5
420
      255
176
     1
290
     0
176
     1
 90
       50
176
     1
 90
       50
176
     1
 90
       50
176
     1
290
     0
176
     1
 90
       50
176
     1
 62
   256
176
     0
 40
1.0
176
     0
 90
        2
176
     1
  1
strokes_ogs.tif
176
     1
290
     0
176
     1
 40
1.0
176
     1
 40
1.0
176
     1
  0
VISUALSTYLE
  5
3D
102
{ACAD_REACTORS
330
2A
102
}
330
2A
100
AcDbVisualStyle
  2
EdgeColorOff
 70
    22
177
     3
291
     1
 70
    58
 90
        2
176
     0
 90
        2
176
     0
 90
        0
176
     0
 90
        0
176
     0
 40
0.6
176
     0
 40
30.0
176
     0
 62
     7
420
 16777215
176
     0
 90
        1
176
     0
 90
        4
176
     0
 62
     7
176
     0
 62
   257
176
     0
 90
        1
176
     0
 90
        1
176
     0
 40
1.0
176
     0
 90
        8
176
     2
 62
     7
176
     0
 40
1.0
176
     0
 90
        1
176
     0
 90
        6
176
     0
 90
        2
176
     0
 62
     7
176
     0
 90
        5
176
     0
 90
        0
176
     0
 90
        0
176
     0
290
     0
176
     0
 90
        1
176
     0
 40
0.0
176
     0
 90
        0
176
     0
290
     0
176
     0
290
     1
176
     0
290
     1
176
     0
290
     0
176
     0
290
     0
176
     0
290
     0
176
     0
290
     0
176
     0
290
     0
176
     0
290
     0
176
     0
 90
       50
176
     0
 40
0.0
176
     0
 40
1.0
176
     0
 90
        0
176
     0
 62
    18
420
        0
176
     0
 90
       50
176
     0
 90
        3
176
     0
 62
     5
420
      255
176
     0
290
     0
176
     0
 90
       50
176
     0
 90
       50
176
     0
 90
       50
176
     0
290
     0
176
     0
 90
       50
176
     0
 62
   256
176
     0
 40
1.0
176
     0
 90
        2
176
     0
  1
strokes_ogs.tif
176
     0
290
     0
176
     0
 40
1.0
176
     0
 40
1.0
176
     0
  0
VISUALSTYLE
  5
39
102
{ACAD_REACTORS
330
2A
102
}
330
2A
100
AcDbVisualStyle
  2
Facepattern
 70
    15
177
     3
291
     1
 70
    58
 90
        2
176
     1
 90
        2
176
     1
 90
        0
176
     1
 90
        0
176
     1
 40
0.6
176
     1
 40
30.0
176
     1
 62
     7
420
 16777215
176
     1
 90
        1
176
     1
 90
        4
176
     1
 62
     7
176
     1
 62
   257
176
     1
 90
        1
176
     1
 90
        1
176
     1
 40
1.0
176
     1
 90
        8
176
     1
 62
     7
176
     1
 40
1.0
176
     1
 90
        1
176
     1
 90
        6
176
     1
 90
        2
176
     1
 62
     7
176
     1
 90
        5
176
     1
 90
        0
176
     1
 90
        0
176
     1
290
     0
176
     1
 90
        1
176
     1
 40
0.0
176
     1
 90
        0
176
     1
290
     0
176
     1
290
     1
176
     1
290
     1
176
     1
290
     0
176
     1
290
     0
176
     1
290
     0
176
     1
290
     0
176
     1
290
     0
176
     1
290
     0
176
     1
 90
       50
176
     1
 40
0.0
176
     1
 40
1.0
176
     1
 90
        0
176
     1
 62
    18
420
        0
176
     1
 90
       50
176
     1
 90
        3
176
     1
 62
     5
420
      255
176
     1
290
     0
176
     1
 90
       50
176
     1
 90
       50
176
     1
 90
       50
176
     1
290
     0
176
     1
 90
       50
176
     1
 62
   256
176
     0
 40
1.0
176
     0
 90
        2
176
     1
  1
strokes_ogs.tif
176
     1
290
     0
176
     1
 40
1.0
176
     1
 40
1.0
176
     1
  0
VISUALSTYLE
  5
2B
102
{ACAD_REACTORS
330
2A
102
}
330
2A
100
AcDbVisualStyle
  2
Flat
 70
     0
177
     3
291
     1
 70
    58
 90
        2
176
     1
 90
        1
176
     1
 90
        1
176
     1
 90
        2
176
     1
 40
0.6
176
     1
 40
30.0
176
     1
 62
     7
420
 16777215
176
     1
 90
        0
176
     1
 90
        0
176
     1
 62
     7
176
     1
 62
   257
176
     1
 90
        1
176
     1
 90
        1
176
     1
 40
1.0
176
     1
 90
        8
176
     1
 62
     7
176
     1
 40
1.0
176
     1
 90
        1
176
     1
 90
        6
176
     1
 90
        2
176
     1
 62
     7
176
     1
 90
        5
176
     1
 90
        0
176
     1
 90
        0
176
     1
290
     0
176
     1
 90
       13
176
     1
 40
0.0
176
     1
 90
        0
176
     1
290
     0
176
     1
290
     1
176
     1
290
     1
176
     1
290
     0
176
     1
290
     0
176
     1
290
     0
176
     1
290
     0
176
     1
290
     0
176
     1
290
     0
176
     1
 90
       50
176
     1
 40
0.0
176
     1
 40
1.0
176
     1
 90
        0
176
     1
 62
    18
420
        0
176
     1
 90
       50
176
     1
 90
        3
176
     1
 62
     5
420
      255
176
     1
290
     0
176
     1
 90
       50
176
     1
 90
       50
176
     1
 90
       50
176
     1
290
     0
176
     1
 90
       50
176
     1
 62
   256
176
     0
 40
1.0
176
     0
 90
        2
176
     1
  1
strokes_ogs.tif
176
     1
290
     0
176
     1
 40
1.0
176
     1
 40
1.0
176
     1
  0
VISUALSTYLE
  5
2C
102
{ACAD_REACTORS
330
2A
102
}
330
2A
100
AcDbVisualStyle
  2
FlatWithEdges
 70
     1
177
     3
291
     1
 70
    58
 90
        2
176
     1
 90
        1
176
     1
 90
        1
176
     1
 90
        2
176
     1
 40
0.6
176
     1
 40
30.0
176
     1
 62
     7
420
 16777215
176
     1
 90
        1
176
     1
 90
        0
176
     1
 62
     7
176
     1
 62
   257
176
     1
 90
        1
176
     1
 90
        1
176
     1
 40
1.0
176
     1
 90
        0
176
     1
 62
   257
176
     1
 40
1.0
176
     1
 90
        1
176
     1
 90
        6
176
     1
 90
        2
176
     1
 62
     7
176
     1
 90
        5
176
     1
 90
        0
176
     1
 90
        0
176
     1
290
     0
176
     1
 90
       13
176
     1
 40
0.0
176
     1
 90
        0
176
     1
290
     0
176
     1
290
     1
176
     1
290
     1
176
     1
290
     0
176
     1
290
     0
176
     1
290
     0
176
     1
290
     0
176
     1
290
     0
176
     1
290
     0
176
     1
 90
       50
176
     1
 40
0.0
176
     1
 40
1.0
176
     1
 90
        0
176
     1
 62
    18
420
        0
176
     1
 90
       50
176
     1
 90
        3
176
     1
 62
     5
420
      255
176
     1
290
     0
176
     1
 90
       50
176
     1
 90
       50
176
     1
 90
       50
176
     1
290
     0
176
     1
 90
       50
176
     1
 62
   256
176
     0
 40
1.0
176
     0
 90
        2
176
     1
  1
strokes_ogs.tif
176
     1
290
     0
176
     1
 40
1.0
176
     1
 40
1.0
176
     1
  0
VISUALSTYLE
  5
2D
102
{ACAD_REACTORS
330
2A
102
}
330
2A
100
AcDbVisualStyle
  2
Gouraud
 70
     2
177
     3
291
     1
 70
    58
 90
        2
176
     1
 90
        2
176
     1
 90
        1
176
     1
 90
        2
176
     1
 40
0.6
176
     1
 40
30.0
176
     1
 62
     7
420
 16777215
176
     1
 90
        0
176
     1
 90
        0
176
     1
 62
     7
176
     1
 62
   257
176
     1
 90
        1
176
     1
 90
        1
176
     1
 40
1.0
176
     1
 90
        0
176
     1
 62
     7
176
     1
 40
1.0
176
     1
 90
        1
176
     1
 90
        6
176
     1
 90
        2
176
     1
 62
     7
176
     1
 90
        5
176
     1
 90
        0
176
     1
 90
        0
176
     1
290
     0
176
     1
 90
       13
176
     1
 40
0.0
176
     1
 90
        0
176
     1
290
     0
176
     1
290
     1
176
     1
290
     1
176
     1
290
     0
176
     1
290
     0
176
     1
290
     0
176
     1
290
     0
176
     1
290
     0
176
     1
290
     0
176
     1
 90
       50
176
     1
 40
0.0
176
     1
 40
1.0
176
     1
 90
        0
176
     1
 62
    18
420
        0
176
     1
 90
       50
176
     1
 90
        3
176
     1
 62
     5
420
      255
176
     1
290
     0
176
     1
 90
       50
176
     1
 90
       50
176
     1
 90
       50
176
     1
290
     0
176
     1
 90
       50
176
     1
 62
   256
176
     0
 40
1.0
176
     0
 90
        2
176
     1
  1
strokes_ogs.tif
176
     1
290
     0
176
     1
 40
1.0
176
     1
 40
1.0
176
     1
  0
VISUALSTYLE
  5
2E
102
{ACAD_REACTORS
330
2A
102
}
330
2A
100
AcDbVisualStyle
  2
GouraudWithEdges
 70
     3
177
     3
291
     1
 70
    58
 90
        2
176
     1
 90
        2
176
     1
 90
        1
176
     1
 90
        2
176
     1
 40
0.6
176
     1
 40
30.0
176
     1
 62
     7
420
 16777215
176
     1
 90
        1
176
     1
 90
        0
176
     1
 62
     7
176
     1
 62
   257
176
     1
 90
        1
176
     1
 90
        1
176
     1
 40
1.0
176
     1
 90
        0
176
     1
 62
   257
176
     1
 40
1.0
176
     1
 90
        1
176
     1
 90
        6
176
     1
 90
        2
176
     1
 62
     7
176
     1
 90
        5
176
     1
 90
        0
176
     1
 90
        0
176
     1
290
     0
176
     1
 90
       13
176
     1
 40
0.0
176
     1
 90
        0
176
     1
290
     0
176
     1
290
     1
176
     1
290
     1
176
     1
290
     0
176
     1
290
     0
176
     1
290
     0
176
     1
290
     0
176
     1
290
     0
176
     1
290
     0
176
     1
 90
       50
176
     1
 40
0.0
176
     1
 40
1.0
176
     1
 90
        0
176
     1
 62
    18
420
        0
176
     1
 90
       50
176
     1
 90
        3
176
     1
 62
     5
420
      255
176
     1
290
     0
176
     1
 90
       50
176
     1
 90
       50
176
     1
 90
       50
176
     1
290
     0
176
     1
 90
       50
176
     1
 62
   256
176
     0
 40
1.0
176
     0
 90
        2
176
     1
  1
strokes_ogs.tif
176
     1
290
     0
176
     1
 40
1.0
176
     1
 40
1.0
176
     1
  0
VISUALSTYLE
  5
31
102
{ACAD_REACTORS
330
2A
102
}
330
2A
100
AcDbVisualStyle
  2
Hidden
 70
     6
177
     3
291
     0
 70
    58
 90
        1
176
     1
 90
        2
176
     1
 90
        2
176
     1
 90
        0
176
     1
 40
0.6
176
     1
 40
30.0
176
     1
 62
     7
420
 16777215
176
     1
 90
        2
176
     1
 90
        2
176
     1
 62
     7
176
     1
 62
   257
176
     1
 90
        2
176
     1
 90
        1
176
     1
 40
40.0
176
     1
 90
        0
176
     1
 62
   257
176
     1
 40
1.0
176
     1
 90
        1
176
     1
 90
        6
176
     1
 90
        2
176
     1
 62
     7
176
     1
 90
        3
176
     1
 90
        0
176
     1
 90
        0
176
     1
290
     0
176
     1
 90
        1
176
     1
 40
0.0
176
     1
 90
        0
176
     1
290
     0
176
     1
290
     1
176
     1
290
     1
176
     1
290
     0
176
     1
290
     0
176
     1
290
     0
176
     1
290
     0
176
     1
290
     0
176
     1
290
     0
176
     1
 90
       50
176
     1
 40
0.0
176
     1
 40
1.0
176
     1
 90
        0
176
     1
 62
    18
420
        0
176
     1
 90
       50
176
     1
 90
        3
176
     1
 62
     5
420
      255
176
     1
290
     0
176
     1
 90
       50
176
     1
 90
       50
176
     1
 90
       50
176
     1
290
     0
176
     1
 90
       50
176
     1
 62
   256
176
     0
 40
1.0
176
     0
 90
        2
176
     1
  1
strokes_ogs.tif
176
     1
290
     0
176
     1
 40
1.0
176
     1
 40
1.0
176
     1
  0
VISUALSTYLE
  5
3B
102
{ACAD_REACTORS
330
2A
102
}
330
2A
100
AcDbVisualStyle
  2
JitterOff
 70
    20
177
     3
291
     1
 70
    58
 90
        2
176
     0
 90
        2
176
     0
 90
        0
176
     0
 90
        0
176
     0
 40
0.6
176
     0
 40
30.0
176
     0
 62
     7
420
 16777215
176
     0
 90
        1
176
     0
 90
        4
176
     0
 62
     7
176
     0
 62
   257
176
     0
 90
        1
176
     0
 90
        1
176
     0
 40
1.0
176
     0
 90
       10
176
     2
 62
     7
176
     0
 40
1.0
176
     0
 90
        1
176
     0
 90
        6
176
     0
 90
        2
176
     0
 62
     7
176
     0
 90
        5
176
     0
 90
        0
176
     0
 90
        0
176
     0
290
     0
176
     0
 90
        1
176
     0
 40
0.0
176
     0
 90
        0
176
     0
290
     0
176
     0
290
     1
176
     0
290
     1
176
     0
290
     0
176
     0
290
     0
176
     0
290
     0
176
     0
290
     0
176
     0
290
     0
176
     0
290
     0
176
     0
 90
       50
176
     0
 40
0.0
176
     0
 40
1.0
176
     0
 90
        0
176
     0
 62
    18
420
        0
176
     0
 90
       50
176
     0
 90
        3
176
     0
 62
     5
420
      255
176
     0
290
     0
176
     0
 90
       50
176
     0
 90
       50
176
     0
 90
       50
176
     0
290
     0
176
     0
 90
       50
176
     0
 62
   256
176
     0
 40
1.0
176
     0
 90
        2
176
     0
  1
strokes_ogs.tif
176
     0
290
     0
176
     0
 40
1.0
176
     0
 40
1.0
176
     0
  0
VISUALSTYLE
  5
38
102
{ACAD_REACTORS
330
2A
102
}
330
2A
100
AcDbVisualStyle
  2
Linepattern
 70
    14
177
     3
291
     1
 70
    58
 90
        2
176
     1
 90
        2
176
     1
 90
        0
176
     1
 90
        0
176
     1
 40
0.6
176
     1
 40
30.0
176
     1
 62
     7
420
 16777215
176
     1
 90
        1
176
     1
 90
        4
176
     1
 62
     7
176
     1
 62
   257
176
     1
 90
        7
176
     1
 90
        7
176
     1
 40
1.0
176
     1
 90
        8
176
     1
 62
     7
176
     1
 40
1.0
176
     1
 90
        1
176
     1
 90
        6
176
     1
 90
        2
176
     1
 62
     7
176
     1
 90
        5
176
     1
 90
        0
176
     1
 90
        0
176
     1
290
     0
176
     1
 90
        1
176
     1
 40
0.0
176
     1
 90
        0
176
     1
290
     0
176
     1
290
     1
176
     1
290
     1
176
     1
290
     0
176
     1
290
     0
176
     1
290
     0
176
     1
290
     0
176
     1
290
     0
176
     1
290
     0
176
     1
 90
       50
176
     1
 40
0.0
176
     1
 40
1.0
176
     1
 90
        0
176
     1
 62
    18
420
        0
176
     1
 90
       50
176
     1
 90
        3
176
     1
 62
     5
420
      255
176
     1
290
     0
176
     1
 90
       50
176
     1
 90
       50
176
     1
 90
       50
176
     1
290
     0
176
     1
 90
       50
176
     1
 62
   256
176
     0
 40
1.0
176
     0
 90
        2
176
     1
  1
strokes_ogs.tif
176
     1
290
     0
176
     1
 40
1.0
176
     1
 40
1.0
176
     1
  0
VISUALSTYLE
  5
3C
102
{ACAD_REACTORS
330
2A
102
}
330
2A
100
AcDbVisualStyle
  2
OverhangOff
 70
    21
177
     3
291
     1
 70
    58
 90
        2
176
     0
 90
        2
176
     0
 90
        0
176
     0
 90
        0
176
     0
 40
0.6
176
     0
 40
30.0
176
     0
 62
     7
420
 16777215
176
     0
 90
        1
176
     0
 90
        4
176
     0
 62
     7
176
     0
 62
   257
176
     0
 90
        1
176
     0
 90
        1
176
     0
 40
1.0
176
     0
 90
        9
176
     2
 62
     7
176
     0
 40
1.0
176
     0
 90
        1
176
     0
 90
        6
176
     0
 90
        2
176
     0
 62
     7
176
     0
 90
        5
176
     0
 90
        0
176
     0
 90
        0
176
     0
290
     0
176
     0
 90
        1
176
     0
 40
0.0
176
     0
 90
        0
176
     0
290
     0
176
     0
290
     1
176
     0
290
     1
176
     0
290
     0
176
     0
290
     0
176
     0
290
     0
176
     0
290
     0
176
     0
290
     0
176
     0
290
     0
176
     0
 90
       50
176
     0
 40
0.0
176
     0
 40
1.0
176
     0
 90
        0
176
     0
 62
    18
420
        0
176
     0
 90
       50
176
     0
 90
        3
176
     0
 62
     5
420
      255
176
     0
290
     0
176
     0
 90
       50
176
     0
 90
       50
176
     0
 90
       50
176
     0
290
     0
176
     0
 90
       50
176
     0
 62
   256
176
     0
 40
1.0
176
     0
 90
        2
176
     0
  1
strokes_ogs.tif
176
     0
290
     0
176
     0
 40
1.0
176
     0
 40
1.0
176
     0
  0
VISUALSTYLE
  5
33
102
{ACAD_REACTORS
330
2A
102
}
330
2A
100
AcDbVisualStyle
  2
Realistic
 70
     8
177
     3
291
     0
 70
    58
 90
        2
176
     1
 90
        3
176
     1
 90
        0
176
     1
 90
        2
176
     1
 40
0.6
176
     1
 40
30.0
176
     1
 62
     7
420
 16777215
176
     1
 90
        0
176
     1
 90
        0
176
     1
 62
     7
176
     1
 62
   257
176
     1
 90
        1
176
     1
 90
        1
176
     1
 40
1.0
176
     1
 90
        8
176
     1
 62
   257
176
     1
 40
1.0
176
     1
 90
        1
176
     1
 90
        6
176
     1
 90
        2
176
     1
 62
     7
176
     1
 90
        3
176
     1
 90
        0
176
     1
 90
        0
176
     1
290
     0
176
     1
 90
       13
176
     1
 40
0.0
176
     1
 90
        0
176
     1
290
     0
176
     1
290
     1
176
     1
290
     1
176
     1
290
     0
176
     1
290
     0
176
     1
290
     0
176
     1
290
     0
176
     1
290
     0
176
     1
290
     0
176
     1
 90
       50
176
     1
 40
0.0
176
     1
 40
1.0
176
     1
 90
        0
176
     1
 62
    18
420
        0
176
     1
 90
       50
176
     1
 90
        3
176
     1
 62
     5
420
      255
176
     1
290
     0
176
     1
 90
       50
176
     1
 90
       50
176
     1
 90
       50
176
     1
290
     0
176
     1
 90
       50
176
     1
 62
   256
176
     0
 40
1.0
176
     0
 90
        2
176
     1
  1
strokes_ogs.tif
176
     1
290
     0
176
     1
 40
1.0
176
     1
 40
1.0
176
     1
  0
VISUALSTYLE
  5
42
102
{ACAD_REACTORS
330
2A
102
}
330
2A
100
AcDbVisualStyle
  2
Shaded
 70
    27
177
     3
291
     0
 70
    58
 90
        2
176
     1
 90
        2
176
     1
 90
        1
176
     1
 90
        2
176
     1
 40
0.6
176
     1
 40
30.0
176
     1
 62
     7
420
 16777215
176
     1
 90
        0
176
     1
 90
        4
176
     1
 62
     7
176
     1
 62
   257
176
     1
 90
        1
176
     1
 90
        1
176
     1
 40
1.0
176
     1
 90
        8
176
     1
 62
   257
176
     1
 40
1.0
176
     1
 90
        1
176
     1
 90
        6
176
     1
 90
        2
176
     1
 62
     8
420
  7895160
176
     1
 90
        3
176
     1
 90
        0
176
     1
 90
        0
176
     1
290
     0
176
     1
 90
        5
176
     1
 40
0.0
176
     1
 90
        0
176
     1
290
     0
176
     1
290
     1
176
     1
290
     1
176
     1
290
     0
176
     1
290
     0
176
     1
290
     0
176
     1
290
     0
176
     1
290
     0
176
     1
290
     0
176
     1
 90
       50
176
     1
 40
0.0
176
     1
 40
1.0
176
     1
 90
        0
176
     1
 62
    18
420
        0
176
     1
 90
       50
176
     1
 90
        3
176
     1
 62
     5
420
      255
176
     1
290
     0
176
     1
 90
       50
176
     1
 90
       50
176
     1
 90
       50
176
     1
290
     0
176
     1
 90
       50
176
     1
 62
   256
176
     0
 40
1.0
176
     0
 90
        2
176
     1
  1
strokes_ogs.tif
176
     1
290
     0
176
     1
 40
1.0
176
     1
 40
1.0
176
     1
  0
VISUALSTYLE
  5
41
102
{ACAD_REACTORS
330
2A
102
}
330
2A
100
AcDbVisualStyle
  2
Shaded with edges
 70
    26
177
     3
291
     0
 70
    58
 90
        2
176
     1
 90
        2
176
     1
 90
        1
176
     1
 90
        2
176
     1
 40
0.6
176
     1
 40
30.0
176
     1
 62
     7
420
 16777215
176
     1
 90
        1
176
     1
 90
       10
176
     1
 62
     7
176
     1
 62
   257
176
     1
 90
        2
176
     1
 90
        1
176
     1
 40
1.0
176
     1
 90
        8
176
     1
 62
   257
176
     1
 40
1.0
176
     1
 90
        1
176
     1
 90
        6
176
     1
 90
        2
176
     1
 62
     7
176
     1
 90
        3
176
     1
 90
        0
176
     1
 90
        0
176
     1
290
     0
176
     1
 90
        5
176
     1
 40
0.0
176
     1
 90
        0
176
     1
290
     0
176
     1
290
     1
176
     1
290
     1
176
     1
290
     0
176
     1
290
     0
176
     1
290
     0
176
     1
290
     0
176
     1
290
     0
176
     1
290
     0
176
     1
 90
       50
176
     1
 40
0.0
176
     1
 40
1.0
176
     1
 90
        0
176
     1
 62
    18
420
        0
176
     1
 90
       50
176
     1
 90
        3
176
     1
 62
     5
420
      255
176
     1
290
     0
176
     1
 90
       50
176
     1
 90
       50
176
     1
 90
       50
176
     1
290
     0
176
     1
 90
       50
176
     1
 62
   256
176
     0
 40
1.0
176
     0
 90
        2
176
     1
  1
strokes_ogs.tif
176
     1
290
     0
176
     1
 40
1.0
176
     1
 40
1.0
176
     1
  0
VISUALSTYLE
  5
3E
102
{ACAD_REACTORS
330
2A
102
}
330
2A
100
AcDbVisualStyle
  2
Shades of Gray
 70
    23
177
     3
291
     0
 70
    58
 90
        2
176
     1
 90
        2
176
     1
 90
        3
176
     1
 90
        0
176
     1
 40
0.6
176
     1
 40
30.0
176
     1
 62
     7
420
 16777215
176
     1
 90
        2
176
     1
 90
        2
176
     1
 62
     7
176
     1
 62
     7
176
     1
 90
        1
176
     1
 90
        1
176
     1
 40
40.0
176
     1
 90
        8
176
     1
 62
     7
176
     1
 40
1.0
176
     1
 90
        1
176
     1
 90
        6
176
     1
 90
        2
176
     1
 62
     7
176
     1
 90
        3
176
     1
 90
        0
176
     1
 90
        0
176
     1
290
     0
176
     1
 90
        1
176
     1
 40
0.0
176
     1
 90
        0
176
     1
290
     0
176
     1
290
     1
176
     1
290
     1
176
     1
290
     0
176
     1
290
     0
176
     1
290
     0
176
     1
290
     0
176
     1
290
     0
176
     1
290
     0
176
     1
 90
       50
176
     1
 40
0.0
176
     1
 40
1.0
176
     1
 90
        0
176
     1
 62
    18
420
        0
176
     1
 90
       50
176
     1
 90
        3
176
     1
 62
     5
420
      255
176
     1
290
     0
176
     1
 90
       50
176
     1
 90
       50
176
     1
 90
       50
176
     1
290
     0
176
     1
 90
       50
176
     1
 62
   256
176
     0
 40
1.0
176
     0
 90
        2
176
     1
  1
strokes_ogs.tif
176
     1
290
     0
176
     1
 40
1.0
176
     1
 40
1.0
176
     1
  0
VISUALSTYLE
  5
3F
102
{ACAD_REACTORS
330
2A
102
}
330
2A
100
AcDbVisualStyle
  2
Sketchy
 70
    24
177
     3
291
     0
 70
    58
 90
        1
176
     1
 90
        2
176
     1
 90
        2
176
     1
 90
        0
176
     1
 40
0.6
176
     1
 40
30.0
176
     1
 62
     7
420
 16777215
176
     1
 90
        2
176
     1
 90
        2
176
     1
 62
     7
176
     1
 62
     7
176
     1
 90
        1
176
     1
 90
        1
176
     1
 40
40.0
176
     1
 90
       11
176
     1
 62
     7
176
     1
 40
1.0
176
     1
 90
        1
176
     1
 90
        6
176
     1
 90
        2
176
     1
 62
     7
176
     1
 90
        6
176
     1
 90
        0
176
     1
 90
        0
176
     1
290
     0
176
     1
 90
        1
176
     1
 40
0.0
176
     1
 90
        0
176
     1
290
     0
176
     1
290
     1
176
     1
290
     1
176
     1
290
     0
176
     1
290
     0
176
     1
290
     0
176
     1
290
     0
176
     1
290
     0
176
     1
290
     0
176
     1
 90
       50
176
     1
 40
0.0
176
     1
 40
1.0
176
     1
 90
        0
176
     1
 62
    18
420
        0
176
     1
 90
       50
176
     1
 90
        3
176
     1
 62
     5
420
      255
176
     1
290
     0
176
     1
 90
       50
176
     1
 90
       50
176
     1
 90
       50
176
     1
290
     0
176
     1
 90
       50
176
     1
 62
   256
176
     0
 40
1.0
176
     0
 90
        2
176
     1
  1
strokes_ogs.tif
176
     1
290
     0
176
     1
 40
1.0
176
     1
 40
1.0
176
     1
  0
VISUALSTYLE
  5
37
102
{ACAD_REACTORS
330
2A
102
}
330
2A
100
AcDbVisualStyle
  2
Thicken
 70
    13
177
     3
291
     1
 70
    58
 90
        2
176
     1
 90
        2
176
     1
 90
        0
176
     1
 90
        0
176
     1
 40
0.6
176
     1
 40
30.0
176
     1
 62
     7
420
 16777215
176
     1
 90
        1
176
     1
 90
        4
176
     1
 62
     7
176
     1
 62
   257
176
     1
 90
        1
176
     1
 90
        1
176
     1
 40
1.0
176
     1
 90
       12
176
     1
 62
     7
176
     1
 40
1.0
176
     1
 90
        1
176
     1
 90
        6
176
     1
 90
        2
176
     1
 62
     7
176
     1
 90
        5
176
     1
 90
        0
176
     1
 90
        0
176
     1
290
     0
176
     1
 90
        1
176
     1
 40
0.0
176
     1
 90
        0
176
     1
290
     0
176
     1
290
     1
176
     1
290
     1
176
     1
290
     0
176
     1
290
     0
176
     1
290
     0
176
     1
290
     0
176
     1
290
     0
176
     1
290
     0
176
     1
 90
       50
176
     1
 40
0.0
176
     1
 40
1.0
176
     1
 90
        0
176
     1
 62
    18
420
        0
176
     1
 90
       50
176
     1
 90
        3
176
     1
 62
     5
420
      255
176
     1
290
     0
176
     1
 90
       50
176
     1
 90
       50
176
     1
 90
       50
176
     1
290
     0
176
     1
 90
       50
176
     1
 62
   256
176
     0
 40
1.0
176
     0
 90
        2
176
     1
  1
strokes_ogs.tif
176
     1
290
     0
176
     1
 40
1.0
176
     1
 40
1.0
176
     1
  0
VISUALSTYLE
  5
30
102
{ACAD_REACTORS
330
2A
102
}
330
2A
100
AcDbVisualStyle
  2
Wireframe
 70
     5
177
     3
291
     0
 70
    58
 90
        0
176
     1
 90
        2
176
     1
 90
        0
176
     1
 90
        0
176
     1
 40
0.6
176
     1
 40
30.0
176
     1
 62
     7
420
 16777215
176
     1
 90
        1
176
     1
 90
        4
176
     1
 62
     7
176
     1
 62
   257
176
     1
 90
        1
176
     1
 90
        1
176
     1
 40
1.0
176
     1
 90
        0
176
     1
 62
   257
176
     1
 40
1.0
176
     1
 90
        1
176
     1
 90
        6
176
     1
 90
        2
176
     1
 62
     7
176
     1
 90
        3
176
     1
 90
        0
176
     1
 90
        0
176
     1
290
     0
176
     1
 90
        1
176
     1
 40
0.0
176
     1
 90
        0
176
     1
290
     0
176
     1
290
     1
176
     1
290
     1
176
     1
290
     0
176
     1
290
     0
176
     1
290
     0
176
     1
290
     0
176
     1
290
     0
176
     1
290
     0
176
     1
 90
       50
176
     1
 40
0.0
176
     1
 40
1.0
176
     1
 90
        0
176
     1
 62
    18
420
        0
176
     1
 90
       50
176
     1
 90
        3
176
     1
 62
     5
420
      255
176
     1
290
     0
176
     1
 90
       50
176
     1
 90
       50
176
     1
 90
       50
176
     1
290
     0
176
     1
 90
       50
176
     1
 62
   256
176
     0
 40
1.0
176
     0
 90
        2
176
     1
  1
strokes_ogs.tif
176
     1
290
     0
176
     1
 40
1.0
176
     1
 40
1.0
176
     1
  0
VISUALSTYLE
  5
40
102
{ACAD_REACTORS
330
2A
102
}
330
2A
100
AcDbVisualStyle
  2
X-Ray
 70
    25
177
     3
291
     0
 70
    58
 90
        2
176
     1
 90
        2
176
     1
 90
        1
176
     1
 90
        1
176
     1
 40
0.5
176
     1
 40
30.0
176
     1
 62
     7
420
 16777215
176
     1
 90
        1
176
     1
 90
        0
176
     1
 62
     7
176
     1
 62
   257
176
     1
 90
        1
176
     1
 90
        1
176
     1
 40
1.0
176
     1
 90
        8
176
     1
 62
     7
176
     1
 40
1.0
176
     1
 90
        1
176
     1
 90
        6
176
     1
 90
        2
176
     1
 62
     7
176
     1
 90
        3
176
     1
 90
        0
176
     1
 90
        0
176
     1
290
     0
176
     1
 90
       13
176
     1
 40
0.0
176
     1
 90
        0
176
     1
290
     0
176
     1
290
     1
176
     1
290
     1
176
     1
290
     0
176
     1
290
     0
176
     1
290
     0
176
     1
290
     0
176
     1
290
     0
176
     1
290
     0
176
     1
 90
       50
176
     1
 40
0.0
176
     1
 40
1.0
176
     1
 90
        0
176
     1
 62
    18
420
        0
176
     1
 90
       50
176
     1
 90
        3
176
     1
 62
     5
420
      255
176
     1
290
     0
176
     1
 90
       50
176
     1
 90
       50
176
     1
 90
       50
176
     1
290
     0
176
     1
 90
       50
176
     1
 62
   256
176
     0
 40
1.0
176
     0
 90
        2
176
     1
  1
strokes_ogs.tif
176
     1
290
     0
176
     1
 40
1.0
176
     1
 40
1.0
176
     1
  0
DICTIONARYVAR
  5
20C
102
{ACAD_REACTORS
330
20B
102
}
330
20B
100
DictionaryVariables
280
     0
  1
1:1
  0
DICTIONARYVAR
  5
211
102
{ACAD_REACTORS
330
20B
102
}
330
20B
100
DictionaryVariables
280
     0
  1
Standard
  0
DICTIONARYVAR
  5
210
102
{ACAD_REACTORS
330
20B
102
}
330
20B
100
DictionaryVariables
280
     0
  1
Standard
  0
DICTIONARY
  5
20D
330
6A
100
AcDbDictionary
280
     1
281
     1
  3
ACAD_ROUNDTRIP_2008_TABLESTYLE_CELLSTYLEMAP
360
20E
  0
CELLSTYLEMAP
  5
20E
102
{ACAD_REACTORS
330
20D
102
}
330
20D
100
AcDbCellStyleMap
 90
        3
300
CELLSTYLE
  1
TABLEFORMAT_BEGIN
 90
        5
170
     1
 91
        0
 92
    32768
 62
   257
 93
        1
300
CONTENTFORMAT
  1
CONTENTFORMAT_BEGIN
 90
        0
 91
        0
 92
        4
 93
        0
300

 40
0.0
140
1.0
 94
        5
 62
     0
340
11
144
0.25
309
CONTENTFORMAT_END
171
     1
301
MARGIN
  1
CELLMARGIN_BEGIN
 40
0.06
 40
0.06
 40
0.06
 40
0.06
 40
0.06
 40
0.06
309
CELLMARGIN_END
 94
        6
 95
        1
302
GRIDFORMAT
  1
GRIDFORMAT_BEGIN
 90
        0
 91
        1
 62
     0
 92
       -2
340
14
 93
        0
 40
0.045
309
GRIDFORMAT_END
 95
        2
302
GRIDFORMAT
  1
GRIDFORMAT_BEGIN
 90
        0
 91
        1
 62
     0
 92
       -2
340
14
 93
        0
 40
0.045
309
GRIDFORMAT_END
 95
        4
302
GRIDFORMAT
  1
GRIDFORMAT_BEGIN
 90
        0
 91
        1
 62
     0
 92
       -2
340
14
 93
        0
 40
0.045
309
GRIDFORMAT_END
 95
        8
302
GRIDFORMAT
  1
GRIDFORMAT_BEGIN
 90
        0
 91
        1
 62
     0
 92
       -2
340
14
 93
        0
 40
0.045
309
GRIDFORMAT_END
 95
       16
302
GRIDFORMAT
  1
GRIDFORMAT_BEGIN
 90
        0
 91
        1
 62
     0
 92
       -2
340
14
 93
        0
 40
0.045
309
GRIDFORMAT_END
 95
       32
302
GRIDFORMAT
  1
GRIDFORMAT_BEGIN
 90
        0
 91
        1
 62
     0
 92
       -2
340
14
 93
        0
 40
0.045
309
GRIDFORMAT_END
309
TABLEFORMAT_END
  1
CELLSTYLE_BEGIN
 90
        1
 91
        1
300
_TITLE
309
CELLSTYLE_END
300
CELLSTYLE
  1
TABLEFORMAT_BEGIN
 90
        5
170
     1
 91
        0
 92
        0
 62
   257
 93
        1
300
CONTENTFORMAT
  1
CONTENTFORMAT_BEGIN
 90
        0
 91
        0
 92
        4
 93
        0
300

 40
0.0
140
1.0
 94
        5
 62
     0
340
11
144
0.18
309
CONTENTFORMAT_END
171
     1
301
MARGIN
  1
CELLMARGIN_BEGIN
 40
0.06
 40
0.06
 40
0.06
 40
0.06
 40
0.06
 40
0.06
309
CELLMARGIN_END
 94
        6
 95
        1
302
GRIDFORMAT
  1
GRIDFORMAT_BEGIN
 90
        0
 91
        1
 62
     0
 92
       -2
340
14
 93
        0
 40
0.045
309
GRIDFORMAT_END
 95
        2
302
GRIDFORMAT
  1
GRIDFORMAT_BEGIN
 90
        0
 91
        1
 62
     0
 92
       -2
340
14
 93
        0
 40
0.045
309
GRIDFORMAT_END
 95
        4
302
GRIDFORMAT
  1
GRIDFORMAT_BEGIN
 90
        0
 91
        1
 62
     0
 92
       -2
340
14
 93
        0
 40
0.045
309
GRIDFORMAT_END
 95
        8
302
GRIDFORMAT
  1
GRIDFORMAT_BEGIN
 90
        0
 91
        1
 62
     0
 92
       -2
340
14
 93
        0
 40
0.045
309
GRIDFORMAT_END
 95
       16
302
GRIDFORMAT
  1
GRIDFORMAT_BEGIN
 90
        0
 91
        1
 62
     0
 92
       -2
340
14
 93
        0
 40
0.045
309
GRIDFORMAT_END
 95
       32
302
GRIDFORMAT
  1
GRIDFORMAT_BEGIN
 90
        0
 91
        1
 62
     0
 92
       -2
340
14
 93
        0
 40
0.045
309
GRIDFORMAT_END
309
TABLEFORMAT_END
  1
CELLSTYLE_BEGIN
 90
        2
 91
        1
300
_HEADER
309
CELLSTYLE_END
300
CELLSTYLE
  1
TABLEFORMAT_BEGIN
 90
        5
170
     1
 91
        0
 92
        0
 62
   257
 93
        1
300
CONTENTFORMAT
  1
CONTENTFORMAT_BEGIN
 90
        0
 91
        0
 92
        4
 93
        0
300

 40
0.0
140
1.0
 94
        2
 62
     0
340
11
144
0.18
309
CONTENTFORMAT_END
171
     1
301
MARGIN
  1
CELLMARGIN_BEGIN
 40
0.06
 40
0.06
 40
0.06
 40
0.06
 40
0.06
 40
0.06
309
CELLMARGIN_END
 94
        6
 95
        1
302
GRIDFORMAT
  1
GRIDFORMAT_BEGIN
 90
        0
 91
        1
 62
     0
 92
       -2
340
14
 93
        0
 40
0.045
309
GRIDFORMAT_END
 95
        2
302
GRIDFORMAT
  1
GRIDFORMAT_BEGIN
 90
        0
 91
        1
 62
     0
 92
       -2
340
14
 93
        0
 40
0.045
309
GRIDFORMAT_END
 95
        4
302
GRIDFORMAT
  1
GRIDFORMAT_BEGIN
 90
        0
 91
        1
 62
     0
 92
       -2
340
14
 93
        0
 40
0.045
309
GRIDFORMAT_END
 95
        8
302
GRIDFORMAT
  1
GRIDFORMAT_BEGIN
 90
        0
 91
        1
 62
     0
 92
       -2
340
14
 93
        0
 40
0.045
309
GRIDFORMAT_END
 95
       16
302
GRIDFORMAT
  1
GRIDFORMAT_BEGIN
 90
        0
 91
        1
 62
     0
 92
       -2
340
14
 93
        0
 40
0.045
309
GRIDFORMAT_END
 95
       32
302
GRIDFORMAT
  1
GRIDFORMAT_BEGIN
 90
        0
 91
        1
 62
     0
 92
       -2
340
14
 93
        0
 40
0.045
309
GRIDFORMAT_END
309
TABLEFORMAT_END
  1
CELLSTYLE_BEGIN
 90
        3
 91
        2
300
_DATA
309
CELLSTYLE_END
  0
ENDSEC
  0
EOF