0
SECTION
  2
HEADER
  9
$ACADVER
  1
AC1027
  9
$ACADMAINTVER
 70
     8
  9
$DWGCODEPAGE
  3
ANSI_1252
  9
$REQUIREDVERSIONS
160
                 0
  9
$COMMENTS
  1
File was created by Cadenas
  9
$CUSTOMPROPERTYTAG
  1
NN
  9
$CUSTOMPROPERTY
  1
Flange Bearing -  Non-Expansion - Inch
  9
$CUSTOMPROPERTYTAG
  1
NT
  9
$CUSTOMPROPERTY
  1
Type K
  9
$CUSTOMPROPERTYTAG
  1
NB
  9
$CUSTOMPROPERTY
  1
023219
  9
$CUSTOMPROPERTYTAG
  1
NBSYN
  9
$CUSTOMPROPERTY
  1
$PN.
  9
$CUSTOMPROPERTYTAG
  1
LINA
  9
$CUSTOMPROPERTY
  1
023219
  9
$CUSTOMPROPERTYTAG
  1
SS
  9
$CUSTOMPROPERTY
  1
1-15/16
  9
$CUSTOMPROPERTYTAG
  1
PN
  9
$CUSTOMPROPERTY
  1
023219
  9
$CUSTOMPROPERTYTAG
  1
PNA
  9
$CUSTOMPROPERTY
  1
F4B-K-115R
  9
$CUSTOMPROPERTYTAG
  1
WEIGHT
  9
$CUSTOMPROPERTY
  1
14
  9
$CUSTOMPROPERTYTAG
  1
A
  9
$CUSTOMPROPERTY
  1
3-1/8
  9
$CUSTOMPROPERTYTAG
  1
B
  9
$CUSTOMPROPERTY
  1
6-7/8
  9
$CUSTOMPROPERTYTAG
  1
C
  9
$CUSTOMPROPERTY
  1
2-9/16
  9
$CUSTOMPROPERTYTAG
  1
D
  9
$CUSTOMPROPERTY
  1
5-5/16
  9
$CUSTOMPROPERTYTAG
  1
E
  9
$CUSTOMPROPERTY
  1
5/32
  9
$CUSTOMPROPERTYTAG
  1
F
  9
$CUSTOMPROPERTY
  1
5/8
  9
$CUSTOMPROPERTYTAG
  1
G
  9
$CUSTOMPROPERTY
  1
7-1/4
  9
$CUSTOMPROPERTYTAG
  1
H
  9
$CUSTOMPROPERTY
  1
9/16
  9
$CUSTOMPROPERTYTAG
  1
J
  9
$CUSTOMPROPERTY
  1
5-5/16
  9
$CUSTOMPROPERTYTAG
  1
L
  9
$CUSTOMPROPERTY
  1
3-7/16
  9
$CUSTOMPROPERTYTAG
  1
CS
  9
$CUSTOMPROPERTY
  1
43000
  9
$CUSTOMPROPERTYTAG
  1
CD
  9
$CUSTOMPROPERTY
  1
8070
  9
$CUSTOMPROPERTYTAG
  1
RN
  9
$CUSTOMPROPERTY
  1
17
  9
$CUSTOMPROPERTYTAG
  1
RM
  9
$CUSTOMPROPERTY
  1
.41
  9
$CUSTOMPROPERTYTAG
  1
PDI
  9
$CUSTOMPROPERTY
  1
2.709
  9
$CUSTOMPROPERTYTAG
  1
EP
  9
$CUSTOMPROPERTY
  1
.004-0.12
  9
$CUSTOMPROPERTYTAG
  1
SC
  9
$CUSTOMPROPERTY
  1
3/8-16*3/4
  9
$CUSTOMPROPERTYTAG
  1
TC
  9
$CUSTOMPROPERTY
  1
290
  9
$CUSTOMPROPERTYTAG
  1
MH
  9
$CUSTOMPROPERTY
  1
C.I. ASTM A48 CLASS 30
  9
$CUSTOMPROPERTYTAG
  1
MC
  9
$CUSTOMPROPERTY
  1
4118 CASE CARB.
  9
$CUSTOMPROPERTYTAG
  1
MCU
  9
$CUSTOMPROPERTY
  1
4118 CASE CARB.
  9
$CUSTOMPROPERTYTAG
  1
MR
  9
$CUSTOMPROPERTY
  1
STEEL
  9
$CUSTOMPROPERTYTAG
  1
MRO
  9
$CUSTOMPROPERTY
  1
4118 CASE CARB.
  9
$CUSTOMPROPERTYTAG
  1
SM
  9
$CUSTOMPROPERTY
  1
4.54
  9
$CUSTOMPROPERTYTAG
  1
COMPANY
  9
$CUSTOMPROPERTY
  1
baldor
  9
$INSBASE
 10
0.0
 20
0.0
 30
0.0
  9
$EXTMIN
 10
1.000000000000000E+20
 20
1.000000000000000E+20
 30
1.000000000000000E+20
  9
$EXTMAX
 10
-1.000000000000000E+20
 20
-1.000000000000000E+20
 30
-1.000000000000000E+20
  9
$LIMMIN
 10
0.0
 20
0.0
  9
$LIMMAX
 10
12.0
 20
9.0
  9
$ORTHOMODE
 70
     0
  9
$REGENMODE
 70
     1
  9
$FILLMODE
 70
     1
  9
$QTEXTMODE
 70
     0
  9
$MIRRTEXT
 70
     1
  9
$LTSCALE
 40
1.0
  9
$ATTMODE
 70
     1
  9
$TEXTSIZE
 40
0.2
  9
$TRACEWID
 40
0.05
  9
$TEXTSTYLE
  7
Standard
  9
$CLAYER
  8
0
  9
$CELTYPE
  6
ByLayer
  9
$CECOLOR
 62
   256
  9
$CELTSCALE
 40
1.0
  9
$DISPSILH
 70
     0
  9
$DIMSCALE
 40
1.0
  9
$DIMASZ
 40
0.18
  9
$DIMEXO
 40
0.0625
  9
$DIMDLI
 40
0.38
  9
$DIMRND
 40
0.0
  9
$DIMDLE
 40
0.0
  9
$DIMEXE
 40
0.18
  9
$DIMTP
 40
0.0
  9
$DIMTM
 40
0.0
  9
$DIMTXT
 40
0.18
  9
$DIMCEN
 40
0.09
  9
$DIMTSZ
 40
0.0
  9
$DIMTOL
 70
     0
  9
$DIMLIM
 70
     0
  9
$DIMTIH
 70
     1
  9
$DIMTOH
 70
     1
  9
$DIMSE1
 70
     0
  9
$DIMSE2
 70
     0
  9
$DIMTAD
 70
     0
  9
$DIMZIN
 70
     0
  9
$DIMBLK
  1

  9
$DIMASO
 70
     1
  9
$DIMSHO
 70
     1
  9
$DIMPOST
  1

  9
$DIMAPOST
  1

  9
$DIMALT
 70
     0
  9
$DIMALTD
 70
     2
  9
$DIMALTF
 40
25.4
  9
$DIMLFAC
 40
1.0
  9
$DIMTOFL
 70
     0
  9
$DIMTVP
 40
0.0
  9
$DIMTIX
 70
     0
  9
$DIMSOXD
 70
     0
  9
$DIMSAH
 70
     0
  9
$DIMBLK1
  1

  9
$DIMBLK2
  1

  9
$DIMSTYLE
  2
Standard
  9
$DIMCLRD
 70
     0
  9
$DIMCLRE
 70
     0
  9
$DIMCLRT
 70
     0
  9
$DIMTFAC
 40
1.0
  9
$DIMGAP
 40
0.09
  9
$DIMJUST
 70
     0
  9
$DIMSD1
 70
     0
  9
$DIMSD2
 70
     0
  9
$DIMTOLJ
 70
     1
  9
$DIMTZIN
 70
     0
  9
$DIMALTZ
 70
     0
  9
$DIMALTTZ
 70
     0
  9
$DIMUPT
 70
     0
  9
$DIMDEC
 70
     4
  9
$DIMTDEC
 70
     4
  9
$DIMALTU
 70
     2
  9
$DIMALTTD
 70
     2
  9
$DIMTXSTY
  7
Standard
  9
$DIMAUNIT
 70
     0
  9
$DIMADEC
 70
     0
  9
$DIMALTRND
 40
0.0
  9
$DIMAZIN
 70
     0
  9
$DIMDSEP
 70
    46
  9
$DIMATFIT
 70
     3
  9
$DIMFRAC
 70
     0
  9
$DIMLDRBLK
  1

  9
$DIMLUNIT
 70
     2
  9
$DIMLWD
 70
    -2
  9
$DIMLWE
 70
    -2
  9
$DIMTMOVE
 70
     0
  9
$DIMFXL
 40
1.0
  9
$DIMFXLON
 70
     0
  9
$DIMJOGANG
 40
0.7853981633974483
  9
$DIMTFILL
 70
     0
  9
$DIMTFILLCLR
 70
     0
  9
$DIMARCSYM
 70
     0
  9
$DIMLTYPE
  6

  9
$DIMLTEX1
  6

  9
$DIMLTEX2
  6

  9
$DIMTXTDIRECTION
 70
     0
  9
$LUNITS
 70
     2
  9
$LUPREC
 70
     4
  9
$SKETCHINC
 40
0.1
  9
$FILLETRAD
 40
0.5
  9
$AUNITS
 70
     0
  9
$AUPREC
 70
     0
  9
$MENU
  1
.
  9
$ELEVATION
 40
0.0
  9
$PELEVATION
 40
0.0
  9
$THICKNESS
 40
0.0
  9
$LIMCHECK
 70
     0
  9
$CHAMFERA
 40
0.0
  9
$CHAMFERB
 40
0.0
  9
$CHAMFERC
 40
0.0
  9
$CHAMFERD
 40
0.0
  9
$SKPOLY
 70
     0
  9
$TDCREATE
 40
2458169.005243229
  9
$TDUCREATE
 40
2458168.963576563
  9
$TDUPDATE
 40
2458169.005243403
  9
$TDUUPDATE
 40
2458168.963576736
  9
$TDINDWG
 40
0.0000000116
  9
$TDUSRTIMER
 40
0.0000000116
  9
$USRTIMER
 70
     1
  9
$ANGBASE
 50
0.0
  9
$ANGDIR
 70
     0
  9
$PDMODE
 70
     0
  9
$PDSIZE
 40
0.0
  9
$PLINEWID
 40
0.0
  9
$SPLFRAME
 70
     0
  9
$SPLINETYPE
 70
     6
  9
$SPLINESEGS
 70
     8
  9
$HANDSEED
  5
203
  9
$SURFTAB1
 70
     6
  9
$SURFTAB2
 70
     6
  9
$SURFTYPE
 70
     6
  9
$SURFU
 70
     6
  9
$SURFV
 70
     6
  9
$UCSBASE
  2

  9
$UCSNAME
  2

  9
$UCSORG
 10
0.0
 20
0.0
 30
0.0
  9
$UCSXDIR
 10
1.0
 20
0.0
 30
0.0
  9
$UCSYDIR
 10
0.0
 20
1.0
 30
0.0
  9
$UCSORTHOREF
  2

  9
$UCSORTHOVIEW
 70
     0
  9
$UCSORGTOP
 10
0.0
 20
0.0
 30
0.0
  9
$UCSORGBOTTOM
 10
0.0
 20
0.0
 30
0.0
  9
$UCSORGLEFT
 10
0.0
 20
0.0
 30
0.0
  9
$UCSORGRIGHT
 10
0.0
 20
0.0
 30
0.0
  9
$UCSORGFRONT
 10
0.0
 20
0.0
 30
0.0
  9
$UCSORGBACK
 10
0.0
 20
0.0
 30
0.0
  9
$PUCSBASE
  2

  9
$PUCSNAME
  2

  9
$PUCSORG
 10
0.0
 20
0.0
 30
0.0
  9
$PUCSXDIR
 10
1.0
 20
0.0
 30
0.0
  9
$PUCSYDIR
 10
0.0
 20
1.0
 30
0.0
  9
$PUCSORTHOREF
  2

  9
$PUCSORTHOVIEW
 70
     0
  9
$PUCSORGTOP
 10
0.0
 20
0.0
 30
0.0
  9
$PUCSORGBOTTOM
 10
0.0
 20
0.0
 30
0.0
  9
$PUCSORGLEFT
 10
0.0
 20
0.0
 30
0.0
  9
$PUCSORGRIGHT
 10
0.0
 20
0.0
 30
0.0
  9
$PUCSORGFRONT
 10
0.0
 20
0.0
 30
0.0
  9
$PUCSORGBACK
 10
0.0
 20
0.0
 30
0.0
  9
$USERI1
 70
     0
  9
$USERI2
 70
     0
  9
$USERI3
 70
     0
  9
$USERI4
 70
     0
  9
$USERI5
 70
     0
  9
$USERR1
 40
0.0
  9
$USERR2
 40
0.0
  9
$USERR3
 40
0.0
  9
$USERR4
 40
0.0
  9
$USERR5
 40
0.0
  9
$WORLDVIEW
 70
     1
  9
$SHADEDGE
 70
     3
  9
$SHADEDIF
 70
    70
  9
$TILEMODE
 70
     1
  9
$MAXACTVP
 70
    64
  9
$PINSBASE
 10
0.0
 20
0.0
 30
0.0
  9
$PLIMCHECK
 70
     0
  9
$PEXTMIN
 10
1.000000000000000E+20
 20
1.000000000000000E+20
 30
1.000000000000000E+20
  9
$PEXTMAX
 10
-1.000000000000000E+20
 20
-1.000000000000000E+20
 30
-1.000000000000000E+20
  9
$PLIMMIN
 10
0.0
 20
0.0
  9
$PLIMMAX
 10
12.0
 20
9.0
  9
$UNITMODE
 70
     0
  9
$VISRETAIN
 70
     1
  9
$PLINEGEN
 70
     0
  9
$PSLTSCALE
 70
     1
  9
$TREEDEPTH
 70
  3020
  9
$CMLSTYLE
  2
Standard
  9
$CMLJUST
 70
     0
  9
$CMLSCALE
 40
1.0
  9
$PROXYGRAPHICS
 70
     1
  9
$MEASUREMENT
 70
     0
  9
$CELWEIGHT
370
    -1
  9
$ENDCAPS
280
     0
  9
$JOINSTYLE
280
     0
  9
$LWDISPLAY
290
     0
  9
$INSUNITS
 70
     1
  9
$HYPERLINKBASE
  1

  9
$STYLESHEET
  1

  9
$XEDIT
290
     1
  9
$CEPSNTYPE
380
     0
  9
$PSTYLEMODE
290
     1
  9
$FINGERPRINTGUID
  2
{5FF3EF2A-9732-4E23-B0D7-FE660F5E1230}
  9
$VERSIONGUID
  2
{FAEB1C32-E019-11D5-929B-00C0DF256EC4}
  9
$EXTNAMES
290
     1
  9
$PSVPSCALE
 40
0.0
  9
$OLESTARTUP
290
     0
  9
$SORTENTS
280
   127
  9
$INDEXCTL
280
     0
  9
$HIDETEXT
280
     1
  9
$XCLIPFRAME
280
     2
  9
$HALOGAP
280
     0
  9
$OBSCOLOR
 70
   257
  9
$OBSLTYPE
280
     0
  9
$INTERSECTIONDISPLAY
280
     0
  9
$INTERSECTIONCOLOR
 70
   257
  9
$DIMASSOC
280
     2
  9
$PROJECTNAME
  1

  9
$CAMERADISPLAY
290
     0
  9
$LENSLENGTH
 40
50.0
  9
$CAMERAHEIGHT
 40
0.0
  9
$STEPSPERSEC
 40
2.0
  9
$STEPSIZE
 40
6.0
  9
$3DDWFPREC
 40
2.0
  9
$PSOLWIDTH
 40
0.25
  9
$PSOLHEIGHT
 40
4.0
  9
$LOFTANG1
 40
1.570796326794897
  9
$LOFTANG2
 40
1.570796326794897
  9
$LOFTMAG1
 40
0.0
  9
$LOFTMAG2
 40
0.0
  9
$LOFTPARAM
 70
     7
  9
$LOFTNORMALS
280
     1
  9
$LATITUDE
 40
37.795
  9
$LONGITUDE
 40
-122.394
  9
$NORTHDIRECTION
 40
0.0
  9
$TIMEZONE
 70
 -8000
  9
$LIGHTGLYPHDISPLAY
280
     1
  9
$TILEMODELIGHTSYNCH
280
     1
  9
$CMATERIAL
347
44
  9
$SOLIDHIST
280
     0
  9
$SHOWHIST
280
     1
  9
$DWFFRAME
280
     2
  9
$DGNFRAME
280
     2
  9
$REALWORLDSCALE
290
     1
  9
$INTERFERECOLOR
 62
   256
  9
$CSHADOW
280
     0
  9
$SHADOWPLANELOCATION
 40
0.0
  0
ENDSEC
  0
SECTION
  2
CLASSES
  0
CLASS
  1
ACDBDICTIONARYWDFLT
  2
AcDbDictionaryWithDefault
  3
ObjectDBX Classes
 90
        0
 91
        4
280
     0
281
     0
  0
CLASS
  1
VISUALSTYLE
  2
AcDbVisualStyle
  3
ObjectDBX Classes
 90
     4095
 91
        4
280
     0
281
     0
  0
CLASS
  1
MATERIAL
  2
AcDbMaterial
  3
ObjectDBX Classes
 90
     1153
 91
        4
280
     0
281
     0
  0
CLASS
  1
SCALE
  2
AcDbScale
  3
ObjectDBX Classes
 90
     1153
 91
        4
280
     0
281
     0
  0
CLASS
  1
TABLESTYLE
  2
AcDbTableStyle
  3
ObjectDBX Classes
 90
     4095
 91
        4
280
     0
281
     0
  0
CLASS
  1
MLEADERSTYLE
  2
AcDbMLeaderStyle
  3
ACDB_MLEADERSTYLE_CLASS
 90
     4095
 91
        4
280
     0
281
     0
  0
CLASS
  1
SUN
  2
AcDbSun
  3
SCENEOE
 90
     1153
 91
        4
280
     0
281
     0
  0
CLASS
  1
DICTIONARYVAR
  2
AcDbDictionaryVar
  3
ObjectDBX Classes
 90
        0
 91
        4
280
     0
281
     0
  0
CLASS
  1
CELLSTYLEMAP
  2
AcDbCellStyleMap
  3
ObjectDBX Classes
 90
     1152
 91
        4
280
     0
281
     0
  0
ENDSEC
  0
SECTION
  2
TABLES
  0
TABLE
  2
VPORT
  5
8
330
0
100
AcDbSymbolTable
 70
     1
  0
VPORT
  5
29
330
8
100
AcDbSymbolTableRecord
100
AcDbViewportTableRecord
  2
*Active
 70
     0
 10
0.0
 20
0.0
 11
1.0
 21
1.0
 12
0.0
 22
-1.56328125
 13
0.0
 23
0.0
 14
0.5
 24
0.5
 15
0.5
 25
0.5
 16
0.0
 26
0.0
 36
1.0
 17
0.0
 27
0.0
 37
0.0
 40
3.48871875
 41
2.119689355870261
 42
50.0
 43
0.0
 44
0.0
 50
0.0
 51
0.0
 71
     0
 72
   100
 73
     1
 74
     3
 75
     0
 76
     0
 77
     0
 78
     0
281
     0
 65
     1
110
0.0
120
0.0
130
0.0
111
1.0
121
0.0
131
0.0
112
0.0
122
1.0
132
0.0
 79
     0
146
0.0
348
2F
 60
     3
 61
     5
292
     1
282
     1
141
0.0
142
0.0
 63
   250
361
6D
  0
ENDTAB
  0
TABLE
  2
LTYPE
  5
5
330
0
100
AcDbSymbolTable
 70
     3
  0
LTYPE
  5
14
330
5
100
AcDbSymbolTableRecord
100
AcDbLinetypeTableRecord
  2
ByBlock
 70
     0
  3

 72
    65
 73
     0
 40
0.0
  0
LTYPE
  5
15
330
5
100
AcDbSymbolTableRecord
100
AcDbLinetypeTableRecord
  2
ByLayer
 70
     0
  3

 72
    65
 73
     0
 40
0.0
  0
LTYPE
  5
16
330
5
100
AcDbSymbolTableRecord
100
AcDbLinetypeTableRecord
  2
Continuous
 70
     0
  3
Solid line
 72
    65
 73
     0
 40
0.0
  0
LTYPE
  5
AA
330
5
100
AcDbSymbolTableRecord
100
AcDbLinetypeTableRecord
  2
Dashed
 70
     0
  3

 72
    65
 73
     2
 40
2.0
 49
1.0
 74
     0
 49
-1.0
 74
     0
  0
LTYPE
  5
C6
330
5
100
AcDbSymbolTableRecord
100
AcDbLinetypeTableRecord
  2
Center
 70
     0
  3

 72
    65
 73
     4
 40
1.5
 49
0.45
 74
     0
 49
-0.5
 74
     0
 49
0.05
 74
     0
 49
-0.5
 74
     0
  0
ENDTAB
  0
TABLE
  2
LAYER
  5
2
330
0
100
AcDbSymbolTable
 70
     7
  0
LAYER
  5
10
330
2
100
AcDbSymbolTableRecord
100
AcDbLayerTableRecord
  2
0
 70
     0
 62
     7
  6
Continuous
370
    -3
390
F
347
46
348
0
  0
LAYER
  5
72
330
2
100
AcDbSymbolTableRecord
100
AcDbLayerTableRecord
  2
AM_6
 70
     0
 62
    -2
  6
Continuous
370
    35
390
F
347
46
348
0
  0
LAYER
  5
AB
330
2
100
AcDbSymbolTableRecord
100
AcDbLayerTableRecord
  2
AM_9
 70
     0
 62
     6
  6
Dashed
370
    25
390
F
347
46
348
0
  0
LAYER
  5
C3
330
2
100
AcDbSymbolTableRecord
100
AcDbLayerTableRecord
  2
AM_5
 70
     0
 62
     3
  6
Continuous
370
    25
390
F
347
46
348
0
  0
LAYER
  5
C7
330
2
100
AcDbSymbolTableRecord
100
AcDbLayerTableRecord
  2
AM_7
 70
     0
 62
     7
  6
Center
370
    25
390
F
347
46
348
0
  0
LAYER
  5
C9
330
2
100
AcDbSymbolTableRecord
100
AcDbLayerTableRecord
  2
AM_4
 70
     0
 62
     7
  6
Continuous
370
    50
390
F
347
46
348
0
  0
LAYER
  5
1F3
330
2
100
AcDbSymbolTableRecord
100
AcDbLayerTableRecord
  2
ConnectionPoints
 70
     0
 62
     7
  6
Continuous
370
    50
390
F
347
46
348
0
  0
ENDTAB
  0
TABLE
  2
STYLE
  5
3
330
0
100
AcDbSymbolTable
 70
     1
  0
STYLE
  5
11
330
3
100
AcDbSymbolTableRecord
100
AcDbTextStyleTableRecord
  2
Standard
 70
     0
 40
0.0
 41
1.0
 50
0.0
 71
     0
 42
0.2
  3
txt
  4

  0
ENDTAB
  0
TABLE
  2
VIEW
  5
6
330
0
100
AcDbSymbolTable
 70
     0
  0
ENDTAB
  0
TABLE
  2
UCS
  5
7
330
0
100
AcDbSymbolTable
 70
     0
  0
ENDTAB
  0
TABLE
  2
APPID
  5
9
330
0
100
AcDbSymbolTable
 70
     1
  0
APPID
  5
12
330
9
100
AcDbSymbolTableRecord
100
AcDbRegAppTableRecord
  2
ACAD
 70
     0
  0
ENDTAB
  0
TABLE
  2
DIMSTYLE
  5
A
330
0
100
AcDbSymbolTable
 70
     1
100
AcDbDimStyleTable
  0
DIMSTYLE
105
27
330
A
100
AcDbSymbolTableRecord
100
AcDbDimStyleTableRecord
  2
Standard
 70
     0
178
     0
340
11
  0
ENDTAB
  0
TABLE
  2
BLOCK_RECORD
  5
1
330
0
100
AcDbSymbolTable
 70
     6
  0
BLOCK_RECORD
  5
1F
330
1
100
AcDbSymbolTableRecord
100
AcDbBlockTableRecord
  2
*Model_Space
340
22
 70
     0
280
     1
281
     0
  0
BLOCK_RECORD
  5
1B
330
1
100
AcDbSymbolTableRecord
100
AcDbBlockTableRecord
  2
*Paper_Space
340
1E
 70
     0
280
     1
281
     0
  0
BLOCK_RECORD
  5
23
330
1
100
AcDbSymbolTableRecord
100
AcDbBlockTableRecord
  2
*Paper_Space0
340
26
 70
     0
280
     1
281
     0
  0
BLOCK_RECORD
  5
6E
330
1
100
AcDbSymbolTableRecord
100
AcDbBlockTableRecord
  2
1_023219_4
340
0
102
{BLKREFS
331
6F
102
}
 70
     0
280
     1
281
     0
  0
BLOCK_RECORD
  5
95
330
1
100
AcDbSymbolTableRecord
100
AcDbBlockTableRecord
  2
2_1_15_16C_0_in_023219_4
340
0
102
{BLKREFS
331
96
102
}
 70
     0
280
     1
281
     0
  0
BLOCK_RECORD
  5
D7
330
1
100
AcDbSymbolTableRecord
100
AcDbBlockTableRecord
  2
3_405020c_Inch_0_in_023219_4
340
0
102
{BLKREFS
331
D8
102
}
 70
     0
280
     1
281
     0
  0
BLOCK_RECORD
  5
F9
330
1
100
AcDbSymbolTableRecord
100
AcDbBlockTableRecord
  2
4_S1U_K_115R_0_in_023219_4
340
0
102
{BLKREFS
331
FA
102
}
 70
     0
280
     1
281
     0
  0
BLOCK_RECORD
  5
162
330
1
100
AcDbSymbolTableRecord
100
AcDbBlockTableRecord
  2
5_F4B_K_115R_0_in_023219_4
340
0
102
{BLKREFS
331
163
102
}
 70
     0
280
     1
281
     0
  0
ENDTAB
  0
ENDSEC
  0
SECTION
  2
BLOCKS
  0
BLOCK
  5
20
330
1F
100
AcDbEntity
  8
0
100
AcDbBlockBegin
  2
*Model_Space
 70
     0
 10
0.0
 20
0.0
 30
0.0
  3
*Model_Space
  1

  0
ENDBLK
  5
21
330
1F
100
AcDbEntity
  8
0
100
AcDbBlockEnd
  0
BLOCK
  5
1C
330
1B
100
AcDbEntity
 67
     1
  8
0
100
AcDbBlockBegin
  2
*Paper_Space
 70
     0
 10
0.0
 20
0.0
 30
0.0
  3
*Paper_Space
  1

  0
ENDBLK
  5
1D
330
1B
100
AcDbEntity
 67
     1
  8
0
100
AcDbBlockEnd
  0
BLOCK
  5
24
330
23
100
AcDbEntity
  8
0
100
AcDbBlockBegin
  2
*Paper_Space0
 70
     0
 10
0.0
 20
0.0
 30
0.0
  3
*Paper_Space0
  1

  0
ENDBLK
  5
25
330
23
100
AcDbEntity
  8
0
100
AcDbBlockEnd
  0
BLOCK
  5
70
330
6E
100
AcDbEntity
  8
0
100
AcDbBlockBegin
  2
1_023219_4
 70
     2
 10
0.0
 20
0.0
 30
0.0
  3
1_023219_4
  1

  0
ATTDEF
  5
73
330
6E
100
AcDbEntity
  8
AM_6
100
AcDbText
 10
8.625
 20
0.146875
 30
0.0
 40
0.5
  1
Flange Bearing -  Non-Expansion - Inch
100
AcDbAttributeDefinition
  3

  2
NN
 70
     8
280
     0
  0
ATTDEF
  5
74
330
6E
100
AcDbEntity
  8
AM_6
100
AcDbText
 10
8.625
 20
-0.353125
 30
0.0
 40
0.5
  1
Type K
100
AcDbAttributeDefinition
  3

  2
NT
 70
     8
280
     0
  0
ATTDEF
  5
75
330
6E
100
AcDbEntity
  8
AM_6
100
AcDbText
 10
8.625
 20
-0.853125
 30
0.0
 40
0.5
  1
023219
100
AcDbAttributeDefinition
  3

  2
NB
 70
     8
280
     0
  0
ATTDEF
  5
76
330
6E
100
AcDbEntity
  8
AM_6
100
AcDbText
 10
8.625
 20
-1.353125
 30
0.0
 40
0.5
  1
$PN.
100
AcDbAttributeDefinition
  3

  2
NBSYN
 70
     8
280
     0
  0
ATTDEF
  5
77
330
6E
100
AcDbEntity
  8
AM_6
100
AcDbText
 10
8.625
 20
-1.853125
 30
0.0
 40
0.5
  1
023219
100
AcDbAttributeDefinition
  3

  2
LINA
 70
     8
280
     0
  0
ATTDEF
  5
78
330
6E
100
AcDbEntity
  8
AM_6
100
AcDbText
 10
8.625
 20
-2.353125
 30
0.0
 40
0.5
  1
1-15/16
100
AcDbAttributeDefinition
  3

  2
SS
 70
     8
280
     0
  0
ATTDEF
  5
79
330
6E
100
AcDbEntity
  8
AM_6
100
AcDbText
 10
8.625
 20
-2.853125
 30
0.0
 40
0.5
  1
023219
100
AcDbAttributeDefinition
  3

  2
PN
 70
     8
280
     0
  0
ATTDEF
  5
7A
330
6E
100
AcDbEntity
  8
AM_6
100
AcDbText
 10
8.625
 20
-3.353125
 30
0.0
 40
0.5
  1
F4B-K-115R
100
AcDbAttributeDefinition
  3

  2
PNA
 70
     8
280
     0
  0
ATTDEF
  5
7B
330
6E
100
AcDbEntity
  8
AM_6
100
AcDbText
 10
8.625
 20
-3.853125
 30
0.0
 40
0.5
  1
14
100
AcDbAttributeDefinition
  3

  2
WEIGHT
 70
     8
280
     0
  0
ATTDEF
  5
7C
330
6E
100
AcDbEntity
  8
AM_6
100
AcDbText
 10
8.625
 20
-4.353125
 30
0.0
 40
0.5
  1
3-1/8
100
AcDbAttributeDefinition
  3

  2
A
 70
     8
280
     0
  0
ATTDEF
  5
7D
330
6E
100
AcDbEntity
  8
AM_6
100
AcDbText
 10
8.625
 20
-4.853125
 30
0.0
 40
0.5
  1
6-7/8
100
AcDbAttributeDefinition
  3

  2
B
 70
     8
280
     0
  0
ATTDEF
  5
7E
330
6E
100
AcDbEntity
  8
AM_6
100
AcDbText
 10
8.625
 20
-5.353125
 30
0.0
 40
0.5
  1
2-9/16
100
AcDbAttributeDefinition
  3

  2
C
 70
     8
280
     0
  0
ATTDEF
  5
7F
330
6E
100
AcDbEntity
  8
AM_6
100
AcDbText
 10
8.625
 20
-5.853125
 30
0.0
 40
0.5
  1
5-5/16
100
AcDbAttributeDefinition
  3

  2
D
 70
     8
280
     0
  0
ATTDEF
  5
80
330
6E
100
AcDbEntity
  8
AM_6
100
AcDbText
 10
8.625
 20
-6.353125
 30
0.0
 40
0.5
  1
5/32
100
AcDbAttributeDefinition
  3

  2
E
 70
     8
280
     0
  0
ATTDEF
  5
81
330
6E
100
AcDbEntity
  8
AM_6
100
AcDbText
 10
8.625
 20
-6.853125
 30
0.0
 40
0.5
  1
5/8
100
AcDbAttributeDefinition
  3

  2
F
 70
     8
280
     0
  0
ATTDEF
  5
82
330
6E
100
AcDbEntity
  8
AM_6
100
AcDbText
 10
8.625
 20
-7.353125
 30
0.0
 40
0.5
  1
7-1/4
100
AcDbAttributeDefinition
  3

  2
G
 70
     8
280
     0
  0
ATTDEF
  5
83
330
6E
100
AcDbEntity
  8
AM_6
100
AcDbText
 10
8.625
 20
-7.853125
 30
0.0
 40
0.5
  1
9/16
100
AcDbAttributeDefinition
  3

  2
H
 70
     8
280
     0
  0
ATTDEF
  5
84
330
6E
100
AcDbEntity
  8
AM_6
100
AcDbText
 10
8.625
 20
-8.353125
 30
0.0
 40
0.5
  1
5-5/16
100
AcDbAttributeDefinition
  3

  2
J
 70
     8
280
     0
  0
ATTDEF
  5
85
330
6E
100
AcDbEntity
  8
AM_6
100
AcDbText
 10
8.625
 20
-8.853125
 30
0.0
 40
0.5
  1
3-7/16
100
AcDbAttributeDefinition
  3

  2
L
 70
     8
280
     0
  0
ATTDEF
  5
86
330
6E
100
AcDbEntity
  8
AM_6
100
AcDbText
 10
8.625
 20
-9.353125
 30
0.0
 40
0.5
  1
43000
100
AcDbAttributeDefinition
  3

  2
CS
 70
     8
280
     0
  0
ATTDEF
  5
87
330
6E
100
AcDbEntity
  8
AM_6
100
AcDbText
 10
8.625
 20
-9.853125
 30
0.0
 40
0.5
  1
8070
100
AcDbAttributeDefinition
  3

  2
CD
 70
     8
280
     0
  0
ATTDEF
  5
88
330
6E
100
AcDbEntity
  8
AM_6
100
AcDbText
 10
8.625
 20
-10.353125
 30
0.0
 40
0.5
  1
17
100
AcDbAttributeDefinition
  3

  2
RN
 70
     8
280
     0
  0
ATTDEF
  5
89
330
6E
100
AcDbEntity
  8
AM_6
100
AcDbText
 10
8.625
 20
-10.853125
 30
0.0
 40
0.5
  1
.41
100
AcDbAttributeDefinition
  3

  2
RM
 70
     8
280
     0
  0
ATTDEF
  5
8A
330
6E
100
AcDbEntity
  8
AM_6
100
AcDbText
 10
8.625
 20
-11.353125
 30
0.0
 40
0.5
  1
2.709
100
AcDbAttributeDefinition
  3

  2
PDI
 70
     8
280
     0
  0
ATTDEF
  5
8B
330
6E
100
AcDbEntity
  8
AM_6
100
AcDbText
 10
8.625
 20
-11.853125
 30
0.0
 40
0.5
  1
.004-0.12
100
AcDbAttributeDefinition
  3

  2
EP
 70
     8
280
     0
  0
ATTDEF
  5
8C
330
6E
100
AcDbEntity
  8
AM_6
100
AcDbText
 10
8.625
 20
-12.353125
 30
0.0
 40
0.5
  1
3/8-16*3/4
100
AcDbAttributeDefinition
  3

  2
SC
 70
     8
280
     0
  0
ATTDEF
  5
8D
330
6E
100
AcDbEntity
  8
AM_6
100
AcDbText
 10
8.625
 20
-12.853125
 30
0.0
 40
0.5
  1
290
100
AcDbAttributeDefinition
  3

  2
TC
 70
     8
280
     0
  0
ATTDEF
  5
8E
330
6E
100
AcDbEntity
  8
AM_6
100
AcDbText
 10
8.625
 20
-13.353125
 30
0.0
 40
0.5
  1
C.I. ASTM A48 CLASS 30
100
AcDbAttributeDefinition
  3

  2
MH
 70
     8
280
     0
  0
ATTDEF
  5
8F
330
6E
100
AcDbEntity
  8
AM_6
100
AcDbText
 10
8.625
 20
-13.853125
 30
0.0
 40
0.5
  1
4118 CASE CARB.
100
AcDbAttributeDefinition
  3

  2
MC
 70
     8
280
     0
  0
ATTDEF
  5
90
330
6E
100
AcDbEntity
  8
AM_6
100
AcDbText
 10
8.625
 20
-14.353125
 30
0.0
 40
0.5
  1
4118 CASE CARB.
100
AcDbAttributeDefinition
  3

  2
MCU
 70
     8
280
     0
  0
ATTDEF
  5
91
330
6E
100
AcDbEntity
  8
AM_6
100
AcDbText
 10
8.625
 20
-14.853125
 30
0.0
 40
0.5
  1
STEEL
100
AcDbAttributeDefinition
  3

  2
MR
 70
     8
280
     0
  0
ATTDEF
  5
92
330
6E
100
AcDbEntity
  8
AM_6
100
AcDbText
 10
8.625
 20
-15.353125
 30
0.0
 40
0.5
  1
4118 CASE CARB.
100
AcDbAttributeDefinition
  3

  2
MRO
 70
     8
280
     0
  0
ATTDEF
  5
93
330
6E
100
AcDbEntity
  8
AM_6
100
AcDbText
 10
8.625
 20
-15.853125
 30
0.0
 40
0.5
  1
4.54
100
AcDbAttributeDefinition
  3

  2
SM
 70
     8
280
     0
  0
ATTDEF
  5
94
330
6E
100
AcDbEntity
  8
AM_6
100
AcDbText
 10
8.625
 20
-16.353125
 30
0.0
 40
0.5
  1
baldor
100
AcDbAttributeDefinition
  3

  2
COMPANY
 70
     8
280
     0
  0
INSERT
  5
96
330
6E
100
AcDbEntity
  8
0
100
AcDbBlockReference
  2
2_1_15_16C_0_in_023219_4
 10
0.0
 20
0.0
 30
0.0
  0
INSERT
  5
D8
330
6E
100
AcDbEntity
  8
0
100
AcDbBlockReference
  2
3_405020c_Inch_0_in_023219_4
 10
0.0
 20
0.0
 30
0.0
  0
INSERT
  5
FA
330
6E
100
AcDbEntity
  8
0
100
AcDbBlockReference
  2
4_S1U_K_115R_0_in_023219_4
 10
0.0
 20
0.0
 30
0.0
  0
INSERT
  5
163
330
6E
100
AcDbEntity
  8
0
100
AcDbBlockReference
  2
5_F4B_K_115R_0_in_023219_4
 10
0.0
 20
0.0
 30
0.0
  0
ENDBLK
  5
71
330
6E
100
AcDbEntity
  8
0
100
AcDbBlockEnd
  0
BLOCK
  5
97
330
95
100
AcDbEntity
  8
0
100
AcDbBlockBegin
  2
2_1_15_16C_0_in_023219_4
 70
     2
 10
0.0
 20
0.0
 30
0.0
  3
2_1_15_16C_0_in_023219_4
  1

  0
ATTDEF
  5
99
330
95
100
AcDbEntity
  8
AM_6
100
AcDbText
 10
6.71875
 20
-2.504999999999999
 30
0.0
 40
0.5
  1
E-Type Collar -Inch
100
AcDbAttributeDefinition
  3

  2
NN
 70
     8
280
     0
  0
ATTDEF
  5
9A
330
95
100
AcDbEntity
  8
AM_6
100
AcDbText
 10
6.71875
 20
-3.004999999999999
 30
0.0
 40
0.5
  1
E-Type Bearings
100
AcDbAttributeDefinition
  3

  2
NT
 70
     8
280
     0
  0
ATTDEF
  5
9B
330
95
100
AcDbEntity
  8
AM_6
100
AcDbText
 10
6.71875
 20
-3.504999999999999
 30
0.0
 40
0.5
  1
1-15/16C
100
AcDbAttributeDefinition
  3

  2
NB
 70
     8
280
     0
  0
ATTDEF
  5
9C
330
95
100
AcDbEntity
  8
AM_6
100
AcDbText
 10
6.71875
 20
-4.004999999999999
 30
0.0
 40
0.5
  1
$BORE.C
100
AcDbAttributeDefinition
  3

  2
NBSYN
 70
     8
280
     0
  0
ATTDEF
  5
9D
330
95
100
AcDbEntity
  8
AM_6
100
AcDbText
 10
6.71875
 20
-4.504999999999999
 30
0.0
 40
0.5
  1
1-15/16C
100
AcDbAttributeDefinition
  3

  2
LINA
 70
     8
280
     0
  0
ATTDEF
  5
9E
330
95
100
AcDbEntity
  8
AM_6
100
AcDbText
 10
6.71875
 20
-5.004999999999999
 30
0.0
 40
0.5
  1
1-15/16
100
AcDbAttributeDefinition
  3

  2
BORE
 70
     8
280
     0
  0
ATTDEF
  5
9F
330
95
100
AcDbEntity
  8
AM_6
100
AcDbText
 10
6.71875
 20
-5.504999999999999
 30
0.0
 40
0.5
  1
3.43750
100
AcDbAttributeDefinition
  3

  2
L
 70
     8
280
     0
  0
ATTDEF
  5
A0
330
95
100
AcDbEntity
  8
AM_6
100
AcDbText
 10
6.71875
 20
-6.004999999999999
 30
0.0
 40
0.5
  1
3.50
100
AcDbAttributeDefinition
  3

  2
A
 70
     8
280
     0
  0
ATTDEF
  5
A1
330
95
100
AcDbEntity
  8
AM_6
100
AcDbText
 10
6.71875
 20
-6.504999999999999
 30
0.0
 40
0.5
  1
1.62
100
AcDbAttributeDefinition
  3

  2
B
 70
     8
280
     0
  0
ATTDEF
  5
A2
330
95
100
AcDbEntity
  8
AM_6
100
AcDbText
 10
6.71875
 20
-7.004999999999999
 30
0.0
 40
0.5
  1
2.31
100
AcDbAttributeDefinition
  3

  2
C
 70
     8
280
     0
  0
ATTDEF
  5
A3
330
95
100
AcDbEntity
  8
AM_6
100
AcDbText
 10
6.71875
 20
-7.504999999999999
 30
0.0
 40
0.5
  1
3.50
100
AcDbAttributeDefinition
  3

  2
D
 70
     8
280
     0
  0
ATTDEF
  5
A4
330
95
100
AcDbEntity
  8
AM_6
100
AcDbText
 10
6.71875
 20
-8.004999999999999
 30
0.0
 40
0.5
  1
0.41
100
AcDbAttributeDefinition
  3

  2
E
 70
     8
280
     0
  0
ATTDEF
  5
A5
330
95
100
AcDbEntity
  8
AM_6
100
AcDbText
 10
6.71875
 20
-8.504999999999999
 30
0.0
 40
0.5
  1
0.31
100
AcDbAttributeDefinition
  3

  2
F
 70
     8
280
     0
  0
ATTDEF
  5
A6
330
95
100
AcDbEntity
  8
AM_6
100
AcDbText
 10
6.71875
 20
-9.004999999999999
 30
0.0
 40
0.5
  1
3/8-16
100
AcDbAttributeDefinition
  3

  2
CS
 70
     8
280
     0
  0
ATTDEF
  5
A7
330
95
100
AcDbEntity
  8
AM_6
100
AcDbText
 10
6.71875
 20
-9.504999999999999
 30
0.0
 40
0.5
  1
0.3750
100
AcDbAttributeDefinition
  3

  2
NDM
 70
     8
280
     0
  0
ATTDEF
  5
A8
330
95
100
AcDbEntity
  8
AM_6
100
AcDbText
 10
6.71875
 20
-10.005
 30
0.0
 40
0.5
  1
0.3070
100
AcDbAttributeDefinition
  3

  2
KDM
 70
     8
280
     0
  0
ATTDEF
  5
A9
330
95
100
AcDbEntity
  8
AM_6
100
AcDbText
 10
6.71875
 20
-10.505
 30
0.0
 40
0.5
  1
baldor
100
AcDbAttributeDefinition
  3

  2
COMPANY
 70
     8
280
     0
  0
LINE
  5
AC
330
95
100
AcDbEntity
  8
AM_9
100
AcDbLine
 10
1.085086143713011
 20
-2.67907773546782
 30
0.0
 11
1.076997333078976
 21
-2.668988670469743
 31
0.0
  0
LINE
  5
AD
330
95
100
AcDbEntity
  8
AM_9
100
AcDbLine
 10
1.077118752485535
 20
-2.960859884733213
 30
0.0
 11
1.08508614371301
 21
-2.95092226453218
 31
0.0
  0
LINE
  5
AE
330
95
100
AcDbEntity
  8
AM_9
100
AcDbLine
 10
1.073037328147488
 20
-2.965485645945014
 30
0.0
 11
1.076985474286908
 21
-2.961026120592744
 31
0.0
  0
LWPOLYLINE
  5
AF
330
95
100
AcDbEntity
  8
AM_9
100
AcDbPolyline
 90
        7
 70
     0
 43
0.0
 10
1.013976452653786
 20
-2.962879028236177
 10
1.016601818437457
 20
-2.965080868890708
 10
1.029653900797198
 20
-2.973404421512374
 10
1.043155529328198
 20
-2.977292849706193
 10
1.056026013204928
 20
-2.97617665001329
 10
1.068107647222919
 20
-2.969858942332217
 10
1.073037328147488
 20
-2.965485645945014
  0
LWPOLYLINE
  5
B0
330
95
100
AcDbEntity
  8
AM_9
100
AcDbPolyline
 90
       21
 70
     0
 43
0.0
 10
1.076987422341315
 20
-2.668976308963629
 10
1.076852235758493
 20
-2.668808271443681
 10
1.066278981138374
 20
-2.658801432537046
 10
1.054569711275848
 20
-2.653431658753936
 10
1.041481947595278
 20
-2.652922827735137
 10
1.0278006900604
 20
-2.657506840884038
 10
1.013830421402533
 20
-2.667264255474736
 10
1.000232460804837
 20
-2.681916029846857
 10
0.9878302247555965
 20
-2.700828571350548
 10
0.976992635091717
 20
-2.723740925088391
 10
0.9688299740288334
 20
-2.748509356111882
 10
0.9631497418277848
 20
-2.775615795223777
 10
0.960538660894184
 20
-2.801671165229202
 10
0.9605148356925721
 20
-2.828147638067585
 10
0.9629094918795448
 20
-2.8526973154402
 10
0.9674605839073525
 20
-2.876212472618772
 10
0.9740576435160455
 20
-2.898400298022891
 10
0.9822865829736409
 20
-2.91843708596584
 10
0.9925219865207319
 20
-2.937064809653997
 10
1.003775738539055
 20
-2.952445301954543
 10
1.013976452653786
 20
-2.962879028236177
  0
LWPOLYLINE
  5
B1
330
95
100
AcDbEntity
  8
AM_9
100
AcDbPolyline
 90
       13
 70
     0
 43
0.0
 10
1.081405268625274
 20
-2.954862588001815
 10
1.088143681974203
 20
-2.94243230373832
 10
1.095791412491812
 20
-2.921972829888135
 10
1.10151710916357
 20
-2.898678283758052
 10
1.105650976577941
 20
-2.872411069580452
 10
1.107986640313107
 20
-2.846336514347769
 10
1.1089208899229
 20
-2.819224615848441
 10
1.108513499617112
 20
-2.794021520915243
 10
1.106903610330475
 20
-2.76941924203597
 10
1.104130104245032
 20
-2.746355322039371
 10
1.100216007379131
 20
-2.725078384257333
 10
1.096179993962826
 20
-2.709336269731257
 10
1.091418091293067
 20
-2.695270700757611
  0
LWPOLYLINE
  5
B2
330
95
100
AcDbEntity
  8
AM_9
100
AcDbPolyline
 90
        3
 70
     0
 43
0.0
 10
1.078769684236233
 20
-2.958698826888102
 10
1.07891168616397
 20
-2.958504583658789
 10
1.081405268625274
 20
-2.954862588001815
  0
LINE
  5
B3
330
95
100
AcDbEntity
  8
AM_9
100
AcDbLine
 10
1.076985474286908
 20
-2.961026120592744
 30
0.0
 11
1.078769684236233
 21
-2.958698826888102
 31
0.0
  0
LINE
  5
B4
330
95
100
AcDbEntity
  8
AM_9
100
AcDbLine
 10
1.054806317942605
 20
-2.96865
 30
0.0
 11
1.527037990378052
 21
-2.96865
 31
0.0
  0
LINE
  5
B5
330
95
100
AcDbEntity
  8
AM_9
100
AcDbLine
 10
1.527037990378052
 20
-2.66135
 30
0.0
 11
1.054806317942605
 21
-2.66135
 31
0.0
  0
ELLIPSE
  5
B6
330
95
100
AcDbEntity
  8
AM_9
100
AcDbEllipse
 10
1.527037990378051
 20
-2.815
 30
0.0
 11
-2.822504710334859E-17
 21
-0.1536499999999998
 31
0.0
210
0.0
220
0.0
230
1.0
 40
0.4226182617406981
 41
3.467023560251667
 42
5.987360545695079
  0
LINE
  5
B7
330
95
100
AcDbEntity
  8
AM_9
100
AcDbLine
 10
1.496758164607646
 20
-2.95092226453218
 30
0.0
 11
1.519010637434468
 21
-2.978677475387669
 31
0.0
  0
LINE
  5
B8
330
95
100
AcDbEntity
  8
AM_9
100
AcDbLine
 10
1.519185337083937
 20
-2.651104624083022
 30
0.0
 11
1.496758164607646
 21
-2.67907773546782
 31
0.0
  0
LWPOLYLINE
  5
B9
330
95
100
AcDbEntity
  8
AM_9
100
AcDbPolyline
 90
       22
 70
     0
 43
0.0
 10
0.0730763468833889
 20
-2.962727878243262
 10
0.0957253333484092
 20
-2.951198885410673
 10
0.1203013277651097
 20
-2.933385052348584
 10
0.1419776755493778
 20
-2.910771329989637
 10
0.1577445699724274
 20
-2.886815148278001
 10
0.1692317451698805
 20
-2.859423654001466
 10
0.1747996578234421
 20
-2.833763695572541
 10
0.1757512957912942
 20
-2.806641036554751
 10
0.172344689640894
 20
-2.782239733160894
 10
0.1647554934992663
 20
-2.758078803751197
 10
0.1535827526292066
 20
-2.735897546785489
 10
0.1387143058527729
 20
-2.715242928870741
 10
0.1200516691142438
 20
-2.696398942507806
 10
0.0981529894304407
 20
-2.680287017588639
 10
0.0726576953317605
 20
-2.667095250353039
 10
0.0446580999689296
 20
-2.657858838042085
 10
0.01471060047388
 20
-2.653073151141622
 10
-0.0164706900634716
 20
-2.653218821511384
 10
-0.046958266869818
 20
-2.658435477134436
 10
-0.076969101730433
 20
-2.6689759471943
 10
-0.1002663144367967
 20
-2.681624464030877
 10
-0.1218661424184471
 20
-2.697988104473677
  0
LWPOLYLINE
  5
BA
330
95
100
AcDbEntity
  8
AM_9
100
AcDbPolyline
 90
        7
 70
     0
 43
0.0
 10
-0.0731862117375568
 20
-2.962681260001025
 10
-0.0539914003972048
 20
-2.969606359131618
 10
-0.0244872070150603
 20
-2.975907010899622
 10
0.0061185726449112
 20
-2.977400986662972
 10
0.0374137059144501
 20
-2.973757120128051
 10
0.0671175628243092
 20
-2.965131994249787
 10
0.0730763468833889
 20
-2.962727878243262
  0
LWPOLYLINE
  5
BB
330
95
100
AcDbEntity
  8
AM_9
100
AcDbPolyline
 90
       14
 70
     0
 43
0.0
 10
-0.1218661424184471
 20
-2.697988104473677
 10
-0.1391103719975653
 20
-2.715713367160156
 10
-0.1538241570126194
 20
-2.736296829177464
 10
-0.1659591348966745
 20
-2.761123368754636
 10
-0.1736435605178598
 20
-2.788676700585799
 10
-0.1759834116462803
 20
-2.81409755075259
 10
-0.173815522821969
 20
-2.840344761521262
 10
-0.1677103660053232
 20
-2.864067654958651
 10
-0.1575987202424185
 20
-2.887086348440228
 10
-0.1438821518135295
 20
-2.908322772457579
 10
-0.126616645692877
 20
-2.927629049811225
 10
-0.1055048200896544
 20
-2.944875588346394
 10
-0.0813558454577688
 20
-2.958972487909668
 10
-0.0731862117375568
 20
-2.962681260001025
  0
LINE
  5
BC
330
95
100
AcDbEntity
  8
AM_9
100
AcDbLine
 10
1.082054345883441
 20
-2.676160812527781
 30
0.0
 11
1.076987422341315
 21
-2.668976308963629
 31
0.0
  0
LWPOLYLINE
  5
BD
330
95
100
AcDbEntity
  8
AM_9
100
AcDbPolyline
 90
        3
 70
     0
 43
0.0
 10
1.091418091293067
 20
-2.695270700757611
 10
1.084631795879397
 20
-2.680573278082183
 10
1.082054345883441
 20
-2.676160812527781
  0
LINE
  5
BE
330
95
100
AcDbEntity
  8
AM_9
100
AcDbLine
 10
1.155
 20
-3.125
 30
0.0
 11
1.155
 21
-2.504999999999999
 31
0.0
  0
LINE
  5
BF
330
95
100
AcDbEntity
  8
AM_9
100
AcDbLine
 10
-1.155
 20
-2.504999999999999
 30
0.0
 11
-1.155
 21
-3.125
 31
0.0
  0
LINE
  5
C0
330
95
100
AcDbEntity
  8
AM_9
100
AcDbLine
 10
-1.71875
 20
-2.504999999999999
 30
0.0
 11
1.71875
 21
-2.504999999999999
 31
0.0
  0
LINE
  5
C1
330
95
100
AcDbEntity
  8
AM_9
100
AcDbLine
 10
1.71875
 20
-2.59375
 30
0.0
 11
1.71875
 21
-2.504999999999999
 31
0.0
  0
LINE
  5
C2
330
95
100
AcDbEntity
  8
AM_9
100
AcDbLine
 10
-1.71875
 20
-2.504999999999999
 30
0.0
 11
-1.71875
 21
-2.59375
 31
0.0
  0
ARC
  5
C4
330
95
100
AcDbEntity
  8
AM_5
100
AcDbCircle
 10
0.0000000000000002
 20
-2.815
 30
0.0
 40
0.1875
100
AcDbArc
 50
75.00000000000001
 51
14.99999999999994
  0
ELLIPSE
  5
C5
330
95
100
AcDbEntity
  8
AM_9
100
AcDbEllipse
 10
1.054806317942605
 20
-2.815
 30
0.0
 11
-2.822504710334875E-17
 21
-0.1536500000000007
 31
0.0
210
0.0
220
0.0
230
1.0
 40
0.4226182617406999
 41
0.0
 42
6.283185307179586
  0
LINE
  5
C8
330
95
100
AcDbEntity
  8
AM_7
100
AcDbLine
 10
-0.1613325
 20
-2.815
 30
0.0
 11
0.1613325
 21
-2.815
 31
0.0
  0
ELLIPSE
  5
CA
330
95
100
AcDbEntity
  8
AM_4
100
AcDbEllipse
 10
1.527037990378052
 20
-2.815
 30
0.0
 11
-2.822504710334859E-17
 21
-0.1536499999999998
 31
0.0
210
0.0
220
0.0
230
1.0
 40
0.4226182617406995
 41
5.987360545695076
 42
9.750208867431258
  0
LWPOLYLINE
  5
CB
330
95
100
AcDbEntity
  8
AM_4
100
AcDbPolyline
 90
       15
 70
     0
 43
0.0
 10
1.519212189002624
 20
-2.978928865352867
 10
1.5143601566979
 20
-2.972422983049049
 10
1.503461131862917
 20
-2.954059853466125
 10
1.493882053277911
 20
-2.932316266457222
 10
1.485604628325532
 20
-2.906497738300273
 10
1.479396146473594
 20
-2.878357658603039
 10
1.475380192737947
 20
-2.847271594632546
 10
1.473993679131895
 20
-2.815318634536983
 10
1.475393705459465
 20
-2.782583310751253
 10
1.479551341567555
 20
-2.750761669974212
 10
1.486357097401281
 20
-2.720765251530746
 10
1.495504102302713
 20
-2.693516415794893
 10
1.50638256449174
 20
-2.670463197498034
 10
1.518734286228255
 20
-2.651671691984436
 10
1.51922060642105
 20
-2.651060633327682
  0
LWPOLYLINE
  5
CC
330
95
100
AcDbEntity
  8
AM_4
100
AcDbPolyline
 90
        9
 70
     0
 43
0.0
 10
1.51922060642105
 20
-2.651060633327682
 10
1.531454445028683
 20
-2.638450346773515
 10
1.544611499808918
 20
-2.630259034383965
 10
1.557078173741711
 20
-2.62752732013253
 10
1.569128045374794
 20
-2.629745591100707
 10
1.58015451569589
 20
-2.636682101193913
 10
1.59021416862582
 20
-2.648013566975309
 10
1.596880499135033
 20
-2.658974000299966
 10
1.602873670494512
 20
-2.671930806959414
  0
CIRCLE
  5
CD
330
95
100
AcDbEntity
  8
AM_4
100
AcDbCircle
 10
0.0
 20
-2.815
 30
0.0
 40
0.15365
  0
LINE
  5
CE
330
95
100
AcDbEntity
  8
AM_4
100
AcDbLine
 10
-1.615416666666667
 20
-3.125
 30
0.0
 11
1.615416666656162
 21
-3.125
 31
0.0
  0
ARC
  5
CF
330
95
100
AcDbEntity
  8
AM_4
100
AcDbCircle
 10
1.615416666666667
 20
-3.021666666666667
 30
0.0
 40
0.1033333333333331
100
AcDbArc
 50
270.0
 51
0.0
  0
ARC
  5
D0
330
95
100
AcDbEntity
  8
AM_4
100
AcDbCircle
 10
-1.615416666666667
 20
-3.021666666666667
 30
0.0
 40
0.1033333333333335
100
AcDbArc
 50
180.0
 51
270.0
  0
LINE
  5
D1
330
95
100
AcDbEntity
  8
AM_4
100
AcDbLine
 10
-1.71875
 20
-3.021666666666667
 30
0.0
 11
1.71875
 21
-3.021666666666667
 31
0.0
  0
LWPOLYLINE
  5
D2
330
95
100
AcDbEntity
  8
AM_4
100
AcDbPolyline
 90
       39
 70
     0
 43
0.0
 10
-0.1289934852594401
 20
-2.685683852902229
 10
-0.1096028099195102
 20
-2.667203207971265
 10
-0.0871545224137251
 20
-2.651488379014761
 10
-0.0601541559096368
 20
-2.638523464908372
 10
-0.0303659841981776
 20
-2.630247113266768
 10
-0.0018766765548211
 20
-2.627510416616958
 10
0.0275291284110731
 20
-2.629754850172967
 10
0.0546735544654606
 20
-2.636557762316057
 10
0.081040446888081
 20
-2.648040450456118
 10
0.1049490757348959
 20
-2.663508929883738
 10
0.1266232659724685
 20
-2.683116984994908
 10
0.1452207385225494
 20
-2.706371207655331
 10
0.1602490543267207
 20
-2.732993906127274
 10
0.1710345563989183
 20
-2.762302242362799
 10
0.177090299306321
 20
-2.793819167410728
 10
0.1779245402483798
 20
-2.826025836554177
 10
0.1732847993221449
 20
-2.858831687781893
 10
0.1634278377053643
 20
-2.889752581646669
 10
0.1480059944901048
 20
-2.9193890283441
 10
0.1286243325682266
 20
-2.94472240319613
 10
0.1043630393416799
 20
-2.966938761563095
 10
0.0784997927105315
 20
-2.983299306696605
 10
0.0492213995262091
 20
-2.99519335997593
 10
0.0208111321388791
 20
-3.001214696784885
 10
-0.0091217297665014
 20
-3.002253751777905
 10
-0.036925807044902
 20
-2.998423356923394
 10
-0.0644675273907443
 20
-2.989780154882027
 10
-0.0896228067810672
 20
-2.977026628267551
 10
-0.1129967500113636
 20
-2.959939301521433
 10
-0.1335696212692748
 20
-2.939069348991543
 10
-0.1509925112210294
 20
-2.914547566021341
 10
-0.1645745836973457
 20
-2.886918815838759
 10
-0.1737699537994156
 20
-2.856656258933317
 10
-0.1779814473436629
 20
-2.824960096061155
 10
-0.1768967239160441
 20
-2.792102405960584
 10
-0.1704596454825166
 20
-2.760283178758048
 10
-0.1584064643362143
 20
-2.729128342489267
 10
-0.1453655946792321
 20
-2.706585683444245
 10
-0.1289934853475369
 20
-2.685683852846756
  0
LWPOLYLINE
  5
D3
330
95
100
AcDbEntity
  8
AM_4
100
AcDbPolyline
 90
       19
 70
     0
 43
0.0
 10
1.602873670494512
 20
-2.671930806959414
 10
1.609621419198533
 20
-2.691514390619005
 10
1.615133331189994
 20
-2.713652563181371
 10
1.619898673170263
 20
-2.74153292523478
 10
1.623024161881927
 20
-2.771319497257078
 10
1.624526951178574
 20
-2.803388967470955
 10
1.624281906173685
 20
-2.83577568009637
 10
1.622223355159032
 20
-2.868116697527709
 10
1.618347988239632
 20
-2.898941721387244
 10
1.612672789899426
 20
-2.927119366843909
 10
1.605207281818611
 20
-2.952004661601931
 10
1.596292602698159
 20
-2.972099450482889
 10
1.585851522778875
 20
-2.987586246790908
 10
1.574675940308108
 20
-2.997389013083795
 10
1.562549662777022
 20
-3.002107159433268
 10
1.550369960013952
 20
-3.0016042099721
 10
1.537981664352603
 20
-2.996299623303222
 10
1.525894857455933
 20
-2.986447793556051
 10
1.519212189002624
 20
-2.978928865352867
  0
LINE
  5
D4
330
95
100
AcDbEntity
  8
AM_4
100
AcDbLine
 10
1.71875
 20
-3.021666666666667
 30
0.0
 11
1.71875
 21
-2.59375
 31
0.0
  0
LINE
  5
D5
330
95
100
AcDbEntity
  8
AM_4
100
AcDbLine
 10
-1.71875
 20
-2.59375
 30
0.0
 11
-1.71875
 21
-3.021666666666667
 31
0.0
  0
CIRCLE
  5
D6
330
95
100
AcDbEntity
  8
AM_5
100
AcDbCircle
 10
0.0000000000000003
 20
-2.815
 30
0.0
 40
0.1874999999999998
  0
ENDBLK
  5
98
330
95
100
AcDbEntity
  8
0
100
AcDbBlockEnd
  0
BLOCK
  5
D9
330
D7
100
AcDbEntity
  8
0
100
AcDbBlockBegin
  2
3_405020c_Inch_0_in_023219_4
 70
     2
 10
0.0
 20
0.0
 30
0.0
  3
3_405020c_Inch_0_in_023219_4
  1

  0
ATTDEF
  5
DB
330
D7
100
AcDbEntity
  8
AM_6
100
AcDbText
 10
5.14065
 20
-1.212591369276958
 30
0.0
 40
0.5
  1
405020C -Inch
100
AcDbAttributeDefinition
  3

  2
NN
 70
     8
280
     0
  0
ATTDEF
  5
DC
330
D7
100
AcDbEntity
  8
AM_6
100
AcDbText
 10
5.14065
 20
-1.712591369276958
 30
0.0
 40
0.5
  1
Grease fitting
100
AcDbAttributeDefinition
  3

  2
NT
 70
     8
280
     0
  0
ATTDEF
  5
DD
330
D7
100
AcDbEntity
  8
AM_6
100
AcDbText
 10
5.14065
 20
-2.212591369276958
 30
0.0
 40
0.5
  1
405020c-Inch
100
AcDbAttributeDefinition
  3

  2
NB
 70
     8
280
     0
  0
ATTDEF
  5
DE
330
D7
100
AcDbEntity
  8
AM_6
100
AcDbText
 10
5.14065
 20
-2.712591369276958
 30
0.0
 40
0.5
  1
$MN.-Inch
100
AcDbAttributeDefinition
  3

  2
NBSYN
 70
     8
280
     0
  0
ATTDEF
  5
DF
330
D7
100
AcDbEntity
  8
AM_6
100
AcDbText
 10
5.14065
 20
-3.212591369276958
 30
0.0
 40
0.5
  1
405020c
100
AcDbAttributeDefinition
  3

  2
LINA
 70
     8
280
     0
  0
ATTDEF
  5
E0
330
D7
100
AcDbEntity
  8
AM_6
100
AcDbText
 10
5.14065
 20
-3.712591369276958
 30
0.0
 40
0.5
  1
405020c
100
AcDbAttributeDefinition
  3

  2
MN
 70
     8
280
     0
  0
ATTDEF
  5
E1
330
D7
100
AcDbEntity
  8
AM_6
100
AcDbText
 10
5.14065
 20
-4.212591369276958
 30
0.0
 40
0.5
  1
0.230
100
AcDbAttributeDefinition
  3

  2
NDR
 70
     8
280
     0
  0
ATTDEF
  5
E2
330
D7
100
AcDbEntity
  8
AM_6
100
AcDbText
 10
5.14065
 20
-4.712591369276958
 30
0.0
 40
0.5
  1
0.210
100
AcDbAttributeDefinition
  3

  2
KDR
 70
     8
280
     0
  0
ATTDEF
  5
E3
330
D7
100
AcDbEntity
  8
AM_6
100
AcDbText
 10
5.14065
 20
-5.212591369276958
 30
0.0
 40
0.5
  1
0.157
100
AcDbAttributeDefinition
  3

  2
BZE
 70
     8
280
     0
  0
ATTDEF
  5
E4
330
D7
100
AcDbEntity
  8
AM_6
100
AcDbText
 10
5.14065
 20
-5.712591369276958
 30
0.0
 40
0.5
  1
9/32
100
AcDbAttributeDefinition
  3

  2
WAF
 70
     8
280
     0
  0
ATTDEF
  5
E5
330
D7
100
AcDbEntity
  8
AM_6
100
AcDbText
 10
5.14065
 20
-6.212591369276958
 30
0.0
 40
0.5
  1
0.2813
100
AcDbAttributeDefinition
  3

  2
WAF1
 70
     8
280
     0
  0
ATTDEF
  5
E6
330
D7
100
AcDbEntity
  8
AM_6
100
AcDbText
 10
5.14065
 20
-6.712591369276958
 30
0.0
 40
0.5
  1
0.545
100
AcDbAttributeDefinition
  3

  2
BL
 70
     8
280
     0
  0
ATTDEF
  5
E7
330
D7
100
AcDbEntity
  8
AM_6
100
AcDbText
 10
5.14065
 20
-7.212591369276958
 30
0.0
 40
0.5
  1
0.200
100
AcDbAttributeDefinition
  3

  2
TL
 70
     8
280
     0
  0
ATTDEF
  5
E8
330
D7
100
AcDbEntity
  8
AM_6
100
AcDbText
 10
5.14065
 20
-7.712591369276958
 30
0.0
 40
0.5
  1
baldor
100
AcDbAttributeDefinition
  3

  2
COMPANY
 70
     8
280
     0
  0
CIRCLE
  5
E9
330
D7
100
AcDbEntity
  8
AM_9
100
AcDbCircle
 10
0.0
 20
-1.375
 30
0.0
 40
0.1000886227036577
  0
CIRCLE
  5
EA
330
D7
100
AcDbEntity
  8
AM_9
100
AcDbCircle
 10
0.0
 20
-1.375
 30
0.0
 40
0.1104162595939891
  0
CIRCLE
  5
EB
330
D7
100
AcDbEntity
  8
AM_9
100
AcDbCircle
 10
0.0
 20
-1.375
 30
0.0
 40
0.1163438171532771
  0
LINE
  5
EC
330
D7
100
AcDbEntity
  8
AM_9
100
AcDbLine
 10
0.0
 20
-1.537408630723041
 30
0.0
 11
0.14065
 21
-1.456204315361521
 31
0.0
  0
LINE
  5
ED
330
D7
100
AcDbEntity
  8
AM_9
100
AcDbLine
 10
-0.14065
 20
-1.456204315361521
 30
0.0
 11
0.0
 21
-1.537408630723041
 31
0.0
  0
LINE
  5
EE
330
D7
100
AcDbEntity
  8
AM_9
100
AcDbLine
 10
0.0
 20
-1.212591369276958
 30
0.0
 11
-0.14065
 21
-1.293795684638479
 31
0.0
  0
LINE
  5
EF
330
D7
100
AcDbEntity
  8
AM_9
100
AcDbLine
 10
0.14065
 20
-1.293795684638479
 30
0.0
 11
0.0
 21
-1.212591369276958
 31
0.0
  0
LINE
  5
F0
330
D7
100
AcDbEntity
  8
AM_9
100
AcDbLine
 10
0.14065
 20
-1.456204315361521
 30
0.0
 11
0.14065
 21
-1.293795684638479
 31
0.0
  0
LINE
  5
F1
330
D7
100
AcDbEntity
  8
AM_9
100
AcDbLine
 10
-0.14065
 20
-1.293795684638479
 30
0.0
 11
-0.14065
 21
-1.456204315361521
 31
0.0
  0
CIRCLE
  5
F2
330
D7
100
AcDbEntity
  8
AM_9
100
AcDbCircle
 10
0.0
 20
-1.375
 30
0.0
 40
0.1093294505797714
  0
CIRCLE
  5
F3
330
D7
100
AcDbEntity
  8
AM_9
100
AcDbCircle
 10
0.0
 20
-1.375
 30
0.0
 40
0.0946847896390988
  0
CIRCLE
  5
F4
330
D7
100
AcDbEntity
  8
AM_9
100
AcDbCircle
 10
0.0
 20
-1.375
 30
0.0
 40
0.135926521995058
  0
CIRCLE
  5
F5
330
D7
100
AcDbEntity
  8
AM_9
100
AcDbCircle
 10
0.0
 20
-1.375
 30
0.0
 40
0.13195176466768
  0
CIRCLE
  5
F6
330
D7
100
AcDbEntity
  8
AM_9
100
AcDbCircle
 10
0.0
 20
-1.375
 30
0.0
 40
0.1038190510530391
  0
CIRCLE
  5
F7
330
D7
100
AcDbEntity
  8
AM_9
100
AcDbCircle
 10
0.0
 20
-1.375
 30
0.0
 40
0.080806429716728
  0
CIRCLE
  5
F8
330
D7
100
AcDbEntity
  8
AM_9
100
AcDbCircle
 10
-0.0000000000000001
 20
-1.375
 30
0.0
 40
0.1406500000000002
  0
ENDBLK
  5
DA
330
D7
100
AcDbEntity
  8
0
100
AcDbBlockEnd
  0
BLOCK
  5
FB
330
F9
100
AcDbEntity
  8
0
100
AcDbBlockBegin
  2
4_S1U_K_115R_0_in_023219_4
 70
     2
 10
0.0
 20
0.0
 30
0.0
  3
4_S1U_K_115R_0_in_023219_4
  1

  0
ATTDEF
  5
FD
330
F9
100
AcDbEntity
  8
AM_6
100
AcDbText
 10
7.279237970365436
 20
0.146875
 30
0.0
 40
0.5
  1
Type K Units - Inch
100
AcDbAttributeDefinition
  3

  2
NN
 70
     8
280
     0
  0
ATTDEF
  5
FE
330
F9
100
AcDbEntity
  8
AM_6
100
AcDbText
 10
7.279237970365436
 20
-0.353125
 30
0.0
 40
0.5
  1
Type K
100
AcDbAttributeDefinition
  3

  2
NT
 70
     8
280
     0
  0
ATTDEF
  5
FF
330
F9
100
AcDbEntity
  8
AM_6
100
AcDbText
 10
7.279237970365436
 20
-0.853125
 30
0.0
 40
0.5
  1
S1U-K-115R
100
AcDbAttributeDefinition
  3

  2
NB
 70
     8
280
     0
  0
ATTDEF
  5
100
330
F9
100
AcDbEntity
  8
AM_6
100
AcDbText
 10
7.279237970365436
 20
-1.353125
 30
0.0
 40
0.5
  1
$PN.
100
AcDbAttributeDefinition
  3

  2
NBSYN
 70
     8
280
     0
  0
ATTDEF
  5
101
330
F9
100
AcDbEntity
  8
AM_6
100
AcDbText
 10
7.279237970365436
 20
-1.853125
 30
0.0
 40
0.5
  1
S1U-K-115R
100
AcDbAttributeDefinition
  3

  2
LINA
 70
     8
280
     0
  0
ATTDEF
  5
102
330
F9
100
AcDbEntity
  8
AM_6
100
AcDbText
 10
7.279237970365436
 20
-2.353125
 30
0.0
 40
0.5
  1
1-15/16
100
AcDbAttributeDefinition
  3

  2
SS
 70
     8
280
     0
  0
ATTDEF
  5
103
330
F9
100
AcDbEntity
  8
AM_6
100
AcDbText
 10
7.279237970365436
 20
-2.853125
 30
0.0
 40
0.5
  1
1.937500
100
AcDbAttributeDefinition
  3

  2
SS1
 70
     8
280
     0
  0
ATTDEF
  5
104
330
F9
100
AcDbEntity
  8
AM_6
100
AcDbText
 10
7.279237970365436
 20
-3.353125
 30
0.0
 40
0.5
  1
S1U-K-115R
100
AcDbAttributeDefinition
  3

  2
PN
 70
     8
280
     0
  0
ATTDEF
  5
105
330
F9
100
AcDbEntity
  8
AM_6
100
AcDbText
 10
7.279237970365436
 20
-3.853125
 30
0.0
 40
0.5
  1
S1U-K-115R
100
AcDbAttributeDefinition
  3

  2
PNA
 70
     8
280
     0
  0
ATTDEF
  5
106
330
F9
100
AcDbEntity
  8
AM_6
100
AcDbText
 10
7.279237970365436
 20
-4.353125
 30
0.0
 40
0.5
  1
7
100
AcDbAttributeDefinition
  3

  2
WEIGHT
 70
     8
280
     0
  0
ATTDEF
  5
107
330
F9
100
AcDbEntity
  8
AM_6
100
AcDbText
 10
7.279237970365436
 20
-4.853125
 30
0.0
 40
0.5
  1
2-31/32
100
AcDbAttributeDefinition
  3

  2
A
 70
     8
280
     0
  0
ATTDEF
  5
108
330
F9
100
AcDbEntity
  8
AM_6
100
AcDbText
 10
7.279237970365436
 20
-5.353125
 30
0.0
 40
0.5
  1
2.968750
100
AcDbAttributeDefinition
  3

  2
A1
 70
     8
280
     0
  0
ATTDEF
  5
109
330
F9
100
AcDbEntity
  8
AM_6
100
AcDbText
 10
7.279237970365436
 20
-5.853125
 30
0.0
 40
0.5
  1
2-7/16
100
AcDbAttributeDefinition
  3

  2
B
 70
     8
280
     0
  0
ATTDEF
  5
10A
330
F9
100
AcDbEntity
  8
AM_6
100
AcDbText
 10
7.279237970365436
 20
-6.353125
 30
0.0
 40
0.5
  1
2.437500
100
AcDbAttributeDefinition
  3

  2
B1
 70
     8
280
     0
  0
ATTDEF
  5
10B
330
F9
100
AcDbEntity
  8
AM_6
100
AcDbText
 10
7.279237970365436
 20
-6.853125
 30
0.0
 40
0.5
  1
1-1/2
100
AcDbAttributeDefinition
  3

  2
C
 70
     8
280
     0
  0
ATTDEF
  5
10C
330
F9
100
AcDbEntity
  8
AM_6
100
AcDbText
 10
7.279237970365436
 20
-7.353125
 30
0.0
 40
0.5
  1
1.500000
100
AcDbAttributeDefinition
  3

  2
C1
 70
     8
280
     0
  0
ATTDEF
  5
10D
330
F9
100
AcDbEntity
  8
AM_6
100
AcDbText
 10
7.279237970365436
 20
-7.853125
 30
0.0
 40
0.5
  1
4-1/4
100
AcDbAttributeDefinition
  3

  2
D
 70
     8
280
     0
  0
ATTDEF
  5
10E
330
F9
100
AcDbEntity
  8
AM_6
100
AcDbText
 10
7.279237970365436
 20
-8.353125
 30
0.0
 40
0.5
  1
4.250000
100
AcDbAttributeDefinition
  3

  2
D1
 70
     8
280
     0
  0
ATTDEF
  5
10F
330
F9
100
AcDbEntity
  8
AM_6
100
AcDbText
 10
7.279237970365436
 20
-8.853125
 30
0.0
 40
0.5
  1
0.450
100
AcDbAttributeDefinition
  3

  2
E
 70
     8
280
     0
  0
ATTDEF
  5
110
330
F9
100
AcDbEntity
  8
AM_6
100
AcDbText
 10
7.279237970365436
 20
-9.353125
 30
0.0
 40
0.5
  1
4.125
100
AcDbAttributeDefinition
  3

  2
EM
 70
     8
280
     0
  0
ATTDEF
  5
111
330
F9
100
AcDbEntity
  8
AM_6
100
AcDbText
 10
7.279237970365436
 20
-9.853125
 30
0.0
 40
0.5
  1
4.180
100
AcDbAttributeDefinition
  3

  2
EC
 70
     8
280
     0
  0
ATTDEF
  5
112
330
F9
100
AcDbEntity
  8
AM_6
100
AcDbText
 10
7.279237970365436
 20
-10.353125
 30
0.0
 40
0.5
  1
11/16
100
AcDbAttributeDefinition
  3

  2
H
 70
     8
280
     0
  0
ATTDEF
  5
113
330
F9
100
AcDbEntity
  8
AM_6
100
AcDbText
 10
7.279237970365436
 20
-10.853125
 30
0.0
 40
0.5
  1
0.687500
100
AcDbAttributeDefinition
  3

  2
H1
 70
     8
280
     0
  0
ATTDEF
  5
114
330
F9
100
AcDbEntity
  8
AM_6
100
AcDbText
 10
7.279237970365436
 20
-11.353125
 30
0.0
 40
0.5
  1
3
100
AcDbAttributeDefinition
  3

  2
J
 70
     8
280
     0
  0
ATTDEF
  5
115
330
F9
100
AcDbEntity
  8
AM_6
100
AcDbText
 10
7.279237970365436
 20
-11.853125
 30
0.0
 40
0.5
  1
3.000000
100
AcDbAttributeDefinition
  3

  2
J1
 70
     8
280
     0
  0
ATTDEF
  5
116
330
F9
100
AcDbEntity
  8
AM_6
100
AcDbText
 10
7.279237970365436
 20
-12.353125
 30
0.0
 40
0.5
  1
4.562
100
AcDbAttributeDefinition
  3

  2
K
 70
     8
280
     0
  0
ATTDEF
  5
117
330
F9
100
AcDbEntity
  8
AM_6
100
AcDbText
 10
7.279237970365436
 20
-12.853125
 30
0.0
 40
0.5
  1
3-7/16
100
AcDbAttributeDefinition
  3

  2
L
 70
     8
280
     0
  0
ATTDEF
  5
118
330
F9
100
AcDbEntity
  8
AM_6
100
AcDbText
 10
7.279237970365436
 20
-13.353125
 30
0.0
 40
0.5
  1
3.437500
100
AcDbAttributeDefinition
  3

  2
L1
 70
     8
280
     0
  0
ATTDEF
  5
119
330
F9
100
AcDbEntity
  8
AM_6
100
AcDbText
 10
7.279237970365436
 20
-13.853125
 30
0.0
 40
0.5
  1
3-1/16
100
AcDbAttributeDefinition
  3

  2
M
 70
     8
280
     0
  0
ATTDEF
  5
11A
330
F9
100
AcDbEntity
  8
AM_6
100
AcDbText
 10
7.279237970365436
 20
-14.353125
 30
0.0
 40
0.5
  1
3.062500
100
AcDbAttributeDefinition
  3

  2
M1
 70
     8
280
     0
  0
ATTDEF
  5
11B
330
F9
100
AcDbEntity
  8
AM_6
100
AcDbText
 10
7.279237970365436
 20
-14.853125
 30
0.0
 40
0.5
  1
1-13/64
100
AcDbAttributeDefinition
  3

  2
R
 70
     8
280
     0
  0
ATTDEF
  5
11C
330
F9
100
AcDbEntity
  8
AM_6
100
AcDbText
 10
7.279237970365436
 20
-15.353125
 30
0.0
 40
0.5
  1
1.203125
100
AcDbAttributeDefinition
  3

  2
R1
 70
     8
280
     0
  0
ATTDEF
  5
11D
330
F9
100
AcDbEntity
  8
AM_6
100
AcDbText
 10
7.279237970365436
 20
-15.853125
 30
0.0
 40
0.5
  1
1-3/4
100
AcDbAttributeDefinition
  3

  2
S
 70
     8
280
     0
  0
ATTDEF
  5
11E
330
F9
100
AcDbEntity
  8
AM_6
100
AcDbText
 10
7.279237970365436
 20
-16.353125
 30
0.0
 40
0.5
  1
1.750000
100
AcDbAttributeDefinition
  3

  2
S1
 70
     8
280
     0
  0
ATTDEF
  5
11F
330
F9
100
AcDbEntity
  8
AM_6
100
AcDbText
 10
7.279237970365436
 20
-16.853125
 30
0.0
 40
0.5
  1
2.3100
100
AcDbAttributeDefinition
  3

  2
CC
 70
     8
280
     0
  0
ATTDEF
  5
120
330
F9
100
AcDbEntity
  8
AM_6
100
AcDbText
 10
7.279237970365436
 20
-17.353125
 30
0.0
 40
0.5
  1
baldor
100
AcDbAttributeDefinition
  3

  2
COMPANY
 70
     8
280
     0
  0
LINE
  5
121
330
F9
100
AcDbEntity
  8
AM_9
100
AcDbLine
 10
1.04665106075902
 20
-2.525
 30
0.0
 11
0.8778220308630212
 21
-2.525
 31
0.0
  0
LINE
  5
122
330
F9
100
AcDbEntity
  8
AM_9
100
AcDbLine
 10
0.8778884646009762
 20
-2.975
 30
0.0
 11
1.046729651914984
 21
-2.975
 31
0.0
  0
LWPOLYLINE
  5
123
330
F9
100
AcDbEntity
  8
AM_9
100
AcDbPolyline
 90
       21
 70
     0
 43
0.0
 10
0.8779916161209453
 20
-2.525000000440111
 10
0.8679420284888621
 20
-2.52619627422838
 10
0.8514239016694722
 20
-2.532871866658729
 10
0.83403658325307
 20
-2.545648440933236
 10
0.8172531217074086
 20
-2.563619908695799
 10
0.8010011670432061
 20
-2.58718503825179
 10
0.7865627626016134
 20
-2.61514083414257
 10
0.774265370977954
 20
-2.6478184163837
 10
0.7654287627966666
 20
-2.682636019369829
 10
0.7601220521329713
 20
-2.720554017641908
 10
0.7589647959527153
 20
-2.757384785109909
 10
0.7617932104803449
 20
-2.795087689986866
 10
0.7681683431164893
 20
-2.829979109435573
 10
0.7780803225770401
 20
-2.863598320988117
 10
0.7907051256539775
 20
-2.893749947865994
 10
0.8059318202239788
 20
-2.920705642037402
 10
0.8225771366003694
 20
-2.942715950065717
 10
0.8405090049762063
 20
-2.959782327194089
 10
0.8578229225795695
 20
-2.9703670895711
 10
0.8749848377202233
 20
-2.974889659963902
 10
0.8779758037760301
 20
-2.974999998789248
  0
LWPOLYLINE
  5
124
330
F9
100
AcDbEntity
  8
AM_9
100
AcDbPolyline
 90
        4
 70
     0
 43
0.0
 10
0.9445284740246821
 20
-2.844762444495354
 10
0.9473740556559943
 20
-2.809624234495085
 10
0.9486385407508258
 20
-2.780379782081336
 10
0.9490655564930632
 20
-2.75
  0
LWPOLYLINE
  5
125
330
F9
100
AcDbEntity
  8
AM_9
100
AcDbPolyline
 90
        9
 70
     0
 43
0.0
 10
0.8779758037760301
 20
-2.974999998789248
 10
0.8900704740265402
 20
-2.973049435360182
 10
0.9039740677021505
 20
-2.964986564466757
 10
0.9156197547490853
 20
-2.951461920657345
 10
0.92562452178636
 20
-2.932109478380232
 10
0.9336124224823651
 20
-2.90794751924545
 10
0.9399124601017783
 20
-2.878643150288669
 10
0.9443898214077976
 20
-2.84606332548595
 10
0.9445284740246821
 20
-2.844762444495354
  0
LWPOLYLINE
  5
126
330
F9
100
AcDbEntity
  8
AM_9
100
AcDbPolyline
 90
        4
 70
     0
 43
0.0
 10
1.014005824094974
 20
-2.96294572601428
 10
1.028309533346215
 20
-2.97100984576664
 10
1.044977789665627
 20
-2.974959658137634
 10
1.046776821995581
 20
-2.974999999064344
  0
LWPOLYLINE
  5
127
330
F9
100
AcDbEntity
  8
AM_9
100
AcDbPolyline
 90
       14
 70
     0
 43
0.0
 10
0.9682089461782758
 20
-2.593413753997052
 10
0.957043238190699
 20
-2.617135618053337
 10
0.9456761052678425
 20
-2.64953773273676
 10
0.9374124375633648
 20
-2.684946921554362
 10
0.932675274085431
 20
-2.722259423027717
 10
0.9317882968894793
 20
-2.759781024016529
 10
0.9346258730093859
 20
-2.797022675932335
 10
0.9410195184897431
 20
-2.832587563330523
 10
0.9505764272425052
 20
-2.865868815681336
 10
0.9630245280422763
 20
-2.896293076447996
 10
0.9776206217683849
 20
-2.922666094194792
 10
0.9939645612401119
 20
-2.944496711684645
 10
1.011127928528618
 20
-2.960814590618602
 10
1.014005824094974
 20
-2.96294572601428
  0
LWPOLYLINE
  5
128
330
F9
100
AcDbEntity
  8
AM_9
100
AcDbPolyline
 90
        4
 70
     0
 43
0.0
 10
0.988372091371623
 20
-2.562200339974641
 10
0.9863332751234005
 20
-2.564856592117526
 10
0.9708970758695528
 20
-2.588511855797327
 10
0.9682089461782758
 20
-2.593413753997052
  0
LWPOLYLINE
  5
129
330
F9
100
AcDbEntity
  8
AM_9
100
AcDbPolyline
 90
        5
 70
     0
 43
0.0
 10
1.046792581813507
 20
-2.525000000625065
 10
1.036409156889469
 20
-2.526285481564317
 10
1.0197391144345
 20
-2.53332954053907
 10
1.002871402375104
 20
-2.546244296591577
 10
0.988372091371623
 20
-2.562200339974641
  0
LWPOLYLINE
  5
12A
330
F9
100
AcDbEntity
  8
AM_9
100
AcDbPolyline
 90
        4
 70
     0
 43
0.0
 10
1.119460826358222
 20
-2.814916497630093
 10
1.120087805441606
 20
-2.805903124180134
 10
1.121388476643147
 20
-2.778180252505343
 10
1.121820236858396
 20
-2.75
  0
LWPOLYLINE
  5
12B
330
F9
100
AcDbEntity
  8
AM_9
100
AcDbPolyline
 90
        3
 70
     0
 43
0.0
 10
1.085066964628136
 20
-2.951627883713773
 10
1.086386818484125
 20
-2.949641701416642
 10
1.090353147206855
 20
-2.943088404602446
  0
LINE
  5
12C
330
F9
100
AcDbEntity
  8
AM_9
100
AcDbLine
 10
1.081302244266315
 20
-2.95662980603144
 30
0.0
 11
1.085066964628136
 21
-2.951627883713773
 31
0.0
  0
LINE
  5
12D
330
F9
100
AcDbEntity
  8
AM_9
100
AcDbLine
 10
1.078967580440618
 20
-2.959340448925034
 30
0.0
 11
1.081302244266315
 21
-2.95662980603144
 31
0.0
  0
LINE
  5
12E
330
F9
100
AcDbEntity
  8
AM_9
100
AcDbLine
 10
1.075224635658846
 20
-2.963125985848765
 30
0.0
 11
1.078967580440618
 21
-2.959340448925034
 31
0.0
  0
LWPOLYLINE
  5
12F
330
F9
100
AcDbEntity
  8
AM_9
100
AcDbPolyline
 90
        3
 70
     0
 43
0.0
 10
1.072940223228077
 20
-2.965125161279917
 10
1.074225097131
 20
-2.964028420533357
 10
1.075224635658846
 20
-2.963125985848765
  0
LWPOLYLINE
  5
130
330
F9
100
AcDbEntity
  8
AM_9
100
AcDbPolyline
 90
        3
 70
     0
 43
0.0
 10
1.046776821995581
 20
-2.974999999064344
 10
1.060312377503361
 20
-2.972538194649552
 10
1.072940223228077
 20
-2.965125161279917
  0
LWPOLYLINE
  5
131
330
F9
100
AcDbEntity
  8
AM_9
100
AcDbPolyline
 90
        6
 70
     0
 43
0.0
 10
0.9232044048617883
 20
-2.562331195384363
 10
0.9225470250062832
 20
-2.560930461086787
 10
0.9117955476012889
 20
-2.543236348323596
 10
0.8986291992228477
 20
-2.5310489582867
 10
0.8842608484469358
 20
-2.525507311268972
 10
0.8779916161209453
 20
-2.525000000440111
  0
LWPOLYLINE
  5
132
330
F9
100
AcDbEntity
  8
AM_9
100
AcDbPolyline
 90
        3
 70
     0
 43
0.0
 10
0.9339327819016651
 20
-2.593265203761136
 10
0.9314112213699918
 20
-2.584310754101502
 10
0.9232044048617883
 20
-2.562331195384363
  0
LWPOLYLINE
  5
133
330
F9
100
AcDbEntity
  8
AM_9
100
AcDbPolyline
 90
        4
 70
     0
 43
0.0
 10
0.9445016998924168
 20
-2.654984387461376
 10
0.9431271530257401
 20
-2.643108849767286
 10
0.9381167638734584
 20
-2.611627808834458
 10
0.9339327819016651
 20
-2.593265203761136
  0
LWPOLYLINE
  5
134
330
F9
100
AcDbEntity
  8
AM_9
100
AcDbPolyline
 90
        4
 70
     0
 43
0.0
 10
0.9490655564930632
 20
-2.75
 10
0.9484408188534569
 20
-2.71333524651108
 10
0.9464559259286547
 20
-2.676670493022161
 10
0.9445016998924168
 20
-2.654984387461376
  0
LINE
  5
135
330
F9
100
AcDbEntity
  8
AM_9
100
AcDbLine
 10
0.9687499999999999
 20
-3.125
 30
0.0
 11
0.9687499999999999
 21
-0.15625
 31
0.0
  0
LINE
  5
136
330
F9
100
AcDbEntity
  8
AM_9
100
AcDbLine
 10
-0.9687499999999999
 20
-0.15625
 30
0.0
 11
-0.9687499999999999
 21
-3.125
 31
0.0
  0
LWPOLYLINE
  5
137
330
F9
100
AcDbEntity
  8
AM_9
100
AcDbPolyline
 90
        5
 70
     0
 43
0.0
 10
-0.1242421148690873
 20
-2.562412961820768
 10
-0.0924822620711774
 20
-2.54488532182655
 10
-0.0559237045933987
 20
-2.532060698210372
 10
-0.0284211680184965
 20
-2.526802246408113
 10
0.0
 20
-2.525
  0
LWPOLYLINE
  5
138
330
F9
100
AcDbEntity
  8
AM_9
100
AcDbPolyline
 90
        4
 70
     0
 43
0.0
 10
-0.1615186670052452
 20
-2.593357987088876
 10
-0.15516576771697
 20
-2.58706263617941
 10
-0.1253216606692363
 20
-2.563132449667941
 10
-0.1242421148690873
 20
-2.562412961820768
  0
LWPOLYLINE
  5
139
330
F9
100
AcDbEntity
  8
AM_9
100
AcDbPolyline
 90
       14
 70
     0
 43
0.0
 10
-0.0731807816456079
 20
-2.962766475737457
 10
-0.0821158923696818
 20
-2.959480262125888
 10
-0.1158955876808661
 20
-2.942855419307072
 10
-0.1459328301892974
 20
-2.921255975291205
 10
-0.1726845958913086
 20
-2.894239489536865
 10
-0.1942482976061061
 20
-2.863545580614701
 10
-0.2108188538101899
 20
-2.82861558928201
 10
-0.2209313032201769
 20
-2.792595296189066
 10
-0.2249602699652677
 20
-2.754228112717738
 10
-0.222636446852178
 20
-2.717472895409562
 10
-0.2140279372087115
 20
-2.68059508595075
 10
-0.199906350647527
 20
-2.646740855267981
 10
-0.1798848698171247
 20
-2.614846629302573
 10
-0.1615186670052452
 20
-2.593357987088876
  0
LWPOLYLINE
  5
13A
330
F9
100
AcDbEntity
  8
AM_9
100
AcDbPolyline
 90
        6
 70
     0
 43
0.0
 10
0.0730712784272541
 20
-2.962804107735276
 10
0.0656228837173844
 20
-2.965217650606577
 10
0.0277711875878299
 20
-2.973279558267123
 10
-0.0092082608096511
 20
-2.974811494218737
 10
-0.0470014890404993
 20
-2.970036042565703
 10
-0.0731807816456079
 20
-2.962766475737457
  0
LWPOLYLINE
  5
13B
330
F9
100
AcDbEntity
  8
AM_9
100
AcDbPolyline
 90
       14
 70
     0
 43
0.0
 10
0.1615845606448487
 20
-2.593425960768679
 10
0.1663111553264942
 20
-2.598455948272568
 10
0.1895977742594368
 20
-2.628848508074115
 10
0.2071133306148067
 20
-2.662084880244398
 10
0.2191257586612723
 20
-2.698922589228487
 10
0.2245468731060072
 20
-2.735727586808297
 10
0.2237113762419866
 20
-2.774046208431192
 10
0.2168310592209844
 20
-2.810077381410194
 10
0.2037643414345357
 20
-2.845420611818149
 10
0.1854707642804125
 20
-2.877379729930785
 10
0.1615159998720261
 20
-2.906644763031962
 10
0.1333383014557792
 20
-2.931234371367265
 10
0.1004761211127106
 20
-2.951319519883552
 10
0.0730712784272541
 20
-2.962804107735276
  0
LWPOLYLINE
  5
13C
330
F9
100
AcDbEntity
  8
AM_9
100
AcDbPolyline
 90
        3
 70
     0
 43
0.0
 10
0.1233665097591113
 20
-2.561835964462241
 10
0.1390548158778442
 20
-2.573113713982178
 10
0.1615845606448487
 20
-2.593425960768679
  0
LWPOLYLINE
  5
13D
330
F9
100
AcDbEntity
  8
AM_9
100
AcDbPolyline
 90
        5
 70
     0
 43
0.0
 10
0.0
 20
-2.525
 10
0.0368435947898777
 20
-2.528037053716258
 10
0.0736871895797554
 20
-2.537408377183302
 10
0.1074213657864734
 20
-2.552299089095248
 10
0.1233665097591113
 20
-2.561835964462241
  0
LWPOLYLINE
  5
13E
330
F9
100
AcDbEntity
  8
AM_9
100
AcDbPolyline
 90
        6
 70
     0
 43
0.0
 10
1.093153606566157
 20
-2.562280431094052
 10
1.09221663375824
 20
-2.560411785955476
 10
1.080716427972233
 20
-2.54269627708512
 10
1.06735490516103
 20
-2.530878657276569
 10
1.052509563178986
 20
-2.525443748258816
 10
1.046792581813507
 20
-2.525000000625065
  0
LWPOLYLINE
  5
13F
330
F9
100
AcDbEntity
  8
AM_9
100
AcDbPolyline
 90
        3
 70
     0
 43
0.0
 10
1.104721189800099
 20
-2.593221621640175
 10
1.101661633360575
 20
-2.583366018041699
 10
1.093153606566157
 20
-2.562280431094052
  0
LWPOLYLINE
  5
140
330
F9
100
AcDbEntity
  8
AM_9
100
AcDbPolyline
 90
        6
 70
     0
 43
0.0
 10
1.121820236858396
 20
-2.75
 10
1.121055979992336
 20
-2.712632694779448
 10
1.118747263291961
 20
-2.676328570539554
 10
1.114821877663946
 20
-2.64215391601881
 10
1.109198902161482
 20
-2.610975551930869
 10
1.104721189800099
 20
-2.593221621640175
  0
LINE
  5
141
330
F9
100
AcDbEntity
  8
AM_9
100
AcDbLine
 10
1.155
 20
-3.125
 30
0.0
 11
1.155
 21
-2.375
 31
0.0
  0
LINE
  5
142
330
F9
100
AcDbEntity
  8
AM_9
100
AcDbLine
 10
-1.155
 20
-2.375
 30
0.0
 11
-1.155
 21
-3.125
 31
0.0
  0
LINE
  5
143
330
F9
100
AcDbEntity
  8
AM_9
100
AcDbLine
 10
-1.432291666666667
 20
-0.15625
 30
0.0
 11
-1.432291666666667
 21
-0.640625
 31
0.0
  0
LINE
  5
144
330
F9
100
AcDbEntity
  8
AM_9
100
AcDbLine
 10
1.432291666666667
 20
-0.640625
 30
0.0
 11
1.432291666666667
 21
-0.15625
 31
0.0
  0
LINE
  5
145
330
F9
100
AcDbEntity
  8
AM_9
100
AcDbLine
 10
-1.762820512820513
 20
-2.375
 30
0.0
 11
1.762820512820513
 21
-2.375
 31
0.0
  0
LINE
  5
146
330
F9
100
AcDbEntity
  8
AM_9
100
AcDbLine
 10
-1.762820512820513
 20
-2.375
 30
0.0
 11
-1.80139203985049
 21
-2.59375
 31
0.0
  0
LINE
  5
147
330
F9
100
AcDbEntity
  8
AM_9
100
AcDbLine
 10
1.80139203985049
 20
-2.59375
 30
0.0
 11
1.762820512820513
 21
-2.375
 31
0.0
  0
LINE
  5
148
330
F9
100
AcDbEntity
  8
AM_9
100
AcDbLine
 10
1.762820512820513
 20
-0.640625
 30
0.0
 11
1.848228894101175
 21
-0.15625
 31
0.0
  0
LINE
  5
149
330
F9
100
AcDbEntity
  8
AM_9
100
AcDbLine
 10
-1.848228894101175
 20
-0.15625
 30
0.0
 11
-1.762820512820513
 21
-0.640625
 31
0.0
  0
LINE
  5
14A
330
F9
100
AcDbEntity
  8
AM_9
100
AcDbLine
 10
1.762820512820513
 20
-0.640625
 30
0.0
 11
-1.762820512820513
 21
-0.640625
 31
0.0
  0
ARC
  5
14B
330
F9
100
AcDbEntity
  8
AM_9
100
AcDbCircle
 10
2.013020833333313
 20
-2.54427083333333
 30
0.0
 40
0.0494791666666874
100
AcDbArc
 50
338.3817275778471
 51
0.0
  0
ARC
  5
14C
330
F9
100
AcDbEntity
  8
AM_9
100
AcDbCircle
 10
-2.013020833333313
 20
-2.54427083333333
 30
0.0
 40
0.0494791666666874
100
AcDbArc
 50
180.0
 51
201.6182724221528
  0
LINE
  5
14D
330
F9
100
AcDbEntity
  8
AM_9
100
AcDbLine
 10
-2.0625
 20
-2.544270833333333
 30
0.0
 11
2.0625
 21
-2.544270833333333
 31
0.0
  0
LINE
  5
14E
330
F9
100
AcDbEntity
  8
AM_9
100
AcDbLine
 10
2.0625
 20
-2.544270833333333
 30
0.0
 11
2.0625
 21
-2.125
 31
0.0
  0
LINE
  5
14F
330
F9
100
AcDbEntity
  8
AM_9
100
AcDbLine
 10
-2.0625
 20
-2.125
 30
0.0
 11
-2.0625
 21
-2.544270833333333
 31
0.0
  0
LINE
  5
150
330
F9
100
AcDbEntity
  8
AM_9
100
AcDbLine
 10
-2.040520833333334
 20
-0.15625
 30
0.0
 11
2.040520833325527
 21
-0.15625
 31
0.0
  0
ARC
  5
151
330
F9
100
AcDbEntity
  8
AM_9
100
AcDbCircle
 10
2.040520833333333
 20
-0.2057291666666666
 30
0.0
 40
0.0494791666666665
100
AcDbArc
 50
0.0000008537736463
 51
90.0
  0
ARC
  5
152
330
F9
100
AcDbEntity
  8
AM_9
100
AcDbCircle
 10
-2.040520833333333
 20
-0.2057291666666666
 30
0.0
 40
0.0494791666666666
100
AcDbArc
 50
90.0
 51
179.9999991462263
  0
LINE
  5
153
330
F9
100
AcDbEntity
  8
AM_9
100
AcDbLine
 10
-2.09
 20
-0.625
 30
0.0
 11
2.09
 21
-0.625
 31
0.0
  0
LINE
  5
154
330
F9
100
AcDbEntity
  8
AM_9
100
AcDbLine
 10
-2.089999999999999
 20
-0.2057291666666665
 30
0.0
 11
2.09
 21
-0.2057291666666665
 31
0.0
  0
LINE
  5
155
330
F9
100
AcDbEntity
  8
AM_9
100
AcDbLine
 10
2.09
 20
-0.625
 30
0.0
 11
2.09
 21
-0.2057291666666665
 31
0.0
  0
LINE
  5
156
330
F9
100
AcDbEntity
  8
AM_9
100
AcDbLine
 10
-2.09
 20
-0.2057291666666665
 30
0.0
 11
-2.09
 21
-0.625
 31
0.0
  0
LINE
  5
157
330
F9
100
AcDbEntity
  8
AM_9
100
AcDbLine
 10
-2.228977761076812
 20
-2.125
 30
0.0
 11
2.228977761076815
 21
-2.125
 31
0.0
  0
ARC
  5
158
330
F9
100
AcDbEntity
  8
AM_9
100
AcDbCircle
 10
-0.0000000000248259
 20
-1.640625000003088
 30
0.0
 40
2.281000000023607
100
AcDbArc
 50
347.739776570308
 51
26.43960831686601
  0
ARC
  5
159
330
F9
100
AcDbEntity
  8
AM_9
100
AcDbCircle
 10
-0.0000000000000413
 20
-1.640624999999995
 30
0.0
 40
2.280999999999963
100
AcDbArc
 50
153.5603916829254
 51
192.2602234299005
  0
LWPOLYLINE
  5
15A
330
F9
100
AcDbEntity
  8
AM_9
100
AcDbPolyline
 90
       75
 70
     0
 43
0.0
 10
-0.3152072269116894
 20
-1.061892951062929
 10
-0.2890587515092816
 20
-1.036949007834959
 10
-0.2607252271993009
 20
-1.014081938323425
 10
-0.2298997340228446
 20
-0.9932187305500335
 10
-0.1971498745739612
 20
-0.9749134617780234
 10
-0.1641549617684028
 20
-0.9599606958103379
 10
-0.1293945965995468
 20
-0.9475887127599109
 10
-0.0937042722505966
 20
-0.9381774338001632
 10
-0.0566626602140762
 20
-0.931717229532462
 10
-0.0207292040673499
 20
-0.9285273886010295
 10
0.0159958205989079
 20
-0.9283315643400842
 10
0.0526068115759908
 20
-0.9312073223978987
 10
0.0894996851271978
 20
-0.9372782058843754
 10
0.1243892759450607
 20
-0.9460707040264211
 10
0.1590237548228936
 20
-0.9579269866052211
 10
0.1925349569608916
 20
-0.9726214141279702
 10
0.225252401564463
 20
-0.9903930083938113
 10
0.255366689152505
 20
-1.01017564638214
 10
0.2842202300947582
 20
-1.032765941983369
 10
0.3110729307498562
 20
-1.057667343277703
 10
0.3361568508747383
 20
-1.08520999774904
 10
0.3582059593051553
 20
-1.113920862879654
 10
0.3781211244891146
 20
-1.144886928806802
 10
0.3953642500608867
 20
-1.177394267277081
 10
0.4100448548049963
 20
-1.211833237013
 10
0.4214545376263447
 20
-1.246410464001718
 10
0.4300758661615989
 20
-1.282438219578419
 10
0.4356304797812526
 20
-1.319056579467178
 10
0.4380882512664511
 20
-1.356676242347756
 10
0.4373768721144339
 20
-1.393238089780954
 10
0.4335848902268649
 20
-1.429868632103962
 10
0.4265486177510589
 20
-1.466839766768892
 10
0.4162782161533745
 20
-1.503346338770791
 10
0.4034086604727345
 20
-1.537615578591443
 10
0.3874066197284278
 20
-1.571290693148025
 10
0.3685955450681156
 20
-1.603504110355587
 10
0.3466785324928003
 20
-1.634561625424585
 10
0.3231699112424029
 20
-1.662496809125179
 10
0.2969121463853652
 20
-1.688841562913925
 10
0.2685005085534071
 20
-1.71288343626019
 10
0.2375514913962654
 20
-1.734812105756878
 10
0.2062378680042988
 20
-1.753229757491075
 10
0.1728825774390043
 20
-1.769255209399136
 10
0.1382803308823889
 20
-1.782419022852263
 10
0.1020102969965404
 20
-1.792774605994053
 10
0.0665469591251884
 20
-1.79973413119616
 10
0.0299737782608869
 20
-1.803789251432757
 10
-0.006813592440688
 20
-1.804765843426013
 10
-0.0442238879149211
 20
-1.802580596161732
 10
-0.0798832754485972
 20
-1.797472863334306
 10
-0.1156152501709059
 20
-1.789282190037919
 10
-0.1505283757728469
 20
-1.778141641887154
 10
-0.1849768731345247
 20
-1.763845214371423
 10
-0.2169790411109634
 20
-1.747303044103403
 10
-0.2480237707800712
 20
-1.727834922153247
 10
-0.2773204613645415
 20
-1.70585847156664
 10
-0.3051347123747651
 20
-1.681067947424909
 10
-0.3300091092951039
 20
-1.654847115021117
 10
-0.3530018240369843
 20
-1.626168432595521
 10
-0.3735040828195885
 20
-1.595685976957006
 10
-0.39166585129899
 20
-1.563023981469982
 10
-0.4065925136801168
 20
-1.529902574084363
 10
-0.4189077334683264
 20
-1.495059757392984
 10
-0.4282478608181509
 20
-1.459318624387106
 10
-0.4346277725113322
 20
-1.422270635528983
 10
-0.4377647377218833
 20
-1.385895252312002
 10
-0.43783696246794
 20
-1.348738280892135
 10
-0.4347691591932495
 20
-1.311707411673066
 10
-0.4284333516221012
 20
-1.274406502625851
 10
-0.4192653263830875
 20
-1.238967019134033
 10
-0.4070748584642203
 20
-1.204167429268618
 10
-0.3916357513461776
 20
-1.169779442802644
 10
-0.3731435170395351
 20
-1.136589801268026
 10
-0.3463751259064926
 20
-1.097907891876983
 10
-0.3152072269116893
 20
-1.061892951062929
  0
CIRCLE
  5
15B
330
F9
100
AcDbEntity
  8
AM_9
100
AcDbCircle
 10
0.0
 20
-1.375
 30
0.0
 40
0.3053163691541441
  0
CIRCLE
  5
15C
330
F9
100
AcDbEntity
  8
AM_9
100
AcDbCircle
 10
0.0
 20
-1.375
 30
0.0
 40
0.3497623444809251
  0
LINE
  5
15D
330
F9
100
AcDbEntity
  8
AM_7
100
AcDbLine
 10
-0.3672504617049713
 20
-1.375
 30
0.0
 11
0.3672504617049713
 21
-1.375
 31
0.0
  0
LINE
  5
15E
330
F9
100
AcDbEntity
  8
AM_7
100
AcDbLine
 10
0.0
 20
-3.2734375
 30
0.0
 11
0.0
 21
0.146875
 31
0.0
  0
LINE
  5
15F
330
F9
100
AcDbEntity
  8
AM_4
100
AcDbLine
 10
-2.013020833333334
 20
-2.59375
 30
0.0
 11
2.01302083333331
 21
-2.59375
 31
0.0
  0
ARC
  5
160
330
F9
100
AcDbEntity
  8
AM_4
100
AcDbCircle
 10
2.013020833333333
 20
-2.544270833333332
 30
0.0
 40
0.0494791666666683
100
AcDbArc
 50
270.0
 51
338.3817275778405
  0
ARC
  5
161
330
F9
100
AcDbEntity
  8
AM_4
100
AcDbCircle
 10
-2.013020833333333
 20
-2.544270833333332
 30
0.0
 40
0.0494791666666682
100
AcDbArc
 50
201.6182724221594
 51
270.0
  0
ENDBLK
  5
FC
330
F9
100
AcDbEntity
  8
0
100
AcDbBlockEnd
  0
BLOCK
  5
164
330
162
100
AcDbEntity
  8
0
100
AcDbBlockBegin
  2
5_F4B_K_115R_0_in_023219_4
 70
     2
 10
0.0
 20
0.0
 30
0.0
  3
5_F4B_K_115R_0_in_023219_4
  1

  0
ATTDEF
  5
166
330
162
100
AcDbEntity
  8
AM_6
100
AcDbText
 10
8.625
 20
0.0281249999999998
 30
0.0
 40
0.5
  1
Flange Bearing -Body -  Non-Expansion - Inch
100
AcDbAttributeDefinition
  3

  2
NN
 70
     8
280
     0
  0
ATTDEF
  5
167
330
162
100
AcDbEntity
  8
AM_6
100
AcDbText
 10
8.625
 20
-0.4718750000000002
 30
0.0
 40
0.5
  1
Type K
100
AcDbAttributeDefinition
  3

  2
NT
 70
     8
280
     0
  0
ATTDEF
  5
168
330
162
100
AcDbEntity
  8
AM_6
100
AcDbText
 10
8.625
 20
-0.9718750000000002
 30
0.0
 40
0.5
  1
F4B-K-115R
100
AcDbAttributeDefinition
  3

  2
NB
 70
     8
280
     0
  0
ATTDEF
  5
169
330
162
100
AcDbEntity
  8
AM_6
100
AcDbText
 10
8.625
 20
-1.471875
 30
0.0
 40
0.5
  1
$PN.
100
AcDbAttributeDefinition
  3

  2
NBSYN
 70
     8
280
     0
  0
ATTDEF
  5
16A
330
162
100
AcDbEntity
  8
AM_6
100
AcDbText
 10
8.625
 20
-1.971875
 30
0.0
 40
0.5
  1
F4B-K-115R
100
AcDbAttributeDefinition
  3

  2
LINA
 70
     8
280
     0
  0
ATTDEF
  5
16B
330
162
100
AcDbEntity
  8
AM_6
100
AcDbText
 10
8.625
 20
-2.471875
 30
0.0
 40
0.5
  1
1-15/16
100
AcDbAttributeDefinition
  3

  2
SS
 70
     8
280
     0
  0
ATTDEF
  5
16C
330
162
100
AcDbEntity
  8
AM_6
100
AcDbText
 10
8.625
 20
-2.971875
 30
0.0
 40
0.5
  1
1.937500
100
AcDbAttributeDefinition
  3

  2
SS1
 70
     8
280
     0
  0
ATTDEF
  5
16D
330
162
100
AcDbEntity
  8
AM_6
100
AcDbText
 10
8.625
 20
-3.471875
 30
0.0
 40
0.5
  1
F4B-K-115R
100
AcDbAttributeDefinition
  3

  2
PN
 70
     8
280
     0
  0
ATTDEF
  5
16E
330
162
100
AcDbEntity
  8
AM_6
100
AcDbText
 10
8.625
 20
-3.971875
 30
0.0
 40
0.5
  1
F4B-K-115R
100
AcDbAttributeDefinition
  3

  2
PNA
 70
     8
280
     0
  0
ATTDEF
  5
16F
330
162
100
AcDbEntity
  8
AM_6
100
AcDbText
 10
8.625
 20
-4.471875000000001
 30
0.0
 40
0.5
  1
14
100
AcDbAttributeDefinition
  3

  2
WEIGHT
 70
     8
280
     0
  0
ATTDEF
  5
170
330
162
100
AcDbEntity
  8
AM_6
100
AcDbText
 10
8.625
 20
-4.971875000000001
 30
0.0
 40
0.5
  1
4.125000
100
AcDbAttributeDefinition
  3

  2
BOD
 70
     8
280
     0
  0
ATTDEF
  5
171
330
162
100
AcDbEntity
  8
AM_6
100
AcDbText
 10
8.625
 20
-5.471875000000001
 30
0.0
 40
0.5
  1
3-1/8
100
AcDbAttributeDefinition
  3

  2
A
 70
     8
280
     0
  0
ATTDEF
  5
172
330
162
100
AcDbEntity
  8
AM_6
100
AcDbText
 10
8.625
 20
-5.971875000000001
 30
0.0
 40
0.5
  1
3.125000
100
AcDbAttributeDefinition
  3

  2
A1
 70
     8
280
     0
  0
ATTDEF
  5
173
330
162
100
AcDbEntity
  8
AM_6
100
AcDbText
 10
8.625
 20
-6.471875000000001
 30
0.0
 40
0.5
  1
6-7/8
100
AcDbAttributeDefinition
  3

  2
B
 70
     8
280
     0
  0
ATTDEF
  5
174
330
162
100
AcDbEntity
  8
AM_6
100
AcDbText
 10
8.625
 20
-6.971875000000001
 30
0.0
 40
0.5
  1
6.875000
100
AcDbAttributeDefinition
  3

  2
B1
 70
     8
280
     0
  0
ATTDEF
  5
175
330
162
100
AcDbEntity
  8
AM_6
100
AcDbText
 10
8.625
 20
-7.471875000000001
 30
0.0
 40
0.5
  1
2-9/16
100
AcDbAttributeDefinition
  3

  2
C
 70
     8
280
     0
  0
ATTDEF
  5
176
330
162
100
AcDbEntity
  8
AM_6
100
AcDbText
 10
8.625
 20
-7.971875000000001
 30
0.0
 40
0.5
  1
2.562500
100
AcDbAttributeDefinition
  3

  2
C1
 70
     8
280
     0
  0
ATTDEF
  5
177
330
162
100
AcDbEntity
  8
AM_6
100
AcDbText
 10
8.625
 20
-8.471875
 30
0.0
 40
0.5
  1
5-5/16
100
AcDbAttributeDefinition
  3

  2
D
 70
     8
280
     0
  0
ATTDEF
  5
178
330
162
100
AcDbEntity
  8
AM_6
100
AcDbText
 10
8.625
 20
-8.971875
 30
0.0
 40
0.5
  1
5.312500
100
AcDbAttributeDefinition
  3

  2
D1
 70
     8
280
     0
  0
ATTDEF
  5
179
330
162
100
AcDbEntity
  8
AM_6
100
AcDbText
 10
8.625
 20
-9.471875
 30
0.0
 40
0.5
  1
5/32
100
AcDbAttributeDefinition
  3

  2
E
 70
     8
280
     0
  0
ATTDEF
  5
17A
330
162
100
AcDbEntity
  8
AM_6
100
AcDbText
 10
8.625
 20
-9.971875
 30
0.0
 40
0.5
  1
0.156250
100
AcDbAttributeDefinition
  3

  2
E1
 70
     8
280
     0
  0
ATTDEF
  5
17B
330
162
100
AcDbEntity
  8
AM_6
100
AcDbText
 10
8.625
 20
-10.471875
 30
0.0
 40
0.5
  1
5/8
100
AcDbAttributeDefinition
  3

  2
F
 70
     8
280
     0
  0
ATTDEF
  5
17C
330
162
100
AcDbEntity
  8
AM_6
100
AcDbText
 10
8.625
 20
-10.971875
 30
0.0
 40
0.5
  1
0.625000
100
AcDbAttributeDefinition
  3

  2
F1
 70
     8
280
     0
  0
ATTDEF
  5
17D
330
162
100
AcDbEntity
  8
AM_6
100
AcDbText
 10
8.625
 20
-11.471875
 30
0.0
 40
0.5
  1
7-1/4
100
AcDbAttributeDefinition
  3

  2
G
 70
     8
280
     0
  0
ATTDEF
  5
17E
330
162
100
AcDbEntity
  8
AM_6
100
AcDbText
 10
8.625
 20
-11.971875
 30
0.0
 40
0.5
  1
7.250000
100
AcDbAttributeDefinition
  3

  2
G1
 70
     8
280
     0
  0
ATTDEF
  5
17F
330
162
100
AcDbEntity
  8
AM_6
100
AcDbText
 10
8.625
 20
-12.471875
 30
0.0
 40
0.5
  1
9/16
100
AcDbAttributeDefinition
  3

  2
H
 70
     8
280
     0
  0
ATTDEF
  5
180
330
162
100
AcDbEntity
  8
AM_6
100
AcDbText
 10
8.625
 20
-12.971875
 30
0.0
 40
0.5
  1
0.562500
100
AcDbAttributeDefinition
  3

  2
H1
 70
     8
280
     0
  0
ATTDEF
  5
181
330
162
100
AcDbEntity
  8
AM_6
100
AcDbText
 10
8.625
 20
-13.471875
 30
0.0
 40
0.5
  1
5-5/16
100
AcDbAttributeDefinition
  3

  2
J
 70
     8
280
     0
  0
ATTDEF
  5
182
330
162
100
AcDbEntity
  8
AM_6
100
AcDbText
 10
8.625
 20
-13.971875
 30
0.0
 40
0.5
  1
5.312500
100
AcDbAttributeDefinition
  3

  2
J1
 70
     8
280
     0
  0
ATTDEF
  5
183
330
162
100
AcDbEntity
  8
AM_6
100
AcDbText
 10
8.625
 20
-14.471875
 30
0.0
 40
0.5
  1
3-7/16
100
AcDbAttributeDefinition
  3

  2
L
 70
     8
280
     0
  0
ATTDEF
  5
184
330
162
100
AcDbEntity
  8
AM_6
100
AcDbText
 10
8.625
 20
-14.971875
 30
0.0
 40
0.5
  1
3.437500
100
AcDbAttributeDefinition
  3

  2
L1
 70
     8
280
     0
  0
ATTDEF
  5
185
330
162
100
AcDbEntity
  8
AM_6
100
AcDbText
 10
8.625
 20
-15.471875
 30
0.0
 40
0.5
  1
3/16
100
AcDbAttributeDefinition
  3

  2
EXP
 70
     8
280
     0
  0
ATTDEF
  5
186
330
162
100
AcDbEntity
  8
AM_6
100
AcDbText
 10
8.625
 20
-15.971875
 30
0.0
 40
0.5
  1
0.187500
100
AcDbAttributeDefinition
  3

  2
EXP1
 70
     8
280
     0
  0
ATTDEF
  5
187
330
162
100
AcDbEntity
  8
AM_6
100
AcDbText
 10
8.625
 20
-16.471875
 30
0.0
 40
0.5
  1
f4b_flange_ne_i_templ.prj
100
AcDbAttributeDefinition
  3

  2
PPATH
 70
     8
280
     0
  0
ATTDEF
  5
188
330
162
100
AcDbEntity
  8
AM_6
100
AcDbText
 10
8.625
 20
-16.971875
 30
0.0
 40
0.5
  1
baldor
100
AcDbAttributeDefinition
  3

  2
COMPANY
 70
     8
280
     0
  0
LWPOLYLINE
  5
189
330
162
100
AcDbEntity
  8
AM_9
100
AcDbPolyline
 90
       11
 70
     0
 43
0.0
 10
-2.520016216162357
 20
0.0
 10
-2.534763667587038
 20
-0.0019983686388703
 10
-2.549511119011718
 20
-0.0082512532833691
 10
-2.562626759858057
 20
-0.0180457044581157
 10
-2.575094581293784
 20
-0.0322861564650056
 10
-2.583571669881794
 20
-0.0460454435053088
 10
-2.591013325614185
 20
-0.0627806148105658
 10
-2.595816741171678
 20
-0.0780777867149894
 10
-2.599384880892611
 20
-0.0952063321055946
 10
-2.601383932626703
 20
-0.1138702378784508
 10
-2.601507440274321
 20
-0.1337195592180162
  0
ARC
  5
18A
330
162
100
AcDbEntity
  8
AM_9
100
AcDbCircle
 10
-2.662006542825861
 20
-0.1250000000000008
 30
0.0
 40
0.1250000000000007
100
AcDbArc
 50
90.0
 51
183.9999999999999
  0
LWPOLYLINE
  5
18B
330
162
100
AcDbEntity
  8
AM_9
100
AcDbPolyline
 90
       12
 70
     0
 43
0.0
 10
2.601507440274321
 20
-0.1337195592180162
 10
2.601508873322244
 20
-0.1164933292876327
 10
2.600015206127886
 20
-0.0995250500580235
 10
2.597102786690086
 20
-0.0833674170537726
 10
2.592948624956662
 20
-0.0683230720798613
 10
2.587440492220111
 20
-0.0540193153380718
 10
2.58098460132834
 20
-0.0413834762576498
 10
2.570107809189943
 20
-0.0258994962616911
 10
2.558101368506918
 20
-0.0141518825080608
 10
2.541926790600427
 20
-0.004475480954497
 10
2.525163794428863
 20
-0.0002407676353768
 10
2.520016216162357
 20
0.0
  0
ARC
  5
18C
330
162
100
AcDbEntity
  8
AM_9
100
AcDbCircle
 10
2.662006542825862
 20
-0.1250000000000004
 30
0.0
 40
0.1250000000000001
100
AcDbArc
 50
355.9999999999999
 51
90.0
  0
LINE
  5
18D
330
162
100
AcDbEntity
  8
AM_9
100
AcDbLine
 10
2.0625
 20
-2.5625
 30
0.0
 11
2.0625
 21
0.0
 31
0.0
  0
LINE
  5
18E
330
162
100
AcDbEntity
  8
AM_9
100
AcDbLine
 10
-2.0625
 20
0.0
 30
0.0
 11
-2.0625
 21
-2.5625
 31
0.0
  0
LINE
  5
18F
330
162
100
AcDbEntity
  8
AM_9
100
AcDbLine
 10
-2.582149181658609
 20
-0.5625
 30
0.0
 11
-2.601507440274321
 21
-0.1337195592180162
 31
0.0
  0
LINE
  5
190
330
162
100
AcDbEntity
  8
AM_9
100
AcDbLine
 10
2.601507440274321
 20
-0.1337195592180162
 30
0.0
 11
2.78670204910834
 21
-0.1337195592180163
 31
0.0
  0
LINE
  5
191
330
162
100
AcDbEntity
  8
AM_9
100
AcDbLine
 10
2.601507440274321
 20
-0.1337195592180162
 30
0.0
 11
2.582149181658609
 21
-0.5625
 31
0.0
  0
LINE
  5
192
330
162
100
AcDbEntity
  8
AM_9
100
AcDbLine
 10
2.756718799860722
 20
-0.5624999999999998
 30
0.0
 11
2.78670204910834
 21
-0.1337195592180163
 31
0.0
  0
LINE
  5
193
330
162
100
AcDbEntity
  8
AM_9
100
AcDbLine
 10
-2.78670204910834
 20
-0.1337195592180163
 30
0.0
 11
-2.756718799860722
 21
-0.5624999999999998
 31
0.0
  0
LINE
  5
194
330
162
100
AcDbEntity
  8
AM_9
100
AcDbLine
 10
-2.78670204910834
 20
-0.1337195592180163
 30
0.0
 11
-2.601507440274321
 21
-0.1337195592180162
 31
0.0
  0
LINE
  5
195
330
162
100
AcDbEntity
  8
AM_9
100
AcDbLine
 10
-2.34375
 20
-0.5624999999999999
 30
0.0
 11
-2.34375
 21
0.0000000000000002
 31
0.0
  0
LINE
  5
196
330
162
100
AcDbEntity
  8
AM_9
100
AcDbLine
 10
-2.96875
 20
0.0000000000000002
 30
0.0
 11
-2.96875
 21
-0.5624999999999999
 31
0.0
  0
LINE
  5
197
330
162
100
AcDbEntity
  8
AM_9
100
AcDbLine
 10
2.96875
 20
-0.5624999999999999
 30
0.0
 11
2.96875
 21
0.0000000000000002
 31
0.0
  0
LINE
  5
198
330
162
100
AcDbEntity
  8
AM_9
100
AcDbLine
 10
2.34375
 20
0.0000000000000002
 30
0.0
 11
2.34375
 21
-0.5624999999999999
 31
0.0
  0
LINE
  5
199
330
162
100
AcDbEntity
  8
AM_9
100
AcDbLine
 10
0.2055726941052312
 20
-2.28125
 30
0.0
 11
-0.2055726941052315
 21
-2.28125
 31
0.0
  0
LINE
  5
19A
330
162
100
AcDbEntity
  8
AM_9
100
AcDbLine
 10
0.2055726941052306
 20
-0.5624999999999999
 30
0.0
 11
-0.2055726941052305
 21
-0.5624999999999999
 31
0.0
  0
CIRCLE
  5
19B
330
162
100
AcDbEntity
  8
AM_9
100
AcDbCircle
 10
0.0
 20
-1.421875
 30
0.0
 40
0.640625
  0
LINE
  5
19C
330
162
100
AcDbEntity
  8
AM_9
100
AcDbLine
 10
3.332832346706594
 20
-0.5624999999999999
 30
0.0
 11
3.332832346706594
 21
0.0000000000000001
 31
0.0
  0
LINE
  5
19D
330
162
100
AcDbEntity
  8
AM_9
100
AcDbLine
 10
-3.332832346706593
 20
-0.5624999999999999
 30
0.0
 11
-3.332832346706593
 21
0.0000000000000001
 31
0.0
  0
LINE
  5
19E
330
162
100
AcDbEntity
  8
AM_7
100
AcDbLine
 10
-0.6726562500000001
 20
-1.421875
 30
0.0
 11
0.6726562500000001
 21
-1.421875
 31
0.0
  0
LINE
  5
19F
330
162
100
AcDbEntity
  8
AM_7
100
AcDbLine
 10
2.65625
 20
0.0281249999999998
 30
0.0
 11
2.65625
 21
-0.5906250000000001
 31
0.0
  0
LINE
  5
1A0
330
162
100
AcDbEntity
  8
AM_7
100
AcDbLine
 10
-2.65625
 20
0.0281249999999998
 30
0.0
 11
-2.65625
 21
-0.5906250000000001
 31
0.0
  0
ARC
  5
1A1
330
162
100
AcDbEntity
  8
AM_4
100
AcDbCircle
 10
3.062500000000001
 20
-1.406249999999998
 30
0.0
 40
0.5624999999999987
100
AcDbArc
 50
0.0
 51
90.0
  0
LINE
  5
1A2
330
162
100
AcDbEntity
  8
AM_4
100
AcDbLine
 10
2.561381750396515
 20
-2.28125
 30
0.0
 11
3.0625
 21
-2.28125
 31
0.0
  0
LINE
  5
1A3
330
162
100
AcDbEntity
  8
AM_4
100
AcDbLine
 10
3.625
 20
-1.71875
 30
0.0
 11
3.625
 21
-1.40625
 31
0.0
  0
ARC
  5
1A4
330
162
100
AcDbEntity
  8
AM_4
100
AcDbCircle
 10
3.062499999999999
 20
-1.718749999999999
 30
0.0
 40
0.5625000000000007
100
AcDbArc
 50
270.0
 51
0.0
  0
LINE
  5
1A5
330
162
100
AcDbEntity
  8
AM_4
100
AcDbLine
 10
3.0625
 20
-0.8437499999999994
 30
0.0
 11
2.664737888745677
 21
-0.84375
 31
0.0
  0
LINE
  5
1A6
330
162
100
AcDbEntity
  8
AM_4
100
AcDbLine
 10
-3.625
 20
-1.406249999999999
 30
0.0
 11
-3.625
 21
-1.718750000000001
 31
0.0
  0
LINE
  5
1A7
330
162
100
AcDbEntity
  8
AM_4
100
AcDbLine
 10
-2.664737888745677
 20
-0.84375
 30
0.0
 11
-3.0625
 21
-0.84375
 31
0.0
  0
ARC
  5
1A8
330
162
100
AcDbEntity
  8
AM_4
100
AcDbCircle
 10
-3.0625
 20
-1.40625
 30
0.0
 40
0.5624999999999996
100
AcDbArc
 50
90.0
 51
180.0
  0
ARC
  5
1A9
330
162
100
AcDbEntity
  8
AM_4
100
AcDbCircle
 10
-3.062500000000001
 20
-1.718750000000001
 30
0.0
 40
0.5624999999999987
100
AcDbArc
 50
180.0
 51
270.0
  0
LINE
  5
1AA
330
162
100
AcDbEntity
  8
AM_4
100
AcDbLine
 10
-3.062500000000001
 20
-2.28125
 30
0.0
 11
-2.561381750396515
 21
-2.28125
 31
0.0
  0
LINE
  5
1AB
330
162
100
AcDbEntity
  8
AM_4
100
AcDbLine
 10
2.809225831911771
 20
-1.382078040878244
 30
0.0
 11
2.809225831911771
 21
-1.742921959121758
 31
0.0
  0
LINE
  5
1AC
330
162
100
AcDbEntity
  8
AM_4
100
AcDbLine
 10
3.434225831911771
 20
-1.382078040878244
 30
0.0
 11
3.121725831911771
 21
-1.201656081756484
 31
0.0
  0
LINE
  5
1AD
330
162
100
AcDbEntity
  8
AM_4
100
AcDbLine
 10
3.121725831911771
 20
-1.201656081756484
 30
0.0
 11
2.809225831911771
 21
-1.382078040878244
 31
0.0
  0
LINE
  5
1AE
330
162
100
AcDbEntity
  8
AM_4
100
AcDbLine
 10
2.809225831911771
 20
-1.742921959121758
 30
0.0
 11
3.121725831911771
 21
-1.923343918243515
 31
0.0
  0
LINE
  5
1AF
330
162
100
AcDbEntity
  8
AM_4
100
AcDbLine
 10
3.121725831911771
 20
-1.923343918243515
 30
0.0
 11
3.434225831911771
 21
-1.742921959121758
 31
0.0
  0
LINE
  5
1B0
330
162
100
AcDbEntity
  8
AM_4
100
AcDbLine
 10
3.434225831911771
 20
-1.742921959121758
 30
0.0
 11
3.434225831911771
 21
-1.382078040878244
 31
0.0
  0
LINE
  5
1B1
330
162
100
AcDbEntity
  8
AM_4
100
AcDbLine
 10
-3.434225831911771
 20
-1.382078040878242
 30
0.0
 11
-3.434225831911771
 21
-1.742921959121758
 31
0.0
  0
LINE
  5
1B2
330
162
100
AcDbEntity
  8
AM_4
100
AcDbLine
 10
-3.434225831911771
 20
-1.742921959121758
 30
0.0
 11
-3.121725831911771
 21
-1.923343918243516
 31
0.0
  0
LINE
  5
1B3
330
162
100
AcDbEntity
  8
AM_4
100
AcDbLine
 10
-3.121725831911771
 20
-1.923343918243516
 30
0.0
 11
-2.809225831911771
 21
-1.742921959121758
 31
0.0
  0
LINE
  5
1B4
330
162
100
AcDbEntity
  8
AM_4
100
AcDbLine
 10
-2.809225831911771
 20
-1.742921959121758
 30
0.0
 11
-2.809225831911771
 21
-1.382078040878242
 31
0.0
  0
LINE
  5
1B5
330
162
100
AcDbEntity
  8
AM_4
100
AcDbLine
 10
-2.809225831911771
 20
-1.382078040878242
 30
0.0
 11
-3.121725831911771
 21
-1.201656081756484
 31
0.0
  0
LINE
  5
1B6
330
162
100
AcDbEntity
  8
AM_4
100
AcDbLine
 10
-3.121725831911771
 20
-1.201656081756484
 30
0.0
 11
-3.434225831911771
 21
-1.382078040878242
 31
0.0
  0
LINE
  5
1B7
330
162
100
AcDbEntity
  8
AM_4
100
AcDbLine
 10
-2.558582983090098
 20
-2.5625
 30
0.0
 11
2.558582983085662
 21
-2.5625
 31
0.0
  0
ARC
  5
1B8
330
162
100
AcDbEntity
  8
AM_4
100
AcDbCircle
 10
2.558582983090099
 20
-2.500000000000001
 30
0.0
 40
0.0624999999999991
100
AcDbArc
 50
270.0
 51
356.000000000001
  0
ARC
  5
1B9
330
162
100
AcDbEntity
  8
AM_4
100
AcDbCircle
 10
-2.558582983090099
 20
-2.500000000000001
 30
0.0
 40
0.0624999999999987
100
AcDbArc
 50
183.9999999999989
 51
270.0
  0
LINE
  5
1BA
330
162
100
AcDbEntity
  8
AM_4
100
AcDbLine
 10
-2.664737888745677
 20
-0.84375
 30
0.0
 11
-2.561381750396515
 21
-2.28125
 31
0.0
  0
LINE
  5
1BB
330
162
100
AcDbEntity
  8
AM_4
100
AcDbLine
 10
2.561381750396515
 20
-2.28125
 30
0.0
 11
2.664737888745677
 21
-0.84375
 31
0.0
  0
LINE
  5
1BC
330
162
100
AcDbEntity
  8
AM_4
100
AcDbLine
 10
-2.620930736231337
 20
-2.504359779609008
 30
0.0
 11
2.620930736231337
 21
-2.504359779609008
 31
0.0
  0
LINE
  5
1BD
330
162
100
AcDbEntity
  8
AM_4
100
AcDbLine
 10
2.620930736231337
 20
-2.504359779609008
 30
0.0
 11
2.636532091832814
 21
-2.28125
 31
0.0
  0
LINE
  5
1BE
330
162
100
AcDbEntity
  8
AM_4
100
AcDbLine
 10
2.73705188400161
 20
-0.84375
 30
0.0
 11
2.756718799860722
 21
-0.5624999999999998
 31
0.0
  0
LINE
  5
1BF
330
162
100
AcDbEntity
  8
AM_4
100
AcDbLine
 10
-2.756718799860722
 20
-0.5624999999999998
 30
0.0
 11
-2.73705188400161
 21
-0.84375
 31
0.0
  0
LINE
  5
1C0
330
162
100
AcDbEntity
  8
AM_4
100
AcDbLine
 10
-2.636532091832814
 20
-2.28125
 30
0.0
 11
-2.620930736231337
 21
-2.504359779609008
 31
0.0
  0
LINE
  5
1C1
330
162
100
AcDbEntity
  8
AM_4
100
AcDbLine
 10
-0.9989331052187481
 20
-0.1337195592180161
 30
0.0
 11
0.9989331052187491
 21
-0.1337195592180161
 31
0.0
  0
ARC
  5
1C2
330
162
100
AcDbEntity
  8
AM_4
100
AcDbCircle
 10
-1.236607142857143
 20
-1.287379763209582
 30
0.0
 40
0.2812499999999996
100
AcDbArc
 50
120.0
 51
180.0
  0
ARC
  5
1C3
330
162
100
AcDbEntity
  8
AM_4
100
AcDbCircle
 10
-1.236607142857141
 20
-1.556370236790417
 30
0.0
 40
0.2812500000000016
100
AcDbArc
 50
180.0
 51
239.9999999999998
  0
ARC
  5
1C4
330
162
100
AcDbEntity
  8
AM_4
100
AcDbCircle
 10
-0.3928571428571429
 20
-1.124999999999999
 30
0.0
 40
0.5624999999999989
100
AcDbArc
 50
90.0
 51
120.0000000000001
  0
LINE
  5
1C5
330
162
100
AcDbEntity
  8
AM_4
100
AcDbLine
 10
-0.2055726941052305
 20
-0.5624999999999999
 30
0.0
 11
-0.3928571428571431
 21
-0.5624999999999998
 31
0.0
  0
LINE
  5
1C6
330
162
100
AcDbEntity
  8
AM_4
100
AcDbLine
 10
-1.377232142857143
 20
-1.043810118395209
 30
0.0
 11
-0.674107142857143
 21
-0.6378607103712532
 31
0.0
  0
LINE
  5
1C7
330
162
100
AcDbEntity
  8
AM_4
100
AcDbLine
 10
-1.517857142857143
 20
-1.556370232599466
 30
0.0
 11
-1.517857142857143
 21
-1.287379763209582
 31
0.0
  0
LINE
  5
1C8
330
162
100
AcDbEntity
  8
AM_4
100
AcDbLine
 10
-0.674107142857143
 20
-2.205889289628746
 30
0.0
 11
-1.377232142857143
 21
-1.799939881604791
 31
0.0
  0
ARC
  5
1C9
330
162
100
AcDbEntity
  8
AM_4
100
AcDbCircle
 10
-0.3928571428571451
 20
-1.718750000000007
 30
0.0
 40
0.5624999999999928
100
AcDbArc
 50
239.9999999999998
 51
270.0
  0
LINE
  5
1CA
330
162
100
AcDbEntity
  8
AM_4
100
AcDbLine
 10
-0.2055726941052315
 20
-2.28125
 30
0.0
 11
-0.3928571428571437
 21
-2.28125
 31
0.0
  0
ARC
  5
1CB
330
162
100
AcDbEntity
  8
AM_4
100
AcDbCircle
 10
0.392857142857142
 20
-1.125000000000004
 30
0.0
 40
0.5625000000000038
100
AcDbArc
 50
60.00000000000014
 51
90.0
  0
ARC
  5
1CC
330
162
100
AcDbEntity
  8
AM_4
100
AcDbCircle
 10
1.236607142857145
 20
-1.287379763209581
 30
0.0
 40
0.2812499999999982
100
AcDbArc
 50
0.0
 51
60.00000000000021
  0
ARC
  5
1CD
330
162
100
AcDbEntity
  8
AM_4
100
AcDbCircle
 10
0.3928571428571431
 20
-1.718749999999999
 30
0.0
 40
0.5625000000000007
100
AcDbArc
 50
270.0
 51
300.0
  0
ARC
  5
1CE
330
162
100
AcDbEntity
  8
AM_4
100
AcDbCircle
 10
1.236607142857141
 20
-1.556370236790416
 30
0.0
 40
0.2812500000000018
100
AcDbArc
 50
300.0000000000002
 51
0.0
  0
LINE
  5
1CF
330
162
100
AcDbEntity
  8
AM_4
100
AcDbLine
 10
0.392857142857143
 20
-2.28125
 30
0.0
 11
0.2055726941052312
 21
-2.28125
 31
0.0
  0
LINE
  5
1D0
330
162
100
AcDbEntity
  8
AM_4
100
AcDbLine
 10
1.377232142857143
 20
-1.799939881604791
 30
0.0
 11
0.6741071428571432
 21
-2.205889289628746
 31
0.0
  0
LINE
  5
1D1
330
162
100
AcDbEntity
  8
AM_4
100
AcDbLine
 10
1.517857142857143
 20
-1.287379763209582
 30
0.0
 11
1.517857142857143
 21
-1.556370232599465
 31
0.0
  0
LINE
  5
1D2
330
162
100
AcDbEntity
  8
AM_4
100
AcDbLine
 10
0.6741071428571428
 20
-0.6378607103712529
 30
0.0
 11
1.377232142857143
 21
-1.043810118395208
 31
0.0
  0
LINE
  5
1D3
330
162
100
AcDbEntity
  8
AM_4
100
AcDbLine
 10
0.3928571428571436
 20
-0.5624999999999998
 30
0.0
 11
0.2055726941052306
 21
-0.5624999999999999
 31
0.0
  0
LINE
  5
1D4
330
162
100
AcDbEntity
  8
AM_4
100
AcDbLine
 10
0.624814181651906
 20
-2.046689181651906
 30
0.0
 11
1.06843225062476
 21
-1.603071112679052
 31
0.0
  0
LINE
  5
1D5
330
162
100
AcDbEntity
  8
AM_4
100
AcDbLine
 10
-1.06843225062476
 20
-1.603071112679052
 30
0.0
 11
-0.6248141816519066
 21
-2.046689181651906
 31
0.0
  0
ARC
  5
1D6
330
162
100
AcDbEntity
  8
AM_4
100
AcDbCircle
 10
0.0000000000000002
 20
-1.421874999999999
 30
0.0
 40
0.8836206896551719
100
AcDbArc
 50
45.0
 51
135.0
  0
LINE
  5
1D7
330
162
100
AcDbEntity
  8
AM_4
100
AcDbLine
 10
1.06843225062476
 20
-1.240678887320947
 30
0.0
 11
0.6248141816519062
 21
-0.7970608183480935
 31
0.0
  0
LINE
  5
1D8
330
162
100
AcDbEntity
  8
AM_4
100
AcDbLine
 10
-0.624814181651906
 20
-0.7970608183480936
 30
0.0
 11
-1.06843225062476
 21
-1.240678887320947
 31
0.0
  0
ARC
  5
1D9
330
162
100
AcDbEntity
  8
AM_4
100
AcDbCircle
 10
-0.0000000000000001
 20
-1.421875
 30
0.0
 40
0.8836206896551726
100
AcDbArc
 50
225.0
 51
314.9999999999999
  0
ARC
  5
1DA
330
162
100
AcDbEntity
  8
AM_4
100
AcDbCircle
 10
-0.8872361379457079
 20
-1.421875
 30
0.0
 40
0.2562499999999995
100
AcDbArc
 50
134.9999999999998
 51
225.0000000000001
  0
ARC
  5
1DB
330
162
100
AcDbEntity
  8
AM_4
100
AcDbCircle
 10
0.8872361379457078
 20
-1.421875
 30
0.0
 40
0.2562499999999993
100
AcDbArc
 50
314.9999999999999
 51
45.00000000000015
  0
LINE
  5
1DC
330
162
100
AcDbEntity
  8
AM_4
100
AcDbLine
 10
3.437500000000003
 20
-0.5624999999999999
 30
0.0
 11
0.9654036177502769
 21
-0.5624999999999999
 31
0.0
  0
LINE
  5
1DD
330
162
100
AcDbEntity
  8
AM_4
100
AcDbLine
 10
0.9654036177502769
 20
-0.5624999999999999
 30
0.0
 11
0.9989331052187491
 21
-0.1337195592180161
 31
0.0
  0
LWPOLYLINE
  5
1DE
330
162
100
AcDbEntity
  8
AM_4
100
AcDbPolyline
 90
       11
 70
     0
 43
0.0
 10
0.8577861646858463
 20
0.0000000000000001
 10
0.8835870040866235
 20
-0.0020425305041197
 10
0.9088728349852456
 20
-0.0082512532833686
 10
0.9318809100592068
 20
-0.0182094783900967
 10
0.9531846914913076
 20
-0.032286156465005
 10
0.9680459924912053
 20
-0.0462540354976957
 10
0.9807567654469405
 20
-0.0627806148105653
 10
0.9891688964494095
 20
-0.0783084478243772
 10
0.9952567245275449
 20
-0.095206332105594
 10
0.9987346851058291
 20
-0.1142573122443368
 10
0.9989331052187491
 20
-0.1337195592180161
  0
LINE
  5
1DF
330
162
100
AcDbEntity
  8
AM_4
100
AcDbLine
 10
-0.965403617750276
 20
-0.5624999999999999
 30
0.0
 11
-3.437500000000003
 21
-0.5624999999999999
 31
0.0
  0
LINE
  5
1E0
330
162
100
AcDbEntity
  8
AM_4
100
AcDbLine
 10
-0.9989331052187481
 20
-0.1337195592180161
 30
0.0
 11
-0.965403617750276
 21
-0.5624999999999999
 31
0.0
  0
LWPOLYLINE
  5
1E1
330
162
100
AcDbEntity
  8
AM_4
100
AcDbPolyline
 90
       12
 70
     0
 43
0.0
 10
-0.9989331052187481
 20
-0.1337195592180161
 10
-0.9989694639547161
 20
-0.116760340462724
 10
-0.9963484798603328
 20
-0.0995250500580233
 10
-0.9913912833184657
 20
-0.0835642877557881
 10
-0.9841088022359646
 20
-0.0683230720798611
 10
-0.9746754948867754
 20
-0.0541498006104013
 10
-0.9633865054487555
 20
-0.0413834762576496
 10
-0.9448228685370957
 20
-0.0260784075698065
 10
-0.9237515835606241
 20
-0.0141518825080607
 10
-0.8961345128696003
 20
-0.0045655156313666
 10
-0.8667020317793699
 20
-0.0002407676353767
 10
-0.8577861646858449
 20
0.0000000000000001
  0
LINE
  5
1E2
330
162
100
AcDbEntity
  8
AM_4
100
AcDbLine
 10
1.059990722349414
 20
-1.49584800323992
 30
0.0
 11
1.059990722349414
 21
-1.347901996760078
 31
0.0
  0
LINE
  5
1E3
330
162
100
AcDbEntity
  8
AM_4
100
AcDbLine
 10
1.059990722349414
 20
-1.347901996760078
 30
0.0
 11
0.9318657223494142
 21
-1.273928993520158
 31
0.0
  0
LINE
  5
1E4
330
162
100
AcDbEntity
  8
AM_4
100
AcDbLine
 10
0.9318657223494142
 20
-1.273928993520158
 30
0.0
 11
0.8037407223494142
 21
-1.347901996760078
 31
0.0
  0
LINE
  5
1E5
330
162
100
AcDbEntity
  8
AM_4
100
AcDbLine
 10
0.8037407223494142
 20
-1.347901996760078
 30
0.0
 11
0.8037407223494142
 21
-1.49584800323992
 31
0.0
  0
LINE
  5
1E6
330
162
100
AcDbEntity
  8
AM_4
100
AcDbLine
 10
0.9318657223494142
 20
-1.569821006479841
 30
0.0
 11
1.059990722349414
 21
-1.49584800323992
 31
0.0
  0
LINE
  5
1E7
330
162
100
AcDbEntity
  8
AM_4
100
AcDbLine
 10
0.8037407223494142
 20
-1.49584800323992
 30
0.0
 11
0.9318657223494142
 21
-1.569821006479841
 31
0.0
  0
LINE
  5
1E8
330
162
100
AcDbEntity
  8
AM_4
100
AcDbLine
 10
-0.9318657223494144
 20
-1.569821006479841
 30
0.0
 11
-0.8037407223494143
 21
-1.495848003239921
 31
0.0
  0
LINE
  5
1E9
330
162
100
AcDbEntity
  8
AM_4
100
AcDbLine
 10
-0.8037407223494143
 20
-1.495848003239921
 30
0.0
 11
-0.8037407223494143
 21
-1.347901996760079
 31
0.0
  0
LINE
  5
1EA
330
162
100
AcDbEntity
  8
AM_4
100
AcDbLine
 10
-0.8037407223494143
 20
-1.347901996760079
 30
0.0
 11
-0.9318657223494144
 21
-1.273928993520159
 31
0.0
  0
LINE
  5
1EB
330
162
100
AcDbEntity
  8
AM_4
100
AcDbLine
 10
-1.059990722349414
 20
-1.495848003239921
 30
0.0
 11
-0.9318657223494144
 21
-1.569821006479841
 31
0.0
  0
LINE
  5
1EC
330
162
100
AcDbEntity
  8
AM_4
100
AcDbLine
 10
-0.9318657223494144
 20
-1.273928993520159
 30
0.0
 11
-1.059990722349414
 21
-1.347901996760079
 31
0.0
  0
LINE
  5
1ED
330
162
100
AcDbEntity
  8
AM_4
100
AcDbLine
 10
-1.059990722349414
 20
-1.347901996760079
 30
0.0
 11
-1.059990722349414
 21
-1.495848003239921
 31
0.0
  0
LINE
  5
1EE
330
162
100
AcDbEntity
  8
AM_4
100
AcDbLine
 10
2.265625
 20
-0.5624999999999998
 30
0.0
 11
2.265625
 21
0.0000000000000002
 31
0.0
  0
LINE
  5
1EF
330
162
100
AcDbEntity
  8
AM_4
100
AcDbLine
 10
3.437500000000003
 20
-0.5624999999999999
 30
0.0
 11
3.437500000000003
 21
0.0000000000000002
 31
0.0
  0
LINE
  5
1F0
330
162
100
AcDbEntity
  8
AM_4
100
AcDbLine
 10
3.437500000000003
 20
0.0000000000000002
 30
0.0
 11
-3.437500000000003
 21
0.0000000000000002
 31
0.0
  0
LINE
  5
1F1
330
162
100
AcDbEntity
  8
AM_4
100
AcDbLine
 10
-2.265625
 20
-0.5624999999999998
 30
0.0
 11
-2.265625
 21
0.0000000000000002
 31
0.0
  0
LINE
  5
1F2
330
162
100
AcDbEntity
  8
AM_4
100
AcDbLine
 10
-3.437500000000003
 20
0.0000000000000002
 30
0.0
 11
-3.437500000000003
 21
-0.5624999999999999
 31
0.0
  0
ENDBLK
  5
165
330
162
100
AcDbEntity
  8
0
100
AcDbBlockEnd
  0
ENDSEC
  0
SECTION
  2
ENTITIES
  0
INSERT
  5
6F
330
1F
100
AcDbEntity
  8
0
100
AcDbBlockReference
  2
1_023219_4
 10
0.0
 20
0.0
 30
0.0
  0
POINT
  5
1F4
330
1F
100
AcDbEntity
  8
ConnectionPoints
100
AcDbPoint
 10
0.0
 20
-1.375
 30
2.8185
  0
POINT
  5
1F5
330
1F
100
AcDbEntity
  8
ConnectionPoints
100
AcDbPoint
 10
0.0
 20
-1.375
 30
2.8185
  0
POINT
  5
1F6
330
1F
100
AcDbEntity
  8
ConnectionPoints
100
AcDbPoint
 10
0.0
 20
-1.375
 30
0.0000000000000001
  0
POINT
  5
1F7
330
1F
100
AcDbEntity
  8
ConnectionPoints
100
AcDbPoint
 10
0.0
 20
-3.125
 30
0.0000000000000002
  0
POINT
  5
1F8
330
1F
100
AcDbEntity
  8
ConnectionPoints
100
AcDbPoint
 10
0.0
 20
0.1103749999999999
 30
0.0
  0
POINT
  5
1F9
330
1F
100
AcDbEntity
  8
ConnectionPoints
100
AcDbPoint
 10
0.0
 20
-3.125
 30
0.0000000000000002
  0
ENDSEC
  0
SECTION
  2
OBJECTS
  0
DICTIONARY
  5
C
330
0
100
AcDbDictionary
281
     1
  3
ACAD_DETAILVIEWSTYLE
350
201
  3
ACAD_GROUP
350
D
  3
ACAD_LAYOUT
350
1A
  3
ACAD_MATERIAL
350
43
  3
ACAD_MLEADERSTYLE
350
6B
  3
ACAD_MLINESTYLE
350
17
  3
ACAD_PLOTSETTINGS
350
19
  3
ACAD_PLOTSTYLENAME
350
E
  3
ACAD_SCALELIST
350
47
  3
ACAD_SECTIONVIEWSTYLE
350
202
  3
ACAD_TABLESTYLE
350
69
  3
ACAD_VISUALSTYLE
350
2A
  3
ACDB_RECOMPOSE_DATA
350
1FE
  3
AcDbVariableDictionary
350
1FA
  0
SUN
  5
6D
330
29
100
AcDbSun
 90
        1
290
     0
 63
     7
421
 16777215
 40
1.0
291
     1
 91
  2455826
 92
 54000000
292
     0
 70
     2
 71
   256
280
     1
  0
DICTIONARY
  5
201
102
{ACAD_REACTORS
330
C
102
}
330
C
100
AcDbDictionary
281
     1
  0
DICTIONARY
  5
D
102
{ACAD_REACTORS
330
C
102
}
330
C
100
AcDbDictionary
281
     1
  0
DICTIONARY
  5
1A
102
{ACAD_REACTORS
330
C
102
}
330
C
100
AcDbDictionary
281
     1
  3
Layout1
350
1E
  3
Layout2
350
26
  3
Model
350
22
  0
DICTIONARY
  5
43
102
{ACAD_REACTORS
330
C
102
}
330
C
100
AcDbDictionary
281
     1
  3
ByBlock
350
45
  3
ByLayer
350
44
  3
Global
350
46
  0
DICTIONARY
  5
6B
102
{ACAD_REACTORS
330
C
102
}
330
C
100
AcDbDictionary
281
     1
  3
Standard
350
6C
  0
DICTIONARY
  5
17
102
{ACAD_REACTORS
330
C
102
}
330
C
100
AcDbDictionary
281
     1
  3
Standard
350
18
  0
DICTIONARY
  5
19
102
{ACAD_REACTORS
330
C
102
}
330
C
100
AcDbDictionary
281
     1
  0
ACDBDICTIONARYWDFLT
  5
E
102
{ACAD_REACTORS
330
C
102
}
330
C
100
AcDbDictionary
281
     1
  3
Normal
350
F
100
AcDbDictionaryWithDefault
340
F
  0
DICTIONARY
  5
47
102
{ACAD_REACTORS
330
C
102
}
330
C
100
AcDbDictionary
281
     1
  3
A0
350
48
  3
A1
350
49
  3
A2
350
4A
  3
A3
350
4B
  3
A4
350
4C
  3
A5
350
4D
  3
A6
350
4E
  3
A7
350
4F
  3
A8
350
50
  3
A9
350
51
  3
B0
350
52
  3
B1
350
53
  3
B2
350
54
  3
B3
350
55
  3
B4
350
56
  3
B5
350
57
  3
B6
350
58
  3
B7
350
59
  3
B8
350
5A
  3
B9
350
5B
  3
C0
350
5C
  3
C1
350
5D
  3
C2
350
5E
  3
C3
350
5F
  3
C4
350
60
  3
C5
350
61
  3
C6
350
62
  3
C7
350
63
  3
C8
350
64
  3
C9
350
65
  3
D0
350
66
  3
D1
350
67
  3
D2
350
68
  0
DICTIONARY
  5
202
102
{ACAD_REACTORS
330
C
102
}
330
C
100
AcDbDictionary
281
     1
  0
DICTIONARY
  5
69
102
{ACAD_REACTORS
330
C
102
}
330
C
100
AcDbDictionary
281
     1
  3
Standard
350
6A
  0
DICTIONARY
  5
2A
102
{ACAD_REACTORS
330
C
102
}
330
C
100
AcDbDictionary
281
     1
  3
2dWireframe
350
2F
  3
Basic
350
32
  3
Brighten
350
36
  3
ColorChange
350
3A
  3
Conceptual
350
34
  3
Dim
350
35
  3
EdgeColorOff
350
3D
  3
Facepattern
350
39
  3
Flat
350
2B
  3
FlatWithEdges
350
2C
  3
Gouraud
350
2D
  3
GouraudWithEdges
350
2E
  3
Hidden
350
31
  3
JitterOff
350
3B
  3
Linepattern
350
38
  3
OverhangOff
350
3C
  3
Realistic
350
33
  3
Shaded
350
42
  3
Shaded with edges
350
41
  3
Shades of Gray
350
3E
  3
Sketchy
350
3F
  3
Thicken
350
37
  3
Wireframe
350
30
  3
X-Ray
350
40
  0
XRECORD
  5
1FE
102
{ACAD_REACTORS
330
C
102
}
330
C
100
AcDbXrecord
280
     1
 90
        1
330
6A
  0
DICTIONARY
  5
1FA
102
{ACAD_REACTORS
330
C
102
}
330
C
100
AcDbDictionary
281
     1
  3
CANNOSCALE
350
1FB
  3
CMLEADERSTYLE
350
200
  3
CTABLESTYLE
350
1FF
  0
LAYOUT
  5
1E
102
{ACAD_REACTORS
330
1A
102
}
330
1A
100
AcDbPlotSettings
  1

  2
none_device
  4

  6

 40
0.0
 41
0.0
 42
0.0
 43
0.0
 44
0.0
 45
0.0
 46
0.0
 47
0.0
 48
0.0
 49
0.0
140
0.0
141
0.0
142
1.0
143
1.0
 70
   688
 72
     0
 73
     0
 74
     5
  7

 75
    16
 76
     0
 77
     2
 78
   300
147
1.0
148
0.0
149
0.0
100
AcDbLayout
  1
Layout1
 70
     1
 71
     1
 10
0.0
 20
0.0
 11
12.0
 21
9.0
 12
0.0
 22
0.0
 32
0.0
 14
1.000000000000000E+20
 24
1.000000000000000E+20
 34
1.000000000000000E+20
 15
-1.000000000000000E+20
 25
-1.000000000000000E+20
 35
-1.000000000000000E+20
146
0.0
 13
0.0
 23
0.0
 33
0.0
 16
1.0
 26
0.0
 36
0.0
 17
0.0
 27
1.0
 37
0.0
 76
     0
330
1B
  0
LAYOUT
  5
26
102
{ACAD_REACTORS
330
1A
102
}
330
1A
100
AcDbPlotSettings
  1

  2
none_device
  4

  6

 40
0.0
 41
0.0
 42
0.0
 43
0.0
 44
0.0
 45
0.0
 46
0.0
 47
0.0
 48
0.0
 49
0.0
140
0.0
141
0.0
142
1.0
143
1.0
 70
   688
 72
     0
 73
     0
 74
     5
  7

 75
    16
 76
     0
 77
     2
 78
   300
147
1.0
148
0.0
149
0.0
100
AcDbLayout
  1
Layout2
 70
     1
 71
     2
 10
0.0
 20
0.0
 11
0.0
 21
0.0
 12
0.0
 22
0.0
 32
0.0
 14
0.0
 24
0.0
 34
0.0
 15
0.0
 25
0.0
 35
0.0
146
0.0
 13
0.0
 23
0.0
 33
0.0
 16
1.0
 26
0.0
 36
0.0
 17
0.0
 27
1.0
 37
0.0
 76
     0
330
23
  0
LAYOUT
  5
22
102
{ACAD_REACTORS
330
1A
102
}
330
1A
100
AcDbPlotSettings
  1

  2
none_device
  4
Letter_(8.50_x_11.00_Inches)
  6

 40
6.35
 41
6.35
 42
6.35000508
 43
6.35000508
 44
215.9
 45
279.4
 46
0.0
 47
0.0
 48
0.0
 49
0.0
140
0.0
141
0.0
142
1.0
143
1.0
 70
  1712
 72
     0
 73
     0
 74
     0
  7

 75
     0
 76
     0
 77
     2
 78
   300
147
1.0
148
0.0
149
0.0
100
AcDbLayout
  1
Model
 70
     1
 71
     0
 10
0.0
 20
0.0
 11
12.0
 21
9.0
 12
0.0
 22
0.0
 32
0.0
 14
1.000000000000000E+20
 24
1.000000000000000E+20
 34
1.000000000000000E+20
 15
-1.000000000000000E+20
 25
-1.000000000000000E+20
 35
-1.000000000000000E+20
146
0.0
 13
0.0
 23
0.0
 33
0.0
 16
1.0
 26
0.0
 36
0.0
 17
0.0
 27
1.0
 37
0.0
 76
     0
330
1F
331
29
  0
MATERIAL
  5
45
102
{ACAD_REACTORS
330
43
102
}
330
43
100
AcDbMaterial
  1
ByBlock
 72
     1
 94
      127
  0
MATERIAL
  5
44
102
{ACAD_REACTORS
330
43
102
}
330
43
100
AcDbMaterial
  1
ByLayer
 72
     1
 94
      127
  0
MATERIAL
  5
46
102
{ACAD_REACTORS
330
43
102
}
330
43
100
AcDbMaterial
  1
Global
 72
     1
 94
      127
  0
MLEADERSTYLE
  5
6C
102
{ACAD_REACTORS
330
6B
102
}
330
6B
100
AcDbMLeaderStyle
179
     2
170
     2
171
     1
172
     0
 90
        2
 40
0.0
 41
0.0
173
     1
 91
-1056964608
340
14
 92
       -2
290
     1
 42
0.09
291
     1
 43
0.36
  3
Standard
341
0
 44
0.18
300

342
11
174
     1
178
     6
175
     1
176
     0
 93
-1056964608
 45
0.18
292
     0
297
     0
 46
0.18
343
0
 94
-1056964608
 47
1.0
 49
1.0
140
1.0
293
     1
141
0.0
294
     1
177
     0
142
1.0
295
     0
296
     0
143
0.125
271
     0
272
     9
273
     9
298
     0
  0
MLINESTYLE
  5
18
102
{ACAD_REACTORS
330
17
102
}
330
17
100
AcDbMlineStyle
  2
Standard
 70
     0
  3

 62
   256
 51
90.0
 52
90.0
 71
     2
 49
0.5
 62
   256
  6
BYLAYER
 49
-0.5
 62
   256
  6
BYLAYER
  0
ACDBPLACEHOLDER
  5
F
102
{ACAD_REACTORS
330
E
102
}
330
E
  0
SCALE
  5
48
102
{ACAD_REACTORS
330
47
102
}
330
47
100
AcDbScale
 70
     0
300
1:1
140
1.0
141
1.0
290
     1
  0
SCALE
  5
49
102
{ACAD_REACTORS
330
47
102
}
330
47
100
AcDbScale
 70
     0
300
1:2
140
1.0
141
2.0
290
     0
  0
SCALE
  5
4A
102
{ACAD_REACTORS
330
47
102
}
330
47
100
AcDbScale
 70
     0
300
1:4
140
1.0
141
4.0
290
     0
  0
SCALE
  5
4B
102
{ACAD_REACTORS
330
47
102
}
330
47
100
AcDbScale
 70
     0
300
1:5
140
1.0
141
5.0
290
     0
  0
SCALE
  5
4C
102
{ACAD_REACTORS
330
47
102
}
330
47
100
AcDbScale
 70
     0
300
1:8
140
1.0
141
8.0
290
     0
  0
SCALE
  5
4D
102
{ACAD_REACTORS
330
47
102
}
330
47
100
AcDbScale
 70
     0
300
1:10
140
1.0
141
10.0
290
     0
  0
SCALE
  5
4E
102
{ACAD_REACTORS
330
47
102
}
330
47
100
AcDbScale
 70
     0
300
1:16
140
1.0
141
16.0
290
     0
  0
SCALE
  5
4F
102
{ACAD_REACTORS
330
47
102
}
330
47
100
AcDbScale
 70
     0
300
1:20
140
1.0
141
20.0
290
     0
  0
SCALE
  5
50
102
{ACAD_REACTORS
330
47
102
}
330
47
100
AcDbScale
 70
     0
300
1:30
140
1.0
141
30.0
290
     0
  0
SCALE
  5
51
102
{ACAD_REACTORS
330
47
102
}
330
47
100
AcDbScale
 70
     0
300
1:40
140
1.0
141
40.0
290
     0
  0
SCALE
  5
52
102
{ACAD_REACTORS
330
47
102
}
330
47
100
AcDbScale
 70
     0
300
1:50
140
1.0
141
50.0
290
     0
  0
SCALE
  5
53
102
{ACAD_REACTORS
330
47
102
}
330
47
100
AcDbScale
 70
     0
300
1:100
140
1.0
141
100.0
290
     0
  0
SCALE
  5
54
102
{ACAD_REACTORS
330
47
102
}
330
47
100
AcDbScale
 70
     0
300
2:1
140
2.0
141
1.0
290
     0
  0
SCALE
  5
55
102
{ACAD_REACTORS
330
47
102
}
330
47
100
AcDbScale
 70
     0
300
4:1
140
4.0
141
1.0
290
     0
  0
SCALE
  5
56
102
{ACAD_REACTORS
330
47
102
}
330
47
100
AcDbScale
 70
     0
300
8:1
140
8.0
141
1.0
290
     0
  0
SCALE
  5
57
102
{ACAD_REACTORS
330
47
102
}
330
47
100
AcDbScale
 70
     0
300
10:1
140
10.0
141
1.0
290
     0
  0
SCALE
  5
58
102
{ACAD_REACTORS
330
47
102
}
330
47
100
AcDbScale
 70
     0
300
100:1
140
100.0
141
1.0
290
     0
  0
SCALE
  5
59
102
{ACAD_REACTORS
330
47
102
}
330
47
100
AcDbScale
 70
     0
300
1/128" = 1'-0"
140
0.0078125
141
12.0
290
     0
  0
SCALE
  5
5A
102
{ACAD_REACTORS
330
47
102
}
330
47
100
AcDbScale
 70
     0
300
1/64" = 1'-0"
140
0.015625
141
12.0
290
     0
  0
SCALE
  5
5B
102
{ACAD_REACTORS
330
47
102
}
330
47
100
AcDbScale
 70
     0
300
1/32" = 1'-0"
140
0.03125
141
12.0
290
     0
  0
SCALE
  5
5C
102
{ACAD_REACTORS
330
47
102
}
330
47
100
AcDbScale
 70
     0
300
1/16" = 1'-0"
140
0.0625
141
12.0
290
     0
  0
SCALE
  5
5D
102
{ACAD_REACTORS
330
47
102
}
330
47
100
AcDbScale
 70
     0
300
3/32" = 1'-0"
140
0.09375
141
12.0
290
     0
  0
SCALE
  5
5E
102
{ACAD_REACTORS
330
47
102
}
330
47
100
AcDbScale
 70
     0
300
1/8" = 1'-0"
140
0.125
141
12.0
290
     0
  0
SCALE
  5
5F
102
{ACAD_REACTORS
330
47
102
}
330
47
100
AcDbScale
 70
     0
300
3/16" = 1'-0"
140
0.1875
141
12.0
290
     0
  0
SCALE
  5
60
102
{ACAD_REACTORS
330
47
102
}
330
47
100
AcDbScale
 70
     0
300
1/4" = 1'-0"
140
0.25
141
12.0
290
     0
  0
SCALE
  5
61
102
{ACAD_REACTORS
330
47
102
}
330
47
100
AcDbScale
 70
     0
300
3/8" = 1'-0"
140
0.375
141
12.0
290
     0
  0
SCALE
  5
62
102
{ACAD_REACTORS
330
47
102
}
330
47
100
AcDbScale
 70
     0
300
1/2" = 1'-0"
140
0.5
141
12.0
290
     0
  0
SCALE
  5
63
102
{ACAD_REACTORS
330
47
102
}
330
47
100
AcDbScale
 70
     0
300
3/4" = 1'-0"
140
0.75
141
12.0
290
     0
  0
SCALE
  5
64
102
{ACAD_REACTORS
330
47
102
}
330
47
100
AcDbScale
 70
     0
300
1" = 1'-0"
140
1.0
141
12.0
290
     0
  0
SCALE
  5
65
102
{ACAD_REACTORS
330
47
102
}
330
47
100
AcDbScale
 70
     0
300
1-1/2" = 1'-0"
140
1.5
141
12.0
290
     0
  0
SCALE
  5
66
102
{ACAD_REACTORS
330
47
102
}
330
47
100
AcDbScale
 70
     0
300
3" = 1'-0"
140
3.0
141
12.0
290
     0
  0
SCALE
  5
67
102
{ACAD_REACTORS
330
47
102
}
330
47
100
AcDbScale
 70
     0
300
6" = 1'-0"
140
6.0
141
12.0
290
     0
  0
SCALE
  5
68
102
{ACAD_REACTORS
330
47
102
}
330
47
100
AcDbScale
 70
     0
300
1'-0" = 1'-0"
140
12.0
141
12.0
290
     0
  0
TABLESTYLE
  5
6A
102
{ACAD_REACTORS
330
69
102
}
102
{ACAD_XDICTIONARY
360
1FC
102
}
330
69
100
AcDbTableStyle
  3
Standard
 70
     0
 71
     0
 40
0.06
 41
0.06
280
     0
281
     0
  7
Standard
140
0.18
170
     2
 62
     0
 63
   257
283
     0
 90
        4
 91
        0
  1

274
    -2
284
     1
 64
     0
275
    -2
285
     1
 65
     0
276
    -2
286
     1
 66
     0
277
    -2
287
     1
 67
     0
278
    -2
288
     1
 68
     0
279
    -2
289
     1
 69
     0
  7
Standard
140
0.25
170
     5
 62
     0
 63
   257
283
     0
 90
        4
 91
        0
  1

274
    -2
284
     1
 64
     0
275
    -2
285
     1
 65
     0
276
    -2
286
     1
 66
     0
277
    -2
287
     1
 67
     0
278
    -2
288
     1
 68
     0
279
    -2
289
     1
 69
     0
  7
Standard
140
0.18
170
     5
 62
     0
 63
   257
283
     0
 90
        4
 91
        0
  1

274
    -2
284
     1
 64
     0
275
    -2
285
     1
 65
     0
276
    -2
286
     1
 66
     0
277
    -2
287
     1
 67
     0
278
    -2
288
     1
 68
     0
279
    -2
289
     1
 69
     0
  0
VISUALSTYLE
  5
2F
102
{ACAD_REACTORS
330
2A
102
}
330
2A
100
AcDbVisualStyle
  2
2dWireframe
 70
     4
177
     3
291
     0
 70
    58
 90
        0
176
     1
 90
        2
176
     1
 90
        0
176
     1
 90
        0
176
     1
 40
0.6
176
     1
 40
30.0
176
     1
 62
     7
420
 16777215
176
     1
 90
        1
176
     1
 90
        4
176
     1
 62
     7
176
     1
 62
   257
176
     1
 90
        1
176
     1
 90
        1
176
     1
 40
1.0
176
     1
 90
        0
176
     1
 62
   257
176
     1
 40
1.0
176
     1
 90
        1
176
     1
 90
        6
176
     1
 90
        2
176
     1
 62
     7
176
     1
 90
        5
176
     1
 90
        0
176
     1
 90
        0
176
     1
290
     0
176
     1
 90
        1
176
     1
 40
0.0
176
     1
 90
        0
176
     1
290
     1
176
     1
290
     1
176
     1
290
     0
176
     1
290
     0
176
     1
290
     0
176
     1
290
     0
176
     1
290
     0
176
     1
290
     0
176
     1
290
     0
176
     1
 90
       50
176
     1
 40
0.0
176
     1
 40
1.0
176
     1
 90
        0
176
     1
 62
    18
420
        0
176
     1
 90
       50
176
     1
 90
        3
176
     1
 62
     5
420
      255
176
     1
290
     0
176
     1
 90
       50
176
     1
 90
       50
176
     1
 90
       50
176
     1
290
     0
176
     1
 90
       50
176
     1
 62
   256
176
     0
 40
1.0
176
     0
 90
        2
176
     1
  1
strokes_ogs.tif
176
     1
290
     0
176
     1
 40
1.0
176
     1
 40
1.0
176
     1
  0
VISUALSTYLE
  5
32
102
{ACAD_REACTORS
330
2A
102
}
330
2A
100
AcDbVisualStyle
  2
Basic
 70
     7
177
     3
291
     1
 70
    58
 90
        1
176
     1
 90
        0
176
     1
 90
        1
176
     1
 90
        0
176
     1
 40
0.6
176
     1
 40
30.0
176
     1
 62
     7
420
 16777215
176
     1
 90
        0
176
     1
 90
        4
176
     1
 62
     7
176
     1
 62
   257
176
     1
 90
        1
176
     1
 90
        1
176
     1
 40
1.0
176
     1
 90
        8
176
     1
 62
     7
176
     1
 40
1.0
176
     1
 90
        1
176
     1
 90
        6
176
     1
 90
        2
176
     1
 62
     7
176
     1
 90
        5
176
     1
 90
        0
176
     1
 90
        0
176
     1
290
     0
176
     1
 90
        1
176
     1
 40
0.0
176
     1
 90
        0
176
     1
290
     0
176
     1
290
     1
176
     1
290
     1
176
     1
290
     0
176
     1
290
     0
176
     1
290
     0
176
     1
290
     0
176
     1
290
     0
176
     1
290
     0
176
     1
 90
       50
176
     1
 40
0.0
176
     1
 40
1.0
176
     1
 90
        0
176
     1
 62
    18
420
        0
176
     1
 90
       50
176
     1
 90
        3
176
     1
 62
     5
420
      255
176
     1
290
     0
176
     1
 90
       50
176
     1
 90
       50
176
     1
 90
       50
176
     1
290
     0
176
     1
 90
       50
176
     1
 62
   256
176
     0
 40
1.0
176
     0
 90
        2
176
     1
  1
strokes_ogs.tif
176
     1
290
     0
176
     1
 40
1.0
176
     1
 40
1.0
176
     1
  0
VISUALSTYLE
  5
36
102
{ACAD_REACTORS
330
2A
102
}
330
2A
100
AcDbVisualStyle
  2
Brighten
 70
    12
177
     3
291
     1
 70
    58
 90
        2
176
     1
 90
        2
176
     1
 90
        0
176
     1
 90
        0
176
     1
 40
0.6
176
     1
 40
30.0
176
     1
 62
     7
420
 16777215
176
     1
 90
        1
176
     1
 90
        4
176
     1
 62
     7
176
     1
 62
   257
176
     1
 90
        1
176
     1
 90
        1
176
     1
 40
1.0
176
     1
 90
        8
176
     1
 62
     7
176
     1
 40
1.0
176
     1
 90
        1
176
     1
 90
        6
176
     1
 90
        2
176
     1
 62
     7
176
     1
 90
        5
176
     1
 90
        0
176
     1
 90
        0
176
     1
290
     0
176
     1
 90
        1
176
     1
 40
50.0
176
     1
 90
        0
176
     1
290
     0
176
     1
290
     1
176
     1
290
     1
176
     1
290
     0
176
     1
290
     0
176
     1
290
     0
176
     1
290
     0
176
     1
290
     0
176
     1
290
     0
176
     1
 90
       50
176
     1
 40
0.0
176
     1
 40
1.0
176
     1
 90
        0
176
     1
 62
    18
420
        0
176
     1
 90
       50
176
     1
 90
        3
176
     1
 62
     5
420
      255
176
     1
290
     0
176
     1
 90
       50
176
     1
 90
       50
176
     1
 90
       50
176
     1
290
     0
176
     1
 90
       50
176
     1
 62
   256
176
     0
 40
1.0
176
     0
 90
        2
176
     1
  1
strokes_ogs.tif
176
     1
290
     0
176
     1
 40
1.0
176
     1
 40
1.0
176
     1
  0
VISUALSTYLE
  5
3A
102
{ACAD_REACTORS
330
2A
102
}
330
2A
100
AcDbVisualStyle
  2
ColorChange
 70
    16
177
     3
291
     1
 70
    58
 90
        2
176
     1
 90
        2
176
     1
 90
        3
176
     1
 90
        0
176
     1
 40
0.6
176
     1
 40
30.0
176
     1
 62
     8
420
  8421504
176
     1
 90
        1
176
     1
 90
        4
176
     1
 62
     7
176
     1
 62
   257
176
     1
 90
        1
176
     1
 90
        1
176
     1
 40
1.0
176
     1
 90
        8
176
     1
 62
     8
420
  8421504
176
     1
 40
1.0
176
     1
 90
        1
176
     1
 90
        6
176
     1
 90
        2
176
     1
 62
     7
176
     1
 90
        5
176
     1
 90
        0
176
     1
 90
        0
176
     1
290
     0
176
     1
 90
        1
176
     1
 40
0.0
176
     1
 90
        0
176
     1
290
     0
176
     1
290
     1
176
     1
290
     1
176
     1
290
     0
176
     1
290
     0
176
     1
290
     0
176
     1
290
     0
176
     1
290
     0
176
     1
290
     0
176
     1
 90
       50
176
     1
 40
0.0
176
     1
 40
1.0
176
     1
 90
        0
176
     1
 62
    18
420
        0
176
     1
 90
       50
176
     1
 90
        3
176
     1
 62
     5
420
      255
176
     1
290
     0
176
     1
 90
       50
176
     1
 90
       50
176
     1
 90
       50
176
     1
290
     0
176
     1
 90
       50
176
     1
 62
   256
176
     0
 40
1.0
176
     0
 90
        2
176
     1
  1
strokes_ogs.tif
176
     1
290
     0
176
     1
 40
1.0
176
     1
 40
1.0
176
     1
  0
VISUALSTYLE
  5
34
102
{ACAD_REACTORS
330
2A
102
}
330
2A
100
AcDbVisualStyle
  2
Conceptual
 70
     9
177
     3
291
     0
 70
    58
 90
        3
176
     1
 90
        2
176
     1
 90
        0
176
     1
 90
        0
176
     1
 40
0.6
176
     1
 40
30.0
176
     1
 62
     7
420
 16777215
176
     1
 90
        2
176
     1
 90
        2
176
     1
 62
     7
176
     1
 62
   257
176
     1
 90
        1
176
     1
 90
        1
176
     1
 40
179.0
176
     1
 90
        8
176
     1
 62
     7
176
     1
 40
1.0
176
     1
 90
        1
176
     1
 90
        6
176
     1
 90
        2
176
     1
 62
     7
176
     1
 90
        3
176
     1
 90
        0
176
     1
 90
        0
176
     1
290
     0
176
     1
 90
        1
176
     1
 40
0.0
176
     1
 90
        0
176
     1
290
     0
176
     1
290
     1
176
     1
290
     1
176
     1
290
     0
176
     1
290
     0
176
     1
290
     0
176
     1
290
     0
176
     1
290
     0
176
     1
290
     0
176
     1
 90
       50
176
     1
 40
0.0
176
     1
 40
1.0
176
     1
 90
        0
176
     1
 62
    18
420
        0
176
     1
 90
       50
176
     1
 90
        3
176
     1
 62
     5
420
      255
176
     1
290
     0
176
     1
 90
       50
176
     1
 90
       50
176
     1
 90
       50
176
     1
290
     0
176
     1
 90
       50
176
     1
 62
   256
176
     0
 40
1.0
176
     0
 90
        2
176
     1
  1
strokes_ogs.tif
176
     1
290
     0
176
     1
 40
1.0
176
     1
 40
1.0
176
     1
  0
VISUALSTYLE
  5
35
102
{ACAD_REACTORS
330
2A
102
}
330
2A
100
AcDbVisualStyle
  2
Dim
 70
    11
177
     3
291
     1
 70
    58
 90
        2
176
     1
 90
        2
176
     1
 90
        0
176
     1
 90
        0
176
     1
 40
0.6
176
     1
 40
30.0
176
     1
 62
     7
420
 16777215
176
     1
 90
        1
176
     1
 90
        4
176
     1
 62
     7
176
     1
 62
   257
176
     1
 90
        1
176
     1
 90
        1
176
     1
 40
1.0
176
     1
 90
        8
176
     1
 62
     7
176
     1
 40
1.0
176
     1
 90
        1
176
     1
 90
        6
176
     1
 90
        2
176
     1
 62
     7
176
     1
 90
        5
176
     1
 90
        0
176
     1
 90
        0
176
     1
290
     0
176
     1
 90
        1
176
     1
 40
-50.0
176
     1
 90
        0
176
     1
290
     0
176
     1
290
     1
176
     1
290
     1
176
     1
290
     0
176
     1
290
     0
176
     1
290
     0
176
     1
290
     0
176
     1
290
     0
176
     1
290
     0
176
     1
 90
       50
176
     1
 40
0.0
176
     1
 40
1.0
176
     1
 90
        0
176
     1
 62
    18
420
        0
176
     1
 90
       50
176
     1
 90
        3
176
     1
 62
     5
420
      255
176
     1
290
     0
176
     1
 90
       50
176
     1
 90
       50
176
     1
 90
       50
176
     1
290
     0
176
     1
 90
       50
176
     1
 62
   256
176
     0
 40
1.0
176
     0
 90
        2
176
     1
  1
strokes_ogs.tif
176
     1
290
     0
176
     1
 40
1.0
176
     1
 40
1.0
176
     1
  0
VISUALSTYLE
  5
3D
102
{ACAD_REACTORS
330
2A
102
}
330
2A
100
AcDbVisualStyle
  2
EdgeColorOff
 70
    22
177
     3
291
     1
 70
    58
 90
        2
176
     0
 90
        2
176
     0
 90
        0
176
     0
 90
        0
176
     0
 40
0.6
176
     0
 40
30.0
176
     0
 62
     7
420
 16777215
176
     0
 90
        1
176
     0
 90
        4
176
     0
 62
     7
176
     0
 62
   257
176
     0
 90
        1
176
     0
 90
        1
176
     0
 40
1.0
176
     0
 90
        8
176
     2
 62
     7
176
     0
 40
1.0
176
     0
 90
        1
176
     0
 90
        6
176
     0
 90
        2
176
     0
 62
     7
176
     0
 90
        5
176
     0
 90
        0
176
     0
 90
        0
176
     0
290
     0
176
     0
 90
        1
176
     0
 40
0.0
176
     0
 90
        0
176
     0
290
     0
176
     0
290
     1
176
     0
290
     1
176
     0
290
     0
176
     0
290
     0
176
     0
290
     0
176
     0
290
     0
176
     0
290
     0
176
     0
290
     0
176
     0
 90
       50
176
     0
 40
0.0
176
     0
 40
1.0
176
     0
 90
        0
176
     0
 62
    18
420
        0
176
     0
 90
       50
176
     0
 90
        3
176
     0
 62
     5
420
      255
176
     0
290
     0
176
     0
 90
       50
176
     0
 90
       50
176
     0
 90
       50
176
     0
290
     0
176
     0
 90
       50
176
     0
 62
   256
176
     0
 40
1.0
176
     0
 90
        2
176
     0
  1
strokes_ogs.tif
176
     0
290
     0
176
     0
 40
1.0
176
     0
 40
1.0
176
     0
  0
VISUALSTYLE
  5
39
102
{ACAD_REACTORS
330
2A
102
}
330
2A
100
AcDbVisualStyle
  2
Facepattern
 70
    15
177
     3
291
     1
 70
    58
 90
        2
176
     1
 90
        2
176
     1
 90
        0
176
     1
 90
        0
176
     1
 40
0.6
176
     1
 40
30.0
176
     1
 62
     7
420
 16777215
176
     1
 90
        1
176
     1
 90
        4
176
     1
 62
     7
176
     1
 62
   257
176
     1
 90
        1
176
     1
 90
        1
176
     1
 40
1.0
176
     1
 90
        8
176
     1
 62
     7
176
     1
 40
1.0
176
     1
 90
        1
176
     1
 90
        6
176
     1
 90
        2
176
     1
 62
     7
176
     1
 90
        5
176
     1
 90
        0
176
     1
 90
        0
176
     1
290
     0
176
     1
 90
        1
176
     1
 40
0.0
176
     1
 90
        0
176
     1
290
     0
176
     1
290
     1
176
     1
290
     1
176
     1
290
     0
176
     1
290
     0
176
     1
290
     0
176
     1
290
     0
176
     1
290
     0
176
     1
290
     0
176
     1
 90
       50
176
     1
 40
0.0
176
     1
 40
1.0
176
     1
 90
        0
176
     1
 62
    18
420
        0
176
     1
 90
       50
176
     1
 90
        3
176
     1
 62
     5
420
      255
176
     1
290
     0
176
     1
 90
       50
176
     1
 90
       50
176
     1
 90
       50
176
     1
290
     0
176
     1
 90
       50
176
     1
 62
   256
176
     0
 40
1.0
176
     0
 90
        2
176
     1
  1
strokes_ogs.tif
176
     1
290
     0
176
     1
 40
1.0
176
     1
 40
1.0
176
     1
  0
VISUALSTYLE
  5
2B
102
{ACAD_REACTORS
330
2A
102
}
330
2A
100
AcDbVisualStyle
  2
Flat
 70
     0
177
     3
291
     1
 70
    58
 90
        2
176
     1
 90
        1
176
     1
 90
        1
176
     1
 90
        2
176
     1
 40
0.6
176
     1
 40
30.0
176
     1
 62
     7
420
 16777215
176
     1
 90
        0
176
     1
 90
        0
176
     1
 62
     7
176
     1
 62
   257
176
     1
 90
        1
176
     1
 90
        1
176
     1
 40
1.0
176
     1
 90
        8
176
     1
 62
     7
176
     1
 40
1.0
176
     1
 90
        1
176
     1
 90
        6
176
     1
 90
        2
176
     1
 62
     7
176
     1
 90
        5
176
     1
 90
        0
176
     1
 90
        0
176
     1
290
     0
176
     1
 90
       13
176
     1
 40
0.0
176
     1
 90
        0
176
     1
290
     0
176
     1
290
     1
176
     1
290
     1
176
     1
290
     0
176
     1
290
     0
176
     1
290
     0
176
     1
290
     0
176
     1
290
     0
176
     1
290
     0
176
     1
 90
       50
176
     1
 40
0.0
176
     1
 40
1.0
176
     1
 90
        0
176
     1
 62
    18
420
        0
176
     1
 90
       50
176
     1
 90
        3
176
     1
 62
     5
420
      255
176
     1
290
     0
176
     1
 90
       50
176
     1
 90
       50
176
     1
 90
       50
176
     1
290
     0
176
     1
 90
       50
176
     1
 62
   256
176
     0
 40
1.0
176
     0
 90
        2
176
     1
  1
strokes_ogs.tif
176
     1
290
     0
176
     1
 40
1.0
176
     1
 40
1.0
176
     1
  0
VISUALSTYLE
  5
2C
102
{ACAD_REACTORS
330
2A
102
}
330
2A
100
AcDbVisualStyle
  2
FlatWithEdges
 70
     1
177
     3
291
     1
 70
    58
 90
        2
176
     1
 90
        1
176
     1
 90
        1
176
     1
 90
        2
176
     1
 40
0.6
176
     1
 40
30.0
176
     1
 62
     7
420
 16777215
176
     1
 90
        1
176
     1
 90
        0
176
     1
 62
     7
176
     1
 62
   257
176
     1
 90
        1
176
     1
 90
        1
176
     1
 40
1.0
176
     1
 90
        0
176
     1
 62
   257
176
     1
 40
1.0
176
     1
 90
        1
176
     1
 90
        6
176
     1
 90
        2
176
     1
 62
     7
176
     1
 90
        5
176
     1
 90
        0
176
     1
 90
        0
176
     1
290
     0
176
     1
 90
       13
176
     1
 40
0.0
176
     1
 90
        0
176
     1
290
     0
176
     1
290
     1
176
     1
290
     1
176
     1
290
     0
176
     1
290
     0
176
     1
290
     0
176
     1
290
     0
176
     1
290
     0
176
     1
290
     0
176
     1
 90
       50
176
     1
 40
0.0
176
     1
 40
1.0
176
     1
 90
        0
176
     1
 62
    18
420
        0
176
     1
 90
       50
176
     1
 90
        3
176
     1
 62
     5
420
      255
176
     1
290
     0
176
     1
 90
       50
176
     1
 90
       50
176
     1
 90
       50
176
     1
290
     0
176
     1
 90
       50
176
     1
 62
   256
176
     0
 40
1.0
176
     0
 90
        2
176
     1
  1
strokes_ogs.tif
176
     1
290
     0
176
     1
 40
1.0
176
     1
 40
1.0
176
     1
  0
VISUALSTYLE
  5
2D
102
{ACAD_REACTORS
330
2A
102
}
330
2A
100
AcDbVisualStyle
  2
Gouraud
 70
     2
177
     3
291
     1
 70
    58
 90
        2
176
     1
 90
        2
176
     1
 90
        1
176
     1
 90
        2
176
     1
 40
0.6
176
     1
 40
30.0
176
     1
 62
     7
420
 16777215
176
     1
 90
        0
176
     1
 90
        0
176
     1
 62
     7
176
     1
 62
   257
176
     1
 90
        1
176
     1
 90
        1
176
     1
 40
1.0
176
     1
 90
        0
176
     1
 62
     7
176
     1
 40
1.0
176
     1
 90
        1
176
     1
 90
        6
176
     1
 90
        2
176
     1
 62
     7
176
     1
 90
        5
176
     1
 90
        0
176
     1
 90
        0
176
     1
290
     0
176
     1
 90
       13
176
     1
 40
0.0
176
     1
 90
        0
176
     1
290
     0
176
     1
290
     1
176
     1
290
     1
176
     1
290
     0
176
     1
290
     0
176
     1
290
     0
176
     1
290
     0
176
     1
290
     0
176
     1
290
     0
176
     1
 90
       50
176
     1
 40
0.0
176
     1
 40
1.0
176
     1
 90
        0
176
     1
 62
    18
420
        0
176
     1
 90
       50
176
     1
 90
        3
176
     1
 62
     5
420
      255
176
     1
290
     0
176
     1
 90
       50
176
     1
 90
       50
176
     1
 90
       50
176
     1
290
     0
176
     1
 90
       50
176
     1
 62
   256
176
     0
 40
1.0
176
     0
 90
        2
176
     1
  1
strokes_ogs.tif
176
     1
290
     0
176
     1
 40
1.0
176
     1
 40
1.0
176
     1
  0
VISUALSTYLE
  5
2E
102
{ACAD_REACTORS
330
2A
102
}
330
2A
100
AcDbVisualStyle
  2
GouraudWithEdges
 70
     3
177
     3
291
     1
 70
    58
 90
        2
176
     1
 90
        2
176
     1
 90
        1
176
     1
 90
        2
176
     1
 40
0.6
176
     1
 40
30.0
176
     1
 62
     7
420
 16777215
176
     1
 90
        1
176
     1
 90
        0
176
     1
 62
     7
176
     1
 62
   257
176
     1
 90
        1
176
     1
 90
        1
176
     1
 40
1.0
176
     1
 90
        0
176
     1
 62
   257
176
     1
 40
1.0
176
     1
 90
        1
176
     1
 90
        6
176
     1
 90
        2
176
     1
 62
     7
176
     1
 90
        5
176
     1
 90
        0
176
     1
 90
        0
176
     1
290
     0
176
     1
 90
       13
176
     1
 40
0.0
176
     1
 90
        0
176
     1
290
     0
176
     1
290
     1
176
     1
290
     1
176
     1
290
     0
176
     1
290
     0
176
     1
290
     0
176
     1
290
     0
176
     1
290
     0
176
     1
290
     0
176
     1
 90
       50
176
     1
 40
0.0
176
     1
 40
1.0
176
     1
 90
        0
176
     1
 62
    18
420
        0
176
     1
 90
       50
176
     1
 90
        3
176
     1
 62
     5
420
      255
176
     1
290
     0
176
     1
 90
       50
176
     1
 90
       50
176
     1
 90
       50
176
     1
290
     0
176
     1
 90
       50
176
     1
 62
   256
176
     0
 40
1.0
176
     0
 90
        2
176
     1
  1
strokes_ogs.tif
176
     1
290
     0
176
     1
 40
1.0
176
     1
 40
1.0
176
     1
  0
VISUALSTYLE
  5
31
102
{ACAD_REACTORS
330
2A
102
}
330
2A
100
AcDbVisualStyle
  2
Hidden
 70
     6
177
     3
291
     0
 70
    58
 90
        1
176
     1
 90
        2
176
     1
 90
        2
176
     1
 90
        0
176
     1
 40
0.6
176
     1
 40
30.0
176
     1
 62
     7
420
 16777215
176
     1
 90
        2
176
     1
 90
        2
176
     1
 62
     7
176
     1
 62
   257
176
     1
 90
        2
176
     1
 90
        1
176
     1
 40
40.0
176
     1
 90
        0
176
     1
 62
   257
176
     1
 40
1.0
176
     1
 90
        1
176
     1
 90
        6
176
     1
 90
        2
176
     1
 62
     7
176
     1
 90
        3
176
     1
 90
        0
176
     1
 90
        0
176
     1
290
     0
176
     1
 90
        1
176
     1
 40
0.0
176
     1
 90
        0
176
     1
290
     0
176
     1
290
     1
176
     1
290
     1
176
     1
290
     0
176
     1
290
     0
176
     1
290
     0
176
     1
290
     0
176
     1
290
     0
176
     1
290
     0
176
     1
 90
       50
176
     1
 40
0.0
176
     1
 40
1.0
176
     1
 90
        0
176
     1
 62
    18
420
        0
176
     1
 90
       50
176
     1
 90
        3
176
     1
 62
     5
420
      255
176
     1
290
     0
176
     1
 90
       50
176
     1
 90
       50
176
     1
 90
       50
176
     1
290
     0
176
     1
 90
       50
176
     1
 62
   256
176
     0
 40
1.0
176
     0
 90
        2
176
     1
  1
strokes_ogs.tif
176
     1
290
     0
176
     1
 40
1.0
176
     1
 40
1.0
176
     1
  0
VISUALSTYLE
  5
3B
102
{ACAD_REACTORS
330
2A
102
}
330
2A
100
AcDbVisualStyle
  2
JitterOff
 70
    20
177
     3
291
     1
 70
    58
 90
        2
176
     0
 90
        2
176
     0
 90
        0
176
     0
 90
        0
176
     0
 40
0.6
176
     0
 40
30.0
176
     0
 62
     7
420
 16777215
176
     0
 90
        1
176
     0
 90
        4
176
     0
 62
     7
176
     0
 62
   257
176
     0
 90
        1
176
     0
 90
        1
176
     0
 40
1.0
176
     0
 90
       10
176
     2
 62
     7
176
     0
 40
1.0
176
     0
 90
        1
176
     0
 90
        6
176
     0
 90
        2
176
     0
 62
     7
176
     0
 90
        5
176
     0
 90
        0
176
     0
 90
        0
176
     0
290
     0
176
     0
 90
        1
176
     0
 40
0.0
176
     0
 90
        0
176
     0
290
     0
176
     0
290
     1
176
     0
290
     1
176
     0
290
     0
176
     0
290
     0
176
     0
290
     0
176
     0
290
     0
176
     0
290
     0
176
     0
290
     0
176
     0
 90
       50
176
     0
 40
0.0
176
     0
 40
1.0
176
     0
 90
        0
176
     0
 62
    18
420
        0
176
     0
 90
       50
176
     0
 90
        3
176
     0
 62
     5
420
      255
176
     0
290
     0
176
     0
 90
       50
176
     0
 90
       50
176
     0
 90
       50
176
     0
290
     0
176
     0
 90
       50
176
     0
 62
   256
176
     0
 40
1.0
176
     0
 90
        2
176
     0
  1
strokes_ogs.tif
176
     0
290
     0
176
     0
 40
1.0
176
     0
 40
1.0
176
     0
  0
VISUALSTYLE
  5
38
102
{ACAD_REACTORS
330
2A
102
}
330
2A
100
AcDbVisualStyle
  2
Linepattern
 70
    14
177
     3
291
     1
 70
    58
 90
        2
176
     1
 90
        2
176
     1
 90
        0
176
     1
 90
        0
176
     1
 40
0.6
176
     1
 40
30.0
176
     1
 62
     7
420
 16777215
176
     1
 90
        1
176
     1
 90
        4
176
     1
 62
     7
176
     1
 62
   257
176
     1
 90
        7
176
     1
 90
        7
176
     1
 40
1.0
176
     1
 90
        8
176
     1
 62
     7
176
     1
 40
1.0
176
     1
 90
        1
176
     1
 90
        6
176
     1
 90
        2
176
     1
 62
     7
176
     1
 90
        5
176
     1
 90
        0
176
     1
 90
        0
176
     1
290
     0
176
     1
 90
        1
176
     1
 40
0.0
176
     1
 90
        0
176
     1
290
     0
176
     1
290
     1
176
     1
290
     1
176
     1
290
     0
176
     1
290
     0
176
     1
290
     0
176
     1
290
     0
176
     1
290
     0
176
     1
290
     0
176
     1
 90
       50
176
     1
 40
0.0
176
     1
 40
1.0
176
     1
 90
        0
176
     1
 62
    18
420
        0
176
     1
 90
       50
176
     1
 90
        3
176
     1
 62
     5
420
      255
176
     1
290
     0
176
     1
 90
       50
176
     1
 90
       50
176
     1
 90
       50
176
     1
290
     0
176
     1
 90
       50
176
     1
 62
   256
176
     0
 40
1.0
176
     0
 90
        2
176
     1
  1
strokes_ogs.tif
176
     1
290
     0
176
     1
 40
1.0
176
     1
 40
1.0
176
     1
  0
VISUALSTYLE
  5
3C
102
{ACAD_REACTORS
330
2A
102
}
330
2A
100
AcDbVisualStyle
  2
OverhangOff
 70
    21
177
     3
291
     1
 70
    58
 90
        2
176
     0
 90
        2
176
     0
 90
        0
176
     0
 90
        0
176
     0
 40
0.6
176
     0
 40
30.0
176
     0
 62
     7
420
 16777215
176
     0
 90
        1
176
     0
 90
        4
176
     0
 62
     7
176
     0
 62
   257
176
     0
 90
        1
176
     0
 90
        1
176
     0
 40
1.0
176
     0
 90
        9
176
     2
 62
     7
176
     0
 40
1.0
176
     0
 90
        1
176
     0
 90
        6
176
     0
 90
        2
176
     0
 62
     7
176
     0
 90
        5
176
     0
 90
        0
176
     0
 90
        0
176
     0
290
     0
176
     0
 90
        1
176
     0
 40
0.0
176
     0
 90
        0
176
     0
290
     0
176
     0
290
     1
176
     0
290
     1
176
     0
290
     0
176
     0
290
     0
176
     0
290
     0
176
     0
290
     0
176
     0
290
     0
176
     0
290
     0
176
     0
 90
       50
176
     0
 40
0.0
176
     0
 40
1.0
176
     0
 90
        0
176
     0
 62
    18
420
        0
176
     0
 90
       50
176
     0
 90
        3
176
     0
 62
     5
420
      255
176
     0
290
     0
176
     0
 90
       50
176
     0
 90
       50
176
     0
 90
       50
176
     0
290
     0
176
     0
 90
       50
176
     0
 62
   256
176
     0
 40
1.0
176
     0
 90
        2
176
     0
  1
strokes_ogs.tif
176
     0
290
     0
176
     0
 40
1.0
176
     0
 40
1.0
176
     0
  0
VISUALSTYLE
  5
33
102
{ACAD_REACTORS
330
2A
102
}
330
2A
100
AcDbVisualStyle
  2
Realistic
 70
     8
177
     3
291
     0
 70
    58
 90
        2
176
     1
 90
        3
176
     1
 90
        0
176
     1
 90
        2
176
     1
 40
0.6
176
     1
 40
30.0
176
     1
 62
     7
420
 16777215
176
     1
 90
        0
176
     1
 90
        0
176
     1
 62
     7
176
     1
 62
   257
176
     1
 90
        1
176
     1
 90
        1
176
     1
 40
1.0
176
     1
 90
        8
176
     1
 62
   257
176
     1
 40
1.0
176
     1
 90
        1
176
     1
 90
        6
176
     1
 90
        2
176
     1
 62
     7
176
     1
 90
        3
176
     1
 90
        0
176
     1
 90
        0
176
     1
290
     0
176
     1
 90
       13
176
     1
 40
0.0
176
     1
 90
        0
176
     1
290
     0
176
     1
290
     1
176
     1
290
     1
176
     1
290
     0
176
     1
290
     0
176
     1
290
     0
176
     1
290
     0
176
     1
290
     0
176
     1
290
     0
176
     1
 90
       50
176
     1
 40
0.0
176
     1
 40
1.0
176
     1
 90
        0
176
     1
 62
    18
420
        0
176
     1
 90
       50
176
     1
 90
        3
176
     1
 62
     5
420
      255
176
     1
290
     0
176
     1
 90
       50
176
     1
 90
       50
176
     1
 90
       50
176
     1
290
     0
176
     1
 90
       50
176
     1
 62
   256
176
     0
 40
1.0
176
     0
 90
        2
176
     1
  1
strokes_ogs.tif
176
     1
290
     0
176
     1
 40
1.0
176
     1
 40
1.0
176
     1
  0
VISUALSTYLE
  5
42
102
{ACAD_REACTORS
330
2A
102
}
330
2A
100
AcDbVisualStyle
  2
Shaded
 70
    27
177
     3
291
     0
 70
    58
 90
        2
176
     1
 90
        2
176
     1
 90
        1
176
     1
 90
        2
176
     1
 40
0.6
176
     1
 40
30.0
176
     1
 62
     7
420
 16777215
176
     1
 90
        0
176
     1
 90
        4
176
     1
 62
     7
176
     1
 62
   257
176
     1
 90
        1
176
     1
 90
        1
176
     1
 40
1.0
176
     1
 90
        8
176
     1
 62
   257
176
     1
 40
1.0
176
     1
 90
        1
176
     1
 90
        6
176
     1
 90
        2
176
     1
 62
     8
420
  7895160
176
     1
 90
        3
176
     1
 90
        0
176
     1
 90
        0
176
     1
290
     0
176
     1
 90
        5
176
     1
 40
0.0
176
     1
 90
        0
176
     1
290
     0
176
     1
290
     1
176
     1
290
     1
176
     1
290
     0
176
     1
290
     0
176
     1
290
     0
176
     1
290
     0
176
     1
290
     0
176
     1
290
     0
176
     1
 90
       50
176
     1
 40
0.0
176
     1
 40
1.0
176
     1
 90
        0
176
     1
 62
    18
420
        0
176
     1
 90
       50
176
     1
 90
        3
176
     1
 62
     5
420
      255
176
     1
290
     0
176
     1
 90
       50
176
     1
 90
       50
176
     1
 90
       50
176
     1
290
     0
176
     1
 90
       50
176
     1
 62
   256
176
     0
 40
1.0
176
     0
 90
        2
176
     1
  1
strokes_ogs.tif
176
     1
290
     0
176
     1
 40
1.0
176
     1
 40
1.0
176
     1
  0
VISUALSTYLE
  5
41
102
{ACAD_REACTORS
330
2A
102
}
330
2A
100
AcDbVisualStyle
  2
Shaded with edges
 70
    26
177
     3
291
     0
 70
    58
 90
        2
176
     1
 90
        2
176
     1
 90
        1
176
     1
 90
        2
176
     1
 40
0.6
176
     1
 40
30.0
176
     1
 62
     7
420
 16777215
176
     1
 90
        1
176
     1
 90
       10
176
     1
 62
     7
176
     1
 62
   257
176
     1
 90
        2
176
     1
 90
        1
176
     1
 40
1.0
176
     1
 90
        8
176
     1
 62
   257
176
     1
 40
1.0
176
     1
 90
        1
176
     1
 90
        6
176
     1
 90
        2
176
     1
 62
     7
176
     1
 90
        3
176
     1
 90
        0
176
     1
 90
        0
176
     1
290
     0
176
     1
 90
        5
176
     1
 40
0.0
176
     1
 90
        0
176
     1
290
     0
176
     1
290
     1
176
     1
290
     1
176
     1
290
     0
176
     1
290
     0
176
     1
290
     0
176
     1
290
     0
176
     1
290
     0
176
     1
290
     0
176
     1
 90
       50
176
     1
 40
0.0
176
     1
 40
1.0
176
     1
 90
        0
176
     1
 62
    18
420
        0
176
     1
 90
       50
176
     1
 90
        3
176
     1
 62
     5
420
      255
176
     1
290
     0
176
     1
 90
       50
176
     1
 90
       50
176
     1
 90
       50
176
     1
290
     0
176
     1
 90
       50
176
     1
 62
   256
176
     0
 40
1.0
176
     0
 90
        2
176
     1
  1
strokes_ogs.tif
176
     1
290
     0
176
     1
 40
1.0
176
     1
 40
1.0
176
     1
  0
VISUALSTYLE
  5
3E
102
{ACAD_REACTORS
330
2A
102
}
330
2A
100
AcDbVisualStyle
  2
Shades of Gray
 70
    23
177
     3
291
     0
 70
    58
 90
        2
176
     1
 90
        2
176
     1
 90
        3
176
     1
 90
        0
176
     1
 40
0.6
176
     1
 40
30.0
176
     1
 62
     7
420
 16777215
176
     1
 90
        2
176
     1
 90
        2
176
     1
 62
     7
176
     1
 62
     7
176
     1
 90
        1
176
     1
 90
        1
176
     1
 40
40.0
176
     1
 90
        8
176
     1
 62
     7
176
     1
 40
1.0
176
     1
 90
        1
176
     1
 90
        6
176
     1
 90
        2
176
     1
 62
     7
176
     1
 90
        3
176
     1
 90
        0
176
     1
 90
        0
176
     1
290
     0
176
     1
 90
        1
176
     1
 40
0.0
176
     1
 90
        0
176
     1
290
     0
176
     1
290
     1
176
     1
290
     1
176
     1
290
     0
176
     1
290
     0
176
     1
290
     0
176
     1
290
     0
176
     1
290
     0
176
     1
290
     0
176
     1
 90
       50
176
     1
 40
0.0
176
     1
 40
1.0
176
     1
 90
        0
176
     1
 62
    18
420
        0
176
     1
 90
       50
176
     1
 90
        3
176
     1
 62
     5
420
      255
176
     1
290
     0
176
     1
 90
       50
176
     1
 90
       50
176
     1
 90
       50
176
     1
290
     0
176
     1
 90
       50
176
     1
 62
   256
176
     0
 40
1.0
176
     0
 90
        2
176
     1
  1
strokes_ogs.tif
176
     1
290
     0
176
     1
 40
1.0
176
     1
 40
1.0
176
     1
  0
VISUALSTYLE
  5
3F
102
{ACAD_REACTORS
330
2A
102
}
330
2A
100
AcDbVisualStyle
  2
Sketchy
 70
    24
177
     3
291
     0
 70
    58
 90
        1
176
     1
 90
        2
176
     1
 90
        2
176
     1
 90
        0
176
     1
 40
0.6
176
     1
 40
30.0
176
     1
 62
     7
420
 16777215
176
     1
 90
        2
176
     1
 90
        2
176
     1
 62
     7
176
     1
 62
     7
176
     1
 90
        1
176
     1
 90
        1
176
     1
 40
40.0
176
     1
 90
       11
176
     1
 62
     7
176
     1
 40
1.0
176
     1
 90
        1
176
     1
 90
        6
176
     1
 90
        2
176
     1
 62
     7
176
     1
 90
        6
176
     1
 90
        0
176
     1
 90
        0
176
     1
290
     0
176
     1
 90
        1
176
     1
 40
0.0
176
     1
 90
        0
176
     1
290
     0
176
     1
290
     1
176
     1
290
     1
176
     1
290
     0
176
     1
290
     0
176
     1
290
     0
176
     1
290
     0
176
     1
290
     0
176
     1
290
     0
176
     1
 90
       50
176
     1
 40
0.0
176
     1
 40
1.0
176
     1
 90
        0
176
     1
 62
    18
420
        0
176
     1
 90
       50
176
     1
 90
        3
176
     1
 62
     5
420
      255
176
     1
290
     0
176
     1
 90
       50
176
     1
 90
       50
176
     1
 90
       50
176
     1
290
     0
176
     1
 90
       50
176
     1
 62
   256
176
     0
 40
1.0
176
     0
 90
        2
176
     1
  1
strokes_ogs.tif
176
     1
290
     0
176
     1
 40
1.0
176
     1
 40
1.0
176
     1
  0
VISUALSTYLE
  5
37
102
{ACAD_REACTORS
330
2A
102
}
330
2A
100
AcDbVisualStyle
  2
Thicken
 70
    13
177
     3
291
     1
 70
    58
 90
        2
176
     1
 90
        2
176
     1
 90
        0
176
     1
 90
        0
176
     1
 40
0.6
176
     1
 40
30.0
176
     1
 62
     7
420
 16777215
176
     1
 90
        1
176
     1
 90
        4
176
     1
 62
     7
176
     1
 62
   257
176
     1
 90
        1
176
     1
 90
        1
176
     1
 40
1.0
176
     1
 90
       12
176
     1
 62
     7
176
     1
 40
1.0
176
     1
 90
        1
176
     1
 90
        6
176
     1
 90
        2
176
     1
 62
     7
176
     1
 90
        5
176
     1
 90
        0
176
     1
 90
        0
176
     1
290
     0
176
     1
 90
        1
176
     1
 40
0.0
176
     1
 90
        0
176
     1
290
     0
176
     1
290
     1
176
     1
290
     1
176
     1
290
     0
176
     1
290
     0
176
     1
290
     0
176
     1
290
     0
176
     1
290
     0
176
     1
290
     0
176
     1
 90
       50
176
     1
 40
0.0
176
     1
 40
1.0
176
     1
 90
        0
176
     1
 62
    18
420
        0
176
     1
 90
       50
176
     1
 90
        3
176
     1
 62
     5
420
      255
176
     1
290
     0
176
     1
 90
       50
176
     1
 90
       50
176
     1
 90
       50
176
     1
290
     0
176
     1
 90
       50
176
     1
 62
   256
176
     0
 40
1.0
176
     0
 90
        2
176
     1
  1
strokes_ogs.tif
176
     1
290
     0
176
     1
 40
1.0
176
     1
 40
1.0
176
     1
  0
VISUALSTYLE
  5
30
102
{ACAD_REACTORS
330
2A
102
}
330
2A
100
AcDbVisualStyle
  2
Wireframe
 70
     5
177
     3
291
     0
 70
    58
 90
        0
176
     1
 90
        2
176
     1
 90
        0
176
     1
 90
        0
176
     1
 40
0.6
176
     1
 40
30.0
176
     1
 62
     7
420
 16777215
176
     1
 90
        1
176
     1
 90
        4
176
     1
 62
     7
176
     1
 62
   257
176
     1
 90
        1
176
     1
 90
        1
176
     1
 40
1.0
176
     1
 90
        0
176
     1
 62
   257
176
     1
 40
1.0
176
     1
 90
        1
176
     1
 90
        6
176
     1
 90
        2
176
     1
 62
     7
176
     1
 90
        3
176
     1
 90
        0
176
     1
 90
        0
176
     1
290
     0
176
     1
 90
        1
176
     1
 40
0.0
176
     1
 90
        0
176
     1
290
     0
176
     1
290
     1
176
     1
290
     1
176
     1
290
     0
176
     1
290
     0
176
     1
290
     0
176
     1
290
     0
176
     1
290
     0
176
     1
290
     0
176
     1
 90
       50
176
     1
 40
0.0
176
     1
 40
1.0
176
     1
 90
        0
176
     1
 62
    18
420
        0
176
     1
 90
       50
176
     1
 90
        3
176
     1
 62
     5
420
      255
176
     1
290
     0
176
     1
 90
       50
176
     1
 90
       50
176
     1
 90
       50
176
     1
290
     0
176
     1
 90
       50
176
     1
 62
   256
176
     0
 40
1.0
176
     0
 90
        2
176
     1
  1
strokes_ogs.tif
176
     1
290
     0
176
     1
 40
1.0
176
     1
 40
1.0
176
     1
  0
VISUALSTYLE
  5
40
102
{ACAD_REACTORS
330
2A
102
}
330
2A
100
AcDbVisualStyle
  2
X-Ray
 70
    25
177
     3
291
     0
 70
    58
 90
        2
176
     1
 90
        2
176
     1
 90
        1
176
     1
 90
        1
176
     1
 40
0.5
176
     1
 40
30.0
176
     1
 62
     7
420
 16777215
176
     1
 90
        1
176
     1
 90
        0
176
     1
 62
     7
176
     1
 62
   257
176
     1
 90
        1
176
     1
 90
        1
176
     1
 40
1.0
176
     1
 90
        8
176
     1
 62
     7
176
     1
 40
1.0
176
     1
 90
        1
176
     1
 90
        6
176
     1
 90
        2
176
     1
 62
     7
176
     1
 90
        3
176
     1
 90
        0
176
     1
 90
        0
176
     1
290
     0
176
     1
 90
       13
176
     1
 40
0.0
176
     1
 90
        0
176
     1
290
     0
176
     1
290
     1
176
     1
290
     1
176
     1
290
     0
176
     1
290
     0
176
     1
290
     0
176
     1
290
     0
176
     1
290
     0
176
     1
290
     0
176
     1
 90
       50
176
     1
 40
0.0
176
     1
 40
1.0
176
     1
 90
        0
176
     1
 62
    18
420
        0
176
     1
 90
       50
176
     1
 90
        3
176
     1
 62
     5
420
      255
176
     1
290
     0
176
     1
 90
       50
176
     1
 90
       50
176
     1
 90
       50
176
     1
290
     0
176
     1
 90
       50
176
     1
 62
   256
176
     0
 40
1.0
176
     0
 90
        2
176
     1
  1
strokes_ogs.tif
176
     1
290
     0
176
     1
 40
1.0
176
     1
 40
1.0
176
     1
  0
DICTIONARYVAR
  5
1FB
102
{ACAD_REACTORS
330
1FA
102
}
330
1FA
100
DictionaryVariables
280
     0
  1
1:1
  0
DICTIONARYVAR
  5
200
102
{ACAD_REACTORS
330
1FA
102
}
330
1FA
100
DictionaryVariables
280
     0
  1
Standard
  0
DICTIONARYVAR
  5
1FF
102
{ACAD_REACTORS
330
1FA
102
}
330
1FA
100
DictionaryVariables
280
     0
  1
Standard
  0
DICTIONARY
  5
1FC
330
6A
100
AcDbDictionary
280
     1
281
     1
  3
ACAD_ROUNDTRIP_2008_TABLESTYLE_CELLSTYLEMAP
360
1FD
  0
CELLSTYLEMAP
  5
1FD
102
{ACAD_REACTORS
330
1FC
102
}
330
1FC
100
AcDbCellStyleMap
 90
        3
300
CELLSTYLE
  1
TABLEFORMAT_BEGIN
 90
        5
170
     1
 91
        0
 92
    32768
 62
   257
 93
        1
300
CONTENTFORMAT
  1
CONTENTFORMAT_BEGIN
 90
        0
 91
        0
 92
        4
 93
        0
300

 40
0.0
140
1.0
 94
        5
 62
     0
340
11
144
0.25
309
CONTENTFORMAT_END
171
     1
301
MARGIN
  1
CELLMARGIN_BEGIN
 40
0.06
 40
0.06
 40
0.06
 40
0.06
 40
0.06
 40
0.06
309
CELLMARGIN_END
 94
        6
 95
        1
302
GRIDFORMAT
  1
GRIDFORMAT_BEGIN
 90
        0
 91
        1
 62
     0
 92
       -2
340
14
 93
        0
 40
0.045
309
GRIDFORMAT_END
 95
        2
302
GRIDFORMAT
  1
GRIDFORMAT_BEGIN
 90
        0
 91
        1
 62
     0
 92
       -2
340
14
 93
        0
 40
0.045
309
GRIDFORMAT_END
 95
        4
302
GRIDFORMAT
  1
GRIDFORMAT_BEGIN
 90
        0
 91
        1
 62
     0
 92
       -2
340
14
 93
        0
 40
0.045
309
GRIDFORMAT_END
 95
        8
302
GRIDFORMAT
  1
GRIDFORMAT_BEGIN
 90
        0
 91
        1
 62
     0
 92
       -2
340
14
 93
        0
 40
0.045
309
GRIDFORMAT_END
 95
       16
302
GRIDFORMAT
  1
GRIDFORMAT_BEGIN
 90
        0
 91
        1
 62
     0
 92
       -2
340
14
 93
        0
 40
0.045
309
GRIDFORMAT_END
 95
       32
302
GRIDFORMAT
  1
GRIDFORMAT_BEGIN
 90
        0
 91
        1
 62
     0
 92
       -2
340
14
 93
        0
 40
0.045
309
GRIDFORMAT_END
309
TABLEFORMAT_END
  1
CELLSTYLE_BEGIN
 90
        1
 91
        1
300
_TITLE
309
CELLSTYLE_END
300
CELLSTYLE
  1
TABLEFORMAT_BEGIN
 90
        5
170
     1
 91
        0
 92
        0
 62
   257
 93
        1
300
CONTENTFORMAT
  1
CONTENTFORMAT_BEGIN
 90
        0
 91
        0
 92
        4
 93
        0
300

 40
0.0
140
1.0
 94
        5
 62
     0
340
11
144
0.18
309
CONTENTFORMAT_END
171
     1
301
MARGIN
  1
CELLMARGIN_BEGIN
 40
0.06
 40
0.06
 40
0.06
 40
0.06
 40
0.06
 40
0.06
309
CELLMARGIN_END
 94
        6
 95
        1
302
GRIDFORMAT
  1
GRIDFORMAT_BEGIN
 90
        0
 91
        1
 62
     0
 92
       -2
340
14
 93
        0
 40
0.045
309
GRIDFORMAT_END
 95
        2
302
GRIDFORMAT
  1
GRIDFORMAT_BEGIN
 90
        0
 91
        1
 62
     0
 92
       -2
340
14
 93
        0
 40
0.045
309
GRIDFORMAT_END
 95
        4
302
GRIDFORMAT
  1
GRIDFORMAT_BEGIN
 90
        0
 91
        1
 62
     0
 92
       -2
340
14
 93
        0
 40
0.045
309
GRIDFORMAT_END
 95
        8
302
GRIDFORMAT
  1
GRIDFORMAT_BEGIN
 90
        0
 91
        1
 62
     0
 92
       -2
340
14
 93
        0
 40
0.045
309
GRIDFORMAT_END
 95
       16
302
GRIDFORMAT
  1
GRIDFORMAT_BEGIN
 90
        0
 91
        1
 62
     0
 92
       -2
340
14
 93
        0
 40
0.045
309
GRIDFORMAT_END
 95
       32
302
GRIDFORMAT
  1
GRIDFORMAT_BEGIN
 90
        0
 91
        1
 62
     0
 92
       -2
340
14
 93
        0
 40
0.045
309
GRIDFORMAT_END
309
TABLEFORMAT_END
  1
CELLSTYLE_BEGIN
 90
        2
 91
        1
300
_HEADER
309
CELLSTYLE_END
300
CELLSTYLE
  1
TABLEFORMAT_BEGIN
 90
        5
170
     1
 91
        0
 92
        0
 62
   257
 93
        1
300
CONTENTFORMAT
  1
CONTENTFORMAT_BEGIN
 90
        0
 91
        0
 92
        4
 93
        0
300

 40
0.0
140
1.0
 94
        2
 62
     0
340
11
144
0.18
309
CONTENTFORMAT_END
171
     1
301
MARGIN
  1
CELLMARGIN_BEGIN
 40
0.06
 40
0.06
 40
0.06
 40
0.06
 40
0.06
 40
0.06
309
CELLMARGIN_END
 94
        6
 95
        1
302
GRIDFORMAT
  1
GRIDFORMAT_BEGIN
 90
        0
 91
        1
 62
     0
 92
       -2
340
14
 93
        0
 40
0.045
309
GRIDFORMAT_END
 95
        2
302
GRIDFORMAT
  1
GRIDFORMAT_BEGIN
 90
        0
 91
        1
 62
     0
 92
       -2
340
14
 93
        0
 40
0.045
309
GRIDFORMAT_END
 95
        4
302
GRIDFORMAT
  1
GRIDFORMAT_BEGIN
 90
        0
 91
        1
 62
     0
 92
       -2
340
14
 93
        0
 40
0.045
309
GRIDFORMAT_END
 95
        8
302
GRIDFORMAT
  1
GRIDFORMAT_BEGIN
 90
        0
 91
        1
 62
     0
 92
       -2
340
14
 93
        0
 40
0.045
309
GRIDFORMAT_END
 95
       16
302
GRIDFORMAT
  1
GRIDFORMAT_BEGIN
 90
        0
 91
        1
 62
     0
 92
       -2
340
14
 93
        0
 40
0.045
309
GRIDFORMAT_END
 95
       32
302
GRIDFORMAT
  1
GRIDFORMAT_BEGIN
 90
        0
 91
        1
 62
     0
 92
       -2
340
14
 93
        0
 40
0.045
309
GRIDFORMAT_END
309
TABLEFORMAT_END
  1
CELLSTYLE_BEGIN
 90
        3
 91
        2
300
_DATA
309
CELLSTYLE_END
  0
ENDSEC
  0
EOF