0
SECTION
  2
HEADER
  9
$ACADVER
  1
AC1027
  9
$ACADMAINTVER
 70
     8
  9
$DWGCODEPAGE
  3
ANSI_1252
  9
$REQUIREDVERSIONS
160
                 0
  9
$COMMENTS
  1
File was created by Cadenas
  9
$CUSTOMPROPERTYTAG
  1
NN
  9
$CUSTOMPROPERTY
  1
Flange Bearing -  Non-Expansion - Inch
  9
$CUSTOMPROPERTYTAG
  1
NT
  9
$CUSTOMPROPERTY
  1
Type K
  9
$CUSTOMPROPERTYTAG
  1
NB
  9
$CUSTOMPROPERTY
  1
023212
  9
$CUSTOMPROPERTYTAG
  1
NBSYN
  9
$CUSTOMPROPERTY
  1
$PN.
  9
$CUSTOMPROPERTYTAG
  1
LINA
  9
$CUSTOMPROPERTY
  1
023212
  9
$CUSTOMPROPERTYTAG
  1
SS
  9
$CUSTOMPROPERTY
  1
1-1/4
  9
$CUSTOMPROPERTYTAG
  1
PN
  9
$CUSTOMPROPERTY
  1
023212
  9
$CUSTOMPROPERTYTAG
  1
PNA
  9
$CUSTOMPROPERTY
  1
F4B-K-104R
  9
$CUSTOMPROPERTYTAG
  1
WEIGHT
  9
$CUSTOMPROPERTY
  1
6
  9
$CUSTOMPROPERTYTAG
  1
A
  9
$CUSTOMPROPERTY
  1
2-9/16
  9
$CUSTOMPROPERTYTAG
  1
B
  9
$CUSTOMPROPERTY
  1
5-3/16
  9
$CUSTOMPROPERTYTAG
  1
C
  9
$CUSTOMPROPERTY
  1
2-1/8
  9
$CUSTOMPROPERTYTAG
  1
D
  9
$CUSTOMPROPERTY
  1
4
  9
$CUSTOMPROPERTYTAG
  1
E
  9
$CUSTOMPROPERTY
  1
3/16
  9
$CUSTOMPROPERTYTAG
  1
F
  9
$CUSTOMPROPERTY
  1
3/8
  9
$CUSTOMPROPERTYTAG
  1
G
  9
$CUSTOMPROPERTY
  1
5-1/4
  9
$CUSTOMPROPERTYTAG
  1
H
  9
$CUSTOMPROPERTY
  1
7/16
  9
$CUSTOMPROPERTYTAG
  1
J
  9
$CUSTOMPROPERTY
  1
4
  9
$CUSTOMPROPERTYTAG
  1
L
  9
$CUSTOMPROPERTY
  1
2-1/4
  9
$CUSTOMPROPERTYTAG
  1
CS
  9
$CUSTOMPROPERTY
  1
15760
  9
$CUSTOMPROPERTYTAG
  1
CD
  9
$CUSTOMPROPERTY
  1
2980
  9
$CUSTOMPROPERTYTAG
  1
RN
  9
$CUSTOMPROPERTY
  1
19
  9
$CUSTOMPROPERTYTAG
  1
RM
  9
$CUSTOMPROPERTY
  1
.23
  9
$CUSTOMPROPERTYTAG
  1
PDI
  9
$CUSTOMPROPERTY
  1
1.774
  9
$CUSTOMPROPERTYTAG
  1
EP
  9
$CUSTOMPROPERTY
  1
.004-0.12
  9
$CUSTOMPROPERTYTAG
  1
SC
  9
$CUSTOMPROPERTY
  1
5/16-18*1/2
  9
$CUSTOMPROPERTYTAG
  1
TC
  9
$CUSTOMPROPERTY
  1
165
  9
$CUSTOMPROPERTYTAG
  1
MH
  9
$CUSTOMPROPERTY
  1
C.I. ASTM A48 CLASS 30
  9
$CUSTOMPROPERTYTAG
  1
MC
  9
$CUSTOMPROPERTY
  1
4118 CASE CARB.
  9
$CUSTOMPROPERTYTAG
  1
MCU
  9
$CUSTOMPROPERTY
  1
4118 CASE CARB.
  9
$CUSTOMPROPERTYTAG
  1
MR
  9
$CUSTOMPROPERTY
  1
STEEL
  9
$CUSTOMPROPERTYTAG
  1
MRO
  9
$CUSTOMPROPERTY
  1
4118 CASE CARB.
  9
$CUSTOMPROPERTYTAG
  1
SM
  9
$CUSTOMPROPERTY
  1
2.16
  9
$CUSTOMPROPERTYTAG
  1
COMPANY
  9
$CUSTOMPROPERTY
  1
baldor
  9
$INSBASE
 10
0.0
 20
0.0
 30
0.0
  9
$EXTMIN
 10
1.000000000000000E+20
 20
1.000000000000000E+20
 30
1.000000000000000E+20
  9
$EXTMAX
 10
-1.000000000000000E+20
 20
-1.000000000000000E+20
 30
-1.000000000000000E+20
  9
$LIMMIN
 10
0.0
 20
0.0
  9
$LIMMAX
 10
12.0
 20
9.0
  9
$ORTHOMODE
 70
     0
  9
$REGENMODE
 70
     1
  9
$FILLMODE
 70
     1
  9
$QTEXTMODE
 70
     0
  9
$MIRRTEXT
 70
     1
  9
$LTSCALE
 40
1.0
  9
$ATTMODE
 70
     1
  9
$TEXTSIZE
 40
0.2
  9
$TRACEWID
 40
0.05
  9
$TEXTSTYLE
  7
Standard
  9
$CLAYER
  8
0
  9
$CELTYPE
  6
ByLayer
  9
$CECOLOR
 62
   256
  9
$CELTSCALE
 40
1.0
  9
$DISPSILH
 70
     0
  9
$DIMSCALE
 40
1.0
  9
$DIMASZ
 40
0.18
  9
$DIMEXO
 40
0.0625
  9
$DIMDLI
 40
0.38
  9
$DIMRND
 40
0.0
  9
$DIMDLE
 40
0.0
  9
$DIMEXE
 40
0.18
  9
$DIMTP
 40
0.0
  9
$DIMTM
 40
0.0
  9
$DIMTXT
 40
0.18
  9
$DIMCEN
 40
0.09
  9
$DIMTSZ
 40
0.0
  9
$DIMTOL
 70
     0
  9
$DIMLIM
 70
     0
  9
$DIMTIH
 70
     1
  9
$DIMTOH
 70
     1
  9
$DIMSE1
 70
     0
  9
$DIMSE2
 70
     0
  9
$DIMTAD
 70
     0
  9
$DIMZIN
 70
     0
  9
$DIMBLK
  1

  9
$DIMASO
 70
     1
  9
$DIMSHO
 70
     1
  9
$DIMPOST
  1

  9
$DIMAPOST
  1

  9
$DIMALT
 70
     0
  9
$DIMALTD
 70
     2
  9
$DIMALTF
 40
25.4
  9
$DIMLFAC
 40
1.0
  9
$DIMTOFL
 70
     0
  9
$DIMTVP
 40
0.0
  9
$DIMTIX
 70
     0
  9
$DIMSOXD
 70
     0
  9
$DIMSAH
 70
     0
  9
$DIMBLK1
  1

  9
$DIMBLK2
  1

  9
$DIMSTYLE
  2
Standard
  9
$DIMCLRD
 70
     0
  9
$DIMCLRE
 70
     0
  9
$DIMCLRT
 70
     0
  9
$DIMTFAC
 40
1.0
  9
$DIMGAP
 40
0.09
  9
$DIMJUST
 70
     0
  9
$DIMSD1
 70
     0
  9
$DIMSD2
 70
     0
  9
$DIMTOLJ
 70
     1
  9
$DIMTZIN
 70
     0
  9
$DIMALTZ
 70
     0
  9
$DIMALTTZ
 70
     0
  9
$DIMUPT
 70
     0
  9
$DIMDEC
 70
     4
  9
$DIMTDEC
 70
     4
  9
$DIMALTU
 70
     2
  9
$DIMALTTD
 70
     2
  9
$DIMTXSTY
  7
Standard
  9
$DIMAUNIT
 70
     0
  9
$DIMADEC
 70
     0
  9
$DIMALTRND
 40
0.0
  9
$DIMAZIN
 70
     0
  9
$DIMDSEP
 70
    46
  9
$DIMATFIT
 70
     3
  9
$DIMFRAC
 70
     0
  9
$DIMLDRBLK
  1

  9
$DIMLUNIT
 70
     2
  9
$DIMLWD
 70
    -2
  9
$DIMLWE
 70
    -2
  9
$DIMTMOVE
 70
     0
  9
$DIMFXL
 40
1.0
  9
$DIMFXLON
 70
     0
  9
$DIMJOGANG
 40
0.7853981633974483
  9
$DIMTFILL
 70
     0
  9
$DIMTFILLCLR
 70
     0
  9
$DIMARCSYM
 70
     0
  9
$DIMLTYPE
  6

  9
$DIMLTEX1
  6

  9
$DIMLTEX2
  6

  9
$DIMTXTDIRECTION
 70
     0
  9
$LUNITS
 70
     2
  9
$LUPREC
 70
     4
  9
$SKETCHINC
 40
0.1
  9
$FILLETRAD
 40
0.5
  9
$AUNITS
 70
     0
  9
$AUPREC
 70
     0
  9
$MENU
  1
.
  9
$ELEVATION
 40
0.0
  9
$PELEVATION
 40
0.0
  9
$THICKNESS
 40
0.0
  9
$LIMCHECK
 70
     0
  9
$CHAMFERA
 40
0.0
  9
$CHAMFERB
 40
0.0
  9
$CHAMFERC
 40
0.0
  9
$CHAMFERD
 40
0.0
  9
$SKPOLY
 70
     0
  9
$TDCREATE
 40
2458169.005279028
  9
$TDUCREATE
 40
2458168.963612361
  9
$TDUPDATE
 40
2458169.005279202
  9
$TDUUPDATE
 40
2458168.963612535
  9
$TDINDWG
 40
0.0000000116
  9
$TDUSRTIMER
 40
0.0000000116
  9
$USRTIMER
 70
     1
  9
$ANGBASE
 50
0.0
  9
$ANGDIR
 70
     0
  9
$PDMODE
 70
     0
  9
$PDSIZE
 40
0.0
  9
$PLINEWID
 40
0.0
  9
$SPLFRAME
 70
     0
  9
$SPLINETYPE
 70
     6
  9
$SPLINESEGS
 70
     8
  9
$HANDSEED
  5
1ED
  9
$SURFTAB1
 70
     6
  9
$SURFTAB2
 70
     6
  9
$SURFTYPE
 70
     6
  9
$SURFU
 70
     6
  9
$SURFV
 70
     6
  9
$UCSBASE
  2

  9
$UCSNAME
  2

  9
$UCSORG
 10
0.0
 20
0.0
 30
0.0
  9
$UCSXDIR
 10
1.0
 20
0.0
 30
0.0
  9
$UCSYDIR
 10
0.0
 20
1.0
 30
0.0
  9
$UCSORTHOREF
  2

  9
$UCSORTHOVIEW
 70
     0
  9
$UCSORGTOP
 10
0.0
 20
0.0
 30
0.0
  9
$UCSORGBOTTOM
 10
0.0
 20
0.0
 30
0.0
  9
$UCSORGLEFT
 10
0.0
 20
0.0
 30
0.0
  9
$UCSORGRIGHT
 10
0.0
 20
0.0
 30
0.0
  9
$UCSORGFRONT
 10
0.0
 20
0.0
 30
0.0
  9
$UCSORGBACK
 10
0.0
 20
0.0
 30
0.0
  9
$PUCSBASE
  2

  9
$PUCSNAME
  2

  9
$PUCSORG
 10
0.0
 20
0.0
 30
0.0
  9
$PUCSXDIR
 10
1.0
 20
0.0
 30
0.0
  9
$PUCSYDIR
 10
0.0
 20
1.0
 30
0.0
  9
$PUCSORTHOREF
  2

  9
$PUCSORTHOVIEW
 70
     0
  9
$PUCSORGTOP
 10
0.0
 20
0.0
 30
0.0
  9
$PUCSORGBOTTOM
 10
0.0
 20
0.0
 30
0.0
  9
$PUCSORGLEFT
 10
0.0
 20
0.0
 30
0.0
  9
$PUCSORGRIGHT
 10
0.0
 20
0.0
 30
0.0
  9
$PUCSORGFRONT
 10
0.0
 20
0.0
 30
0.0
  9
$PUCSORGBACK
 10
0.0
 20
0.0
 30
0.0
  9
$USERI1
 70
     0
  9
$USERI2
 70
     0
  9
$USERI3
 70
     0
  9
$USERI4
 70
     0
  9
$USERI5
 70
     0
  9
$USERR1
 40
0.0
  9
$USERR2
 40
0.0
  9
$USERR3
 40
0.0
  9
$USERR4
 40
0.0
  9
$USERR5
 40
0.0
  9
$WORLDVIEW
 70
     1
  9
$SHADEDGE
 70
     3
  9
$SHADEDIF
 70
    70
  9
$TILEMODE
 70
     1
  9
$MAXACTVP
 70
    64
  9
$PINSBASE
 10
0.0
 20
0.0
 30
0.0
  9
$PLIMCHECK
 70
     0
  9
$PEXTMIN
 10
1.000000000000000E+20
 20
1.000000000000000E+20
 30
1.000000000000000E+20
  9
$PEXTMAX
 10
-1.000000000000000E+20
 20
-1.000000000000000E+20
 30
-1.000000000000000E+20
  9
$PLIMMIN
 10
0.0
 20
0.0
  9
$PLIMMAX
 10
12.0
 20
9.0
  9
$UNITMODE
 70
     0
  9
$VISRETAIN
 70
     1
  9
$PLINEGEN
 70
     0
  9
$PSLTSCALE
 70
     1
  9
$TREEDEPTH
 70
  3020
  9
$CMLSTYLE
  2
Standard
  9
$CMLJUST
 70
     0
  9
$CMLSCALE
 40
1.0
  9
$PROXYGRAPHICS
 70
     1
  9
$MEASUREMENT
 70
     0
  9
$CELWEIGHT
370
    -1
  9
$ENDCAPS
280
     0
  9
$JOINSTYLE
280
     0
  9
$LWDISPLAY
290
     0
  9
$INSUNITS
 70
     1
  9
$HYPERLINKBASE
  1

  9
$STYLESHEET
  1

  9
$XEDIT
290
     1
  9
$CEPSNTYPE
380
     0
  9
$PSTYLEMODE
290
     1
  9
$FINGERPRINTGUID
  2
{B114A569-7C5A-4A3D-A012-B5FABC84E6D7}
  9
$VERSIONGUID
  2
{FAEB1C32-E019-11D5-929B-00C0DF256EC4}
  9
$EXTNAMES
290
     1
  9
$PSVPSCALE
 40
0.0
  9
$OLESTARTUP
290
     0
  9
$SORTENTS
280
   127
  9
$INDEXCTL
280
     0
  9
$HIDETEXT
280
     1
  9
$XCLIPFRAME
280
     2
  9
$HALOGAP
280
     0
  9
$OBSCOLOR
 70
   257
  9
$OBSLTYPE
280
     0
  9
$INTERSECTIONDISPLAY
280
     0
  9
$INTERSECTIONCOLOR
 70
   257
  9
$DIMASSOC
280
     2
  9
$PROJECTNAME
  1

  9
$CAMERADISPLAY
290
     0
  9
$LENSLENGTH
 40
50.0
  9
$CAMERAHEIGHT
 40
0.0
  9
$STEPSPERSEC
 40
2.0
  9
$STEPSIZE
 40
6.0
  9
$3DDWFPREC
 40
2.0
  9
$PSOLWIDTH
 40
0.25
  9
$PSOLHEIGHT
 40
4.0
  9
$LOFTANG1
 40
1.570796326794897
  9
$LOFTANG2
 40
1.570796326794897
  9
$LOFTMAG1
 40
0.0
  9
$LOFTMAG2
 40
0.0
  9
$LOFTPARAM
 70
     7
  9
$LOFTNORMALS
280
     1
  9
$LATITUDE
 40
37.795
  9
$LONGITUDE
 40
-122.394
  9
$NORTHDIRECTION
 40
0.0
  9
$TIMEZONE
 70
 -8000
  9
$LIGHTGLYPHDISPLAY
280
     1
  9
$TILEMODELIGHTSYNCH
280
     1
  9
$CMATERIAL
347
44
  9
$SOLIDHIST
280
     0
  9
$SHOWHIST
280
     1
  9
$DWFFRAME
280
     2
  9
$DGNFRAME
280
     2
  9
$REALWORLDSCALE
290
     1
  9
$INTERFERECOLOR
 62
   256
  9
$CSHADOW
280
     0
  9
$SHADOWPLANELOCATION
 40
0.0
  0
ENDSEC
  0
SECTION
  2
CLASSES
  0
CLASS
  1
ACDBDICTIONARYWDFLT
  2
AcDbDictionaryWithDefault
  3
ObjectDBX Classes
 90
        0
 91
        4
280
     0
281
     0
  0
CLASS
  1
VISUALSTYLE
  2
AcDbVisualStyle
  3
ObjectDBX Classes
 90
     4095
 91
        4
280
     0
281
     0
  0
CLASS
  1
MATERIAL
  2
AcDbMaterial
  3
ObjectDBX Classes
 90
     1153
 91
        4
280
     0
281
     0
  0
CLASS
  1
SCALE
  2
AcDbScale
  3
ObjectDBX Classes
 90
     1153
 91
        4
280
     0
281
     0
  0
CLASS
  1
TABLESTYLE
  2
AcDbTableStyle
  3
ObjectDBX Classes
 90
     4095
 91
        4
280
     0
281
     0
  0
CLASS
  1
MLEADERSTYLE
  2
AcDbMLeaderStyle
  3
ACDB_MLEADERSTYLE_CLASS
 90
     4095
 91
        4
280
     0
281
     0
  0
CLASS
  1
SUN
  2
AcDbSun
  3
SCENEOE
 90
     1153
 91
        4
280
     0
281
     0
  0
CLASS
  1
DICTIONARYVAR
  2
AcDbDictionaryVar
  3
ObjectDBX Classes
 90
        0
 91
        4
280
     0
281
     0
  0
CLASS
  1
CELLSTYLEMAP
  2
AcDbCellStyleMap
  3
ObjectDBX Classes
 90
     1152
 91
        4
280
     0
281
     0
  0
ENDSEC
  0
SECTION
  2
TABLES
  0
TABLE
  2
VPORT
  5
8
330
0
100
AcDbSymbolTable
 70
     1
  0
VPORT
  5
29
330
8
100
AcDbSymbolTableRecord
100
AcDbViewportTableRecord
  2
*Active
 70
     0
 10
0.0
 20
0.0
 11
1.0
 21
1.0
 12
0.0
 22
-1.285937499999999
 13
0.0
 23
0.0
 14
0.5
 24
0.5
 15
0.5
 25
0.5
 16
0.0
 26
0.0
 36
1.0
 17
0.0
 27
0.0
 37
0.0
 40
2.840062500000001
 41
1.885521885521885
 42
50.0
 43
0.0
 44
0.0
 50
0.0
 51
0.0
 71
     0
 72
   100
 73
     1
 74
     3
 75
     0
 76
     0
 77
     0
 78
     0
281
     0
 65
     1
110
0.0
120
0.0
130
0.0
111
1.0
121
0.0
131
0.0
112
0.0
122
1.0
132
0.0
 79
     0
146
0.0
348
2F
 60
     3
 61
     5
292
     1
282
     1
141
0.0
142
0.0
 63
   250
361
6D
  0
ENDTAB
  0
TABLE
  2
LTYPE
  5
5
330
0
100
AcDbSymbolTable
 70
     3
  0
LTYPE
  5
14
330
5
100
AcDbSymbolTableRecord
100
AcDbLinetypeTableRecord
  2
ByBlock
 70
     0
  3

 72
    65
 73
     0
 40
0.0
  0
LTYPE
  5
15
330
5
100
AcDbSymbolTableRecord
100
AcDbLinetypeTableRecord
  2
ByLayer
 70
     0
  3

 72
    65
 73
     0
 40
0.0
  0
LTYPE
  5
16
330
5
100
AcDbSymbolTableRecord
100
AcDbLinetypeTableRecord
  2
Continuous
 70
     0
  3
Solid line
 72
    65
 73
     0
 40
0.0
  0
LTYPE
  5
AA
330
5
100
AcDbSymbolTableRecord
100
AcDbLinetypeTableRecord
  2
Dashed
 70
     0
  3

 72
    65
 73
     2
 40
2.0
 49
1.0
 74
     0
 49
-1.0
 74
     0
  0
LTYPE
  5
C5
330
5
100
AcDbSymbolTableRecord
100
AcDbLinetypeTableRecord
  2
Center
 70
     0
  3

 72
    65
 73
     4
 40
1.5
 49
0.45
 74
     0
 49
-0.5
 74
     0
 49
0.05
 74
     0
 49
-0.5
 74
     0
  0
ENDTAB
  0
TABLE
  2
LAYER
  5
2
330
0
100
AcDbSymbolTable
 70
     7
  0
LAYER
  5
10
330
2
100
AcDbSymbolTableRecord
100
AcDbLayerTableRecord
  2
0
 70
     0
 62
     7
  6
Continuous
370
    -3
390
F
347
46
348
0
  0
LAYER
  5
72
330
2
100
AcDbSymbolTableRecord
100
AcDbLayerTableRecord
  2
AM_6
 70
     0
 62
    -2
  6
Continuous
370
    35
390
F
347
46
348
0
  0
LAYER
  5
AB
330
2
100
AcDbSymbolTableRecord
100
AcDbLayerTableRecord
  2
AM_9
 70
     0
 62
     6
  6
Dashed
370
    25
390
F
347
46
348
0
  0
LAYER
  5
C2
330
2
100
AcDbSymbolTableRecord
100
AcDbLayerTableRecord
  2
AM_5
 70
     0
 62
     3
  6
Continuous
370
    25
390
F
347
46
348
0
  0
LAYER
  5
C6
330
2
100
AcDbSymbolTableRecord
100
AcDbLayerTableRecord
  2
AM_7
 70
     0
 62
     7
  6
Center
370
    25
390
F
347
46
348
0
  0
LAYER
  5
C8
330
2
100
AcDbSymbolTableRecord
100
AcDbLayerTableRecord
  2
AM_4
 70
     0
 62
     7
  6
Continuous
370
    50
390
F
347
46
348
0
  0
LAYER
  5
1DD
330
2
100
AcDbSymbolTableRecord
100
AcDbLayerTableRecord
  2
ConnectionPoints
 70
     0
 62
     7
  6
Continuous
370
    50
390
F
347
46
348
0
  0
ENDTAB
  0
TABLE
  2
STYLE
  5
3
330
0
100
AcDbSymbolTable
 70
     1
  0
STYLE
  5
11
330
3
100
AcDbSymbolTableRecord
100
AcDbTextStyleTableRecord
  2
Standard
 70
     0
 40
0.0
 41
1.0
 50
0.0
 71
     0
 42
0.2
  3
txt
  4

  0
ENDTAB
  0
TABLE
  2
VIEW
  5
6
330
0
100
AcDbSymbolTable
 70
     0
  0
ENDTAB
  0
TABLE
  2
UCS
  5
7
330
0
100
AcDbSymbolTable
 70
     0
  0
ENDTAB
  0
TABLE
  2
APPID
  5
9
330
0
100
AcDbSymbolTable
 70
     1
  0
APPID
  5
12
330
9
100
AcDbSymbolTableRecord
100
AcDbRegAppTableRecord
  2
ACAD
 70
     0
  0
ENDTAB
  0
TABLE
  2
DIMSTYLE
  5
A
330
0
100
AcDbSymbolTable
 70
     1
100
AcDbDimStyleTable
  0
DIMSTYLE
105
27
330
A
100
AcDbSymbolTableRecord
100
AcDbDimStyleTableRecord
  2
Standard
 70
     0
178
     0
340
11
  0
ENDTAB
  0
TABLE
  2
BLOCK_RECORD
  5
1
330
0
100
AcDbSymbolTable
 70
     6
  0
BLOCK_RECORD
  5
1F
330
1
100
AcDbSymbolTableRecord
100
AcDbBlockTableRecord
  2
*Model_Space
340
22
 70
     0
280
     1
281
     0
  0
BLOCK_RECORD
  5
1B
330
1
100
AcDbSymbolTableRecord
100
AcDbBlockTableRecord
  2
*Paper_Space
340
1E
 70
     0
280
     1
281
     0
  0
BLOCK_RECORD
  5
23
330
1
100
AcDbSymbolTableRecord
100
AcDbBlockTableRecord
  2
*Paper_Space0
340
26
 70
     0
280
     1
281
     0
  0
BLOCK_RECORD
  5
6E
330
1
100
AcDbSymbolTableRecord
100
AcDbBlockTableRecord
  2
1_023212_4
340
0
102
{BLKREFS
331
6F
102
}
 70
     0
280
     1
281
     0
  0
BLOCK_RECORD
  5
95
330
1
100
AcDbSymbolTableRecord
100
AcDbBlockTableRecord
  2
2_1_1_4C_0_in_023212_4
340
0
102
{BLKREFS
331
96
102
}
 70
     0
280
     1
281
     0
  0
BLOCK_RECORD
  5
D6
330
1
100
AcDbSymbolTableRecord
100
AcDbBlockTableRecord
  2
3_405020c_Inch_0_in_023212_4
340
0
102
{BLKREFS
331
D7
102
}
 70
     0
280
     1
281
     0
  0
BLOCK_RECORD
  5
F8
330
1
100
AcDbSymbolTableRecord
100
AcDbBlockTableRecord
  2
4_S1U_K_104R_0_in_023212_4
340
0
102
{BLKREFS
331
F9
102
}
 70
     0
280
     1
281
     0
  0
BLOCK_RECORD
  5
14F
330
1
100
AcDbSymbolTableRecord
100
AcDbBlockTableRecord
  2
5_F4B_K_104R_0_in_023212_4
340
0
102
{BLKREFS
331
150
102
}
 70
     0
280
     1
281
     0
  0
ENDTAB
  0
ENDSEC
  0
SECTION
  2
BLOCKS
  0
BLOCK
  5
20
330
1F
100
AcDbEntity
  8
0
100
AcDbBlockBegin
  2
*Model_Space
 70
     0
 10
0.0
 20
0.0
 30
0.0
  3
*Model_Space
  1

  0
ENDBLK
  5
21
330
1F
100
AcDbEntity
  8
0
100
AcDbBlockEnd
  0
BLOCK
  5
1C
330
1B
100
AcDbEntity
 67
     1
  8
0
100
AcDbBlockBegin
  2
*Paper_Space
 70
     0
 10
0.0
 20
0.0
 30
0.0
  3
*Paper_Space
  1

  0
ENDBLK
  5
1D
330
1B
100
AcDbEntity
 67
     1
  8
0
100
AcDbBlockEnd
  0
BLOCK
  5
24
330
23
100
AcDbEntity
  8
0
100
AcDbBlockBegin
  2
*Paper_Space0
 70
     0
 10
0.0
 20
0.0
 30
0.0
  3
*Paper_Space0
  1

  0
ENDBLK
  5
25
330
23
100
AcDbEntity
  8
0
100
AcDbBlockEnd
  0
BLOCK
  5
70
330
6E
100
AcDbEntity
  8
0
100
AcDbBlockBegin
  2
1_023212_4
 70
     2
 10
0.0
 20
0.0
 30
0.0
  3
1_023212_4
  1

  0
ATTDEF
  5
73
330
6E
100
AcDbEntity
  8
AM_6
100
AcDbText
 10
7.625
 20
0.10625
 30
0.0
 40
0.5
  1
Flange Bearing -  Non-Expansion - Inch
100
AcDbAttributeDefinition
  3

  2
NN
 70
     8
280
     0
  0
ATTDEF
  5
74
330
6E
100
AcDbEntity
  8
AM_6
100
AcDbText
 10
7.625
 20
-0.39375
 30
0.0
 40
0.5
  1
Type K
100
AcDbAttributeDefinition
  3

  2
NT
 70
     8
280
     0
  0
ATTDEF
  5
75
330
6E
100
AcDbEntity
  8
AM_6
100
AcDbText
 10
7.625
 20
-0.89375
 30
0.0
 40
0.5
  1
023212
100
AcDbAttributeDefinition
  3

  2
NB
 70
     8
280
     0
  0
ATTDEF
  5
76
330
6E
100
AcDbEntity
  8
AM_6
100
AcDbText
 10
7.625
 20
-1.39375
 30
0.0
 40
0.5
  1
$PN.
100
AcDbAttributeDefinition
  3

  2
NBSYN
 70
     8
280
     0
  0
ATTDEF
  5
77
330
6E
100
AcDbEntity
  8
AM_6
100
AcDbText
 10
7.625
 20
-1.89375
 30
0.0
 40
0.5
  1
023212
100
AcDbAttributeDefinition
  3

  2
LINA
 70
     8
280
     0
  0
ATTDEF
  5
78
330
6E
100
AcDbEntity
  8
AM_6
100
AcDbText
 10
7.625
 20
-2.39375
 30
0.0
 40
0.5
  1
1-1/4
100
AcDbAttributeDefinition
  3

  2
SS
 70
     8
280
     0
  0
ATTDEF
  5
79
330
6E
100
AcDbEntity
  8
AM_6
100
AcDbText
 10
7.625
 20
-2.89375
 30
0.0
 40
0.5
  1
023212
100
AcDbAttributeDefinition
  3

  2
PN
 70
     8
280
     0
  0
ATTDEF
  5
7A
330
6E
100
AcDbEntity
  8
AM_6
100
AcDbText
 10
7.625
 20
-3.39375
 30
0.0
 40
0.5
  1
F4B-K-104R
100
AcDbAttributeDefinition
  3

  2
PNA
 70
     8
280
     0
  0
ATTDEF
  5
7B
330
6E
100
AcDbEntity
  8
AM_6
100
AcDbText
 10
7.625
 20
-3.89375
 30
0.0
 40
0.5
  1
6
100
AcDbAttributeDefinition
  3

  2
WEIGHT
 70
     8
280
     0
  0
ATTDEF
  5
7C
330
6E
100
AcDbEntity
  8
AM_6
100
AcDbText
 10
7.625
 20
-4.39375
 30
0.0
 40
0.5
  1
2-9/16
100
AcDbAttributeDefinition
  3

  2
A
 70
     8
280
     0
  0
ATTDEF
  5
7D
330
6E
100
AcDbEntity
  8
AM_6
100
AcDbText
 10
7.625
 20
-4.89375
 30
0.0
 40
0.5
  1
5-3/16
100
AcDbAttributeDefinition
  3

  2
B
 70
     8
280
     0
  0
ATTDEF
  5
7E
330
6E
100
AcDbEntity
  8
AM_6
100
AcDbText
 10
7.625
 20
-5.39375
 30
0.0
 40
0.5
  1
2-1/8
100
AcDbAttributeDefinition
  3

  2
C
 70
     8
280
     0
  0
ATTDEF
  5
7F
330
6E
100
AcDbEntity
  8
AM_6
100
AcDbText
 10
7.625
 20
-5.89375
 30
0.0
 40
0.5
  1
4
100
AcDbAttributeDefinition
  3

  2
D
 70
     8
280
     0
  0
ATTDEF
  5
80
330
6E
100
AcDbEntity
  8
AM_6
100
AcDbText
 10
7.625
 20
-6.39375
 30
0.0
 40
0.5
  1
3/16
100
AcDbAttributeDefinition
  3

  2
E
 70
     8
280
     0
  0
ATTDEF
  5
81
330
6E
100
AcDbEntity
  8
AM_6
100
AcDbText
 10
7.625
 20
-6.89375
 30
0.0
 40
0.5
  1
3/8
100
AcDbAttributeDefinition
  3

  2
F
 70
     8
280
     0
  0
ATTDEF
  5
82
330
6E
100
AcDbEntity
  8
AM_6
100
AcDbText
 10
7.625
 20
-7.39375
 30
0.0
 40
0.5
  1
5-1/4
100
AcDbAttributeDefinition
  3

  2
G
 70
     8
280
     0
  0
ATTDEF
  5
83
330
6E
100
AcDbEntity
  8
AM_6
100
AcDbText
 10
7.625
 20
-7.89375
 30
0.0
 40
0.5
  1
7/16
100
AcDbAttributeDefinition
  3

  2
H
 70
     8
280
     0
  0
ATTDEF
  5
84
330
6E
100
AcDbEntity
  8
AM_6
100
AcDbText
 10
7.625
 20
-8.39375
 30
0.0
 40
0.5
  1
4
100
AcDbAttributeDefinition
  3

  2
J
 70
     8
280
     0
  0
ATTDEF
  5
85
330
6E
100
AcDbEntity
  8
AM_6
100
AcDbText
 10
7.625
 20
-8.89375
 30
0.0
 40
0.5
  1
2-1/4
100
AcDbAttributeDefinition
  3

  2
L
 70
     8
280
     0
  0
ATTDEF
  5
86
330
6E
100
AcDbEntity
  8
AM_6
100
AcDbText
 10
7.625
 20
-9.39375
 30
0.0
 40
0.5
  1
15760
100
AcDbAttributeDefinition
  3

  2
CS
 70
     8
280
     0
  0
ATTDEF
  5
87
330
6E
100
AcDbEntity
  8
AM_6
100
AcDbText
 10
7.625
 20
-9.89375
 30
0.0
 40
0.5
  1
2980
100
AcDbAttributeDefinition
  3

  2
CD
 70
     8
280
     0
  0
ATTDEF
  5
88
330
6E
100
AcDbEntity
  8
AM_6
100
AcDbText
 10
7.625
 20
-10.39375
 30
0.0
 40
0.5
  1
19
100
AcDbAttributeDefinition
  3

  2
RN
 70
     8
280
     0
  0
ATTDEF
  5
89
330
6E
100
AcDbEntity
  8
AM_6
100
AcDbText
 10
7.625
 20
-10.89375
 30
0.0
 40
0.5
  1
.23
100
AcDbAttributeDefinition
  3

  2
RM
 70
     8
280
     0
  0
ATTDEF
  5
8A
330
6E
100
AcDbEntity
  8
AM_6
100
AcDbText
 10
7.625
 20
-11.39375
 30
0.0
 40
0.5
  1
1.774
100
AcDbAttributeDefinition
  3

  2
PDI
 70
     8
280
     0
  0
ATTDEF
  5
8B
330
6E
100
AcDbEntity
  8
AM_6
100
AcDbText
 10
7.625
 20
-11.89375
 30
0.0
 40
0.5
  1
.004-0.12
100
AcDbAttributeDefinition
  3

  2
EP
 70
     8
280
     0
  0
ATTDEF
  5
8C
330
6E
100
AcDbEntity
  8
AM_6
100
AcDbText
 10
7.625
 20
-12.39375
 30
0.0
 40
0.5
  1
5/16-18*1/2
100
AcDbAttributeDefinition
  3

  2
SC
 70
     8
280
     0
  0
ATTDEF
  5
8D
330
6E
100
AcDbEntity
  8
AM_6
100
AcDbText
 10
7.625
 20
-12.89375
 30
0.0
 40
0.5
  1
165
100
AcDbAttributeDefinition
  3

  2
TC
 70
     8
280
     0
  0
ATTDEF
  5
8E
330
6E
100
AcDbEntity
  8
AM_6
100
AcDbText
 10
7.625
 20
-13.39375
 30
0.0
 40
0.5
  1
C.I. ASTM A48 CLASS 30
100
AcDbAttributeDefinition
  3

  2
MH
 70
     8
280
     0
  0
ATTDEF
  5
8F
330
6E
100
AcDbEntity
  8
AM_6
100
AcDbText
 10
7.625
 20
-13.89375
 30
0.0
 40
0.5
  1
4118 CASE CARB.
100
AcDbAttributeDefinition
  3

  2
MC
 70
     8
280
     0
  0
ATTDEF
  5
90
330
6E
100
AcDbEntity
  8
AM_6
100
AcDbText
 10
7.625
 20
-14.39375
 30
0.0
 40
0.5
  1
4118 CASE CARB.
100
AcDbAttributeDefinition
  3

  2
MCU
 70
     8
280
     0
  0
ATTDEF
  5
91
330
6E
100
AcDbEntity
  8
AM_6
100
AcDbText
 10
7.625
 20
-14.89375
 30
0.0
 40
0.5
  1
STEEL
100
AcDbAttributeDefinition
  3

  2
MR
 70
     8
280
     0
  0
ATTDEF
  5
92
330
6E
100
AcDbEntity
  8
AM_6
100
AcDbText
 10
7.625
 20
-15.39375
 30
0.0
 40
0.5
  1
4118 CASE CARB.
100
AcDbAttributeDefinition
  3

  2
MRO
 70
     8
280
     0
  0
ATTDEF
  5
93
330
6E
100
AcDbEntity
  8
AM_6
100
AcDbText
 10
7.625
 20
-15.89375
 30
0.0
 40
0.5
  1
2.16
100
AcDbAttributeDefinition
  3

  2
SM
 70
     8
280
     0
  0
ATTDEF
  5
94
330
6E
100
AcDbEntity
  8
AM_6
100
AcDbText
 10
7.625
 20
-16.39375
 30
0.0
 40
0.5
  1
baldor
100
AcDbAttributeDefinition
  3

  2
COMPANY
 70
     8
280
     0
  0
INSERT
  5
96
330
6E
100
AcDbEntity
  8
0
100
AcDbBlockReference
  2
2_1_1_4C_0_in_023212_4
 10
0.0
 20
0.0
 30
0.0
  0
INSERT
  5
D7
330
6E
100
AcDbEntity
  8
0
100
AcDbBlockReference
  2
3_405020c_Inch_0_in_023212_4
 10
0.0
 20
0.0
 30
0.0
  0
INSERT
  5
F9
330
6E
100
AcDbEntity
  8
0
100
AcDbBlockReference
  2
4_S1U_K_104R_0_in_023212_4
 10
0.0
 20
0.0
 30
0.0
  0
INSERT
  5
150
330
6E
100
AcDbEntity
  8
0
100
AcDbBlockReference
  2
5_F4B_K_104R_0_in_023212_4
 10
0.0
 20
0.0
 30
0.0
  0
ENDBLK
  5
71
330
6E
100
AcDbEntity
  8
0
100
AcDbBlockEnd
  0
BLOCK
  5
97
330
95
100
AcDbEntity
  8
0
100
AcDbBlockBegin
  2
2_1_1_4C_0_in_023212_4
 70
     2
 10
0.0
 20
0.0
 30
0.0
  3
2_1_1_4C_0_in_023212_4
  1

  0
ATTDEF
  5
99
330
95
100
AcDbEntity
  8
AM_6
100
AcDbText
 10
6.125
 20
-2.0025
 30
0.0
 40
0.5
  1
E-Type Collar -Inch
100
AcDbAttributeDefinition
  3

  2
NN
 70
     8
280
     0
  0
ATTDEF
  5
9A
330
95
100
AcDbEntity
  8
AM_6
100
AcDbText
 10
6.125
 20
-2.5025
 30
0.0
 40
0.5
  1
E-Type Bearings
100
AcDbAttributeDefinition
  3

  2
NT
 70
     8
280
     0
  0
ATTDEF
  5
9B
330
95
100
AcDbEntity
  8
AM_6
100
AcDbText
 10
6.125
 20
-3.0025
 30
0.0
 40
0.5
  1
1-1/4C
100
AcDbAttributeDefinition
  3

  2
NB
 70
     8
280
     0
  0
ATTDEF
  5
9C
330
95
100
AcDbEntity
  8
AM_6
100
AcDbText
 10
6.125
 20
-3.5025
 30
0.0
 40
0.5
  1
$BORE.C
100
AcDbAttributeDefinition
  3

  2
NBSYN
 70
     8
280
     0
  0
ATTDEF
  5
9D
330
95
100
AcDbEntity
  8
AM_6
100
AcDbText
 10
6.125
 20
-4.0025
 30
0.0
 40
0.5
  1
1-1/4C
100
AcDbAttributeDefinition
  3

  2
LINA
 70
     8
280
     0
  0
ATTDEF
  5
9E
330
95
100
AcDbEntity
  8
AM_6
100
AcDbText
 10
6.125
 20
-4.5025
 30
0.0
 40
0.5
  1
1-1/4
100
AcDbAttributeDefinition
  3

  2
BORE
 70
     8
280
     0
  0
ATTDEF
  5
9F
330
95
100
AcDbEntity
  8
AM_6
100
AcDbText
 10
6.125
 20
-5.0025
 30
0.0
 40
0.5
  1
2.25000
100
AcDbAttributeDefinition
  3

  2
L
 70
     8
280
     0
  0
ATTDEF
  5
A0
330
95
100
AcDbEntity
  8
AM_6
100
AcDbText
 10
6.125
 20
-5.5025
 30
0.0
 40
0.5
  1
2.75
100
AcDbAttributeDefinition
  3

  2
A
 70
     8
280
     0
  0
ATTDEF
  5
A1
330
95
100
AcDbEntity
  8
AM_6
100
AcDbText
 10
6.125
 20
-6.0025
 30
0.0
 40
0.5
  1
1.16
100
AcDbAttributeDefinition
  3

  2
B
 70
     8
280
     0
  0
ATTDEF
  5
A2
330
95
100
AcDbEntity
  8
AM_6
100
AcDbText
 10
6.125
 20
-6.5025
 30
0.0
 40
0.5
  1
1.56
100
AcDbAttributeDefinition
  3

  2
C
 70
     8
280
     0
  0
ATTDEF
  5
A3
330
95
100
AcDbEntity
  8
AM_6
100
AcDbText
 10
6.125
 20
-7.0025
 30
0.0
 40
0.5
  1
2.31
100
AcDbAttributeDefinition
  3

  2
D
 70
     8
280
     0
  0
ATTDEF
  5
A4
330
95
100
AcDbEntity
  8
AM_6
100
AcDbText
 10
6.125
 20
-7.5025
 30
0.0
 40
0.5
  1
0.35
100
AcDbAttributeDefinition
  3

  2
E
 70
     8
280
     0
  0
ATTDEF
  5
A5
330
95
100
AcDbEntity
  8
AM_6
100
AcDbText
 10
6.125
 20
-8.0025
 30
0.0
 40
0.5
  1
0.28
100
AcDbAttributeDefinition
  3

  2
F
 70
     8
280
     0
  0
ATTDEF
  5
A6
330
95
100
AcDbEntity
  8
AM_6
100
AcDbText
 10
6.125
 20
-8.5025
 30
0.0
 40
0.5
  1
5/16-18
100
AcDbAttributeDefinition
  3

  2
CS
 70
     8
280
     0
  0
ATTDEF
  5
A7
330
95
100
AcDbEntity
  8
AM_6
100
AcDbText
 10
6.125
 20
-9.0025
 30
0.0
 40
0.5
  1
0.3125
100
AcDbAttributeDefinition
  3

  2
NDM
 70
     8
280
     0
  0
ATTDEF
  5
A8
330
95
100
AcDbEntity
  8
AM_6
100
AcDbText
 10
6.125
 20
-9.5025
 30
0.0
 40
0.5
  1
0.2520
100
AcDbAttributeDefinition
  3

  2
KDM
 70
     8
280
     0
  0
ATTDEF
  5
A9
330
95
100
AcDbEntity
  8
AM_6
100
AcDbText
 10
6.125
 20
-10.0025
 30
0.0
 40
0.5
  1
baldor
100
AcDbAttributeDefinition
  3

  2
COMPANY
 70
     8
280
     0
  0
LINE
  5
AC
330
95
100
AcDbEntity
  8
AM_9
100
AcDbLine
 10
0.7401434613081497
 20
-2.170860626202661
 30
0.0
 11
0.7318173552647615
 21
-2.16047558582365
 31
0.0
  0
LINE
  5
AD
330
95
100
AcDbEntity
  8
AM_9
100
AcDbLine
 10
0.7317770678867456
 20
-2.404574664082521
 30
0.0
 11
0.7401434613081497
 21
-2.394139373797338
 31
0.0
  0
LWPOLYLINE
  5
AE
330
95
100
AcDbEntity
  8
AM_9
100
AcDbPolyline
 90
       25
 70
     0
 43
0.0
 10
0.7317153249113441
 20
-2.160348325169788
 10
0.7247251827028233
 20
-2.153390245706022
 10
0.7150517877036321
 20
-2.148282074036967
 10
0.7039480342293931
 20
-2.147244601034743
 10
0.6921139183444142
 20
-2.150548011007652
 10
0.6797964040077172
 20
-2.158275728997513
 10
0.6676000879121816
 20
-2.170216408730409
 10
0.6562460195285496
 20
-2.185933472005924
 10
0.6461701982599575
 20
-2.205207854182025
 10
0.6385240559479698
 20
-2.226108320396042
 10
0.6331448115831858
 20
-2.249159910580538
 10
0.6307107260213829
 20
-2.270731519933361
 10
0.6306095548628711
 20
-2.292695240945243
 10
0.6326201703233519
 20
-2.312514740784315
 10
0.6364655394551548
 20
-2.331515919264316
 10
0.6420537543243882
 20
-2.349545913256253
 10
0.6490011095784315
 20
-2.365896975687441
 10
0.6578141582710378
 20
-2.381560527510835
 10
0.6674734702166294
 20
-2.394635051507857
 10
0.6786963263611611
 20
-2.405830840999824
 10
0.6900600661369575
 20
-2.413460277823927
 10
0.7018627544065493
 20
-2.417480654018731
 10
0.7130106605644365
 20
-2.417254974099488
 10
0.7233681815396783
 20
-2.412605272049743
 10
0.7317175000798444
 20
-2.404648962157897
  0
LWPOLYLINE
  5
AF
330
95
100
AcDbEntity
  8
AM_9
100
AcDbPolyline
 90
       13
 70
     0
 43
0.0
 10
0.7359697473814434
 20
-2.398559596325048
 10
0.7402263240899403
 20
-2.390544854877386
 10
0.7465252362667661
 20
-2.373593524887761
 10
0.7511762127017618
 20
-2.35403690167964
 10
0.7544968747204982
 20
-2.331742105424381
 10
0.7563277193280817
 20
-2.309943250147867
 10
0.7570883473600925
 20
-2.287167277340557
 10
0.7568521278157612
 20
-2.266670683052522
 10
0.755762634133546
 20
-2.246634033257771
 10
0.753858758231629
 20
-2.227979757390598
 10
0.751135328949227
 20
-2.210708534527432
 10
0.7481515079328043
 20
-2.197297210163419
 10
0.744568556491406
 20
-2.185279603243264
  0
LWPOLYLINE
  5
B0
330
95
100
AcDbEntity
  8
AM_9
100
AcDbPolyline
 90
        3
 70
     0
 43
0.0
 10
0.7317175000798444
 20
-2.404648962157897
 10
0.7325080765012126
 20
-2.403637578734912
 10
0.7359697473814434
 20
-2.398559596325048
  0
LINE
  5
B1
330
95
100
AcDbEntity
  8
AM_9
100
AcDbLine
 10
0.7152732106591081
 20
-2.4087
 30
0.0
 11
0.9923617114157799
 21
-2.4087
 31
0.0
  0
LINE
  5
B2
330
95
100
AcDbEntity
  8
AM_9
100
AcDbLine
 10
0.9923617114157799
 20
-2.156299999999999
 30
0.0
 11
0.7152732106591081
 21
-2.156299999999999
 31
0.0
  0
ELLIPSE
  5
B3
330
95
100
AcDbEntity
  8
AM_9
100
AcDbEllipse
 10
0.9923617114157806
 20
-2.2825
 30
0.0
 11
-2.318256390785945E-17
 21
-0.1262000000000003
 31
0.0
210
0.0
220
0.0
230
1.0
 40
0.4226182617407035
 41
3.453322664378634
 42
5.99464103124405
  0
LINE
  5
B4
330
95
100
AcDbEntity
  8
AM_9
100
AcDbLine
 10
0.9674914607667385
 20
-2.394139373797338
 30
0.0
 11
0.9870082115742386
 21
-2.41848235527593
 31
0.0
  0
LINE
  5
B5
330
95
100
AcDbEntity
  8
AM_9
100
AcDbLine
 10
0.9871467482591758
 20
-2.14634484977532
 30
0.0
 11
0.9674914607667385
 21
-2.170860626202661
 31
0.0
  0
LWPOLYLINE
  5
B6
330
95
100
AcDbEntity
  8
AM_9
100
AcDbPolyline
 90
       13
 70
     0
 43
0.0
 10
0.1381627871042102
 20
-2.230142459060923
 10
0.1326032899141004
 20
-2.219586929087179
 10
0.120901146773081
 20
-2.20273428315302
 10
0.1058435305831707
 20
-2.186892213799497
 10
0.0881421612013445
 20
-2.173198947992969
 10
0.0669249098748643
 20
-2.161479197485264
 10
0.0435249671878877
 20
-2.152985996463614
 10
0.0180164298954341
 20
-2.148077213902205
 10
-0.0086881833316068
 20
-2.147313843968508
 10
-0.0350190329345502
 20
-2.150875640898827
 10
-0.0610994042607126
 20
-2.158971088256545
 10
-0.0827397585892239
 20
-2.16979217447465
 10
-0.1028594729276147
 20
-2.184271301069125
  0
LWPOLYLINE
  5
B7
330
95
100
AcDbEntity
  8
AM_9
100
AcDbPolyline
 90
        7
 70
     0
 43
0.0
 10
0.1385413154379769
 20
-2.33404353892456
 10
0.1437286022121231
 20
-2.320913233005848
 10
0.1487500704286706
 20
-2.299617494825589
 10
0.1498429457206477
 20
-2.276972639440999
 10
0.1472960905266888
 20
-2.257214163659952
 10
0.141383778885884
 20
-2.237615633753396
 10
0.1381627871042102
 20
-2.230142459060923
  0
LWPOLYLINE
  5
B8
330
95
100
AcDbEntity
  8
AM_9
100
AcDbPolyline
 90
       16
 70
     0
 43
0.0
 10
-0.1372140039325103
 20
-2.336835374915191
 10
-0.135518687195356
 20
-2.340170968806384
 10
-0.1245629321578965
 20
-2.357553916012388
 10
-0.1107874301092471
 20
-2.373429032264761
 10
-0.0934795226187945
 20
-2.388109806219497
 10
-0.0736482582921548
 20
-2.400269000594137
 10
-0.0505943610178358
 20
-2.409879192804177
 10
-0.0256368483096517
 20
-2.415896925031032
 10
0.0005899496398196
 20
-2.417915604692751
 10
0.0275369834952562
 20
-2.415583854765652
 10
0.0532811090355426
 20
-2.408973527769458
 10
0.0782222139162039
 20
-2.397822946572276
 10
0.099894507492395
 20
-2.383195735451065
 10
0.1191862067320094
 20
-2.364335178415555
 10
0.1333003059422877
 20
-2.344209988960941
 10
0.1385413154379769
 20
-2.33404353892456
  0
LWPOLYLINE
  5
B9
330
95
100
AcDbEntity
  8
AM_9
100
AcDbPolyline
 90
        7
 70
     0
 43
0.0
 10
-0.1377355987730524
 20
-2.22924124138004
 10
-0.1410204713171018
 20
-2.236702940972734
 10
-0.1478546027510875
 20
-2.259989875320421
 10
-0.1499584719492549
 20
-2.280856260047133
 10
-0.1483091766092948
 20
-2.302459386657295
 10
-0.1435021913752054
 20
-2.321589522523199
 10
-0.1372140039325103
 20
-2.336835374915191
  0
LWPOLYLINE
  5
BA
330
95
100
AcDbEntity
  8
AM_9
100
AcDbPolyline
 90
        4
 70
     0
 43
0.0
 10
-0.1028594729276147
 20
-2.184271301069125
 10
-0.1176421742407892
 20
-2.198868966012272
 10
-0.1303572391921786
 20
-2.215896133325848
 10
-0.1377355987730524
 20
-2.22924124138004
  0
LWPOLYLINE
  5
BB
330
95
100
AcDbEntity
  8
AM_9
100
AcDbPolyline
 90
        3
 70
     0
 43
0.0
 10
0.7353623294518401
 20
-2.165467128886069
 10
0.7332729234830262
 20
-2.162390620210656
 10
0.7317153249113441
 20
-2.160348325169788
  0
LWPOLYLINE
  5
BC
330
95
100
AcDbEntity
  8
AM_9
100
AcDbPolyline
 90
        3
 70
     0
 43
0.0
 10
0.744568556491406
 20
-2.185279603243264
 10
0.7393589893975209
 20
-2.172628239620717
 10
0.7353623294518401
 20
-2.165467128886069
  0
LINE
  5
BD
330
95
100
AcDbEntity
  8
AM_9
100
AcDbLine
 10
0.78
 20
-2.5625
 30
0.0
 11
0.78
 21
-2.0025
 31
0.0
  0
LINE
  5
BE
330
95
100
AcDbEntity
  8
AM_9
100
AcDbLine
 10
-0.78
 20
-2.0025
 30
0.0
 11
-0.78
 21
-2.5625
 31
0.0
  0
LINE
  5
BF
330
95
100
AcDbEntity
  8
AM_9
100
AcDbLine
 10
-1.125
 20
-2.0025
 30
0.0
 11
1.125
 21
-2.0025
 31
0.0
  0
LINE
  5
C0
330
95
100
AcDbEntity
  8
AM_9
100
AcDbLine
 10
1.125
 20
-2.125
 30
0.0
 11
1.125
 21
-2.0025
 31
0.0
  0
LINE
  5
C1
330
95
100
AcDbEntity
  8
AM_9
100
AcDbLine
 10
-1.125
 20
-2.0025
 30
0.0
 11
-1.125
 21
-2.125
 31
0.0
  0
ARC
  5
C3
330
95
100
AcDbEntity
  8
AM_5
100
AcDbCircle
 10
-0.0000000000000001
 20
-2.282499999999999
 30
0.0
 40
0.1562499999999998
100
AcDbArc
 50
74.99999999999982
 51
14.99999999999982
  0
ELLIPSE
  5
C4
330
95
100
AcDbEntity
  8
AM_9
100
AcDbEllipse
 10
0.715273210659108
 20
-2.2825
 30
0.0
 11
-2.318256390785937E-17
 21
-0.1261999999999999
 31
0.0
210
0.0
220
0.0
230
1.0
 40
0.4226182617406989
 41
0.0
 42
6.283185307179586
  0
LINE
  5
C7
330
95
100
AcDbEntity
  8
AM_7
100
AcDbLine
 10
-0.13251
 20
-2.2825
 30
0.0
 11
0.13251
 21
-2.2825
 31
0.0
  0
ELLIPSE
  5
C9
330
95
100
AcDbEntity
  8
AM_4
100
AcDbEllipse
 10
0.9923617114157797
 20
-2.282499999999999
 30
0.0
 11
-2.318256390785945E-17
 21
-0.1262000000000003
 31
0.0
210
0.0
220
0.0
230
1.0
 40
0.4226182617407001
 41
5.994641031244065
 42
9.736507971558208
  0
LWPOLYLINE
  5
CA
330
95
100
AcDbEntity
  8
AM_4
100
AcDbPolyline
 90
       14
 70
     0
 43
0.0
 10
0.9871656846624647
 20
-2.418678766200041
 10
0.9833951657817689
 20
-2.4136593471593
 10
0.9742547275603872
 20
-2.398546599250866
 10
0.9661783800487067
 20
-2.380716247801388
 10
0.9590693942666765
 20
-2.359314811917832
 10
0.9537047457840773
 20
-2.336007801375901
 10
0.9501715220014946
 20
-2.310015913679215
 10
0.9489200685018017
 20
-2.283290813554955
 10
0.9501005597317477
 20
-2.255788239351721
 10
0.9536963056908679
 20
-2.229038260055054
 10
0.959607528460657
 20
-2.2037988449307
 10
0.9675511942253321
 20
-2.180866629176265
 10
0.9769415247645573
 20
-2.161545882003019
 10
0.987177123405904
 20
-2.146306963271262
  0
LWPOLYLINE
  5
CB
330
95
100
AcDbEntity
  8
AM_4
100
AcDbPolyline
 90
        9
 70
     0
 43
0.0
 10
0.987177123405904
 20
-2.146306963271262
 10
0.9875596069055241
 20
-2.145833029930261
 10
0.998301713826901
 20
-2.134965765579091
 10
1.009326393418958
 20
-2.128321387803072
 10
1.019519411888082
 20
-2.126267685362713
 10
1.029272914594963
 20
-2.128261706629398
 10
1.038046183212606
 20
-2.134050559910158
 10
1.045968520860001
 20
-2.143359756556849
 10
1.055906520666424
 20
-2.163035451624032
  0
CIRCLE
  5
CC
330
95
100
AcDbEntity
  8
AM_4
100
AcDbCircle
 10
0.0
 20
-2.2825
 30
0.0
 40
0.1262
  0
LWPOLYLINE
  5
CD
330
95
100
AcDbEntity
  8
AM_4
100
AcDbPolyline
 90
       39
 70
     0
 43
0.0
 10
-0.1066758680238844
 20
-2.17537423822652
 10
-0.0908226039044556
 20
-2.159897921921695
 10
-0.0724114050777637
 20
-2.146679951663858
 10
-0.0501918097974462
 20
-2.135714326464695
 10
-0.0255805440619602
 20
-2.128653039689699
 10
-0.0023403297726229
 20
-2.126269962403861
 10
0.0216847836585466
 20
-2.127973107274758
 10
0.0436951074190858
 20
-2.133368362615965
 10
0.0650956713409572
 20
-2.142531642124468
 10
0.0846289072579089
 20
-2.154961649030705
 10
0.102388099760737
 20
-2.170725701368272
 10
0.1179007732929035
 20
-2.189678229245468
 10
0.130544070581117
 20
-2.211400543312094
 10
0.1398858933230125
 20
-2.235661420422534
 10
0.1453548542996451
 20
-2.26180821444867
 10
0.1465311812400083
 20
-2.288795108860979
 10
0.1431538339130528
 20
-2.316364553320775
 10
0.1353735492552186
 20
-2.342502749685382
 10
0.1229024714025249
 20
-2.367647922084681
 10
0.1070418971707027
 20
-2.389210557398799
 10
0.0870010148902199
 20
-2.408211518354508
 10
0.0656766147882787
 20
-2.422159332349878
 10
0.0413956574003072
 20
-2.432376488478216
 10
0.0181360177056217
 20
-2.437546712664131
 10
-0.0064362725142289
 20
-2.438598954615115
 10
-0.0290058651437735
 20
-2.435653484854287
 10
-0.0513900147607059
 20
-2.42881308938854
 10
-0.0718755658151693
 20
-2.418643310442186
 10
-0.0909565303083706
 20
-2.404989232275076
 10
-0.1080055856627532
 20
-2.388102754898855
 10
-0.1225415240941229
 20
-2.368235683819373
 10
-0.1341638829646043
 20
-2.345504987950046
 10
-0.1422215965616665
 20
-2.320551676503838
 10
-0.14624482346234
 20
-2.294097080476855
 10
-0.1458858875069017
 20
-2.26658959318126
 10
-0.1410386304464152
 20
-2.239753736670896
 10
-0.1314785371883254
 20
-2.213378956511141
 10
-0.1205836421573698
 20
-2.193672548757071
 10
-0.1066758681695787
 20
-2.17537423813373
  0
LWPOLYLINE
  5
CE
330
95
100
AcDbEntity
  8
AM_4
100
AcDbPolyline
 90
       19
 70
     0
 43
0.0
 10
1.055906520666424
 20
-2.163035451624032
 10
1.061212202816068
 20
-2.179322363728139
 10
1.06550526365022
 20
-2.197711884170819
 10
1.069200567127167
 20
-2.220927023245753
 10
1.071611589741043
 20
-2.245713660461118
 10
1.072781506806589
 20
-2.272594517362634
 10
1.072600437737817
 20
-2.299744790697964
 10
1.071012656811298
 20
-2.326928012279069
 10
1.067993436785734
 20
-2.352841260693279
 10
1.063528999638169
 20
-2.376510821194612
 10
1.057581386431797
 20
-2.397397754854325
 10
1.050428061818026
 20
-2.414123052119614
 10
1.041940270933319
 20
-2.42694358220838
 10
1.032875219760304
 20
-2.434848906540591
 10
1.022945521148024
 20
-2.438517411363172
 10
1.013025326535056
 20
-2.437876228309253
 10
1.002873198613005
 20
-2.433345025847232
 10
0.9929313075571718
 20
-2.425168047938741
 10
0.9871656846624647
 20
-2.418678766200041
  0
LINE
  5
CF
330
95
100
AcDbEntity
  8
AM_4
100
AcDbLine
 10
1.125
 20
-2.469166666666667
 30
0.0
 11
1.125
 21
-2.125
 31
0.0
  0
LINE
  5
D0
330
95
100
AcDbEntity
  8
AM_4
100
AcDbLine
 10
-1.125
 20
-2.125
 30
0.0
 11
-1.125
 21
-2.469166666666667
 31
0.0
  0
LINE
  5
D1
330
95
100
AcDbEntity
  8
AM_4
100
AcDbLine
 10
-1.031666666666667
 20
-2.5625
 30
0.0
 11
1.031666666650195
 21
-2.5625
 31
0.0
  0
LINE
  5
D2
330
95
100
AcDbEntity
  8
AM_4
100
AcDbLine
 10
-1.125
 20
-2.469166666666667
 30
0.0
 11
1.125
 21
-2.469166666666667
 31
0.0
  0
ARC
  5
D3
330
95
100
AcDbEntity
  8
AM_4
100
AcDbCircle
 10
1.031666666666667
 20
-2.469166666666667
 30
0.0
 40
0.0933333333333328
100
AcDbArc
 50
270.0
 51
0.0
  0
ARC
  5
D4
330
95
100
AcDbEntity
  8
AM_4
100
AcDbCircle
 10
-1.031666666666666
 20
-2.469166666666665
 30
0.0
 40
0.0933333333333342
100
AcDbArc
 50
180.0
 51
270.0
  0
CIRCLE
  5
D5
330
95
100
AcDbEntity
  8
AM_5
100
AcDbCircle
 10
0.0000000000000004
 20
-2.282499999999999
 30
0.0
 40
0.1562499999999998
  0
ENDBLK
  5
98
330
95
100
AcDbEntity
  8
0
100
AcDbBlockEnd
  0
BLOCK
  5
D8
330
D6
100
AcDbEntity
  8
0
100
AcDbBlockBegin
  2
3_405020c_Inch_0_in_023212_4
 70
     2
 10
0.0
 20
0.0
 30
0.0
  3
3_405020c_Inch_0_in_023212_4
  1

  0
ATTDEF
  5
DA
330
D6
100
AcDbEntity
  8
AM_6
100
AcDbText
 10
5.14065
 20
-1.025091369276958
 30
0.0
 40
0.5
  1
405020C -Inch
100
AcDbAttributeDefinition
  3

  2
NN
 70
     8
280
     0
  0
ATTDEF
  5
DB
330
D6
100
AcDbEntity
  8
AM_6
100
AcDbText
 10
5.14065
 20
-1.525091369276958
 30
0.0
 40
0.5
  1
Grease fitting
100
AcDbAttributeDefinition
  3

  2
NT
 70
     8
280
     0
  0
ATTDEF
  5
DC
330
D6
100
AcDbEntity
  8
AM_6
100
AcDbText
 10
5.14065
 20
-2.025091369276958
 30
0.0
 40
0.5
  1
405020c-Inch
100
AcDbAttributeDefinition
  3

  2
NB
 70
     8
280
     0
  0
ATTDEF
  5
DD
330
D6
100
AcDbEntity
  8
AM_6
100
AcDbText
 10
5.14065
 20
-2.525091369276958
 30
0.0
 40
0.5
  1
$MN.-Inch
100
AcDbAttributeDefinition
  3

  2
NBSYN
 70
     8
280
     0
  0
ATTDEF
  5
DE
330
D6
100
AcDbEntity
  8
AM_6
100
AcDbText
 10
5.14065
 20
-3.025091369276958
 30
0.0
 40
0.5
  1
405020c
100
AcDbAttributeDefinition
  3

  2
LINA
 70
     8
280
     0
  0
ATTDEF
  5
DF
330
D6
100
AcDbEntity
  8
AM_6
100
AcDbText
 10
5.14065
 20
-3.525091369276958
 30
0.0
 40
0.5
  1
405020c
100
AcDbAttributeDefinition
  3

  2
MN
 70
     8
280
     0
  0
ATTDEF
  5
E0
330
D6
100
AcDbEntity
  8
AM_6
100
AcDbText
 10
5.14065
 20
-4.025091369276958
 30
0.0
 40
0.5
  1
0.230
100
AcDbAttributeDefinition
  3

  2
NDR
 70
     8
280
     0
  0
ATTDEF
  5
E1
330
D6
100
AcDbEntity
  8
AM_6
100
AcDbText
 10
5.14065
 20
-4.525091369276958
 30
0.0
 40
0.5
  1
0.210
100
AcDbAttributeDefinition
  3

  2
KDR
 70
     8
280
     0
  0
ATTDEF
  5
E2
330
D6
100
AcDbEntity
  8
AM_6
100
AcDbText
 10
5.14065
 20
-5.025091369276958
 30
0.0
 40
0.5
  1
0.157
100
AcDbAttributeDefinition
  3

  2
BZE
 70
     8
280
     0
  0
ATTDEF
  5
E3
330
D6
100
AcDbEntity
  8
AM_6
100
AcDbText
 10
5.14065
 20
-5.525091369276958
 30
0.0
 40
0.5
  1
9/32
100
AcDbAttributeDefinition
  3

  2
WAF
 70
     8
280
     0
  0
ATTDEF
  5
E4
330
D6
100
AcDbEntity
  8
AM_6
100
AcDbText
 10
5.14065
 20
-6.025091369276958
 30
0.0
 40
0.5
  1
0.2813
100
AcDbAttributeDefinition
  3

  2
WAF1
 70
     8
280
     0
  0
ATTDEF
  5
E5
330
D6
100
AcDbEntity
  8
AM_6
100
AcDbText
 10
5.14065
 20
-6.525091369276958
 30
0.0
 40
0.5
  1
0.545
100
AcDbAttributeDefinition
  3

  2
BL
 70
     8
280
     0
  0
ATTDEF
  5
E6
330
D6
100
AcDbEntity
  8
AM_6
100
AcDbText
 10
5.14065
 20
-7.025091369276958
 30
0.0
 40
0.5
  1
0.200
100
AcDbAttributeDefinition
  3

  2
TL
 70
     8
280
     0
  0
ATTDEF
  5
E7
330
D6
100
AcDbEntity
  8
AM_6
100
AcDbText
 10
5.14065
 20
-7.525091369276958
 30
0.0
 40
0.5
  1
baldor
100
AcDbAttributeDefinition
  3

  2
COMPANY
 70
     8
280
     0
  0
CIRCLE
  5
E8
330
D6
100
AcDbEntity
  8
AM_9
100
AcDbCircle
 10
0.0
 20
-1.1875
 30
0.0
 40
0.1000886227036577
  0
CIRCLE
  5
E9
330
D6
100
AcDbEntity
  8
AM_9
100
AcDbCircle
 10
0.0
 20
-1.1875
 30
0.0
 40
0.1104162595939891
  0
CIRCLE
  5
EA
330
D6
100
AcDbEntity
  8
AM_9
100
AcDbCircle
 10
0.0
 20
-1.1875
 30
0.0
 40
0.1163438171532771
  0
LINE
  5
EB
330
D6
100
AcDbEntity
  8
AM_9
100
AcDbLine
 10
-0.14065
 20
-1.268704315361521
 30
0.0
 11
0.0
 21
-1.349908630723042
 31
0.0
  0
LINE
  5
EC
330
D6
100
AcDbEntity
  8
AM_9
100
AcDbLine
 10
0.0
 20
-1.349908630723042
 30
0.0
 11
0.14065
 21
-1.268704315361521
 31
0.0
  0
LINE
  5
ED
330
D6
100
AcDbEntity
  8
AM_9
100
AcDbLine
 10
0.0
 20
-1.025091369276958
 30
0.0
 11
-0.14065
 21
-1.106295684638479
 31
0.0
  0
LINE
  5
EE
330
D6
100
AcDbEntity
  8
AM_9
100
AcDbLine
 10
-0.14065
 20
-1.106295684638479
 30
0.0
 11
-0.14065
 21
-1.268704315361521
 31
0.0
  0
LINE
  5
EF
330
D6
100
AcDbEntity
  8
AM_9
100
AcDbLine
 10
0.14065
 20
-1.268704315361521
 30
0.0
 11
0.14065
 21
-1.106295684638479
 31
0.0
  0
LINE
  5
F0
330
D6
100
AcDbEntity
  8
AM_9
100
AcDbLine
 10
0.14065
 20
-1.106295684638479
 30
0.0
 11
0.0
 21
-1.025091369276958
 31
0.0
  0
CIRCLE
  5
F1
330
D6
100
AcDbEntity
  8
AM_9
100
AcDbCircle
 10
0.0
 20
-1.1875
 30
0.0
 40
0.1093294505797714
  0
CIRCLE
  5
F2
330
D6
100
AcDbEntity
  8
AM_9
100
AcDbCircle
 10
0.0
 20
-1.1875
 30
0.0
 40
0.0946847896390988
  0
CIRCLE
  5
F3
330
D6
100
AcDbEntity
  8
AM_9
100
AcDbCircle
 10
0.0
 20
-1.1875
 30
0.0
 40
0.135926521995058
  0
CIRCLE
  5
F4
330
D6
100
AcDbEntity
  8
AM_9
100
AcDbCircle
 10
0.0
 20
-1.1875
 30
0.0
 40
0.13195176466768
  0
CIRCLE
  5
F5
330
D6
100
AcDbEntity
  8
AM_9
100
AcDbCircle
 10
0.0
 20
-1.1875
 30
0.0
 40
0.080806429716728
  0
CIRCLE
  5
F6
330
D6
100
AcDbEntity
  8
AM_9
100
AcDbCircle
 10
0.0
 20
-1.1875
 30
0.0
 40
0.1038190510530391
  0
CIRCLE
  5
F7
330
D6
100
AcDbEntity
  8
AM_9
100
AcDbCircle
 10
-0.0000000000000006
 20
-1.1875
 30
0.0
 40
0.1406500000000006
  0
ENDBLK
  5
D9
330
D6
100
AcDbEntity
  8
0
100
AcDbBlockEnd
  0
BLOCK
  5
FA
330
F8
100
AcDbEntity
  8
0
100
AcDbBlockBegin
  2
4_S1U_K_104R_0_in_023212_4
 70
     2
 10
0.0
 20
0.0
 30
0.0
  3
4_S1U_K_104R_0_in_023212_4
  1

  0
ATTDEF
  5
FC
330
F8
100
AcDbEntity
  8
AM_6
100
AcDbText
 10
6.562153874624038
 20
-0.2499999999999999
 30
0.0
 40
0.5
  1
Type K Units - Inch
100
AcDbAttributeDefinition
  3

  2
NN
 70
     8
280
     0
  0
ATTDEF
  5
FD
330
F8
100
AcDbEntity
  8
AM_6
100
AcDbText
 10
6.562153874624038
 20
-0.7499999999999999
 30
0.0
 40
0.5
  1
Type K
100
AcDbAttributeDefinition
  3

  2
NT
 70
     8
280
     0
  0
ATTDEF
  5
FE
330
F8
100
AcDbEntity
  8
AM_6
100
AcDbText
 10
6.562153874624038
 20
-1.25
 30
0.0
 40
0.5
  1
S1U-K-104R
100
AcDbAttributeDefinition
  3

  2
NB
 70
     8
280
     0
  0
ATTDEF
  5
FF
330
F8
100
AcDbEntity
  8
AM_6
100
AcDbText
 10
6.562153874624038
 20
-1.75
 30
0.0
 40
0.5
  1
$PN.
100
AcDbAttributeDefinition
  3

  2
NBSYN
 70
     8
280
     0
  0
ATTDEF
  5
100
330
F8
100
AcDbEntity
  8
AM_6
100
AcDbText
 10
6.562153874624038
 20
-2.25
 30
0.0
 40
0.5
  1
S1U-K-104R
100
AcDbAttributeDefinition
  3

  2
LINA
 70
     8
280
     0
  0
ATTDEF
  5
101
330
F8
100
AcDbEntity
  8
AM_6
100
AcDbText
 10
6.562153874624038
 20
-2.75
 30
0.0
 40
0.5
  1
1-1/4
100
AcDbAttributeDefinition
  3

  2
SS
 70
     8
280
     0
  0
ATTDEF
  5
102
330
F8
100
AcDbEntity
  8
AM_6
100
AcDbText
 10
6.562153874624038
 20
-3.25
 30
0.0
 40
0.5
  1
1.250000
100
AcDbAttributeDefinition
  3

  2
SS1
 70
     8
280
     0
  0
ATTDEF
  5
103
330
F8
100
AcDbEntity
  8
AM_6
100
AcDbText
 10
6.562153874624038
 20
-3.75
 30
0.0
 40
0.5
  1
S1U-K-104R
100
AcDbAttributeDefinition
  3

  2
PN
 70
     8
280
     0
  0
ATTDEF
  5
104
330
F8
100
AcDbEntity
  8
AM_6
100
AcDbText
 10
6.562153874624038
 20
-4.25
 30
0.0
 40
0.5
  1
S1U-K-104R
100
AcDbAttributeDefinition
  3

  2
PNA
 70
     8
280
     0
  0
ATTDEF
  5
105
330
F8
100
AcDbEntity
  8
AM_6
100
AcDbText
 10
6.562153874624038
 20
-4.75
 30
0.0
 40
0.5
  1
3
100
AcDbAttributeDefinition
  3

  2
WEIGHT
 70
     8
280
     0
  0
ATTDEF
  5
106
330
F8
100
AcDbEntity
  8
AM_6
100
AcDbText
 10
6.562153874624038
 20
-5.25
 30
0.0
 40
0.5
  1
2-5/16
100
AcDbAttributeDefinition
  3

  2
A
 70
     8
280
     0
  0
ATTDEF
  5
107
330
F8
100
AcDbEntity
  8
AM_6
100
AcDbText
 10
6.562153874624038
 20
-5.75
 30
0.0
 40
0.5
  1
2.312500
100
AcDbAttributeDefinition
  3

  2
A1
 70
     8
280
     0
  0
ATTDEF
  5
108
330
F8
100
AcDbEntity
  8
AM_6
100
AcDbText
 10
6.562153874624038
 20
-6.25
 30
0.0
 40
0.5
  1
1-7/8
100
AcDbAttributeDefinition
  3

  2
B
 70
     8
280
     0
  0
ATTDEF
  5
109
330
F8
100
AcDbEntity
  8
AM_6
100
AcDbText
 10
6.562153874624038
 20
-6.75
 30
0.0
 40
0.5
  1
1.875000
100
AcDbAttributeDefinition
  3

  2
B1
 70
     8
280
     0
  0
ATTDEF
  5
10A
330
F8
100
AcDbEntity
  8
AM_6
100
AcDbText
 10
6.562153874624038
 20
-7.25
 30
0.0
 40
0.5
  1
1-1/32
100
AcDbAttributeDefinition
  3

  2
C
 70
     8
280
     0
  0
ATTDEF
  5
10B
330
F8
100
AcDbEntity
  8
AM_6
100
AcDbText
 10
6.562153874624038
 20
-7.75
 30
0.0
 40
0.5
  1
1.031250
100
AcDbAttributeDefinition
  3

  2
C1
 70
     8
280
     0
  0
ATTDEF
  5
10C
330
F8
100
AcDbEntity
  8
AM_6
100
AcDbText
 10
6.562153874624038
 20
-8.25
 30
0.0
 40
0.5
  1
-
100
AcDbAttributeDefinition
  3

  2
D
 70
     8
280
     0
  0
ATTDEF
  5
10D
330
F8
100
AcDbEntity
  8
AM_6
100
AcDbText
 10
6.562153874624038
 20
-8.75
 30
0.0
 40
0.5
  1
0.000000
100
AcDbAttributeDefinition
  3

  2
D1
 70
     8
280
     0
  0
ATTDEF
  5
10E
330
F8
100
AcDbEntity
  8
AM_6
100
AcDbText
 10
6.562153874624038
 20
-9.25
 30
0.0
 40
0.5
  1
0.450
100
AcDbAttributeDefinition
  3

  2
E
 70
     8
280
     0
  0
ATTDEF
  5
10F
330
F8
100
AcDbEntity
  8
AM_6
100
AcDbText
 10
6.562153874624038
 20
-9.75
 30
0.0
 40
0.5
  1
2.813
100
AcDbAttributeDefinition
  3

  2
EM
 70
     8
280
     0
  0
ATTDEF
  5
110
330
F8
100
AcDbEntity
  8
AM_6
100
AcDbText
 10
6.562153874624038
 20
-10.25
 30
0.0
 40
0.5
  1
2.880
100
AcDbAttributeDefinition
  3

  2
EC
 70
     8
280
     0
  0
ATTDEF
  5
111
330
F8
100
AcDbEntity
  8
AM_6
100
AcDbText
 10
6.562153874624038
 20
-10.75
 30
0.0
 40
0.5
  1
7/16
100
AcDbAttributeDefinition
  3

  2
H
 70
     8
280
     0
  0
ATTDEF
  5
112
330
F8
100
AcDbEntity
  8
AM_6
100
AcDbText
 10
6.562153874624038
 20
-11.25
 30
0.0
 40
0.5
  1
0.437500
100
AcDbAttributeDefinition
  3

  2
H1
 70
     8
280
     0
  0
ATTDEF
  5
113
330
F8
100
AcDbEntity
  8
AM_6
100
AcDbText
 10
6.562153874624038
 20
-11.75
 30
0.0
 40
0.5
  1
----
100
AcDbAttributeDefinition
  3

  2
J
 70
     8
280
     0
  0
ATTDEF
  5
114
330
F8
100
AcDbEntity
  8
AM_6
100
AcDbText
 10
6.562153874624038
 20
-12.25
 30
0.0
 40
0.5
  1
0.000000
100
AcDbAttributeDefinition
  3

  2
J1
 70
     8
280
     0
  0
ATTDEF
  5
115
330
F8
100
AcDbEntity
  8
AM_6
100
AcDbText
 10
6.562153874624038
 20
-12.75
 30
0.0
 40
0.5
  1
3.125
100
AcDbAttributeDefinition
  3

  2
K
 70
     8
280
     0
  0
ATTDEF
  5
116
330
F8
100
AcDbEntity
  8
AM_6
100
AcDbText
 10
6.562153874624038
 20
-13.25
 30
0.0
 40
0.5
  1
2-1/4
100
AcDbAttributeDefinition
  3

  2
L
 70
     8
280
     0
  0
ATTDEF
  5
117
330
F8
100
AcDbEntity
  8
AM_6
100
AcDbText
 10
6.562153874624038
 20
-13.75
 30
0.0
 40
0.5
  1
2.250000
100
AcDbAttributeDefinition
  3

  2
L1
 70
     8
280
     0
  0
ATTDEF
  5
118
330
F8
100
AcDbEntity
  8
AM_6
100
AcDbText
 10
6.562153874624038
 20
-14.25
 30
0.0
 40
0.5
  1
2-1/32
100
AcDbAttributeDefinition
  3

  2
M
 70
     8
280
     0
  0
ATTDEF
  5
119
330
F8
100
AcDbEntity
  8
AM_6
100
AcDbText
 10
6.562153874624038
 20
-14.75
 30
0.0
 40
0.5
  1
2.031250
100
AcDbAttributeDefinition
  3

  2
M1
 70
     8
280
     0
  0
ATTDEF
  5
11A
330
F8
100
AcDbEntity
  8
AM_6
100
AcDbText
 10
6.562153874624038
 20
-15.25
 30
0.0
 40
0.5
  1
1
100
AcDbAttributeDefinition
  3

  2
R
 70
     8
280
     0
  0
ATTDEF
  5
11B
330
F8
100
AcDbEntity
  8
AM_6
100
AcDbText
 10
6.562153874624038
 20
-15.75
 30
0.0
 40
0.5
  1
1.000000
100
AcDbAttributeDefinition
  3

  2
R1
 70
     8
280
     0
  0
ATTDEF
  5
11C
330
F8
100
AcDbEntity
  8
AM_6
100
AcDbText
 10
6.562153874624038
 20
-16.25
 30
0.0
 40
0.5
  1
1-3/8
100
AcDbAttributeDefinition
  3

  2
S
 70
     8
280
     0
  0
ATTDEF
  5
11D
330
F8
100
AcDbEntity
  8
AM_6
100
AcDbText
 10
6.562153874624038
 20
-16.75
 30
0.0
 40
0.5
  1
1.375000
100
AcDbAttributeDefinition
  3

  2
S1
 70
     8
280
     0
  0
ATTDEF
  5
11E
330
F8
100
AcDbEntity
  8
AM_6
100
AcDbText
 10
6.562153874624038
 20
-17.25
 30
0.0
 40
0.5
  1
1.5600
100
AcDbAttributeDefinition
  3

  2
CC
 70
     8
280
     0
  0
ATTDEF
  5
11F
330
F8
100
AcDbEntity
  8
AM_6
100
AcDbText
 10
6.562153874624038
 20
-17.75
 30
0.0
 40
0.5
  1
baldor
100
AcDbAttributeDefinition
  3

  2
COMPANY
 70
     8
280
     0
  0
LINE
  5
120
330
F8
100
AcDbEntity
  8
AM_9
100
AcDbLine
 10
0.7067121917657196
 20
-2.0796875
 30
0.0
 11
0.5661784519544987
 21
-2.0796875
 31
0.0
  0
LINE
  5
121
330
F8
100
AcDbEntity
  8
AM_9
100
AcDbLine
 10
0.5662102768119527
 20
-2.5296875
 30
0.0
 11
0.7067424916864147
 21
-2.5296875
 31
0.0
  0
LWPOLYLINE
  5
122
330
F8
100
AcDbEntity
  8
AM_9
100
AcDbPolyline
 90
       21
 70
     0
 43
0.0
 10
0.5664426408657433
 20
-2.079687500000934
 10
0.5580355248788279
 20
-2.080512999680886
 10
0.5414683075477899
 20
-2.086280616258603
 10
0.5234250684765713
 20
-2.097752273176911
 10
0.5053226205541225
 20
-2.114219048053156
 10
0.4872525903116295
 20
-2.135939249443425
 10
0.4701115113168331
 20
-2.162753984699924
 10
0.4549457443654976
 20
-2.194412976289335
 10
0.4433358365613459
 20
-2.229051043507947
 10
0.4357832923467716
 20
-2.267288219860947
 10
0.4333766390368801
 20
-2.30359804313639
 10
0.4356553525367418
 20
-2.341083264090481
 10
0.4419511895854656
 20
-2.374943638465502
 10
0.4521457486139822
 20
-2.407796994243845
 10
0.4655911079879931
 20
-2.438180340238749
 10
0.4818710212107424
 20
-2.465773151119742
 10
0.5003449798353018
 20
-2.489735429804912
 10
0.5201790146084012
 20
-2.509033828559818
 10
0.5391639483800783
 20
-2.521913079301764
 10
0.5576812993812527
 20
-2.528793167535368
 10
0.5664451091919623
 20
-2.529687499906431
  0
LWPOLYLINE
  5
123
330
F8
100
AcDbEntity
  8
AM_9
100
AcDbPolyline
 90
        6
 70
     0
 43
0.0
 10
0.6172372316887171
 20
-2.449912663062461
 10
0.6174427024270266
 20
-2.448401937233732
 10
0.6205488788386758
 20
-2.417330916568972
 10
0.6223941363067328
 20
-2.381827207014291
 10
0.6232813796060318
 20
-2.344597854975176
 10
0.6235528197050978
 20
-2.3046875
  0
LWPOLYLINE
  5
124
330
F8
100
AcDbEntity
  8
AM_9
100
AcDbPolyline
 90
        7
 70
     0
 43
0.0
 10
0.5664451091919623
 20
-2.529687499906431
 10
0.573006697580416
 20
-2.529120015488012
 10
0.5866574976000593
 20
-2.523456232921812
 10
0.5973956893839961
 20
-2.512608617388735
 10
0.606110249213657
 20
-2.496297063155772
 10
0.6127079002355986
 20
-2.474896294578523
 10
0.6172372316887171
 20
-2.449912663062461
  0
LWPOLYLINE
  5
125
330
F8
100
AcDbEntity
  8
AM_9
100
AcDbPolyline
 90
       17
 70
     0
 43
0.0
 10
0.6393840274017838
 20
-2.124448075729968
 10
0.6286595226243329
 20
-2.13951031887748
 10
0.6128491190161318
 20
-2.167482283588058
 10
0.5995389842280703
 20
-2.199366677379937
 10
0.5894894089930536
 20
-2.234685126744695
 10
0.5834227289078876
 20
-2.272147031551623
 10
0.5818371187503432
 20
-2.309303201329518
 10
0.5844741715453716
 20
-2.346323818220897
 10
0.5910292234097223
 20
-2.381288112346007
 10
0.6010336637387932
 20
-2.414176286364227
 10
0.6143149578174407
 20
-2.444849696820435
 10
0.6298935216290353
 20
-2.471736146993252
 10
0.6476213211484069
 20
-2.494809286760472
 10
0.6661050940897149
 20
-2.51247675153479
 10
0.684341050616327
 20
-2.524043281257375
 10
0.7017203755082433
 20
-2.529361791325475
 10
0.7069118035181075
 20
-2.529687499149042
  0
LWPOLYLINE
  5
126
330
F8
100
AcDbEntity
  8
AM_9
100
AcDbPolyline
 90
        6
 70
     0
 43
0.0
 10
0.7069240408924998
 20
-2.079687500195806
 10
0.6975024714580477
 20
-2.08073056781834
 10
0.6806651395912372
 20
-2.087192347651048
 10
0.6631803035026388
 20
-2.09929220314826
 10
0.6455274196035565
 20
-2.116953213508539
 10
0.6393840274017838
 20
-2.124448075729968
  0
LWPOLYLINE
  5
127
330
F8
100
AcDbEntity
  8
AM_9
100
AcDbPolyline
 90
       11
 70
     0
 43
0.0
 10
0.7069118035181075
 20
-2.529687499149042
 10
0.7170227028487562
 20
-2.528296042144439
 10
0.7305143064518632
 20
-2.521277140417664
 10
0.7418152834510915
 20
-2.508602383943258
 10
0.7510500523026333
 20
-2.490691050948026
 10
0.758459685489715
 20
-2.467214603252912
 10
0.7639686385512476
 20
-2.439313323325875
 10
0.7679029000576145
 20
-2.406736232623689
 10
0.7703933464041646
 20
-2.37110010389964
 10
0.7715785080721506
 20
-2.338296822473196
 10
0.7719590591010419
 20
-2.3046875
  0
LWPOLYLINE
  5
128
330
F8
100
AcDbEntity
  8
AM_9
100
AcDbPolyline
 90
        6
 70
     0
 43
0.0
 10
0.6100634646459122
 20
-2.124483506841227
 10
0.6080273290360871
 20
-2.118177418982906
 10
0.5993228780590528
 20
-2.099622257926479
 10
0.5875927722678179
 20
-2.0865900155
 10
0.5741702750691742
 20
-2.080482593462906
 10
0.5664426408657433
 20
-2.079687500000934
  0
LWPOLYLINE
  5
129
330
F8
100
AcDbEntity
  8
AM_9
100
AcDbPolyline
 90
        3
 70
     0
 43
0.0
 10
0.6172547069970472
 20
-2.159589044625193
 10
0.6143196724650651
 20
-2.141928300953461
 10
0.6100634646459122
 20
-2.124483506841227
  0
LWPOLYLINE
  5
12A
330
F8
100
AcDbEntity
  8
AM_9
100
AcDbPolyline
 90
        6
 70
     0
 43
0.0
 10
0.6235528197050978
 20
-2.3046875
 10
0.6233359788906262
 20
-2.268842724603311
 10
0.6225761196213484
 20
-2.232997949206623
 10
0.6210970916378503
 20
-2.200229996771432
 10
0.6184877999960102
 20
-2.169457683541806
 10
0.6172547069970472
 20
-2.159589044625193
  0
LINE
  5
12B
330
F8
100
AcDbEntity
  8
AM_9
100
AcDbLine
 10
0.625
 20
-2.5625
 30
0.0
 11
0.625
 21
-0.2499999999999999
 31
0.0
  0
LINE
  5
12C
330
F8
100
AcDbEntity
  8
AM_9
100
AcDbLine
 10
-0.625
 20
-0.2499999999999999
 30
0.0
 11
-0.625
 21
-2.5625
 31
0.0
  0
LWPOLYLINE
  5
12D
330
F8
100
AcDbEntity
  8
AM_9
100
AcDbPolyline
 90
        6
 70
     0
 43
0.0
 10
-0.1353483305736925
 20
-2.124949275320565
 10
-0.1347287753559439
 20
-2.124484400439844
 10
-0.1026668753712931
 20
-2.10447632972847
 10
-0.066492193048325
 20
-2.089736835279873
 10
-0.0340563251950108
 20
-2.082279841152082
 10
0.0
 20
-2.0796875
  0
LWPOLYLINE
  5
12E
330
F8
100
AcDbEntity
  8
AM_9
100
AcDbPolyline
 90
       32
 70
     0
 43
0.0
 10
0.1352008166589662
 20
-2.124838287672703
 10
0.1373134163867851
 20
-2.126446018632195
 10
0.164669225375022
 20
-2.151360900173387
 10
0.1881478118408516
 20
-2.181296248691411
 10
0.2061564683209698
 20
-2.214551433026646
 10
0.2186507693128511
 20
-2.251613579107547
 10
0.2243968374692494
 20
-2.288223620329666
 10
0.2239432379965869
 20
-2.326468825845871
 10
0.2176370824717402
 20
-2.361776030662375
 10
0.2054316755192188
 20
-2.396463459234248
 10
0.1880958397998489
 20
-2.428157962257131
 10
0.1653103582577937
 20
-2.457322638328892
 10
0.137754810882298
 20
-2.482588067955199
 10
0.1053870390223069
 20
-2.503480286604823
 10
0.0706713956884181
 20
-2.518300593773418
 10
0.0326771944726541
 20
-2.527301967098157
 10
-0.003931771484046
 20
-2.529653144428204
 10
-0.0415223448194674
 20
-2.525822967260893
 10
-0.0761476417088863
 20
-2.516410282577064
 10
-0.1096072093453886
 20
-2.501184980033501
 10
-0.1399017892222968
 20
-2.480904665373865
 10
-0.1671499753034624
 20
-2.455305844686336
 10
-0.1898981693978835
 20
-2.425367594710489
 10
-0.2078086497315847
 20
-2.390946210265894
 10
-0.2192695513331098
 20
-2.355144054164714
 10
-0.2246822291023005
 20
-2.316641408382673
 10
-0.2236802127045901
 20
-2.280353111895317
 10
-0.2165801453265335
 20
-2.243711761789318
 10
-0.2041687523351377
 20
-2.210135289185481
 10
-0.1861111573448435
 20
-2.178245271643478
 10
-0.1630048495194597
 20
-2.149592628927039
 10
-0.1353483305736925
 20
-2.124949275320565
  0
LWPOLYLINE
  5
12F
330
F8
100
AcDbEntity
  8
AM_9
100
AcDbPolyline
 90
        5
 70
     0
 43
0.0
 10
0.0
 20
-2.0796875
 10
0.0363872867103517
 20
-2.082649293004315
 10
0.0727745734207035
 20
-2.091781742765879
 10
0.1060710672181079
 20
-2.10625885111277
 10
0.1352008166589662
 20
-2.124838287672703
  0
LWPOLYLINE
  5
130
330
F8
100
AcDbEntity
  8
AM_9
100
AcDbPolyline
 90
        6
 70
     0
 43
0.0
 10
0.7532096965995955
 20
-2.124417105458037
 10
0.7501859543366913
 20
-2.116586939289974
 10
0.740119285843052
 20
-2.098353731736899
 10
0.7277419075494795
 20
-2.086057077301281
 10
0.7135203318360411
 20
-2.080282356394569
 10
0.7069240408924998
 20
-2.079687500195806
  0
LWPOLYLINE
  5
131
330
F8
100
AcDbEntity
  8
AM_9
100
AcDbPolyline
 90
        7
 70
     0
 43
0.0
 10
0.7719590591010419
 20
-2.3046875
 10
0.771499415984419
 20
-2.267806562349026
 10
0.7700579353734595
 20
-2.231987883355216
 10
0.7674881263170054
 20
-2.198300543031191
 10
0.7635668824724805
 20
-2.167519502195326
 10
0.7578526014731608
 20
-2.139775726304894
 10
0.7532096965995955
 20
-2.124417105458037
  0
LINE
  5
132
330
F8
100
AcDbEntity
  8
AM_9
100
AcDbLine
 10
0.7799999999999999
 20
-2.5625
 30
0.0
 11
0.7799999999999999
 21
-2.046875
 31
0.0
  0
LINE
  5
133
330
F8
100
AcDbEntity
  8
AM_9
100
AcDbLine
 10
-0.7799999999999999
 20
-2.046875
 30
0.0
 11
-0.7799999999999999
 21
-2.5625
 31
0.0
  0
LINE
  5
134
330
F8
100
AcDbEntity
  8
AM_9
100
AcDbLine
 10
-0.9374999999999999
 20
-0.2499999999999999
 30
0.0
 11
-0.9374999999999999
 21
-0.5468749999999999
 31
0.0
  0
LINE
  5
135
330
F8
100
AcDbEntity
  8
AM_9
100
AcDbLine
 10
0.9374999999999999
 20
-0.5468749999999999
 30
0.0
 11
0.9374999999999999
 21
-0.2499999999999999
 31
0.0
  0
LINE
  5
136
330
F8
100
AcDbEntity
  8
AM_9
100
AcDbLine
 10
-1.153846153846154
 20
-2.046875
 30
0.0
 11
1.153846153846154
 21
-2.046875
 31
0.0
  0
LINE
  5
137
330
F8
100
AcDbEntity
  8
AM_9
100
AcDbLine
 10
-1.153846153846154
 20
-2.046875
 30
0.0
 11
-1.167621699214003
 21
-2.125
 31
0.0
  0
LINE
  5
138
330
F8
100
AcDbEntity
  8
AM_9
100
AcDbLine
 10
1.167621699214003
 20
-2.125
 30
0.0
 11
1.153846153846154
 21
-2.046875
 31
0.0
  0
LINE
  5
139
330
F8
100
AcDbEntity
  8
AM_9
100
AcDbLine
 10
1.153846153846154
 20
-0.5468749999999999
 30
0.0
 11
1.206193226243979
 21
-0.2499999999999999
 31
0.0
  0
LINE
  5
13A
330
F8
100
AcDbEntity
  8
AM_9
100
AcDbLine
 10
-1.206193226243979
 20
-0.2499999999999999
 30
0.0
 11
-1.153846153846154
 21
-0.5468749999999999
 31
0.0
  0
LINE
  5
13B
330
F8
100
AcDbEntity
  8
AM_9
100
AcDbLine
 10
1.153846153846154
 20
-0.5468749999999999
 30
0.0
 11
-1.153846153846154
 21
-0.5468749999999999
 31
0.0
  0
LINE
  5
13C
330
F8
100
AcDbEntity
  8
AM_9
100
AcDbLine
 10
1.4065
 20
-2.086458333333333
 30
0.0
 11
1.4065
 21
-1.703125
 31
0.0
  0
LINE
  5
13D
330
F8
100
AcDbEntity
  8
AM_9
100
AcDbLine
 10
-1.4065
 20
-1.703125
 30
0.0
 11
-1.4065
 21
-2.086458333333333
 31
0.0
  0
LINE
  5
13E
330
F8
100
AcDbEntity
  8
AM_9
100
AcDbLine
 10
-1.4065
 20
-2.086458333333333
 30
0.0
 11
1.4065
 21
-2.086458333333333
 31
0.0
  0
ARC
  5
13F
330
F8
100
AcDbEntity
  8
AM_9
100
AcDbCircle
 10
1.367958333333333
 20
-2.086458333333333
 30
0.0
 40
0.0385416666666667
100
AcDbArc
 50
270.0
 51
0.0
  0
ARC
  5
140
330
F8
100
AcDbEntity
  8
AM_9
100
AcDbCircle
 10
-1.367958333333333
 20
-2.086458333333333
 30
0.0
 40
0.0385416666666669
100
AcDbArc
 50
180.0
 51
270.0
  0
LINE
  5
141
330
F8
100
AcDbEntity
  8
AM_9
100
AcDbLine
 10
-1.401458333333334
 20
-0.2499999999999999
 30
0.0
 11
1.40145759294475
 21
-0.2499999999999999
 31
0.0
  0
ARC
  5
142
330
F8
100
AcDbEntity
  8
AM_9
100
AcDbCircle
 10
1.401458333333333
 20
-0.2885416666666671
 30
0.0
 40
0.0385416666666671
100
AcDbArc
 50
0.0
 51
90.0
  0
ARC
  5
143
330
F8
100
AcDbEntity
  8
AM_9
100
AcDbCircle
 10
-1.401458333333333
 20
-0.2885416666666671
 30
0.0
 40
0.0385416666666672
100
AcDbArc
 50
90.0
 51
180.0
  0
LINE
  5
144
330
F8
100
AcDbEntity
  8
AM_9
100
AcDbLine
 10
-1.44
 20
-0.6718750000000001
 30
0.0
 11
1.44
 21
-0.6718750000000001
 31
0.0
  0
LINE
  5
145
330
F8
100
AcDbEntity
  8
AM_9
100
AcDbLine
 10
-1.44
 20
-0.2885416666666668
 30
0.0
 11
1.44
 21
-0.2885416666666668
 31
0.0
  0
LINE
  5
146
330
F8
100
AcDbEntity
  8
AM_9
100
AcDbLine
 10
1.44
 20
-0.6718750000000001
 30
0.0
 11
1.44
 21
-0.2885416666666668
 31
0.0
  0
LINE
  5
147
330
F8
100
AcDbEntity
  8
AM_9
100
AcDbLine
 10
-1.44
 20
-0.2885416666666668
 30
0.0
 11
-1.44
 21
-0.6718750000000001
 31
0.0
  0
LINE
  5
148
330
F8
100
AcDbEntity
  8
AM_9
100
AcDbLine
 10
-1.534037641120647
 20
-1.703125
 30
0.0
 11
1.534037641120647
 21
-1.703125
 31
0.0
  0
ARC
  5
149
330
F8
100
AcDbEntity
  8
AM_9
100
AcDbCircle
 10
0.0000000000004503
 20
-1.406249999999932
 30
0.0
 40
1.562499999999571
100
AcDbArc
 50
349.0472158011032
 51
28.03429653488685
  0
ARC
  5
14A
330
F8
100
AcDbEntity
  8
AM_9
100
AcDbCircle
 10
0.0000000000000042
 20
-1.40625
 30
0.0
 40
1.562500000000004
100
AcDbArc
 50
151.9657034651188
 51
190.9527841988911
  0
LWPOLYLINE
  5
14B
330
F8
100
AcDbEntity
  8
AM_9
100
AcDbPolyline
 90
       43
 70
     0
 43
0.0
 10
-0.1951631232512768
 20
-0.9906599130068912
 10
-0.1611924431144532
 20
-0.9611284678188271
 10
-0.1215871626978912
 20
-0.9369678625171881
 10
-0.0796372054098129
 20
-0.9202320886694065
 10
-0.0341254495029793
 20
-0.9104786872855087
 10
0.0107183633432099
 20
-0.9085438861534698
 10
0.0565514014197975
 20
-0.9142668915821878
 10
0.0993737486079248
 20
-0.9271025026023921
 10
0.1405765164412687
 20
-0.9473989410589366
 10
0.1769158622110896
 20
-0.9735791360147995
 10
0.2092457163015978
 20
-1.006269830542154
 10
0.2351768303499548
 20
-1.043158676037864
 10
0.2551072967502998
 20
-1.084948246748743
 10
0.2675286301939934
 20
-1.128693988000058
 10
0.2725446322616601
 20
-1.175171748776984
 10
0.2697004089921352
 20
-1.220852859760199
 10
0.2652824651065218
 20
-1.243926428273662
 10
0.258838813277696
 20
-1.266709303871
 10
0.2408524396960655
 20
-1.308881818825774
 10
0.2289341897424549
 20
-1.329202310444947
 10
0.2151862611170143
 20
-1.348574334478703
 10
0.1842284284397146
 20
-1.382166945882873
 10
0.166257011657215
 20
-1.397281253227611
 10
0.1468844621644747
 20
-1.410900044447319
 10
0.1067829083239146
 20
-1.432083703503855
 10
0.0623568674605901
 20
-1.44664862269504
 10
0.0178430351252058
 20
-1.453295442403825
 10
-0.028483845354528
 20
-1.452387324425717
 10
-0.072492290298857
 20
-1.444059457048738
 10
-0.1156821769723593
 20
-1.428103349077347
 10
-0.1545298306544025
 20
-1.405823916103278
 10
-0.1900735374298569
 20
-1.376643849600485
 10
-0.2196152160473294
 20
-1.342715409145046
 10
-0.2437192741843738
 20
-1.303317993759355
 10
-0.2605793184334597
 20
-1.261248012685366
 10
-0.2704045129287295
 20
-1.215732770333112
 10
-0.2723878642417092
 20
-1.170119947476641
 10
-0.2664645131603146
 20
-1.123522263581496
 10
-0.2530623301009957
 20
-1.079682530213604
 10
-0.2433770190331378
 20
-1.058221652941421
 10
-0.231776207899889
 20
-1.037511805904428
 10
-0.2148695911061432
 20
-1.013238092015043
 10
-0.1951631232512769
 20
-0.9906599130068912
  0
CIRCLE
  5
14C
330
F8
100
AcDbEntity
  8
AM_9
100
AcDbCircle
 10
0.0
 20
-1.1875
 30
0.0
 40
0.180316369154144
  0
CIRCLE
  5
14D
330
F8
100
AcDbEntity
  8
AM_9
100
AcDbCircle
 10
0.0
 20
-1.1875
 30
0.0
 40
0.2247623444809249
  0
LINE
  5
14E
330
F8
100
AcDbEntity
  8
AM_7
100
AcDbLine
 10
-0.2360004617049712
 20
-1.1875
 30
0.0
 11
0.2360004617049712
 21
-1.1875
 31
0.0
  0
ENDBLK
  5
FB
330
F8
100
AcDbEntity
  8
0
100
AcDbBlockEnd
  0
BLOCK
  5
151
330
14F
100
AcDbEntity
  8
0
100
AcDbBlockBegin
  2
5_F4B_K_104R_0_in_023212_4
 70
     2
 10
0.0
 20
0.0
 30
0.0
  3
5_F4B_K_104R_0_in_023212_4
  1

  0
ATTDEF
  5
153
330
14F
100
AcDbEntity
  8
AM_6
100
AcDbText
 10
7.625
 20
0.10625
 30
0.0
 40
0.5
  1
Flange Bearing -Body -  Non-Expansion - Inch
100
AcDbAttributeDefinition
  3

  2
NN
 70
     8
280
     0
  0
ATTDEF
  5
154
330
14F
100
AcDbEntity
  8
AM_6
100
AcDbText
 10
7.625
 20
-0.39375
 30
0.0
 40
0.5
  1
Type K
100
AcDbAttributeDefinition
  3

  2
NT
 70
     8
280
     0
  0
ATTDEF
  5
155
330
14F
100
AcDbEntity
  8
AM_6
100
AcDbText
 10
7.625
 20
-0.89375
 30
0.0
 40
0.5
  1
F4B-K-104R
100
AcDbAttributeDefinition
  3

  2
NB
 70
     8
280
     0
  0
ATTDEF
  5
156
330
14F
100
AcDbEntity
  8
AM_6
100
AcDbText
 10
7.625
 20
-1.39375
 30
0.0
 40
0.5
  1
$PN.
100
AcDbAttributeDefinition
  3

  2
NBSYN
 70
     8
280
     0
  0
ATTDEF
  5
157
330
14F
100
AcDbEntity
  8
AM_6
100
AcDbText
 10
7.625
 20
-1.89375
 30
0.0
 40
0.5
  1
F4B-K-104R
100
AcDbAttributeDefinition
  3

  2
LINA
 70
     8
280
     0
  0
ATTDEF
  5
158
330
14F
100
AcDbEntity
  8
AM_6
100
AcDbText
 10
7.625
 20
-2.39375
 30
0.0
 40
0.5
  1
1-1/4
100
AcDbAttributeDefinition
  3

  2
SS
 70
     8
280
     0
  0
ATTDEF
  5
159
330
14F
100
AcDbEntity
  8
AM_6
100
AcDbText
 10
7.625
 20
-2.89375
 30
0.0
 40
0.5
  1
1.250000
100
AcDbAttributeDefinition
  3

  2
SS1
 70
     8
280
     0
  0
ATTDEF
  5
15A
330
14F
100
AcDbEntity
  8
AM_6
100
AcDbText
 10
7.625
 20
-3.39375
 30
0.0
 40
0.5
  1
F4B-K-104R
100
AcDbAttributeDefinition
  3

  2
PN
 70
     8
280
     0
  0
ATTDEF
  5
15B
330
14F
100
AcDbEntity
  8
AM_6
100
AcDbText
 10
7.625
 20
-3.89375
 30
0.0
 40
0.5
  1
F4B-K-104R
100
AcDbAttributeDefinition
  3

  2
PNA
 70
     8
280
     0
  0
ATTDEF
  5
15C
330
14F
100
AcDbEntity
  8
AM_6
100
AcDbText
 10
7.625
 20
-4.39375
 30
0.0
 40
0.5
  1
6
100
AcDbAttributeDefinition
  3

  2
WEIGHT
 70
     8
280
     0
  0
ATTDEF
  5
15D
330
14F
100
AcDbEntity
  8
AM_6
100
AcDbText
 10
7.625
 20
-4.89375
 30
0.0
 40
0.5
  1
2.813000
100
AcDbAttributeDefinition
  3

  2
BOD
 70
     8
280
     0
  0
ATTDEF
  5
15E
330
14F
100
AcDbEntity
  8
AM_6
100
AcDbText
 10
7.625
 20
-5.39375
 30
0.0
 40
0.5
  1
2-9/16
100
AcDbAttributeDefinition
  3

  2
A
 70
     8
280
     0
  0
ATTDEF
  5
15F
330
14F
100
AcDbEntity
  8
AM_6
100
AcDbText
 10
7.625
 20
-5.89375
 30
0.0
 40
0.5
  1
2.562500
100
AcDbAttributeDefinition
  3

  2
A1
 70
     8
280
     0
  0
ATTDEF
  5
160
330
14F
100
AcDbEntity
  8
AM_6
100
AcDbText
 10
7.625
 20
-6.39375
 30
0.0
 40
0.5
  1
5-3/16
100
AcDbAttributeDefinition
  3

  2
B
 70
     8
280
     0
  0
ATTDEF
  5
161
330
14F
100
AcDbEntity
  8
AM_6
100
AcDbText
 10
7.625
 20
-6.89375
 30
0.0
 40
0.5
  1
5.187500
100
AcDbAttributeDefinition
  3

  2
B1
 70
     8
280
     0
  0
ATTDEF
  5
162
330
14F
100
AcDbEntity
  8
AM_6
100
AcDbText
 10
7.625
 20
-7.39375
 30
0.0
 40
0.5
  1
2-1/8
100
AcDbAttributeDefinition
  3

  2
C
 70
     8
280
     0
  0
ATTDEF
  5
163
330
14F
100
AcDbEntity
  8
AM_6
100
AcDbText
 10
7.625
 20
-7.89375
 30
0.0
 40
0.5
  1
2.125000
100
AcDbAttributeDefinition
  3

  2
C1
 70
     8
280
     0
  0
ATTDEF
  5
164
330
14F
100
AcDbEntity
  8
AM_6
100
AcDbText
 10
7.625
 20
-8.39375
 30
0.0
 40
0.5
  1
5-21/32
100
AcDbAttributeDefinition
  3

  2
D
 70
     8
280
     0
  0
ATTDEF
  5
165
330
14F
100
AcDbEntity
  8
AM_6
100
AcDbText
 10
7.625
 20
-8.89375
 30
0.0
 40
0.5
  1
5.656250
100
AcDbAttributeDefinition
  3

  2
D1
 70
     8
280
     0
  0
ATTDEF
  5
166
330
14F
100
AcDbEntity
  8
AM_6
100
AcDbText
 10
7.625
 20
-9.39375
 30
0.0
 40
0.5
  1
3/16
100
AcDbAttributeDefinition
  3

  2
E
 70
     8
280
     0
  0
ATTDEF
  5
167
330
14F
100
AcDbEntity
  8
AM_6
100
AcDbText
 10
7.625
 20
-9.89375
 30
0.0
 40
0.5
  1
0.187500
100
AcDbAttributeDefinition
  3

  2
E1
 70
     8
280
     0
  0
ATTDEF
  5
168
330
14F
100
AcDbEntity
  8
AM_6
100
AcDbText
 10
7.625
 20
-10.39375
 30
0.0
 40
0.5
  1
3/8
100
AcDbAttributeDefinition
  3

  2
F
 70
     8
280
     0
  0
ATTDEF
  5
169
330
14F
100
AcDbEntity
  8
AM_6
100
AcDbText
 10
7.625
 20
-10.89375
 30
0.0
 40
0.5
  1
0.375000
100
AcDbAttributeDefinition
  3

  2
F1
 70
     8
280
     0
  0
ATTDEF
  5
16A
330
14F
100
AcDbEntity
  8
AM_6
100
AcDbText
 10
7.625
 20
-11.39375
 30
0.0
 40
0.5
  1
5-1/4
100
AcDbAttributeDefinition
  3

  2
G
 70
     8
280
     0
  0
ATTDEF
  5
16B
330
14F
100
AcDbEntity
  8
AM_6
100
AcDbText
 10
7.625
 20
-11.89375
 30
0.0
 40
0.5
  1
5.250000
100
AcDbAttributeDefinition
  3

  2
G1
 70
     8
280
     0
  0
ATTDEF
  5
16C
330
14F
100
AcDbEntity
  8
AM_6
100
AcDbText
 10
7.625
 20
-12.39375
 30
0.0
 40
0.5
  1
7/16
100
AcDbAttributeDefinition
  3

  2
H
 70
     8
280
     0
  0
ATTDEF
  5
16D
330
14F
100
AcDbEntity
  8
AM_6
100
AcDbText
 10
7.625
 20
-12.89375
 30
0.0
 40
0.5
  1
0.437500
100
AcDbAttributeDefinition
  3

  2
H1
 70
     8
280
     0
  0
ATTDEF
  5
16E
330
14F
100
AcDbEntity
  8
AM_6
100
AcDbText
 10
7.625
 20
-13.39375
 30
0.0
 40
0.5
  1
4
100
AcDbAttributeDefinition
  3

  2
J
 70
     8
280
     0
  0
ATTDEF
  5
16F
330
14F
100
AcDbEntity
  8
AM_6
100
AcDbText
 10
7.625
 20
-13.89375
 30
0.0
 40
0.5
  1
4.000000
100
AcDbAttributeDefinition
  3

  2
J1
 70
     8
280
     0
  0
ATTDEF
  5
170
330
14F
100
AcDbEntity
  8
AM_6
100
AcDbText
 10
7.625
 20
-14.39375
 30
0.0
 40
0.5
  1
2-1/4
100
AcDbAttributeDefinition
  3

  2
L
 70
     8
280
     0
  0
ATTDEF
  5
171
330
14F
100
AcDbEntity
  8
AM_6
100
AcDbText
 10
7.625
 20
-14.89375
 30
0.0
 40
0.5
  1
2.250000
100
AcDbAttributeDefinition
  3

  2
L1
 70
     8
280
     0
  0
ATTDEF
  5
172
330
14F
100
AcDbEntity
  8
AM_6
100
AcDbText
 10
7.625
 20
-15.39375
 30
0.0
 40
0.5
  1
 
100
AcDbAttributeDefinition
  3

  2
EXP
 70
     8
280
     0
  0
ATTDEF
  5
173
330
14F
100
AcDbEntity
  8
AM_6
100
AcDbText
 10
7.625
 20
-15.89375
 30
0.0
 40
0.5
  1
0.000000
100
AcDbAttributeDefinition
  3

  2
EXP1
 70
     8
280
     0
  0
ATTDEF
  5
174
330
14F
100
AcDbEntity
  8
AM_6
100
AcDbText
 10
7.625
 20
-16.39375
 30
0.0
 40
0.5
  1
f4b_flange_ne_i_templ.prj
100
AcDbAttributeDefinition
  3

  2
PPATH
 70
     8
280
     0
  0
ATTDEF
  5
175
330
14F
100
AcDbEntity
  8
AM_6
100
AcDbText
 10
7.625
 20
-16.89375
 30
0.0
 40
0.5
  1
baldor
100
AcDbAttributeDefinition
  3

  2
COMPANY
 70
     8
280
     0
  0
LWPOLYLINE
  5
176
330
14F
100
AcDbEntity
  8
AM_9
100
AcDbPolyline
 90
       10
 70
     0
 43
0.0
 10
-1.913391371869271
 20
0.0000000000000001
 10
-1.922167872282581
 20
-0.0011885899107337
 10
-1.93094437269589
 20
-0.0048994302168992
 10
-1.938847988790195
 20
-0.0107865812770117
 10
-1.946361966053245
 20
-0.0193585512627304
 10
-1.951458233550686
 20
-0.0276220845432756
 10
-1.955933211327063
 20
-0.0376727492240662
 10
-1.960961945560634
 20
-0.0571121644212408
 10
-1.962165427388559
 20
-0.0683142294165801
 10
-1.962240158622017
 20
-0.0802317355308099
  0
ARC
  5
177
330
14F
100
AcDbEntity
  8
AM_9
100
AcDbCircle
 10
-2.024835504642886
 20
-0.0749999999999998
 30
0.0
 40
0.0749999999999999
100
AcDbArc
 50
90.0
 51
184.0000000000005
  0
LWPOLYLINE
  5
178
330
14F
100
AcDbEntity
  8
AM_9
100
AcDbPolyline
 90
        9
 70
     0
 43
0.0
 10
1.962240158622017
 20
-0.0802317355308099
 10
1.961346932461522
 20
-0.0597457966414604
 10
1.957113207355637
 20
-0.0410503807682735
 10
1.949943856454897
 20
-0.0248926553782699
 10
1.94341012965763
 20
-0.0155763535069552
 10
1.936196573426963
 20
-0.0085049513598543
 10
1.926513726956847
 20
-0.0026944896114462
 10
1.916477310804192
 20
-0.0001454655352242
 10
1.913391371869272
 20
0.0000000000000001
  0
ARC
  5
179
330
14F
100
AcDbEntity
  8
AM_9
100
AcDbCircle
 10
2.024835504642886
 20
-0.0749999999999998
 30
0.0
 40
0.075
100
AcDbArc
 50
355.9999999999995
 51
90.0
  0
LINE
  5
17A
330
14F
100
AcDbEntity
  8
AM_9
100
AcDbLine
 10
1.4065
 20
-2.125
 30
0.0
 11
1.4065
 21
0.0
 31
0.0
  0
LINE
  5
17B
330
14F
100
AcDbEntity
  8
AM_9
100
AcDbLine
 10
-1.4065
 20
0.0
 30
0.0
 11
-1.4065
 21
-2.125
 31
0.0
  0
LINE
  5
17C
330
14F
100
AcDbEntity
  8
AM_9
100
AcDbLine
 10
-1.946066358226841
 20
-0.4374999999999998
 30
0.0
 11
-1.962240158622017
 21
-0.0802317355308099
 31
0.0
  0
LINE
  5
17D
330
14F
100
AcDbEntity
  8
AM_9
100
AcDbLine
 10
1.962240158622017
 20
-0.0802317355308099
 30
0.0
 11
2.099652808412372
 21
-0.0802317355308099
 31
0.0
  0
LINE
  5
17E
330
14F
100
AcDbEntity
  8
AM_9
100
AcDbLine
 10
1.962240158622017
 20
-0.0802317355308099
 30
0.0
 11
1.946066358226842
 21
-0.4374999999999998
 31
0.0
  0
LINE
  5
17F
330
14F
100
AcDbEntity
  8
AM_9
100
AcDbLine
 10
2.074670177669451
 20
-0.4374999999999994
 30
0.0
 11
2.099652808412372
 21
-0.0802317355308099
 31
0.0
  0
LINE
  5
180
330
14F
100
AcDbEntity
  8
AM_9
100
AcDbLine
 10
-2.099652808412372
 20
-0.0802317355308099
 30
0.0
 11
-2.074670177669451
 21
-0.4374999999999994
 31
0.0
  0
LINE
  5
181
330
14F
100
AcDbEntity
  8
AM_9
100
AcDbLine
 10
-2.099652808412372
 20
-0.0802317355308099
 30
0.0
 11
-1.962240158622017
 21
-0.0802317355308099
 31
0.0
  0
LINE
  5
182
330
14F
100
AcDbEntity
  8
AM_9
100
AcDbLine
 10
2.1875
 20
-0.4374999999999998
 30
0.0
 11
2.1875
 21
0.0000000000000001
 31
0.0
  0
LINE
  5
183
330
14F
100
AcDbEntity
  8
AM_9
100
AcDbLine
 10
1.8125
 20
0.0000000000000001
 30
0.0
 11
1.8125
 21
-0.4374999999999998
 31
0.0
  0
LINE
  5
184
330
14F
100
AcDbEntity
  8
AM_9
100
AcDbLine
 10
-1.8125
 20
-0.4374999999999998
 30
0.0
 11
-1.8125
 21
0.0000000000000001
 31
0.0
  0
LINE
  5
185
330
14F
100
AcDbEntity
  8
AM_9
100
AcDbLine
 10
-2.1875
 20
0.0000000000000001
 30
0.0
 11
-2.1875
 21
-0.4374999999999998
 31
0.0
  0
CIRCLE
  5
186
330
14F
100
AcDbEntity
  8
AM_9
100
AcDbCircle
 10
0.0
 20
-1.171875
 30
0.0
 40
0.53125
  0
LINE
  5
187
330
14F
100
AcDbEntity
  8
AM_9
100
AcDbLine
 10
2.514202583497011
 20
-0.4374999999999998
 30
0.0
 11
2.514202583497011
 21
0.0000000000000001
 31
0.0
  0
LINE
  5
188
330
14F
100
AcDbEntity
  8
AM_9
100
AcDbLine
 10
-2.51420258349701
 20
-0.4374999999999998
 30
0.0
 11
-2.51420258349701
 21
0.0000000000000001
 31
0.0
  0
LINE
  5
189
330
14F
100
AcDbEntity
  8
AM_7
100
AcDbLine
 10
-0.5578125
 20
-1.171875
 30
0.0
 11
0.5578125
 21
-1.171875
 31
0.0
  0
LINE
  5
18A
330
14F
100
AcDbEntity
  8
AM_7
100
AcDbLine
 10
1.999999999999999
 20
0.0218749999999999
 30
0.0
 11
1.999999999999999
 21
-0.4593750000000001
 31
0.0
  0
LINE
  5
18B
330
14F
100
AcDbEntity
  8
AM_7
100
AcDbLine
 10
-2.0
 20
0.0218749999999999
 30
0.0
 11
-2.0
 21
-0.4593750000000001
 31
0.0
  0
LINE
  5
18C
330
14F
100
AcDbEntity
  8
AM_7
100
AcDbLine
 10
0.0
 20
0.10625
 30
0.0
 11
0.0
 21
-2.678125
 31
0.0
  0
ARC
  5
18D
330
14F
100
AcDbEntity
  8
AM_4
100
AcDbCircle
 10
2.1875
 20
-1.46875
 30
0.0
 40
0.4375000000000004
100
AcDbArc
 50
270.0
 51
0.0
  0
LINE
  5
18E
330
14F
100
AcDbEntity
  8
AM_4
100
AcDbLine
 10
1.935980795890158
 20
-1.90625
 30
0.0
 11
2.1875
 21
-1.90625
 31
0.0
  0
LINE
  5
18F
330
14F
100
AcDbEntity
  8
AM_4
100
AcDbLine
 10
2.625
 20
-1.46875
 30
0.0
 11
2.625
 21
-1.09375
 31
0.0
  0
ARC
  5
190
330
14F
100
AcDbEntity
  8
AM_4
100
AcDbCircle
 10
2.1875
 20
-1.093750000000001
 30
0.0
 40
0.4375
100
AcDbArc
 50
0.0
 51
90.0
  0
LINE
  5
191
330
14F
100
AcDbEntity
  8
AM_4
100
AcDbLine
 10
2.1875
 20
-0.6562500000000001
 30
0.0
 11
2.024943205376716
 21
-0.6562500000000001
 31
0.0
  0
ARC
  5
192
330
14F
100
AcDbEntity
  8
AM_4
100
AcDbCircle
 10
-2.1875
 20
-1.46875
 30
0.0
 40
0.4374999999999996
100
AcDbArc
 50
180.0
 51
270.0
  0
LINE
  5
193
330
14F
100
AcDbEntity
  8
AM_4
100
AcDbLine
 10
-2.024943205376716
 20
-0.6562500000000001
 30
0.0
 11
-2.1875
 21
-0.65625
 31
0.0
  0
ARC
  5
194
330
14F
100
AcDbEntity
  8
AM_4
100
AcDbCircle
 10
-2.1875
 20
-1.09375
 30
0.0
 40
0.4375000000000004
100
AcDbArc
 50
90.0
 51
180.0
  0
LINE
  5
195
330
14F
100
AcDbEntity
  8
AM_4
100
AcDbLine
 10
-2.625
 20
-1.09375
 30
0.0
 11
-2.625
 21
-1.46875
 31
0.0
  0
LINE
  5
196
330
14F
100
AcDbEntity
  8
AM_4
100
AcDbLine
 10
-2.1875
 20
-1.90625
 30
0.0
 11
-1.935980795890158
 21
-1.90625
 31
0.0
  0
LINE
  5
197
330
14F
100
AcDbEntity
  8
AM_4
100
AcDbLine
 10
2.187370288618931
 20
-1.064743649053891
 30
0.0
 11
1.999870288618931
 21
-1.172996824526945
 31
0.0
  0
LINE
  5
198
330
14F
100
AcDbEntity
  8
AM_4
100
AcDbLine
 10
2.374870288618931
 20
-1.172996824526945
 30
0.0
 11
2.187370288618931
 21
-1.064743649053891
 31
0.0
  0
LINE
  5
199
330
14F
100
AcDbEntity
  8
AM_4
100
AcDbLine
 10
1.999870288618931
 20
-1.389503175473056
 30
0.0
 11
2.187370288618931
 21
-1.497756350946109
 31
0.0
  0
LINE
  5
19A
330
14F
100
AcDbEntity
  8
AM_4
100
AcDbLine
 10
1.999870288618931
 20
-1.172996824526945
 30
0.0
 11
1.999870288618931
 21
-1.389503175473056
 31
0.0
  0
LINE
  5
19B
330
14F
100
AcDbEntity
  8
AM_4
100
AcDbLine
 10
2.374870288618931
 20
-1.389503175473056
 30
0.0
 11
2.374870288618931
 21
-1.172996824526945
 31
0.0
  0
LINE
  5
19C
330
14F
100
AcDbEntity
  8
AM_4
100
AcDbLine
 10
2.187370288618931
 20
-1.497756350946109
 30
0.0
 11
2.374870288618931
 21
-1.389503175473056
 31
0.0
  0
LINE
  5
19D
330
14F
100
AcDbEntity
  8
AM_4
100
AcDbLine
 10
-2.374870288618931
 20
-1.172996824526945
 30
0.0
 11
-2.374870288618931
 21
-1.389503175473055
 31
0.0
  0
LINE
  5
19E
330
14F
100
AcDbEntity
  8
AM_4
100
AcDbLine
 10
-2.374870288618931
 20
-1.389503175473055
 30
0.0
 11
-2.187370288618931
 21
-1.49775635094611
 31
0.0
  0
LINE
  5
19F
330
14F
100
AcDbEntity
  8
AM_4
100
AcDbLine
 10
-2.187370288618931
 20
-1.49775635094611
 30
0.0
 11
-1.999870288618931
 21
-1.389503175473055
 31
0.0
  0
LINE
  5
1A0
330
14F
100
AcDbEntity
  8
AM_4
100
AcDbLine
 10
-1.999870288618931
 20
-1.389503175473055
 30
0.0
 11
-1.999870288618931
 21
-1.172996824526945
 31
0.0
  0
LINE
  5
1A1
330
14F
100
AcDbEntity
  8
AM_4
100
AcDbLine
 10
-1.999870288618931
 20
-1.172996824526945
 30
0.0
 11
-2.187370288618931
 21
-1.06474364905389
 31
0.0
  0
LINE
  5
1A2
330
14F
100
AcDbEntity
  8
AM_4
100
AcDbLine
 10
-2.187370288618931
 20
-1.06474364905389
 30
0.0
 11
-2.374870288618931
 21
-1.172996824526945
 31
0.0
  0
LINE
  5
1A3
330
14F
100
AcDbEntity
  8
AM_4
100
AcDbLine
 10
-1.921699366784615
 20
-2.125
 30
0.0
 11
1.921699366784291
 21
-2.125
 31
0.0
  0
ARC
  5
1A4
330
14F
100
AcDbEntity
  8
AM_4
100
AcDbCircle
 10
1.921699366784616
 20
-2.087500000000002
 30
0.0
 40
0.0374999999999983
100
AcDbArc
 50
270.0
 51
356.0000000000023
  0
ARC
  5
1A5
330
14F
100
AcDbEntity
  8
AM_4
100
AcDbCircle
 10
-1.921699366784616
 20
-2.087500000000002
 30
0.0
 40
0.0374999999999988
100
AcDbArc
 50
183.9999999999978
 51
270.0
  0
LINE
  5
1A6
330
14F
100
AcDbEntity
  8
AM_4
100
AcDbLine
 10
-2.024943205376716
 20
-0.6562500000000001
 30
0.0
 11
-1.935980795890158
 21
-1.90625
 31
0.0
  0
LINE
  5
1A7
330
14F
100
AcDbEntity
  8
AM_4
100
AcDbLine
 10
1.935980795890158
 20
-1.90625
 30
0.0
 11
2.024943205376716
 21
-0.6562500000000001
 31
0.0
  0
LINE
  5
1A8
330
14F
100
AcDbEntity
  8
AM_4
100
AcDbLine
 10
-1.959108018669358
 20
-2.090115867765405
 30
0.0
 11
1.959108018669358
 21
-2.090115867765405
 31
0.0
  0
LINE
  5
1A9
330
14F
100
AcDbEntity
  8
AM_4
100
AcDbLine
 10
1.959108018669358
 20
-2.090115867765405
 30
0.0
 11
1.97196517262742
 21
-1.90625
 31
0.0
  0
LINE
  5
1AA
330
14F
100
AcDbEntity
  8
AM_4
100
AcDbLine
 10
2.059373687556808
 20
-0.6562500000000001
 30
0.0
 11
2.074670177669451
 21
-0.4374999999999994
 31
0.0
  0
LINE
  5
1AB
330
14F
100
AcDbEntity
  8
AM_4
100
AcDbLine
 10
-2.074670177669451
 20
-0.4374999999999994
 30
0.0
 11
-2.059373687556808
 21
-0.6562500000000001
 31
0.0
  0
LINE
  5
1AC
330
14F
100
AcDbEntity
  8
AM_4
100
AcDbLine
 10
-1.97196517262742
 20
-1.90625
 30
0.0
 11
-1.959108018669358
 21
-2.090115867765405
 31
0.0
  0
LINE
  5
1AD
330
14F
100
AcDbEntity
  8
AM_4
100
AcDbLine
 10
-0.7470980362475901
 20
-0.0802317355308098
 30
0.0
 11
0.7470980362475905
 21
-0.0802317355308098
 31
0.0
  0
ARC
  5
1AE
330
14F
100
AcDbEntity
  8
AM_4
100
AcDbCircle
 10
0.2678571428571424
 20
-1.468749999999995
 30
0.0
 40
0.4375000000000044
100
AcDbArc
 50
270.0
 51
299.9999999999997
  0
ARC
  5
1AF
330
14F
100
AcDbEntity
  8
AM_4
100
AcDbCircle
 10
0.2678571428571425
 20
-0.8750000000000004
 30
0.0
 40
0.4375000000000006
100
AcDbArc
 50
60.00000000000001
 51
90.0
  0
ARC
  5
1B0
330
14F
100
AcDbEntity
  8
AM_4
100
AcDbCircle
 10
-0.2678571428571423
 20
-0.8750000000000019
 30
0.0
 40
0.4375000000000021
100
AcDbArc
 50
90.0
 51
120.0
  0
LINE
  5
1B1
330
14F
100
AcDbEntity
  8
AM_4
100
AcDbLine
 10
0.2678571428571428
 20
-1.90625
 30
0.0
 11
-0.2678571428571418
 21
-1.90625
 31
0.0
  0
LINE
  5
1B2
330
14F
100
AcDbEntity
  8
AM_4
100
AcDbLine
 10
-1.142857142857143
 20
-1.342454628614769
 30
0.0
 11
-1.142857142857143
 21
-1.00129537138523
 31
0.0
  0
LINE
  5
1B3
330
14F
100
AcDbEntity
  8
AM_4
100
AcDbLine
 10
0.4866071428571427
 20
-0.4961138858443079
 30
0.0
 11
1.033482142857143
 21
-0.811852314307384
 31
0.0
  0
LINE
  5
1B4
330
14F
100
AcDbEntity
  8
AM_4
100
AcDbLine
 10
1.033482142857143
 20
-1.531897685692615
 30
0.0
 11
0.4866071428571425
 21
-1.847636114155692
 31
0.0
  0
LINE
  5
1B5
330
14F
100
AcDbEntity
  8
AM_4
100
AcDbLine
 10
1.142857142857143
 20
-1.00129537138523
 30
0.0
 11
1.142857142857143
 21
-1.342454628614769
 31
0.0
  0
ARC
  5
1B6
330
14F
100
AcDbEntity
  8
AM_4
100
AcDbCircle
 10
0.9241071428571418
 20
-1.00129537138523
 30
0.0
 40
0.218750000000001
100
AcDbArc
 50
0.0
 51
59.99999999999978
  0
ARC
  5
1B7
330
14F
100
AcDbEntity
  8
AM_4
100
AcDbCircle
 10
-0.2678571428571418
 20
-1.468749999999993
 30
0.0
 40
0.4375000000000066
100
AcDbArc
 50
240.0000000000003
 51
270.0
  0
LINE
  5
1B8
330
14F
100
AcDbEntity
  8
AM_4
100
AcDbLine
 10
-0.4866071428571428
 20
-1.847636114155692
 30
0.0
 11
-1.033482142857143
 21
-1.531897685692615
 31
0.0
  0
LINE
  5
1B9
330
14F
100
AcDbEntity
  8
AM_4
100
AcDbLine
 10
0.2678571428571423
 20
-0.4374999999999998
 30
0.0
 11
-0.2678571428571432
 21
-0.4374999999999998
 31
0.0
  0
ARC
  5
1BA
330
14F
100
AcDbEntity
  8
AM_4
100
AcDbCircle
 10
0.9241071428571416
 20
-1.342454628614768
 30
0.0
 40
0.2187500000000013
100
AcDbArc
 50
300.0000000000002
 51
0.0
  0
ARC
  5
1BB
330
14F
100
AcDbEntity
  8
AM_4
100
AcDbCircle
 10
-0.9241071428571417
 20
-1.342454628614768
 30
0.0
 40
0.2187500000000011
100
AcDbArc
 50
180.0
 51
239.9999999999998
  0
LINE
  5
1BC
330
14F
100
AcDbEntity
  8
AM_4
100
AcDbLine
 10
-1.033482142857143
 20
-0.8118523143073846
 30
0.0
 11
-0.486607142857143
 21
-0.496113885844308
 31
0.0
  0
ARC
  5
1BD
330
14F
100
AcDbEntity
  8
AM_4
100
AcDbCircle
 10
-0.9241071428571429
 20
-1.00129537138523
 30
0.0
 40
0.2187499999999998
100
AcDbArc
 50
120.0
 51
180.0
  0
LINE
  5
1BE
330
14F
100
AcDbEntity
  8
AM_4
100
AcDbLine
 10
2.593750000000002
 20
-0.4374999999999998
 30
0.0
 11
0.7190841922116701
 21
-0.4374999999999998
 31
0.0
  0
LINE
  5
1BF
330
14F
100
AcDbEntity
  8
AM_4
100
AcDbLine
 10
0.7190841922116701
 20
-0.4374999999999998
 30
0.0
 11
0.7470980362475905
 21
-0.0802317355308098
 31
0.0
  0
LWPOLYLINE
  5
1C0
330
14F
100
AcDbEntity
  8
AM_4
100
AcDbPolyline
 90
       10
 70
     0
 43
0.0
 10
0.6624894557037391
 20
0.0000000000000002
 10
0.677842890202599
 20
-0.0012146402792267
 10
0.692892144960741
 20
-0.004899430216899
 10
0.7067578153126419
 20
-0.01088541567471
 10
0.7195961999861155
 20
-0.0193585512627303
 10
0.7285304300321838
 20
-0.0277470724202707
 10
0.7361740830920717
 20
-0.037672749224066
 10
0.7448841062823777
 20
-0.057112164421241
 10
0.7469779412726802
 20
-0.0685478404837348
 10
0.7470980362475905
 20
-0.0802317355308098
  0
LINE
  5
1C1
330
14F
100
AcDbEntity
  8
AM_4
100
AcDbLine
 10
-0.7190841922116697
 20
-0.4374999999999998
 30
0.0
 11
-2.593750000000001
 21
-0.4374999999999998
 31
0.0
  0
LINE
  5
1C2
330
14F
100
AcDbEntity
  8
AM_4
100
AcDbLine
 10
-0.7470980362475901
 20
-0.0802317355308098
 30
0.0
 11
-0.7190841922116697
 21
-0.4374999999999998
 31
0.0
  0
LWPOLYLINE
  5
1C3
330
14F
100
AcDbEntity
  8
AM_4
100
AcDbPolyline
 90
        9
 70
     0
 43
0.0
 10
-0.7470980362475901
 20
-0.0802317355308098
 10
-0.7455509231549636
 20
-0.0597457966414604
 10
-0.7382178961662901
 20
-0.0410503807682736
 10
-0.7258002161489201
 20
-0.0248926553782698
 10
-0.7146489506522234
 20
-0.0156841512150663
 10
-0.7019892234785087
 20
-0.0085049513598545
 10
-0.6854568736106204
 20
-0.0027487778555735
 10
-0.6678344587280768
 20
-0.0001454655352242
 10
-0.6624894557037387
 20
0.0000000000000002
  0
ARC
  5
1C4
330
14F
100
AcDbEntity
  8
AM_4
100
AcDbCircle
 10
0.0
 20
-1.171875
 30
0.0
 40
0.7327586206896555
100
AcDbArc
 50
225.0
 51
314.9999999999999
  0
LINE
  5
1C5
330
14F
100
AcDbEntity
  8
AM_4
100
AcDbLine
 10
-0.8860169883229715
 20
-1.322135191002141
 30
0.0
 11
-0.5181385896625567
 21
-1.690013589662556
 31
0.0
  0
LINE
  5
1C6
330
14F
100
AcDbEntity
  8
AM_4
100
AcDbLine
 10
0.5181385896625563
 20
-1.690013589662556
 30
0.0
 11
0.8860169883229715
 21
-1.322135191002141
 31
0.0
  0
ARC
  5
1C7
330
14F
100
AcDbEntity
  8
AM_4
100
AcDbCircle
 10
-0.7357567973208304
 20
-1.171875
 30
0.0
 40
0.2124999999999996
100
AcDbArc
 50
135.0
 51
225.0
  0
ARC
  5
1C8
330
14F
100
AcDbEntity
  8
AM_4
100
AcDbCircle
 10
-0.0000000000000001
 20
-1.171875
 30
0.0
 40
0.7327586206896556
100
AcDbArc
 50
45.00000000000003
 51
134.9999999999999
  0
ARC
  5
1C9
330
14F
100
AcDbEntity
  8
AM_4
100
AcDbCircle
 10
0.73575679732083
 20
-1.171875
 30
0.0
 40
0.2125
100
AcDbArc
 50
315.0000000000001
 51
44.99999999999996
  0
LINE
  5
1CA
330
14F
100
AcDbEntity
  8
AM_4
100
AcDbLine
 10
0.8860169883229715
 20
-1.021614808997859
 30
0.0
 11
0.5181385896625563
 21
-0.6537364103374436
 31
0.0
  0
LINE
  5
1CB
330
14F
100
AcDbEntity
  8
AM_4
100
AcDbLine
 10
-0.5181385896625563
 20
-0.6537364103374433
 30
0.0
 11
-0.8860169883229715
 21
-1.021614808997859
 31
0.0
  0
LINE
  5
1CC
330
14F
100
AcDbEntity
  8
AM_4
100
AcDbLine
 10
1.703125
 20
-0.4374999999999998
 30
0.0
 11
1.703125
 21
0.0000000000000002
 31
0.0
  0
LINE
  5
1CD
330
14F
100
AcDbEntity
  8
AM_4
100
AcDbLine
 10
2.593750000000002
 20
-0.4374999999999998
 30
0.0
 11
2.593750000000002
 21
0.0000000000000001
 31
0.0
  0
LINE
  5
1CE
330
14F
100
AcDbEntity
  8
AM_4
100
AcDbLine
 10
2.593750000000002
 20
0.0000000000000001
 30
0.0
 11
-2.593750000000001
 21
0.0000000000000001
 31
0.0
  0
LINE
  5
1CF
330
14F
100
AcDbEntity
  8
AM_4
100
AcDbLine
 10
-1.703124999999999
 20
-0.4374999999999998
 30
0.0
 11
-1.703124999999999
 21
0.0000000000000002
 31
0.0
  0
LINE
  5
1D0
330
14F
100
AcDbEntity
  8
AM_4
100
AcDbLine
 10
-2.593750000000001
 20
0.0000000000000001
 30
0.0
 11
-2.593750000000001
 21
-0.4374999999999998
 31
0.0
  0
LINE
  5
1D1
330
14F
100
AcDbEntity
  8
AM_4
100
AcDbLine
 10
0.8790166965824413
 20
-1.233218466101397
 30
0.0
 11
0.8790166965824413
 21
-1.110531533898602
 31
0.0
  0
LINE
  5
1D2
330
14F
100
AcDbEntity
  8
AM_4
100
AcDbLine
 10
0.8790166965824413
 20
-1.110531533898602
 30
0.0
 11
0.7727666965824413
 21
-1.049188067797205
 31
0.0
  0
LINE
  5
1D3
330
14F
100
AcDbEntity
  8
AM_4
100
AcDbLine
 10
0.7727666965824413
 20
-1.049188067797205
 30
0.0
 11
0.6665166965824413
 21
-1.110531533898602
 31
0.0
  0
LINE
  5
1D4
330
14F
100
AcDbEntity
  8
AM_4
100
AcDbLine
 10
0.6665166965824413
 20
-1.110531533898602
 30
0.0
 11
0.6665166965824413
 21
-1.233218466101397
 31
0.0
  0
LINE
  5
1D5
330
14F
100
AcDbEntity
  8
AM_4
100
AcDbLine
 10
0.6665166965824413
 20
-1.233218466101397
 30
0.0
 11
0.7727666965824413
 21
-1.294561932202795
 31
0.0
  0
LINE
  5
1D6
330
14F
100
AcDbEntity
  8
AM_4
100
AcDbLine
 10
0.7727666965824413
 20
-1.294561932202795
 30
0.0
 11
0.8790166965824413
 21
-1.233218466101397
 31
0.0
  0
LINE
  5
1D7
330
14F
100
AcDbEntity
  8
AM_4
100
AcDbLine
 10
-0.6665166965824413
 20
-1.233218466101397
 30
0.0
 11
-0.6665166965824413
 21
-1.110531533898603
 31
0.0
  0
LINE
  5
1D8
330
14F
100
AcDbEntity
  8
AM_4
100
AcDbLine
 10
-0.6665166965824413
 20
-1.110531533898603
 30
0.0
 11
-0.7727666965824413
 21
-1.049188067797205
 31
0.0
  0
LINE
  5
1D9
330
14F
100
AcDbEntity
  8
AM_4
100
AcDbLine
 10
-0.7727666965824413
 20
-1.049188067797205
 30
0.0
 11
-0.8790166965824413
 21
-1.110531533898603
 31
0.0
  0
LINE
  5
1DA
330
14F
100
AcDbEntity
  8
AM_4
100
AcDbLine
 10
-0.8790166965824413
 20
-1.110531533898603
 30
0.0
 11
-0.8790166965824413
 21
-1.233218466101397
 31
0.0
  0
LINE
  5
1DB
330
14F
100
AcDbEntity
  8
AM_4
100
AcDbLine
 10
-0.8790166965824413
 20
-1.233218466101397
 30
0.0
 11
-0.7727666965824413
 21
-1.294561932202795
 31
0.0
  0
LINE
  5
1DC
330
14F
100
AcDbEntity
  8
AM_4
100
AcDbLine
 10
-0.7727666965824413
 20
-1.294561932202795
 30
0.0
 11
-0.6665166965824413
 21
-1.233218466101397
 31
0.0
  0
ENDBLK
  5
152
330
14F
100
AcDbEntity
  8
0
100
AcDbBlockEnd
  0
ENDSEC
  0
SECTION
  2
ENTITIES
  0
INSERT
  5
6F
330
1F
100
AcDbEntity
  8
0
100
AcDbBlockReference
  2
1_023212_4
 10
0.0
 20
0.0
 30
0.0
  0
POINT
  5
1DE
330
1F
100
AcDbEntity
  8
ConnectionPoints
100
AcDbPoint
 10
0.0
 20
-1.1875
 30
1.8625
  0
POINT
  5
1DF
330
1F
100
AcDbEntity
  8
ConnectionPoints
100
AcDbPoint
 10
0.0
 20
-1.1875
 30
1.8625
  0
POINT
  5
1E0
330
1F
100
AcDbEntity
  8
ConnectionPoints
100
AcDbPoint
 10
0.0
 20
-1.1875
 30
0.0000000000000001
  0
POINT
  5
1E1
330
1F
100
AcDbEntity
  8
ConnectionPoints
100
AcDbPoint
 10
0.0
 20
-2.5625
 30
0.0000000000000002
  0
POINT
  5
1E2
330
1F
100
AcDbEntity
  8
ConnectionPoints
100
AcDbPoint
 10
0.0
 20
-0.0302500000000001
 30
0.0
  0
POINT
  5
1E3
330
1F
100
AcDbEntity
  8
ConnectionPoints
100
AcDbPoint
 10
0.0
 20
-2.5625
 30
0.0000000000000002
  0
ENDSEC
  0
SECTION
  2
OBJECTS
  0
DICTIONARY
  5
C
330
0
100
AcDbDictionary
281
     1
  3
ACAD_DETAILVIEWSTYLE
350
1EB
  3
ACAD_GROUP
350
D
  3
ACAD_LAYOUT
350
1A
  3
ACAD_MATERIAL
350
43
  3
ACAD_MLEADERSTYLE
350
6B
  3
ACAD_MLINESTYLE
350
17
  3
ACAD_PLOTSETTINGS
350
19
  3
ACAD_PLOTSTYLENAME
350
E
  3
ACAD_SCALELIST
350
47
  3
ACAD_SECTIONVIEWSTYLE
350
1EC
  3
ACAD_TABLESTYLE
350
69
  3
ACAD_VISUALSTYLE
350
2A
  3
ACDB_RECOMPOSE_DATA
350
1E8
  3
AcDbVariableDictionary
350
1E4
  0
SUN
  5
6D
330
29
100
AcDbSun
 90
        1
290
     0
 63
     7
421
 16777215
 40
1.0
291
     1
 91
  2455826
 92
 54000000
292
     0
 70
     2
 71
   256
280
     1
  0
DICTIONARY
  5
1EB
102
{ACAD_REACTORS
330
C
102
}
330
C
100
AcDbDictionary
281
     1
  0
DICTIONARY
  5
D
102
{ACAD_REACTORS
330
C
102
}
330
C
100
AcDbDictionary
281
     1
  0
DICTIONARY
  5
1A
102
{ACAD_REACTORS
330
C
102
}
330
C
100
AcDbDictionary
281
     1
  3
Layout1
350
1E
  3
Layout2
350
26
  3
Model
350
22
  0
DICTIONARY
  5
43
102
{ACAD_REACTORS
330
C
102
}
330
C
100
AcDbDictionary
281
     1
  3
ByBlock
350
45
  3
ByLayer
350
44
  3
Global
350
46
  0
DICTIONARY
  5
6B
102
{ACAD_REACTORS
330
C
102
}
330
C
100
AcDbDictionary
281
     1
  3
Standard
350
6C
  0
DICTIONARY
  5
17
102
{ACAD_REACTORS
330
C
102
}
330
C
100
AcDbDictionary
281
     1
  3
Standard
350
18
  0
DICTIONARY
  5
19
102
{ACAD_REACTORS
330
C
102
}
330
C
100
AcDbDictionary
281
     1
  0
ACDBDICTIONARYWDFLT
  5
E
102
{ACAD_REACTORS
330
C
102
}
330
C
100
AcDbDictionary
281
     1
  3
Normal
350
F
100
AcDbDictionaryWithDefault
340
F
  0
DICTIONARY
  5
47
102
{ACAD_REACTORS
330
C
102
}
330
C
100
AcDbDictionary
281
     1
  3
A0
350
48
  3
A1
350
49
  3
A2
350
4A
  3
A3
350
4B
  3
A4
350
4C
  3
A5
350
4D
  3
A6
350
4E
  3
A7
350
4F
  3
A8
350
50
  3
A9
350
51
  3
B0
350
52
  3
B1
350
53
  3
B2
350
54
  3
B3
350
55
  3
B4
350
56
  3
B5
350
57
  3
B6
350
58
  3
B7
350
59
  3
B8
350
5A
  3
B9
350
5B
  3
C0
350
5C
  3
C1
350
5D
  3
C2
350
5E
  3
C3
350
5F
  3
C4
350
60
  3
C5
350
61
  3
C6
350
62
  3
C7
350
63
  3
C8
350
64
  3
C9
350
65
  3
D0
350
66
  3
D1
350
67
  3
D2
350
68
  0
DICTIONARY
  5
1EC
102
{ACAD_REACTORS
330
C
102
}
330
C
100
AcDbDictionary
281
     1
  0
DICTIONARY
  5
69
102
{ACAD_REACTORS
330
C
102
}
330
C
100
AcDbDictionary
281
     1
  3
Standard
350
6A
  0
DICTIONARY
  5
2A
102
{ACAD_REACTORS
330
C
102
}
330
C
100
AcDbDictionary
281
     1
  3
2dWireframe
350
2F
  3
Basic
350
32
  3
Brighten
350
36
  3
ColorChange
350
3A
  3
Conceptual
350
34
  3
Dim
350
35
  3
EdgeColorOff
350
3D
  3
Facepattern
350
39
  3
Flat
350
2B
  3
FlatWithEdges
350
2C
  3
Gouraud
350
2D
  3
GouraudWithEdges
350
2E
  3
Hidden
350
31
  3
JitterOff
350
3B
  3
Linepattern
350
38
  3
OverhangOff
350
3C
  3
Realistic
350
33
  3
Shaded
350
42
  3
Shaded with edges
350
41
  3
Shades of Gray
350
3E
  3
Sketchy
350
3F
  3
Thicken
350
37
  3
Wireframe
350
30
  3
X-Ray
350
40
  0
XRECORD
  5
1E8
102
{ACAD_REACTORS
330
C
102
}
330
C
100
AcDbXrecord
280
     1
 90
        1
330
6A
  0
DICTIONARY
  5
1E4
102
{ACAD_REACTORS
330
C
102
}
330
C
100
AcDbDictionary
281
     1
  3
CANNOSCALE
350
1E5
  3
CMLEADERSTYLE
350
1EA
  3
CTABLESTYLE
350
1E9
  0
LAYOUT
  5
1E
102
{ACAD_REACTORS
330
1A
102
}
330
1A
100
AcDbPlotSettings
  1

  2
none_device
  4

  6

 40
0.0
 41
0.0
 42
0.0
 43
0.0
 44
0.0
 45
0.0
 46
0.0
 47
0.0
 48
0.0
 49
0.0
140
0.0
141
0.0
142
1.0
143
1.0
 70
   688
 72
     0
 73
     0
 74
     5
  7

 75
    16
 76
     0
 77
     2
 78
   300
147
1.0
148
0.0
149
0.0
100
AcDbLayout
  1
Layout1
 70
     1
 71
     1
 10
0.0
 20
0.0
 11
12.0
 21
9.0
 12
0.0
 22
0.0
 32
0.0
 14
1.000000000000000E+20
 24
1.000000000000000E+20
 34
1.000000000000000E+20
 15
-1.000000000000000E+20
 25
-1.000000000000000E+20
 35
-1.000000000000000E+20
146
0.0
 13
0.0
 23
0.0
 33
0.0
 16
1.0
 26
0.0
 36
0.0
 17
0.0
 27
1.0
 37
0.0
 76
     0
330
1B
  0
LAYOUT
  5
26
102
{ACAD_REACTORS
330
1A
102
}
330
1A
100
AcDbPlotSettings
  1

  2
none_device
  4

  6

 40
0.0
 41
0.0
 42
0.0
 43
0.0
 44
0.0
 45
0.0
 46
0.0
 47
0.0
 48
0.0
 49
0.0
140
0.0
141
0.0
142
1.0
143
1.0
 70
   688
 72
     0
 73
     0
 74
     5
  7

 75
    16
 76
     0
 77
     2
 78
   300
147
1.0
148
0.0
149
0.0
100
AcDbLayout
  1
Layout2
 70
     1
 71
     2
 10
0.0
 20
0.0
 11
0.0
 21
0.0
 12
0.0
 22
0.0
 32
0.0
 14
0.0
 24
0.0
 34
0.0
 15
0.0
 25
0.0
 35
0.0
146
0.0
 13
0.0
 23
0.0
 33
0.0
 16
1.0
 26
0.0
 36
0.0
 17
0.0
 27
1.0
 37
0.0
 76
     0
330
23
  0
LAYOUT
  5
22
102
{ACAD_REACTORS
330
1A
102
}
330
1A
100
AcDbPlotSettings
  1

  2
none_device
  4
Letter_(8.50_x_11.00_Inches)
  6

 40
6.35
 41
6.35
 42
6.35000508
 43
6.35000508
 44
215.9
 45
279.4
 46
0.0
 47
0.0
 48
0.0
 49
0.0
140
0.0
141
0.0
142
1.0
143
1.0
 70
  1712
 72
     0
 73
     0
 74
     0
  7

 75
     0
 76
     0
 77
     2
 78
   300
147
1.0
148
0.0
149
0.0
100
AcDbLayout
  1
Model
 70
     1
 71
     0
 10
0.0
 20
0.0
 11
12.0
 21
9.0
 12
0.0
 22
0.0
 32
0.0
 14
1.000000000000000E+20
 24
1.000000000000000E+20
 34
1.000000000000000E+20
 15
-1.000000000000000E+20
 25
-1.000000000000000E+20
 35
-1.000000000000000E+20
146
0.0
 13
0.0
 23
0.0
 33
0.0
 16
1.0
 26
0.0
 36
0.0
 17
0.0
 27
1.0
 37
0.0
 76
     0
330
1F
331
29
  0
MATERIAL
  5
45
102
{ACAD_REACTORS
330
43
102
}
330
43
100
AcDbMaterial
  1
ByBlock
 72
     1
 94
      127
  0
MATERIAL
  5
44
102
{ACAD_REACTORS
330
43
102
}
330
43
100
AcDbMaterial
  1
ByLayer
 72
     1
 94
      127
  0
MATERIAL
  5
46
102
{ACAD_REACTORS
330
43
102
}
330
43
100
AcDbMaterial
  1
Global
 72
     1
 94
      127
  0
MLEADERSTYLE
  5
6C
102
{ACAD_REACTORS
330
6B
102
}
330
6B
100
AcDbMLeaderStyle
179
     2
170
     2
171
     1
172
     0
 90
        2
 40
0.0
 41
0.0
173
     1
 91
-1056964608
340
14
 92
       -2
290
     1
 42
0.09
291
     1
 43
0.36
  3
Standard
341
0
 44
0.18
300

342
11
174
     1
178
     6
175
     1
176
     0
 93
-1056964608
 45
0.18
292
     0
297
     0
 46
0.18
343
0
 94
-1056964608
 47
1.0
 49
1.0
140
1.0
293
     1
141
0.0
294
     1
177
     0
142
1.0
295
     0
296
     0
143
0.125
271
     0
272
     9
273
     9
298
     0
  0
MLINESTYLE
  5
18
102
{ACAD_REACTORS
330
17
102
}
330
17
100
AcDbMlineStyle
  2
Standard
 70
     0
  3

 62
   256
 51
90.0
 52
90.0
 71
     2
 49
0.5
 62
   256
  6
BYLAYER
 49
-0.5
 62
   256
  6
BYLAYER
  0
ACDBPLACEHOLDER
  5
F
102
{ACAD_REACTORS
330
E
102
}
330
E
  0
SCALE
  5
48
102
{ACAD_REACTORS
330
47
102
}
330
47
100
AcDbScale
 70
     0
300
1:1
140
1.0
141
1.0
290
     1
  0
SCALE
  5
49
102
{ACAD_REACTORS
330
47
102
}
330
47
100
AcDbScale
 70
     0
300
1:2
140
1.0
141
2.0
290
     0
  0
SCALE
  5
4A
102
{ACAD_REACTORS
330
47
102
}
330
47
100
AcDbScale
 70
     0
300
1:4
140
1.0
141
4.0
290
     0
  0
SCALE
  5
4B
102
{ACAD_REACTORS
330
47
102
}
330
47
100
AcDbScale
 70
     0
300
1:5
140
1.0
141
5.0
290
     0
  0
SCALE
  5
4C
102
{ACAD_REACTORS
330
47
102
}
330
47
100
AcDbScale
 70
     0
300
1:8
140
1.0
141
8.0
290
     0
  0
SCALE
  5
4D
102
{ACAD_REACTORS
330
47
102
}
330
47
100
AcDbScale
 70
     0
300
1:10
140
1.0
141
10.0
290
     0
  0
SCALE
  5
4E
102
{ACAD_REACTORS
330
47
102
}
330
47
100
AcDbScale
 70
     0
300
1:16
140
1.0
141
16.0
290
     0
  0
SCALE
  5
4F
102
{ACAD_REACTORS
330
47
102
}
330
47
100
AcDbScale
 70
     0
300
1:20
140
1.0
141
20.0
290
     0
  0
SCALE
  5
50
102
{ACAD_REACTORS
330
47
102
}
330
47
100
AcDbScale
 70
     0
300
1:30
140
1.0
141
30.0
290
     0
  0
SCALE
  5
51
102
{ACAD_REACTORS
330
47
102
}
330
47
100
AcDbScale
 70
     0
300
1:40
140
1.0
141
40.0
290
     0
  0
SCALE
  5
52
102
{ACAD_REACTORS
330
47
102
}
330
47
100
AcDbScale
 70
     0
300
1:50
140
1.0
141
50.0
290
     0
  0
SCALE
  5
53
102
{ACAD_REACTORS
330
47
102
}
330
47
100
AcDbScale
 70
     0
300
1:100
140
1.0
141
100.0
290
     0
  0
SCALE
  5
54
102
{ACAD_REACTORS
330
47
102
}
330
47
100
AcDbScale
 70
     0
300
2:1
140
2.0
141
1.0
290
     0
  0
SCALE
  5
55
102
{ACAD_REACTORS
330
47
102
}
330
47
100
AcDbScale
 70
     0
300
4:1
140
4.0
141
1.0
290
     0
  0
SCALE
  5
56
102
{ACAD_REACTORS
330
47
102
}
330
47
100
AcDbScale
 70
     0
300
8:1
140
8.0
141
1.0
290
     0
  0
SCALE
  5
57
102
{ACAD_REACTORS
330
47
102
}
330
47
100
AcDbScale
 70
     0
300
10:1
140
10.0
141
1.0
290
     0
  0
SCALE
  5
58
102
{ACAD_REACTORS
330
47
102
}
330
47
100
AcDbScale
 70
     0
300
100:1
140
100.0
141
1.0
290
     0
  0
SCALE
  5
59
102
{ACAD_REACTORS
330
47
102
}
330
47
100
AcDbScale
 70
     0
300
1/128" = 1'-0"
140
0.0078125
141
12.0
290
     0
  0
SCALE
  5
5A
102
{ACAD_REACTORS
330
47
102
}
330
47
100
AcDbScale
 70
     0
300
1/64" = 1'-0"
140
0.015625
141
12.0
290
     0
  0
SCALE
  5
5B
102
{ACAD_REACTORS
330
47
102
}
330
47
100
AcDbScale
 70
     0
300
1/32" = 1'-0"
140
0.03125
141
12.0
290
     0
  0
SCALE
  5
5C
102
{ACAD_REACTORS
330
47
102
}
330
47
100
AcDbScale
 70
     0
300
1/16" = 1'-0"
140
0.0625
141
12.0
290
     0
  0
SCALE
  5
5D
102
{ACAD_REACTORS
330
47
102
}
330
47
100
AcDbScale
 70
     0
300
3/32" = 1'-0"
140
0.09375
141
12.0
290
     0
  0
SCALE
  5
5E
102
{ACAD_REACTORS
330
47
102
}
330
47
100
AcDbScale
 70
     0
300
1/8" = 1'-0"
140
0.125
141
12.0
290
     0
  0
SCALE
  5
5F
102
{ACAD_REACTORS
330
47
102
}
330
47
100
AcDbScale
 70
     0
300
3/16" = 1'-0"
140
0.1875
141
12.0
290
     0
  0
SCALE
  5
60
102
{ACAD_REACTORS
330
47
102
}
330
47
100
AcDbScale
 70
     0
300
1/4" = 1'-0"
140
0.25
141
12.0
290
     0
  0
SCALE
  5
61
102
{ACAD_REACTORS
330
47
102
}
330
47
100
AcDbScale
 70
     0
300
3/8" = 1'-0"
140
0.375
141
12.0
290
     0
  0
SCALE
  5
62
102
{ACAD_REACTORS
330
47
102
}
330
47
100
AcDbScale
 70
     0
300
1/2" = 1'-0"
140
0.5
141
12.0
290
     0
  0
SCALE
  5
63
102
{ACAD_REACTORS
330
47
102
}
330
47
100
AcDbScale
 70
     0
300
3/4" = 1'-0"
140
0.75
141
12.0
290
     0
  0
SCALE
  5
64
102
{ACAD_REACTORS
330
47
102
}
330
47
100
AcDbScale
 70
     0
300
1" = 1'-0"
140
1.0
141
12.0
290
     0
  0
SCALE
  5
65
102
{ACAD_REACTORS
330
47
102
}
330
47
100
AcDbScale
 70
     0
300
1-1/2" = 1'-0"
140
1.5
141
12.0
290
     0
  0
SCALE
  5
66
102
{ACAD_REACTORS
330
47
102
}
330
47
100
AcDbScale
 70
     0
300
3" = 1'-0"
140
3.0
141
12.0
290
     0
  0
SCALE
  5
67
102
{ACAD_REACTORS
330
47
102
}
330
47
100
AcDbScale
 70
     0
300
6" = 1'-0"
140
6.0
141
12.0
290
     0
  0
SCALE
  5
68
102
{ACAD_REACTORS
330
47
102
}
330
47
100
AcDbScale
 70
     0
300
1'-0" = 1'-0"
140
12.0
141
12.0
290
     0
  0
TABLESTYLE
  5
6A
102
{ACAD_REACTORS
330
69
102
}
102
{ACAD_XDICTIONARY
360
1E6
102
}
330
69
100
AcDbTableStyle
  3
Standard
 70
     0
 71
     0
 40
0.06
 41
0.06
280
     0
281
     0
  7
Standard
140
0.18
170
     2
 62
     0
 63
   257
283
     0
 90
        4
 91
        0
  1

274
    -2
284
     1
 64
     0
275
    -2
285
     1
 65
     0
276
    -2
286
     1
 66
     0
277
    -2
287
     1
 67
     0
278
    -2
288
     1
 68
     0
279
    -2
289
     1
 69
     0
  7
Standard
140
0.25
170
     5
 62
     0
 63
   257
283
     0
 90
        4
 91
        0
  1

274
    -2
284
     1
 64
     0
275
    -2
285
     1
 65
     0
276
    -2
286
     1
 66
     0
277
    -2
287
     1
 67
     0
278
    -2
288
     1
 68
     0
279
    -2
289
     1
 69
     0
  7
Standard
140
0.18
170
     5
 62
     0
 63
   257
283
     0
 90
        4
 91
        0
  1

274
    -2
284
     1
 64
     0
275
    -2
285
     1
 65
     0
276
    -2
286
     1
 66
     0
277
    -2
287
     1
 67
     0
278
    -2
288
     1
 68
     0
279
    -2
289
     1
 69
     0
  0
VISUALSTYLE
  5
2F
102
{ACAD_REACTORS
330
2A
102
}
330
2A
100
AcDbVisualStyle
  2
2dWireframe
 70
     4
177
     3
291
     0
 70
    58
 90
        0
176
     1
 90
        2
176
     1
 90
        0
176
     1
 90
        0
176
     1
 40
0.6
176
     1
 40
30.0
176
     1
 62
     7
420
 16777215
176
     1
 90
        1
176
     1
 90
        4
176
     1
 62
     7
176
     1
 62
   257
176
     1
 90
        1
176
     1
 90
        1
176
     1
 40
1.0
176
     1
 90
        0
176
     1
 62
   257
176
     1
 40
1.0
176
     1
 90
        1
176
     1
 90
        6
176
     1
 90
        2
176
     1
 62
     7
176
     1
 90
        5
176
     1
 90
        0
176
     1
 90
        0
176
     1
290
     0
176
     1
 90
        1
176
     1
 40
0.0
176
     1
 90
        0
176
     1
290
     1
176
     1
290
     1
176
     1
290
     0
176
     1
290
     0
176
     1
290
     0
176
     1
290
     0
176
     1
290
     0
176
     1
290
     0
176
     1
290
     0
176
     1
 90
       50
176
     1
 40
0.0
176
     1
 40
1.0
176
     1
 90
        0
176
     1
 62
    18
420
        0
176
     1
 90
       50
176
     1
 90
        3
176
     1
 62
     5
420
      255
176
     1
290
     0
176
     1
 90
       50
176
     1
 90
       50
176
     1
 90
       50
176
     1
290
     0
176
     1
 90
       50
176
     1
 62
   256
176
     0
 40
1.0
176
     0
 90
        2
176
     1
  1
strokes_ogs.tif
176
     1
290
     0
176
     1
 40
1.0
176
     1
 40
1.0
176
     1
  0
VISUALSTYLE
  5
32
102
{ACAD_REACTORS
330
2A
102
}
330
2A
100
AcDbVisualStyle
  2
Basic
 70
     7
177
     3
291
     1
 70
    58
 90
        1
176
     1
 90
        0
176
     1
 90
        1
176
     1
 90
        0
176
     1
 40
0.6
176
     1
 40
30.0
176
     1
 62
     7
420
 16777215
176
     1
 90
        0
176
     1
 90
        4
176
     1
 62
     7
176
     1
 62
   257
176
     1
 90
        1
176
     1
 90
        1
176
     1
 40
1.0
176
     1
 90
        8
176
     1
 62
     7
176
     1
 40
1.0
176
     1
 90
        1
176
     1
 90
        6
176
     1
 90
        2
176
     1
 62
     7
176
     1
 90
        5
176
     1
 90
        0
176
     1
 90
        0
176
     1
290
     0
176
     1
 90
        1
176
     1
 40
0.0
176
     1
 90
        0
176
     1
290
     0
176
     1
290
     1
176
     1
290
     1
176
     1
290
     0
176
     1
290
     0
176
     1
290
     0
176
     1
290
     0
176
     1
290
     0
176
     1
290
     0
176
     1
 90
       50
176
     1
 40
0.0
176
     1
 40
1.0
176
     1
 90
        0
176
     1
 62
    18
420
        0
176
     1
 90
       50
176
     1
 90
        3
176
     1
 62
     5
420
      255
176
     1
290
     0
176
     1
 90
       50
176
     1
 90
       50
176
     1
 90
       50
176
     1
290
     0
176
     1
 90
       50
176
     1
 62
   256
176
     0
 40
1.0
176
     0
 90
        2
176
     1
  1
strokes_ogs.tif
176
     1
290
     0
176
     1
 40
1.0
176
     1
 40
1.0
176
     1
  0
VISUALSTYLE
  5
36
102
{ACAD_REACTORS
330
2A
102
}
330
2A
100
AcDbVisualStyle
  2
Brighten
 70
    12
177
     3
291
     1
 70
    58
 90
        2
176
     1
 90
        2
176
     1
 90
        0
176
     1
 90
        0
176
     1
 40
0.6
176
     1
 40
30.0
176
     1
 62
     7
420
 16777215
176
     1
 90
        1
176
     1
 90
        4
176
     1
 62
     7
176
     1
 62
   257
176
     1
 90
        1
176
     1
 90
        1
176
     1
 40
1.0
176
     1
 90
        8
176
     1
 62
     7
176
     1
 40
1.0
176
     1
 90
        1
176
     1
 90
        6
176
     1
 90
        2
176
     1
 62
     7
176
     1
 90
        5
176
     1
 90
        0
176
     1
 90
        0
176
     1
290
     0
176
     1
 90
        1
176
     1
 40
50.0
176
     1
 90
        0
176
     1
290
     0
176
     1
290
     1
176
     1
290
     1
176
     1
290
     0
176
     1
290
     0
176
     1
290
     0
176
     1
290
     0
176
     1
290
     0
176
     1
290
     0
176
     1
 90
       50
176
     1
 40
0.0
176
     1
 40
1.0
176
     1
 90
        0
176
     1
 62
    18
420
        0
176
     1
 90
       50
176
     1
 90
        3
176
     1
 62
     5
420
      255
176
     1
290
     0
176
     1
 90
       50
176
     1
 90
       50
176
     1
 90
       50
176
     1
290
     0
176
     1
 90
       50
176
     1
 62
   256
176
     0
 40
1.0
176
     0
 90
        2
176
     1
  1
strokes_ogs.tif
176
     1
290
     0
176
     1
 40
1.0
176
     1
 40
1.0
176
     1
  0
VISUALSTYLE
  5
3A
102
{ACAD_REACTORS
330
2A
102
}
330
2A
100
AcDbVisualStyle
  2
ColorChange
 70
    16
177
     3
291
     1
 70
    58
 90
        2
176
     1
 90
        2
176
     1
 90
        3
176
     1
 90
        0
176
     1
 40
0.6
176
     1
 40
30.0
176
     1
 62
     8
420
  8421504
176
     1
 90
        1
176
     1
 90
        4
176
     1
 62
     7
176
     1
 62
   257
176
     1
 90
        1
176
     1
 90
        1
176
     1
 40
1.0
176
     1
 90
        8
176
     1
 62
     8
420
  8421504
176
     1
 40
1.0
176
     1
 90
        1
176
     1
 90
        6
176
     1
 90
        2
176
     1
 62
     7
176
     1
 90
        5
176
     1
 90
        0
176
     1
 90
        0
176
     1
290
     0
176
     1
 90
        1
176
     1
 40
0.0
176
     1
 90
        0
176
     1
290
     0
176
     1
290
     1
176
     1
290
     1
176
     1
290
     0
176
     1
290
     0
176
     1
290
     0
176
     1
290
     0
176
     1
290
     0
176
     1
290
     0
176
     1
 90
       50
176
     1
 40
0.0
176
     1
 40
1.0
176
     1
 90
        0
176
     1
 62
    18
420
        0
176
     1
 90
       50
176
     1
 90
        3
176
     1
 62
     5
420
      255
176
     1
290
     0
176
     1
 90
       50
176
     1
 90
       50
176
     1
 90
       50
176
     1
290
     0
176
     1
 90
       50
176
     1
 62
   256
176
     0
 40
1.0
176
     0
 90
        2
176
     1
  1
strokes_ogs.tif
176
     1
290
     0
176
     1
 40
1.0
176
     1
 40
1.0
176
     1
  0
VISUALSTYLE
  5
34
102
{ACAD_REACTORS
330
2A
102
}
330
2A
100
AcDbVisualStyle
  2
Conceptual
 70
     9
177
     3
291
     0
 70
    58
 90
        3
176
     1
 90
        2
176
     1
 90
        0
176
     1
 90
        0
176
     1
 40
0.6
176
     1
 40
30.0
176
     1
 62
     7
420
 16777215
176
     1
 90
        2
176
     1
 90
        2
176
     1
 62
     7
176
     1
 62
   257
176
     1
 90
        1
176
     1
 90
        1
176
     1
 40
179.0
176
     1
 90
        8
176
     1
 62
     7
176
     1
 40
1.0
176
     1
 90
        1
176
     1
 90
        6
176
     1
 90
        2
176
     1
 62
     7
176
     1
 90
        3
176
     1
 90
        0
176
     1
 90
        0
176
     1
290
     0
176
     1
 90
        1
176
     1
 40
0.0
176
     1
 90
        0
176
     1
290
     0
176
     1
290
     1
176
     1
290
     1
176
     1
290
     0
176
     1
290
     0
176
     1
290
     0
176
     1
290
     0
176
     1
290
     0
176
     1
290
     0
176
     1
 90
       50
176
     1
 40
0.0
176
     1
 40
1.0
176
     1
 90
        0
176
     1
 62
    18
420
        0
176
     1
 90
       50
176
     1
 90
        3
176
     1
 62
     5
420
      255
176
     1
290
     0
176
     1
 90
       50
176
     1
 90
       50
176
     1
 90
       50
176
     1
290
     0
176
     1
 90
       50
176
     1
 62
   256
176
     0
 40
1.0
176
     0
 90
        2
176
     1
  1
strokes_ogs.tif
176
     1
290
     0
176
     1
 40
1.0
176
     1
 40
1.0
176
     1
  0
VISUALSTYLE
  5
35
102
{ACAD_REACTORS
330
2A
102
}
330
2A
100
AcDbVisualStyle
  2
Dim
 70
    11
177
     3
291
     1
 70
    58
 90
        2
176
     1
 90
        2
176
     1
 90
        0
176
     1
 90
        0
176
     1
 40
0.6
176
     1
 40
30.0
176
     1
 62
     7
420
 16777215
176
     1
 90
        1
176
     1
 90
        4
176
     1
 62
     7
176
     1
 62
   257
176
     1
 90
        1
176
     1
 90
        1
176
     1
 40
1.0
176
     1
 90
        8
176
     1
 62
     7
176
     1
 40
1.0
176
     1
 90
        1
176
     1
 90
        6
176
     1
 90
        2
176
     1
 62
     7
176
     1
 90
        5
176
     1
 90
        0
176
     1
 90
        0
176
     1
290
     0
176
     1
 90
        1
176
     1
 40
-50.0
176
     1
 90
        0
176
     1
290
     0
176
     1
290
     1
176
     1
290
     1
176
     1
290
     0
176
     1
290
     0
176
     1
290
     0
176
     1
290
     0
176
     1
290
     0
176
     1
290
     0
176
     1
 90
       50
176
     1
 40
0.0
176
     1
 40
1.0
176
     1
 90
        0
176
     1
 62
    18
420
        0
176
     1
 90
       50
176
     1
 90
        3
176
     1
 62
     5
420
      255
176
     1
290
     0
176
     1
 90
       50
176
     1
 90
       50
176
     1
 90
       50
176
     1
290
     0
176
     1
 90
       50
176
     1
 62
   256
176
     0
 40
1.0
176
     0
 90
        2
176
     1
  1
strokes_ogs.tif
176
     1
290
     0
176
     1
 40
1.0
176
     1
 40
1.0
176
     1
  0
VISUALSTYLE
  5
3D
102
{ACAD_REACTORS
330
2A
102
}
330
2A
100
AcDbVisualStyle
  2
EdgeColorOff
 70
    22
177
     3
291
     1
 70
    58
 90
        2
176
     0
 90
        2
176
     0
 90
        0
176
     0
 90
        0
176
     0
 40
0.6
176
     0
 40
30.0
176
     0
 62
     7
420
 16777215
176
     0
 90
        1
176
     0
 90
        4
176
     0
 62
     7
176
     0
 62
   257
176
     0
 90
        1
176
     0
 90
        1
176
     0
 40
1.0
176
     0
 90
        8
176
     2
 62
     7
176
     0
 40
1.0
176
     0
 90
        1
176
     0
 90
        6
176
     0
 90
        2
176
     0
 62
     7
176
     0
 90
        5
176
     0
 90
        0
176
     0
 90
        0
176
     0
290
     0
176
     0
 90
        1
176
     0
 40
0.0
176
     0
 90
        0
176
     0
290
     0
176
     0
290
     1
176
     0
290
     1
176
     0
290
     0
176
     0
290
     0
176
     0
290
     0
176
     0
290
     0
176
     0
290
     0
176
     0
290
     0
176
     0
 90
       50
176
     0
 40
0.0
176
     0
 40
1.0
176
     0
 90
        0
176
     0
 62
    18
420
        0
176
     0
 90
       50
176
     0
 90
        3
176
     0
 62
     5
420
      255
176
     0
290
     0
176
     0
 90
       50
176
     0
 90
       50
176
     0
 90
       50
176
     0
290
     0
176
     0
 90
       50
176
     0
 62
   256
176
     0
 40
1.0
176
     0
 90
        2
176
     0
  1
strokes_ogs.tif
176
     0
290
     0
176
     0
 40
1.0
176
     0
 40
1.0
176
     0
  0
VISUALSTYLE
  5
39
102
{ACAD_REACTORS
330
2A
102
}
330
2A
100
AcDbVisualStyle
  2
Facepattern
 70
    15
177
     3
291
     1
 70
    58
 90
        2
176
     1
 90
        2
176
     1
 90
        0
176
     1
 90
        0
176
     1
 40
0.6
176
     1
 40
30.0
176
     1
 62
     7
420
 16777215
176
     1
 90
        1
176
     1
 90
        4
176
     1
 62
     7
176
     1
 62
   257
176
     1
 90
        1
176
     1
 90
        1
176
     1
 40
1.0
176
     1
 90
        8
176
     1
 62
     7
176
     1
 40
1.0
176
     1
 90
        1
176
     1
 90
        6
176
     1
 90
        2
176
     1
 62
     7
176
     1
 90
        5
176
     1
 90
        0
176
     1
 90
        0
176
     1
290
     0
176
     1
 90
        1
176
     1
 40
0.0
176
     1
 90
        0
176
     1
290
     0
176
     1
290
     1
176
     1
290
     1
176
     1
290
     0
176
     1
290
     0
176
     1
290
     0
176
     1
290
     0
176
     1
290
     0
176
     1
290
     0
176
     1
 90
       50
176
     1
 40
0.0
176
     1
 40
1.0
176
     1
 90
        0
176
     1
 62
    18
420
        0
176
     1
 90
       50
176
     1
 90
        3
176
     1
 62
     5
420
      255
176
     1
290
     0
176
     1
 90
       50
176
     1
 90
       50
176
     1
 90
       50
176
     1
290
     0
176
     1
 90
       50
176
     1
 62
   256
176
     0
 40
1.0
176
     0
 90
        2
176
     1
  1
strokes_ogs.tif
176
     1
290
     0
176
     1
 40
1.0
176
     1
 40
1.0
176
     1
  0
VISUALSTYLE
  5
2B
102
{ACAD_REACTORS
330
2A
102
}
330
2A
100
AcDbVisualStyle
  2
Flat
 70
     0
177
     3
291
     1
 70
    58
 90
        2
176
     1
 90
        1
176
     1
 90
        1
176
     1
 90
        2
176
     1
 40
0.6
176
     1
 40
30.0
176
     1
 62
     7
420
 16777215
176
     1
 90
        0
176
     1
 90
        0
176
     1
 62
     7
176
     1
 62
   257
176
     1
 90
        1
176
     1
 90
        1
176
     1
 40
1.0
176
     1
 90
        8
176
     1
 62
     7
176
     1
 40
1.0
176
     1
 90
        1
176
     1
 90
        6
176
     1
 90
        2
176
     1
 62
     7
176
     1
 90
        5
176
     1
 90
        0
176
     1
 90
        0
176
     1
290
     0
176
     1
 90
       13
176
     1
 40
0.0
176
     1
 90
        0
176
     1
290
     0
176
     1
290
     1
176
     1
290
     1
176
     1
290
     0
176
     1
290
     0
176
     1
290
     0
176
     1
290
     0
176
     1
290
     0
176
     1
290
     0
176
     1
 90
       50
176
     1
 40
0.0
176
     1
 40
1.0
176
     1
 90
        0
176
     1
 62
    18
420
        0
176
     1
 90
       50
176
     1
 90
        3
176
     1
 62
     5
420
      255
176
     1
290
     0
176
     1
 90
       50
176
     1
 90
       50
176
     1
 90
       50
176
     1
290
     0
176
     1
 90
       50
176
     1
 62
   256
176
     0
 40
1.0
176
     0
 90
        2
176
     1
  1
strokes_ogs.tif
176
     1
290
     0
176
     1
 40
1.0
176
     1
 40
1.0
176
     1
  0
VISUALSTYLE
  5
2C
102
{ACAD_REACTORS
330
2A
102
}
330
2A
100
AcDbVisualStyle
  2
FlatWithEdges
 70
     1
177
     3
291
     1
 70
    58
 90
        2
176
     1
 90
        1
176
     1
 90
        1
176
     1
 90
        2
176
     1
 40
0.6
176
     1
 40
30.0
176
     1
 62
     7
420
 16777215
176
     1
 90
        1
176
     1
 90
        0
176
     1
 62
     7
176
     1
 62
   257
176
     1
 90
        1
176
     1
 90
        1
176
     1
 40
1.0
176
     1
 90
        0
176
     1
 62
   257
176
     1
 40
1.0
176
     1
 90
        1
176
     1
 90
        6
176
     1
 90
        2
176
     1
 62
     7
176
     1
 90
        5
176
     1
 90
        0
176
     1
 90
        0
176
     1
290
     0
176
     1
 90
       13
176
     1
 40
0.0
176
     1
 90
        0
176
     1
290
     0
176
     1
290
     1
176
     1
290
     1
176
     1
290
     0
176
     1
290
     0
176
     1
290
     0
176
     1
290
     0
176
     1
290
     0
176
     1
290
     0
176
     1
 90
       50
176
     1
 40
0.0
176
     1
 40
1.0
176
     1
 90
        0
176
     1
 62
    18
420
        0
176
     1
 90
       50
176
     1
 90
        3
176
     1
 62
     5
420
      255
176
     1
290
     0
176
     1
 90
       50
176
     1
 90
       50
176
     1
 90
       50
176
     1
290
     0
176
     1
 90
       50
176
     1
 62
   256
176
     0
 40
1.0
176
     0
 90
        2
176
     1
  1
strokes_ogs.tif
176
     1
290
     0
176
     1
 40
1.0
176
     1
 40
1.0
176
     1
  0
VISUALSTYLE
  5
2D
102
{ACAD_REACTORS
330
2A
102
}
330
2A
100
AcDbVisualStyle
  2
Gouraud
 70
     2
177
     3
291
     1
 70
    58
 90
        2
176
     1
 90
        2
176
     1
 90
        1
176
     1
 90
        2
176
     1
 40
0.6
176
     1
 40
30.0
176
     1
 62
     7
420
 16777215
176
     1
 90
        0
176
     1
 90
        0
176
     1
 62
     7
176
     1
 62
   257
176
     1
 90
        1
176
     1
 90
        1
176
     1
 40
1.0
176
     1
 90
        0
176
     1
 62
     7
176
     1
 40
1.0
176
     1
 90
        1
176
     1
 90
        6
176
     1
 90
        2
176
     1
 62
     7
176
     1
 90
        5
176
     1
 90
        0
176
     1
 90
        0
176
     1
290
     0
176
     1
 90
       13
176
     1
 40
0.0
176
     1
 90
        0
176
     1
290
     0
176
     1
290
     1
176
     1
290
     1
176
     1
290
     0
176
     1
290
     0
176
     1
290
     0
176
     1
290
     0
176
     1
290
     0
176
     1
290
     0
176
     1
 90
       50
176
     1
 40
0.0
176
     1
 40
1.0
176
     1
 90
        0
176
     1
 62
    18
420
        0
176
     1
 90
       50
176
     1
 90
        3
176
     1
 62
     5
420
      255
176
     1
290
     0
176
     1
 90
       50
176
     1
 90
       50
176
     1
 90
       50
176
     1
290
     0
176
     1
 90
       50
176
     1
 62
   256
176
     0
 40
1.0
176
     0
 90
        2
176
     1
  1
strokes_ogs.tif
176
     1
290
     0
176
     1
 40
1.0
176
     1
 40
1.0
176
     1
  0
VISUALSTYLE
  5
2E
102
{ACAD_REACTORS
330
2A
102
}
330
2A
100
AcDbVisualStyle
  2
GouraudWithEdges
 70
     3
177
     3
291
     1
 70
    58
 90
        2
176
     1
 90
        2
176
     1
 90
        1
176
     1
 90
        2
176
     1
 40
0.6
176
     1
 40
30.0
176
     1
 62
     7
420
 16777215
176
     1
 90
        1
176
     1
 90
        0
176
     1
 62
     7
176
     1
 62
   257
176
     1
 90
        1
176
     1
 90
        1
176
     1
 40
1.0
176
     1
 90
        0
176
     1
 62
   257
176
     1
 40
1.0
176
     1
 90
        1
176
     1
 90
        6
176
     1
 90
        2
176
     1
 62
     7
176
     1
 90
        5
176
     1
 90
        0
176
     1
 90
        0
176
     1
290
     0
176
     1
 90
       13
176
     1
 40
0.0
176
     1
 90
        0
176
     1
290
     0
176
     1
290
     1
176
     1
290
     1
176
     1
290
     0
176
     1
290
     0
176
     1
290
     0
176
     1
290
     0
176
     1
290
     0
176
     1
290
     0
176
     1
 90
       50
176
     1
 40
0.0
176
     1
 40
1.0
176
     1
 90
        0
176
     1
 62
    18
420
        0
176
     1
 90
       50
176
     1
 90
        3
176
     1
 62
     5
420
      255
176
     1
290
     0
176
     1
 90
       50
176
     1
 90
       50
176
     1
 90
       50
176
     1
290
     0
176
     1
 90
       50
176
     1
 62
   256
176
     0
 40
1.0
176
     0
 90
        2
176
     1
  1
strokes_ogs.tif
176
     1
290
     0
176
     1
 40
1.0
176
     1
 40
1.0
176
     1
  0
VISUALSTYLE
  5
31
102
{ACAD_REACTORS
330
2A
102
}
330
2A
100
AcDbVisualStyle
  2
Hidden
 70
     6
177
     3
291
     0
 70
    58
 90
        1
176
     1
 90
        2
176
     1
 90
        2
176
     1
 90
        0
176
     1
 40
0.6
176
     1
 40
30.0
176
     1
 62
     7
420
 16777215
176
     1
 90
        2
176
     1
 90
        2
176
     1
 62
     7
176
     1
 62
   257
176
     1
 90
        2
176
     1
 90
        1
176
     1
 40
40.0
176
     1
 90
        0
176
     1
 62
   257
176
     1
 40
1.0
176
     1
 90
        1
176
     1
 90
        6
176
     1
 90
        2
176
     1
 62
     7
176
     1
 90
        3
176
     1
 90
        0
176
     1
 90
        0
176
     1
290
     0
176
     1
 90
        1
176
     1
 40
0.0
176
     1
 90
        0
176
     1
290
     0
176
     1
290
     1
176
     1
290
     1
176
     1
290
     0
176
     1
290
     0
176
     1
290
     0
176
     1
290
     0
176
     1
290
     0
176
     1
290
     0
176
     1
 90
       50
176
     1
 40
0.0
176
     1
 40
1.0
176
     1
 90
        0
176
     1
 62
    18
420
        0
176
     1
 90
       50
176
     1
 90
        3
176
     1
 62
     5
420
      255
176
     1
290
     0
176
     1
 90
       50
176
     1
 90
       50
176
     1
 90
       50
176
     1
290
     0
176
     1
 90
       50
176
     1
 62
   256
176
     0
 40
1.0
176
     0
 90
        2
176
     1
  1
strokes_ogs.tif
176
     1
290
     0
176
     1
 40
1.0
176
     1
 40
1.0
176
     1
  0
VISUALSTYLE
  5
3B
102
{ACAD_REACTORS
330
2A
102
}
330
2A
100
AcDbVisualStyle
  2
JitterOff
 70
    20
177
     3
291
     1
 70
    58
 90
        2
176
     0
 90
        2
176
     0
 90
        0
176
     0
 90
        0
176
     0
 40
0.6
176
     0
 40
30.0
176
     0
 62
     7
420
 16777215
176
     0
 90
        1
176
     0
 90
        4
176
     0
 62
     7
176
     0
 62
   257
176
     0
 90
        1
176
     0
 90
        1
176
     0
 40
1.0
176
     0
 90
       10
176
     2
 62
     7
176
     0
 40
1.0
176
     0
 90
        1
176
     0
 90
        6
176
     0
 90
        2
176
     0
 62
     7
176
     0
 90
        5
176
     0
 90
        0
176
     0
 90
        0
176
     0
290
     0
176
     0
 90
        1
176
     0
 40
0.0
176
     0
 90
        0
176
     0
290
     0
176
     0
290
     1
176
     0
290
     1
176
     0
290
     0
176
     0
290
     0
176
     0
290
     0
176
     0
290
     0
176
     0
290
     0
176
     0
290
     0
176
     0
 90
       50
176
     0
 40
0.0
176
     0
 40
1.0
176
     0
 90
        0
176
     0
 62
    18
420
        0
176
     0
 90
       50
176
     0
 90
        3
176
     0
 62
     5
420
      255
176
     0
290
     0
176
     0
 90
       50
176
     0
 90
       50
176
     0
 90
       50
176
     0
290
     0
176
     0
 90
       50
176
     0
 62
   256
176
     0
 40
1.0
176
     0
 90
        2
176
     0
  1
strokes_ogs.tif
176
     0
290
     0
176
     0
 40
1.0
176
     0
 40
1.0
176
     0
  0
VISUALSTYLE
  5
38
102
{ACAD_REACTORS
330
2A
102
}
330
2A
100
AcDbVisualStyle
  2
Linepattern
 70
    14
177
     3
291
     1
 70
    58
 90
        2
176
     1
 90
        2
176
     1
 90
        0
176
     1
 90
        0
176
     1
 40
0.6
176
     1
 40
30.0
176
     1
 62
     7
420
 16777215
176
     1
 90
        1
176
     1
 90
        4
176
     1
 62
     7
176
     1
 62
   257
176
     1
 90
        7
176
     1
 90
        7
176
     1
 40
1.0
176
     1
 90
        8
176
     1
 62
     7
176
     1
 40
1.0
176
     1
 90
        1
176
     1
 90
        6
176
     1
 90
        2
176
     1
 62
     7
176
     1
 90
        5
176
     1
 90
        0
176
     1
 90
        0
176
     1
290
     0
176
     1
 90
        1
176
     1
 40
0.0
176
     1
 90
        0
176
     1
290
     0
176
     1
290
     1
176
     1
290
     1
176
     1
290
     0
176
     1
290
     0
176
     1
290
     0
176
     1
290
     0
176
     1
290
     0
176
     1
290
     0
176
     1
 90
       50
176
     1
 40
0.0
176
     1
 40
1.0
176
     1
 90
        0
176
     1
 62
    18
420
        0
176
     1
 90
       50
176
     1
 90
        3
176
     1
 62
     5
420
      255
176
     1
290
     0
176
     1
 90
       50
176
     1
 90
       50
176
     1
 90
       50
176
     1
290
     0
176
     1
 90
       50
176
     1
 62
   256
176
     0
 40
1.0
176
     0
 90
        2
176
     1
  1
strokes_ogs.tif
176
     1
290
     0
176
     1
 40
1.0
176
     1
 40
1.0
176
     1
  0
VISUALSTYLE
  5
3C
102
{ACAD_REACTORS
330
2A
102
}
330
2A
100
AcDbVisualStyle
  2
OverhangOff
 70
    21
177
     3
291
     1
 70
    58
 90
        2
176
     0
 90
        2
176
     0
 90
        0
176
     0
 90
        0
176
     0
 40
0.6
176
     0
 40
30.0
176
     0
 62
     7
420
 16777215
176
     0
 90
        1
176
     0
 90
        4
176
     0
 62
     7
176
     0
 62
   257
176
     0
 90
        1
176
     0
 90
        1
176
     0
 40
1.0
176
     0
 90
        9
176
     2
 62
     7
176
     0
 40
1.0
176
     0
 90
        1
176
     0
 90
        6
176
     0
 90
        2
176
     0
 62
     7
176
     0
 90
        5
176
     0
 90
        0
176
     0
 90
        0
176
     0
290
     0
176
     0
 90
        1
176
     0
 40
0.0
176
     0
 90
        0
176
     0
290
     0
176
     0
290
     1
176
     0
290
     1
176
     0
290
     0
176
     0
290
     0
176
     0
290
     0
176
     0
290
     0
176
     0
290
     0
176
     0
290
     0
176
     0
 90
       50
176
     0
 40
0.0
176
     0
 40
1.0
176
     0
 90
        0
176
     0
 62
    18
420
        0
176
     0
 90
       50
176
     0
 90
        3
176
     0
 62
     5
420
      255
176
     0
290
     0
176
     0
 90
       50
176
     0
 90
       50
176
     0
 90
       50
176
     0
290
     0
176
     0
 90
       50
176
     0
 62
   256
176
     0
 40
1.0
176
     0
 90
        2
176
     0
  1
strokes_ogs.tif
176
     0
290
     0
176
     0
 40
1.0
176
     0
 40
1.0
176
     0
  0
VISUALSTYLE
  5
33
102
{ACAD_REACTORS
330
2A
102
}
330
2A
100
AcDbVisualStyle
  2
Realistic
 70
     8
177
     3
291
     0
 70
    58
 90
        2
176
     1
 90
        3
176
     1
 90
        0
176
     1
 90
        2
176
     1
 40
0.6
176
     1
 40
30.0
176
     1
 62
     7
420
 16777215
176
     1
 90
        0
176
     1
 90
        0
176
     1
 62
     7
176
     1
 62
   257
176
     1
 90
        1
176
     1
 90
        1
176
     1
 40
1.0
176
     1
 90
        8
176
     1
 62
   257
176
     1
 40
1.0
176
     1
 90
        1
176
     1
 90
        6
176
     1
 90
        2
176
     1
 62
     7
176
     1
 90
        3
176
     1
 90
        0
176
     1
 90
        0
176
     1
290
     0
176
     1
 90
       13
176
     1
 40
0.0
176
     1
 90
        0
176
     1
290
     0
176
     1
290
     1
176
     1
290
     1
176
     1
290
     0
176
     1
290
     0
176
     1
290
     0
176
     1
290
     0
176
     1
290
     0
176
     1
290
     0
176
     1
 90
       50
176
     1
 40
0.0
176
     1
 40
1.0
176
     1
 90
        0
176
     1
 62
    18
420
        0
176
     1
 90
       50
176
     1
 90
        3
176
     1
 62
     5
420
      255
176
     1
290
     0
176
     1
 90
       50
176
     1
 90
       50
176
     1
 90
       50
176
     1
290
     0
176
     1
 90
       50
176
     1
 62
   256
176
     0
 40
1.0
176
     0
 90
        2
176
     1
  1
strokes_ogs.tif
176
     1
290
     0
176
     1
 40
1.0
176
     1
 40
1.0
176
     1
  0
VISUALSTYLE
  5
42
102
{ACAD_REACTORS
330
2A
102
}
330
2A
100
AcDbVisualStyle
  2
Shaded
 70
    27
177
     3
291
     0
 70
    58
 90
        2
176
     1
 90
        2
176
     1
 90
        1
176
     1
 90
        2
176
     1
 40
0.6
176
     1
 40
30.0
176
     1
 62
     7
420
 16777215
176
     1
 90
        0
176
     1
 90
        4
176
     1
 62
     7
176
     1
 62
   257
176
     1
 90
        1
176
     1
 90
        1
176
     1
 40
1.0
176
     1
 90
        8
176
     1
 62
   257
176
     1
 40
1.0
176
     1
 90
        1
176
     1
 90
        6
176
     1
 90
        2
176
     1
 62
     8
420
  7895160
176
     1
 90
        3
176
     1
 90
        0
176
     1
 90
        0
176
     1
290
     0
176
     1
 90
        5
176
     1
 40
0.0
176
     1
 90
        0
176
     1
290
     0
176
     1
290
     1
176
     1
290
     1
176
     1
290
     0
176
     1
290
     0
176
     1
290
     0
176
     1
290
     0
176
     1
290
     0
176
     1
290
     0
176
     1
 90
       50
176
     1
 40
0.0
176
     1
 40
1.0
176
     1
 90
        0
176
     1
 62
    18
420
        0
176
     1
 90
       50
176
     1
 90
        3
176
     1
 62
     5
420
      255
176
     1
290
     0
176
     1
 90
       50
176
     1
 90
       50
176
     1
 90
       50
176
     1
290
     0
176
     1
 90
       50
176
     1
 62
   256
176
     0
 40
1.0
176
     0
 90
        2
176
     1
  1
strokes_ogs.tif
176
     1
290
     0
176
     1
 40
1.0
176
     1
 40
1.0
176
     1
  0
VISUALSTYLE
  5
41
102
{ACAD_REACTORS
330
2A
102
}
330
2A
100
AcDbVisualStyle
  2
Shaded with edges
 70
    26
177
     3
291
     0
 70
    58
 90
        2
176
     1
 90
        2
176
     1
 90
        1
176
     1
 90
        2
176
     1
 40
0.6
176
     1
 40
30.0
176
     1
 62
     7
420
 16777215
176
     1
 90
        1
176
     1
 90
       10
176
     1
 62
     7
176
     1
 62
   257
176
     1
 90
        2
176
     1
 90
        1
176
     1
 40
1.0
176
     1
 90
        8
176
     1
 62
   257
176
     1
 40
1.0
176
     1
 90
        1
176
     1
 90
        6
176
     1
 90
        2
176
     1
 62
     7
176
     1
 90
        3
176
     1
 90
        0
176
     1
 90
        0
176
     1
290
     0
176
     1
 90
        5
176
     1
 40
0.0
176
     1
 90
        0
176
     1
290
     0
176
     1
290
     1
176
     1
290
     1
176
     1
290
     0
176
     1
290
     0
176
     1
290
     0
176
     1
290
     0
176
     1
290
     0
176
     1
290
     0
176
     1
 90
       50
176
     1
 40
0.0
176
     1
 40
1.0
176
     1
 90
        0
176
     1
 62
    18
420
        0
176
     1
 90
       50
176
     1
 90
        3
176
     1
 62
     5
420
      255
176
     1
290
     0
176
     1
 90
       50
176
     1
 90
       50
176
     1
 90
       50
176
     1
290
     0
176
     1
 90
       50
176
     1
 62
   256
176
     0
 40
1.0
176
     0
 90
        2
176
     1
  1
strokes_ogs.tif
176
     1
290
     0
176
     1
 40
1.0
176
     1
 40
1.0
176
     1
  0
VISUALSTYLE
  5
3E
102
{ACAD_REACTORS
330
2A
102
}
330
2A
100
AcDbVisualStyle
  2
Shades of Gray
 70
    23
177
     3
291
     0
 70
    58
 90
        2
176
     1
 90
        2
176
     1
 90
        3
176
     1
 90
        0
176
     1
 40
0.6
176
     1
 40
30.0
176
     1
 62
     7
420
 16777215
176
     1
 90
        2
176
     1
 90
        2
176
     1
 62
     7
176
     1
 62
     7
176
     1
 90
        1
176
     1
 90
        1
176
     1
 40
40.0
176
     1
 90
        8
176
     1
 62
     7
176
     1
 40
1.0
176
     1
 90
        1
176
     1
 90
        6
176
     1
 90
        2
176
     1
 62
     7
176
     1
 90
        3
176
     1
 90
        0
176
     1
 90
        0
176
     1
290
     0
176
     1
 90
        1
176
     1
 40
0.0
176
     1
 90
        0
176
     1
290
     0
176
     1
290
     1
176
     1
290
     1
176
     1
290
     0
176
     1
290
     0
176
     1
290
     0
176
     1
290
     0
176
     1
290
     0
176
     1
290
     0
176
     1
 90
       50
176
     1
 40
0.0
176
     1
 40
1.0
176
     1
 90
        0
176
     1
 62
    18
420
        0
176
     1
 90
       50
176
     1
 90
        3
176
     1
 62
     5
420
      255
176
     1
290
     0
176
     1
 90
       50
176
     1
 90
       50
176
     1
 90
       50
176
     1
290
     0
176
     1
 90
       50
176
     1
 62
   256
176
     0
 40
1.0
176
     0
 90
        2
176
     1
  1
strokes_ogs.tif
176
     1
290
     0
176
     1
 40
1.0
176
     1
 40
1.0
176
     1
  0
VISUALSTYLE
  5
3F
102
{ACAD_REACTORS
330
2A
102
}
330
2A
100
AcDbVisualStyle
  2
Sketchy
 70
    24
177
     3
291
     0
 70
    58
 90
        1
176
     1
 90
        2
176
     1
 90
        2
176
     1
 90
        0
176
     1
 40
0.6
176
     1
 40
30.0
176
     1
 62
     7
420
 16777215
176
     1
 90
        2
176
     1
 90
        2
176
     1
 62
     7
176
     1
 62
     7
176
     1
 90
        1
176
     1
 90
        1
176
     1
 40
40.0
176
     1
 90
       11
176
     1
 62
     7
176
     1
 40
1.0
176
     1
 90
        1
176
     1
 90
        6
176
     1
 90
        2
176
     1
 62
     7
176
     1
 90
        6
176
     1
 90
        0
176
     1
 90
        0
176
     1
290
     0
176
     1
 90
        1
176
     1
 40
0.0
176
     1
 90
        0
176
     1
290
     0
176
     1
290
     1
176
     1
290
     1
176
     1
290
     0
176
     1
290
     0
176
     1
290
     0
176
     1
290
     0
176
     1
290
     0
176
     1
290
     0
176
     1
 90
       50
176
     1
 40
0.0
176
     1
 40
1.0
176
     1
 90
        0
176
     1
 62
    18
420
        0
176
     1
 90
       50
176
     1
 90
        3
176
     1
 62
     5
420
      255
176
     1
290
     0
176
     1
 90
       50
176
     1
 90
       50
176
     1
 90
       50
176
     1
290
     0
176
     1
 90
       50
176
     1
 62
   256
176
     0
 40
1.0
176
     0
 90
        2
176
     1
  1
strokes_ogs.tif
176
     1
290
     0
176
     1
 40
1.0
176
     1
 40
1.0
176
     1
  0
VISUALSTYLE
  5
37
102
{ACAD_REACTORS
330
2A
102
}
330
2A
100
AcDbVisualStyle
  2
Thicken
 70
    13
177
     3
291
     1
 70
    58
 90
        2
176
     1
 90
        2
176
     1
 90
        0
176
     1
 90
        0
176
     1
 40
0.6
176
     1
 40
30.0
176
     1
 62
     7
420
 16777215
176
     1
 90
        1
176
     1
 90
        4
176
     1
 62
     7
176
     1
 62
   257
176
     1
 90
        1
176
     1
 90
        1
176
     1
 40
1.0
176
     1
 90
       12
176
     1
 62
     7
176
     1
 40
1.0
176
     1
 90
        1
176
     1
 90
        6
176
     1
 90
        2
176
     1
 62
     7
176
     1
 90
        5
176
     1
 90
        0
176
     1
 90
        0
176
     1
290
     0
176
     1
 90
        1
176
     1
 40
0.0
176
     1
 90
        0
176
     1
290
     0
176
     1
290
     1
176
     1
290
     1
176
     1
290
     0
176
     1
290
     0
176
     1
290
     0
176
     1
290
     0
176
     1
290
     0
176
     1
290
     0
176
     1
 90
       50
176
     1
 40
0.0
176
     1
 40
1.0
176
     1
 90
        0
176
     1
 62
    18
420
        0
176
     1
 90
       50
176
     1
 90
        3
176
     1
 62
     5
420
      255
176
     1
290
     0
176
     1
 90
       50
176
     1
 90
       50
176
     1
 90
       50
176
     1
290
     0
176
     1
 90
       50
176
     1
 62
   256
176
     0
 40
1.0
176
     0
 90
        2
176
     1
  1
strokes_ogs.tif
176
     1
290
     0
176
     1
 40
1.0
176
     1
 40
1.0
176
     1
  0
VISUALSTYLE
  5
30
102
{ACAD_REACTORS
330
2A
102
}
330
2A
100
AcDbVisualStyle
  2
Wireframe
 70
     5
177
     3
291
     0
 70
    58
 90
        0
176
     1
 90
        2
176
     1
 90
        0
176
     1
 90
        0
176
     1
 40
0.6
176
     1
 40
30.0
176
     1
 62
     7
420
 16777215
176
     1
 90
        1
176
     1
 90
        4
176
     1
 62
     7
176
     1
 62
   257
176
     1
 90
        1
176
     1
 90
        1
176
     1
 40
1.0
176
     1
 90
        0
176
     1
 62
   257
176
     1
 40
1.0
176
     1
 90
        1
176
     1
 90
        6
176
     1
 90
        2
176
     1
 62
     7
176
     1
 90
        3
176
     1
 90
        0
176
     1
 90
        0
176
     1
290
     0
176
     1
 90
        1
176
     1
 40
0.0
176
     1
 90
        0
176
     1
290
     0
176
     1
290
     1
176
     1
290
     1
176
     1
290
     0
176
     1
290
     0
176
     1
290
     0
176
     1
290
     0
176
     1
290
     0
176
     1
290
     0
176
     1
 90
       50
176
     1
 40
0.0
176
     1
 40
1.0
176
     1
 90
        0
176
     1
 62
    18
420
        0
176
     1
 90
       50
176
     1
 90
        3
176
     1
 62
     5
420
      255
176
     1
290
     0
176
     1
 90
       50
176
     1
 90
       50
176
     1
 90
       50
176
     1
290
     0
176
     1
 90
       50
176
     1
 62
   256
176
     0
 40
1.0
176
     0
 90
        2
176
     1
  1
strokes_ogs.tif
176
     1
290
     0
176
     1
 40
1.0
176
     1
 40
1.0
176
     1
  0
VISUALSTYLE
  5
40
102
{ACAD_REACTORS
330
2A
102
}
330
2A
100
AcDbVisualStyle
  2
X-Ray
 70
    25
177
     3
291
     0
 70
    58
 90
        2
176
     1
 90
        2
176
     1
 90
        1
176
     1
 90
        1
176
     1
 40
0.5
176
     1
 40
30.0
176
     1
 62
     7
420
 16777215
176
     1
 90
        1
176
     1
 90
        0
176
     1
 62
     7
176
     1
 62
   257
176
     1
 90
        1
176
     1
 90
        1
176
     1
 40
1.0
176
     1
 90
        8
176
     1
 62
     7
176
     1
 40
1.0
176
     1
 90
        1
176
     1
 90
        6
176
     1
 90
        2
176
     1
 62
     7
176
     1
 90
        3
176
     1
 90
        0
176
     1
 90
        0
176
     1
290
     0
176
     1
 90
       13
176
     1
 40
0.0
176
     1
 90
        0
176
     1
290
     0
176
     1
290
     1
176
     1
290
     1
176
     1
290
     0
176
     1
290
     0
176
     1
290
     0
176
     1
290
     0
176
     1
290
     0
176
     1
290
     0
176
     1
 90
       50
176
     1
 40
0.0
176
     1
 40
1.0
176
     1
 90
        0
176
     1
 62
    18
420
        0
176
     1
 90
       50
176
     1
 90
        3
176
     1
 62
     5
420
      255
176
     1
290
     0
176
     1
 90
       50
176
     1
 90
       50
176
     1
 90
       50
176
     1
290
     0
176
     1
 90
       50
176
     1
 62
   256
176
     0
 40
1.0
176
     0
 90
        2
176
     1
  1
strokes_ogs.tif
176
     1
290
     0
176
     1
 40
1.0
176
     1
 40
1.0
176
     1
  0
DICTIONARYVAR
  5
1E5
102
{ACAD_REACTORS
330
1E4
102
}
330
1E4
100
DictionaryVariables
280
     0
  1
1:1
  0
DICTIONARYVAR
  5
1EA
102
{ACAD_REACTORS
330
1E4
102
}
330
1E4
100
DictionaryVariables
280
     0
  1
Standard
  0
DICTIONARYVAR
  5
1E9
102
{ACAD_REACTORS
330
1E4
102
}
330
1E4
100
DictionaryVariables
280
     0
  1
Standard
  0
DICTIONARY
  5
1E6
330
6A
100
AcDbDictionary
280
     1
281
     1
  3
ACAD_ROUNDTRIP_2008_TABLESTYLE_CELLSTYLEMAP
360
1E7
  0
CELLSTYLEMAP
  5
1E7
102
{ACAD_REACTORS
330
1E6
102
}
330
1E6
100
AcDbCellStyleMap
 90
        3
300
CELLSTYLE
  1
TABLEFORMAT_BEGIN
 90
        5
170
     1
 91
        0
 92
    32768
 62
   257
 93
        1
300
CONTENTFORMAT
  1
CONTENTFORMAT_BEGIN
 90
        0
 91
        0
 92
        4
 93
        0
300

 40
0.0
140
1.0
 94
        5
 62
     0
340
11
144
0.25
309
CONTENTFORMAT_END
171
     1
301
MARGIN
  1
CELLMARGIN_BEGIN
 40
0.06
 40
0.06
 40
0.06
 40
0.06
 40
0.06
 40
0.06
309
CELLMARGIN_END
 94
        6
 95
        1
302
GRIDFORMAT
  1
GRIDFORMAT_BEGIN
 90
        0
 91
        1
 62
     0
 92
       -2
340
14
 93
        0
 40
0.045
309
GRIDFORMAT_END
 95
        2
302
GRIDFORMAT
  1
GRIDFORMAT_BEGIN
 90
        0
 91
        1
 62
     0
 92
       -2
340
14
 93
        0
 40
0.045
309
GRIDFORMAT_END
 95
        4
302
GRIDFORMAT
  1
GRIDFORMAT_BEGIN
 90
        0
 91
        1
 62
     0
 92
       -2
340
14
 93
        0
 40
0.045
309
GRIDFORMAT_END
 95
        8
302
GRIDFORMAT
  1
GRIDFORMAT_BEGIN
 90
        0
 91
        1
 62
     0
 92
       -2
340
14
 93
        0
 40
0.045
309
GRIDFORMAT_END
 95
       16
302
GRIDFORMAT
  1
GRIDFORMAT_BEGIN
 90
        0
 91
        1
 62
     0
 92
       -2
340
14
 93
        0
 40
0.045
309
GRIDFORMAT_END
 95
       32
302
GRIDFORMAT
  1
GRIDFORMAT_BEGIN
 90
        0
 91
        1
 62
     0
 92
       -2
340
14
 93
        0
 40
0.045
309
GRIDFORMAT_END
309
TABLEFORMAT_END
  1
CELLSTYLE_BEGIN
 90
        1
 91
        1
300
_TITLE
309
CELLSTYLE_END
300
CELLSTYLE
  1
TABLEFORMAT_BEGIN
 90
        5
170
     1
 91
        0
 92
        0
 62
   257
 93
        1
300
CONTENTFORMAT
  1
CONTENTFORMAT_BEGIN
 90
        0
 91
        0
 92
        4
 93
        0
300

 40
0.0
140
1.0
 94
        5
 62
     0
340
11
144
0.18
309
CONTENTFORMAT_END
171
     1
301
MARGIN
  1
CELLMARGIN_BEGIN
 40
0.06
 40
0.06
 40
0.06
 40
0.06
 40
0.06
 40
0.06
309
CELLMARGIN_END
 94
        6
 95
        1
302
GRIDFORMAT
  1
GRIDFORMAT_BEGIN
 90
        0
 91
        1
 62
     0
 92
       -2
340
14
 93
        0
 40
0.045
309
GRIDFORMAT_END
 95
        2
302
GRIDFORMAT
  1
GRIDFORMAT_BEGIN
 90
        0
 91
        1
 62
     0
 92
       -2
340
14
 93
        0
 40
0.045
309
GRIDFORMAT_END
 95
        4
302
GRIDFORMAT
  1
GRIDFORMAT_BEGIN
 90
        0
 91
        1
 62
     0
 92
       -2
340
14
 93
        0
 40
0.045
309
GRIDFORMAT_END
 95
        8
302
GRIDFORMAT
  1
GRIDFORMAT_BEGIN
 90
        0
 91
        1
 62
     0
 92
       -2
340
14
 93
        0
 40
0.045
309
GRIDFORMAT_END
 95
       16
302
GRIDFORMAT
  1
GRIDFORMAT_BEGIN
 90
        0
 91
        1
 62
     0
 92
       -2
340
14
 93
        0
 40
0.045
309
GRIDFORMAT_END
 95
       32
302
GRIDFORMAT
  1
GRIDFORMAT_BEGIN
 90
        0
 91
        1
 62
     0
 92
       -2
340
14
 93
        0
 40
0.045
309
GRIDFORMAT_END
309
TABLEFORMAT_END
  1
CELLSTYLE_BEGIN
 90
        2
 91
        1
300
_HEADER
309
CELLSTYLE_END
300
CELLSTYLE
  1
TABLEFORMAT_BEGIN
 90
        5
170
     1
 91
        0
 92
        0
 62
   257
 93
        1
300
CONTENTFORMAT
  1
CONTENTFORMAT_BEGIN
 90
        0
 91
        0
 92
        4
 93
        0
300

 40
0.0
140
1.0
 94
        2
 62
     0
340
11
144
0.18
309
CONTENTFORMAT_END
171
     1
301
MARGIN
  1
CELLMARGIN_BEGIN
 40
0.06
 40
0.06
 40
0.06
 40
0.06
 40
0.06
 40
0.06
309
CELLMARGIN_END
 94
        6
 95
        1
302
GRIDFORMAT
  1
GRIDFORMAT_BEGIN
 90
        0
 91
        1
 62
     0
 92
       -2
340
14
 93
        0
 40
0.045
309
GRIDFORMAT_END
 95
        2
302
GRIDFORMAT
  1
GRIDFORMAT_BEGIN
 90
        0
 91
        1
 62
     0
 92
       -2
340
14
 93
        0
 40
0.045
309
GRIDFORMAT_END
 95
        4
302
GRIDFORMAT
  1
GRIDFORMAT_BEGIN
 90
        0
 91
        1
 62
     0
 92
       -2
340
14
 93
        0
 40
0.045
309
GRIDFORMAT_END
 95
        8
302
GRIDFORMAT
  1
GRIDFORMAT_BEGIN
 90
        0
 91
        1
 62
     0
 92
       -2
340
14
 93
        0
 40
0.045
309
GRIDFORMAT_END
 95
       16
302
GRIDFORMAT
  1
GRIDFORMAT_BEGIN
 90
        0
 91
        1
 62
     0
 92
       -2
340
14
 93
        0
 40
0.045
309
GRIDFORMAT_END
 95
       32
302
GRIDFORMAT
  1
GRIDFORMAT_BEGIN
 90
        0
 91
        1
 62
     0
 92
       -2
340
14
 93
        0
 40
0.045
309
GRIDFORMAT_END
309
TABLEFORMAT_END
  1
CELLSTYLE_BEGIN
 90
        3
 91
        2
300
_DATA
309
CELLSTYLE_END
  0
ENDSEC
  0
EOF