0
SECTION
  2
HEADER
  9
$ACADVER
  1
AC1027
  9
$ACADMAINTVER
 70
     8
  9
$DWGCODEPAGE
  3
ANSI_1252
  9
$REQUIREDVERSIONS
160
                 0
  9
$COMMENTS
  1
File was created by Cadenas
  9
$CUSTOMPROPERTYTAG
  1
NN
  9
$CUSTOMPROPERTY
  1
Type K Pillow Block 2&4-Bolt Base Expansion Inch Bore
  9
$CUSTOMPROPERTYTAG
  1
NT
  9
$CUSTOMPROPERTY
  1
Type K
  9
$CUSTOMPROPERTYTAG
  1
NB
  9
$CUSTOMPROPERTY
  1
023209
  9
$CUSTOMPROPERTYTAG
  1
NBSYN
  9
$CUSTOMPROPERTY
  1
$PN.
  9
$CUSTOMPROPERTYTAG
  1
LINA
  9
$CUSTOMPROPERTY
  1
023209
  9
$CUSTOMPROPERTYTAG
  1
SS
  9
$CUSTOMPROPERTY
  1
3-1/2
  9
$CUSTOMPROPERTYTAG
  1
PN
  9
$CUSTOMPROPERTY
  1
023209
  9
$CUSTOMPROPERTYTAG
  1
PNA
  9
$CUSTOMPROPERTY
  1
P2B-K-308RE
  9
$CUSTOMPROPERTYTAG
  1
WEIGHT
  9
$CUSTOMPROPERTY
  1
66
  9
$CUSTOMPROPERTYTAG
  1
A
  9
$CUSTOMPROPERTY
  1
4.26
  9
$CUSTOMPROPERTYTAG
  1
B
  9
$CUSTOMPROPERTY
  1
16.00
  9
$CUSTOMPROPERTYTAG
  1
C
  9
$CUSTOMPROPERTY
  1
3.44
  9
$CUSTOMPROPERTYTAG
  1
DMIN
  9
$CUSTOMPROPERTY
  1
12.81
  9
$CUSTOMPROPERTYTAG
  1
DMAX
  9
$CUSTOMPROPERTY
  1
13.81
  9
$CUSTOMPROPERTYTAG
  1
E
  9
$CUSTOMPROPERTY
  1
N/A
  9
$CUSTOMPROPERTYTAG
  1
F
  9
$CUSTOMPROPERTY
  1
7/8
  9
$CUSTOMPROPERTYTAG
  1
G
  9
$CUSTOMPROPERTY
  1
1.50
  9
$CUSTOMPROPERTYTAG
  1
H
  9
$CUSTOMPROPERTY
  1
2.25
  9
$CUSTOMPROPERTYTAG
  1
J
  9
$CUSTOMPROPERTY
  1
9.42
  9
$CUSTOMPROPERTYTAG
  1
L
  9
$CUSTOMPROPERTY
  1
5.50
  9
$CUSTOMPROPERTYTAG
  1
M
  9
$CUSTOMPROPERTY
  1
4.50
  9
$CUSTOMPROPERTYTAG
  1
P
  9
$CUSTOMPROPERTY
  1
10.10
  9
$CUSTOMPROPERTYTAG
  1
R
  9
$CUSTOMPROPERTY
  1
1.68
  9
$CUSTOMPROPERTYTAG
  1
S
  9
$CUSTOMPROPERTY
  1
2.50
  9
$CUSTOMPROPERTYTAG
  1
T
  9
$CUSTOMPROPERTY
  1
.28
  9
$CUSTOMPROPERTYTAG
  1
CS
  9
$CUSTOMPROPERTY
  1
108600
  9
$CUSTOMPROPERTYTAG
  1
CD
  9
$CUSTOMPROPERTY
  1
15300
  9
$CUSTOMPROPERTYTAG
  1
RN
  9
$CUSTOMPROPERTY
  1
26
  9
$CUSTOMPROPERTYTAG
  1
RM
  9
$CUSTOMPROPERTY
  1
.46
  9
$CUSTOMPROPERTYTAG
  1
PDI
  9
$CUSTOMPROPERTY
  1
4.780
  9
$CUSTOMPROPERTYTAG
  1
EP
  9
$CUSTOMPROPERTY
  1
.008-.012
  9
$CUSTOMPROPERTYTAG
  1
SC
  9
$CUSTOMPROPERTY
  1
1/2-13*1
  9
$CUSTOMPROPERTYTAG
  1
TC
  9
$CUSTOMPROPERTY
  1
620
  9
$CUSTOMPROPERTYTAG
  1
MH
  9
$CUSTOMPROPERTY
  1
C.I. ASTM A48 CLASS 30
  9
$CUSTOMPROPERTYTAG
  1
MC
  9
$CUSTOMPROPERTY
  1
4118 CASE CARB.
  9
$CUSTOMPROPERTYTAG
  1
MCU
  9
$CUSTOMPROPERTY
  1
4118 CASE CARB.
  9
$CUSTOMPROPERTYTAG
  1
MR
  9
$CUSTOMPROPERTY
  1
STEEL
  9
$CUSTOMPROPERTYTAG
  1
MRO
  9
$CUSTOMPROPERTY
  1
4118 CASE CARB.
  9
$CUSTOMPROPERTYTAG
  1
SM
  9
$CUSTOMPROPERTY
  1
4.08*
  9
$CUSTOMPROPERTYTAG
  1
COMPANY
  9
$CUSTOMPROPERTY
  1
baldor
  9
$INSBASE
 10
0.0
 20
0.0
 30
0.0
  9
$EXTMIN
 10
1.000000000000000E+20
 20
1.000000000000000E+20
 30
1.000000000000000E+20
  9
$EXTMAX
 10
-1.000000000000000E+20
 20
-1.000000000000000E+20
 30
-1.000000000000000E+20
  9
$LIMMIN
 10
0.0
 20
0.0
  9
$LIMMAX
 10
12.0
 20
9.0
  9
$ORTHOMODE
 70
     0
  9
$REGENMODE
 70
     1
  9
$FILLMODE
 70
     1
  9
$QTEXTMODE
 70
     0
  9
$MIRRTEXT
 70
     1
  9
$LTSCALE
 40
1.0
  9
$ATTMODE
 70
     1
  9
$TEXTSIZE
 40
0.2
  9
$TRACEWID
 40
0.05
  9
$TEXTSTYLE
  7
Standard
  9
$CLAYER
  8
0
  9
$CELTYPE
  6
ByLayer
  9
$CECOLOR
 62
   256
  9
$CELTSCALE
 40
1.0
  9
$DISPSILH
 70
     0
  9
$DIMSCALE
 40
1.0
  9
$DIMASZ
 40
0.18
  9
$DIMEXO
 40
0.0625
  9
$DIMDLI
 40
0.38
  9
$DIMRND
 40
0.0
  9
$DIMDLE
 40
0.0
  9
$DIMEXE
 40
0.18
  9
$DIMTP
 40
0.0
  9
$DIMTM
 40
0.0
  9
$DIMTXT
 40
0.18
  9
$DIMCEN
 40
0.09
  9
$DIMTSZ
 40
0.0
  9
$DIMTOL
 70
     0
  9
$DIMLIM
 70
     0
  9
$DIMTIH
 70
     1
  9
$DIMTOH
 70
     1
  9
$DIMSE1
 70
     0
  9
$DIMSE2
 70
     0
  9
$DIMTAD
 70
     0
  9
$DIMZIN
 70
     0
  9
$DIMBLK
  1

  9
$DIMASO
 70
     1
  9
$DIMSHO
 70
     1
  9
$DIMPOST
  1

  9
$DIMAPOST
  1

  9
$DIMALT
 70
     0
  9
$DIMALTD
 70
     2
  9
$DIMALTF
 40
25.4
  9
$DIMLFAC
 40
1.0
  9
$DIMTOFL
 70
     0
  9
$DIMTVP
 40
0.0
  9
$DIMTIX
 70
     0
  9
$DIMSOXD
 70
     0
  9
$DIMSAH
 70
     0
  9
$DIMBLK1
  1

  9
$DIMBLK2
  1

  9
$DIMSTYLE
  2
Standard
  9
$DIMCLRD
 70
     0
  9
$DIMCLRE
 70
     0
  9
$DIMCLRT
 70
     0
  9
$DIMTFAC
 40
1.0
  9
$DIMGAP
 40
0.09
  9
$DIMJUST
 70
     0
  9
$DIMSD1
 70
     0
  9
$DIMSD2
 70
     0
  9
$DIMTOLJ
 70
     1
  9
$DIMTZIN
 70
     0
  9
$DIMALTZ
 70
     0
  9
$DIMALTTZ
 70
     0
  9
$DIMUPT
 70
     0
  9
$DIMDEC
 70
     4
  9
$DIMTDEC
 70
     4
  9
$DIMALTU
 70
     2
  9
$DIMALTTD
 70
     2
  9
$DIMTXSTY
  7
Standard
  9
$DIMAUNIT
 70
     0
  9
$DIMADEC
 70
     0
  9
$DIMALTRND
 40
0.0
  9
$DIMAZIN
 70
     0
  9
$DIMDSEP
 70
    46
  9
$DIMATFIT
 70
     3
  9
$DIMFRAC
 70
     0
  9
$DIMLDRBLK
  1

  9
$DIMLUNIT
 70
     2
  9
$DIMLWD
 70
    -2
  9
$DIMLWE
 70
    -2
  9
$DIMTMOVE
 70
     0
  9
$DIMFXL
 40
1.0
  9
$DIMFXLON
 70
     0
  9
$DIMJOGANG
 40
0.7853981633974483
  9
$DIMTFILL
 70
     0
  9
$DIMTFILLCLR
 70
     0
  9
$DIMARCSYM
 70
     0
  9
$DIMLTYPE
  6

  9
$DIMLTEX1
  6

  9
$DIMLTEX2
  6

  9
$DIMTXTDIRECTION
 70
     0
  9
$LUNITS
 70
     2
  9
$LUPREC
 70
     4
  9
$SKETCHINC
 40
0.1
  9
$FILLETRAD
 40
0.5
  9
$AUNITS
 70
     0
  9
$AUPREC
 70
     0
  9
$MENU
  1
.
  9
$ELEVATION
 40
0.0
  9
$PELEVATION
 40
0.0
  9
$THICKNESS
 40
0.0
  9
$LIMCHECK
 70
     0
  9
$CHAMFERA
 40
0.0
  9
$CHAMFERB
 40
0.0
  9
$CHAMFERC
 40
0.0
  9
$CHAMFERD
 40
0.0
  9
$SKPOLY
 70
     0
  9
$TDCREATE
 40
2458169.004941701
  9
$TDUCREATE
 40
2458168.963275035
  9
$TDUPDATE
 40
2458169.004941887
  9
$TDUUPDATE
 40
2458168.96327522
  9
$TDINDWG
 40
0.0000000116
  9
$TDUSRTIMER
 40
0.0000000116
  9
$USRTIMER
 70
     1
  9
$ANGBASE
 50
0.0
  9
$ANGDIR
 70
     0
  9
$PDMODE
 70
     0
  9
$PDSIZE
 40
0.0
  9
$PLINEWID
 40
0.0
  9
$SPLFRAME
 70
     0
  9
$SPLINETYPE
 70
     6
  9
$SPLINESEGS
 70
     8
  9
$HANDSEED
  5
22F
  9
$SURFTAB1
 70
     6
  9
$SURFTAB2
 70
     6
  9
$SURFTYPE
 70
     6
  9
$SURFU
 70
     6
  9
$SURFV
 70
     6
  9
$UCSBASE
  2

  9
$UCSNAME
  2

  9
$UCSORG
 10
0.0
 20
0.0
 30
0.0
  9
$UCSXDIR
 10
1.0
 20
0.0
 30
0.0
  9
$UCSYDIR
 10
0.0
 20
1.0
 30
0.0
  9
$UCSORTHOREF
  2

  9
$UCSORTHOVIEW
 70
     0
  9
$UCSORGTOP
 10
0.0
 20
0.0
 30
0.0
  9
$UCSORGBOTTOM
 10
0.0
 20
0.0
 30
0.0
  9
$UCSORGLEFT
 10
0.0
 20
0.0
 30
0.0
  9
$UCSORGRIGHT
 10
0.0
 20
0.0
 30
0.0
  9
$UCSORGFRONT
 10
0.0
 20
0.0
 30
0.0
  9
$UCSORGBACK
 10
0.0
 20
0.0
 30
0.0
  9
$PUCSBASE
  2

  9
$PUCSNAME
  2

  9
$PUCSORG
 10
0.0
 20
0.0
 30
0.0
  9
$PUCSXDIR
 10
1.0
 20
0.0
 30
0.0
  9
$PUCSYDIR
 10
0.0
 20
1.0
 30
0.0
  9
$PUCSORTHOREF
  2

  9
$PUCSORTHOVIEW
 70
     0
  9
$PUCSORGTOP
 10
0.0
 20
0.0
 30
0.0
  9
$PUCSORGBOTTOM
 10
0.0
 20
0.0
 30
0.0
  9
$PUCSORGLEFT
 10
0.0
 20
0.0
 30
0.0
  9
$PUCSORGRIGHT
 10
0.0
 20
0.0
 30
0.0
  9
$PUCSORGFRONT
 10
0.0
 20
0.0
 30
0.0
  9
$PUCSORGBACK
 10
0.0
 20
0.0
 30
0.0
  9
$USERI1
 70
     0
  9
$USERI2
 70
     0
  9
$USERI3
 70
     0
  9
$USERI4
 70
     0
  9
$USERI5
 70
     0
  9
$USERR1
 40
0.0
  9
$USERR2
 40
0.0
  9
$USERR3
 40
0.0
  9
$USERR4
 40
0.0
  9
$USERR5
 40
0.0
  9
$WORLDVIEW
 70
     1
  9
$SHADEDGE
 70
     3
  9
$SHADEDIF
 70
    70
  9
$TILEMODE
 70
     1
  9
$MAXACTVP
 70
    64
  9
$PINSBASE
 10
0.0
 20
0.0
 30
0.0
  9
$PLIMCHECK
 70
     0
  9
$PEXTMIN
 10
1.000000000000000E+20
 20
1.000000000000000E+20
 30
1.000000000000000E+20
  9
$PEXTMAX
 10
-1.000000000000000E+20
 20
-1.000000000000000E+20
 30
-1.000000000000000E+20
  9
$PLIMMIN
 10
0.0
 20
0.0
  9
$PLIMMAX
 10
12.0
 20
9.0
  9
$UNITMODE
 70
     0
  9
$VISRETAIN
 70
     1
  9
$PLINEGEN
 70
     0
  9
$PSLTSCALE
 70
     1
  9
$TREEDEPTH
 70
  3020
  9
$CMLSTYLE
  2
Standard
  9
$CMLJUST
 70
     0
  9
$CMLSCALE
 40
1.0
  9
$PROXYGRAPHICS
 70
     1
  9
$MEASUREMENT
 70
     0
  9
$CELWEIGHT
370
    -1
  9
$ENDCAPS
280
     0
  9
$JOINSTYLE
280
     0
  9
$LWDISPLAY
290
     0
  9
$INSUNITS
 70
     1
  9
$HYPERLINKBASE
  1

  9
$STYLESHEET
  1

  9
$XEDIT
290
     1
  9
$CEPSNTYPE
380
     0
  9
$PSTYLEMODE
290
     1
  9
$FINGERPRINTGUID
  2
{98E3D3C9-8DEB-433D-8F19-B9BDC8E6C706}
  9
$VERSIONGUID
  2
{FAEB1C32-E019-11D5-929B-00C0DF256EC4}
  9
$EXTNAMES
290
     1
  9
$PSVPSCALE
 40
0.0
  9
$OLESTARTUP
290
     0
  9
$SORTENTS
280
   127
  9
$INDEXCTL
280
     0
  9
$HIDETEXT
280
     1
  9
$XCLIPFRAME
280
     2
  9
$HALOGAP
280
     0
  9
$OBSCOLOR
 70
   257
  9
$OBSLTYPE
280
     0
  9
$INTERSECTIONDISPLAY
280
     0
  9
$INTERSECTIONCOLOR
 70
   257
  9
$DIMASSOC
280
     2
  9
$PROJECTNAME
  1

  9
$CAMERADISPLAY
290
     0
  9
$LENSLENGTH
 40
50.0
  9
$CAMERAHEIGHT
 40
0.0
  9
$STEPSPERSEC
 40
2.0
  9
$STEPSIZE
 40
6.0
  9
$3DDWFPREC
 40
2.0
  9
$PSOLWIDTH
 40
0.25
  9
$PSOLHEIGHT
 40
4.0
  9
$LOFTANG1
 40
1.570796326794897
  9
$LOFTANG2
 40
1.570796326794897
  9
$LOFTMAG1
 40
0.0
  9
$LOFTMAG2
 40
0.0
  9
$LOFTPARAM
 70
     7
  9
$LOFTNORMALS
280
     1
  9
$LATITUDE
 40
37.795
  9
$LONGITUDE
 40
-122.394
  9
$NORTHDIRECTION
 40
0.0
  9
$TIMEZONE
 70
 -8000
  9
$LIGHTGLYPHDISPLAY
280
     1
  9
$TILEMODELIGHTSYNCH
280
     1
  9
$CMATERIAL
347
44
  9
$SOLIDHIST
280
     0
  9
$SHOWHIST
280
     1
  9
$DWFFRAME
280
     2
  9
$DGNFRAME
280
     2
  9
$REALWORLDSCALE
290
     1
  9
$INTERFERECOLOR
 62
   256
  9
$CSHADOW
280
     0
  9
$SHADOWPLANELOCATION
 40
0.0
  0
ENDSEC
  0
SECTION
  2
CLASSES
  0
CLASS
  1
ACDBDICTIONARYWDFLT
  2
AcDbDictionaryWithDefault
  3
ObjectDBX Classes
 90
        0
 91
        4
280
     0
281
     0
  0
CLASS
  1
VISUALSTYLE
  2
AcDbVisualStyle
  3
ObjectDBX Classes
 90
     4095
 91
        4
280
     0
281
     0
  0
CLASS
  1
MATERIAL
  2
AcDbMaterial
  3
ObjectDBX Classes
 90
     1153
 91
        4
280
     0
281
     0
  0
CLASS
  1
SCALE
  2
AcDbScale
  3
ObjectDBX Classes
 90
     1153
 91
        4
280
     0
281
     0
  0
CLASS
  1
TABLESTYLE
  2
AcDbTableStyle
  3
ObjectDBX Classes
 90
     4095
 91
        4
280
     0
281
     0
  0
CLASS
  1
MLEADERSTYLE
  2
AcDbMLeaderStyle
  3
ACDB_MLEADERSTYLE_CLASS
 90
     4095
 91
        4
280
     0
281
     0
  0
CLASS
  1
SUN
  2
AcDbSun
  3
SCENEOE
 90
     1153
 91
        4
280
     0
281
     0
  0
CLASS
  1
DICTIONARYVAR
  2
AcDbDictionaryVar
  3
ObjectDBX Classes
 90
        0
 91
        4
280
     0
281
     0
  0
CLASS
  1
CELLSTYLEMAP
  2
AcDbCellStyleMap
  3
ObjectDBX Classes
 90
     1152
 91
        4
280
     0
281
     0
  0
ENDSEC
  0
SECTION
  2
TABLES
  0
TABLE
  2
VPORT
  5
8
330
0
100
AcDbSymbolTable
 70
     1
  0
VPORT
  5
29
330
8
100
AcDbSymbolTableRecord
100
AcDbViewportTableRecord
  2
*Active
 70
     0
 10
0.0
 20
0.0
 11
1.0
 21
1.0
 12
-0.2687500000000007
 22
1.271999931335449
 13
0.0
 23
0.0
 14
0.5
 24
0.5
 15
0.5
 25
0.5
 16
0.0
 26
0.0
 36
1.0
 17
0.0
 27
0.0
 37
0.0
 40
11.77487985992432
 41
0.4233801159167026
 42
50.0
 43
0.0
 44
0.0
 50
0.0
 51
0.0
 71
     0
 72
   100
 73
     1
 74
     3
 75
     0
 76
     0
 77
     0
 78
     0
281
     0
 65
     1
110
0.0
120
0.0
130
0.0
111
1.0
121
0.0
131
0.0
112
0.0
122
1.0
132
0.0
 79
     0
146
0.0
348
2F
 60
     3
 61
     5
292
     1
282
     1
141
0.0
142
0.0
 63
   250
361
6D
  0
ENDTAB
  0
TABLE
  2
LTYPE
  5
5
330
0
100
AcDbSymbolTable
 70
     3
  0
LTYPE
  5
14
330
5
100
AcDbSymbolTableRecord
100
AcDbLinetypeTableRecord
  2
ByBlock
 70
     0
  3

 72
    65
 73
     0
 40
0.0
  0
LTYPE
  5
15
330
5
100
AcDbSymbolTableRecord
100
AcDbLinetypeTableRecord
  2
ByLayer
 70
     0
  3

 72
    65
 73
     0
 40
0.0
  0
LTYPE
  5
16
330
5
100
AcDbSymbolTableRecord
100
AcDbLinetypeTableRecord
  2
Continuous
 70
     0
  3
Solid line
 72
    65
 73
     0
 40
0.0
  0
LTYPE
  5
B0
330
5
100
AcDbSymbolTableRecord
100
AcDbLinetypeTableRecord
  2
Dashed
 70
     0
  3

 72
    65
 73
     2
 40
2.0
 49
1.0
 74
     0
 49
-1.0
 74
     0
  0
LTYPE
  5
C9
330
5
100
AcDbSymbolTableRecord
100
AcDbLinetypeTableRecord
  2
Center
 70
     0
  3

 72
    65
 73
     4
 40
1.5
 49
0.45
 74
     0
 49
-0.5
 74
     0
 49
0.05
 74
     0
 49
-0.5
 74
     0
  0
ENDTAB
  0
TABLE
  2
LAYER
  5
2
330
0
100
AcDbSymbolTable
 70
     7
  0
LAYER
  5
10
330
2
100
AcDbSymbolTableRecord
100
AcDbLayerTableRecord
  2
0
 70
     0
 62
     7
  6
Continuous
370
    -3
390
F
347
46
348
0
  0
LAYER
  5
72
330
2
100
AcDbSymbolTableRecord
100
AcDbLayerTableRecord
  2
AM_6
 70
     0
 62
    -2
  6
Continuous
370
    35
390
F
347
46
348
0
  0
LAYER
  5
B1
330
2
100
AcDbSymbolTableRecord
100
AcDbLayerTableRecord
  2
AM_9
 70
     0
 62
     6
  6
Dashed
370
    25
390
F
347
46
348
0
  0
LAYER
  5
C7
330
2
100
AcDbSymbolTableRecord
100
AcDbLayerTableRecord
  2
AM_5
 70
     0
 62
     3
  6
Continuous
370
    25
390
F
347
46
348
0
  0
LAYER
  5
CA
330
2
100
AcDbSymbolTableRecord
100
AcDbLayerTableRecord
  2
AM_7
 70
     0
 62
     7
  6
Center
370
    25
390
F
347
46
348
0
  0
LAYER
  5
CC
330
2
100
AcDbSymbolTableRecord
100
AcDbLayerTableRecord
  2
AM_4
 70
     0
 62
     7
  6
Continuous
370
    50
390
F
347
46
348
0
  0
LAYER
  5
21E
330
2
100
AcDbSymbolTableRecord
100
AcDbLayerTableRecord
  2
ConnectionPoints
 70
     0
 62
     7
  6
Continuous
370
    50
390
F
347
46
348
0
  0
ENDTAB
  0
TABLE
  2
STYLE
  5
3
330
0
100
AcDbSymbolTable
 70
     1
  0
STYLE
  5
11
330
3
100
AcDbSymbolTableRecord
100
AcDbTextStyleTableRecord
  2
Standard
 70
     0
 40
0.0
 41
1.0
 50
0.0
 71
     0
 42
0.2
  3
txt
  4

  0
ENDTAB
  0
TABLE
  2
VIEW
  5
6
330
0
100
AcDbSymbolTable
 70
     0
  0
ENDTAB
  0
TABLE
  2
UCS
  5
7
330
0
100
AcDbSymbolTable
 70
     0
  0
ENDTAB
  0
TABLE
  2
APPID
  5
9
330
0
100
AcDbSymbolTable
 70
     1
  0
APPID
  5
12
330
9
100
AcDbSymbolTableRecord
100
AcDbRegAppTableRecord
  2
ACAD
 70
     0
  0
ENDTAB
  0
TABLE
  2
DIMSTYLE
  5
A
330
0
100
AcDbSymbolTable
 70
     1
100
AcDbDimStyleTable
  0
DIMSTYLE
105
27
330
A
100
AcDbSymbolTableRecord
100
AcDbDimStyleTableRecord
  2
Standard
 70
     0
178
     0
340
11
  0
ENDTAB
  0
TABLE
  2
BLOCK_RECORD
  5
1
330
0
100
AcDbSymbolTable
 70
     6
  0
BLOCK_RECORD
  5
1F
330
1
100
AcDbSymbolTableRecord
100
AcDbBlockTableRecord
  2
*Model_Space
340
22
 70
     0
280
     1
281
     0
  0
BLOCK_RECORD
  5
1B
330
1
100
AcDbSymbolTableRecord
100
AcDbBlockTableRecord
  2
*Paper_Space
340
1E
 70
     0
280
     1
281
     0
  0
BLOCK_RECORD
  5
23
330
1
100
AcDbSymbolTableRecord
100
AcDbBlockTableRecord
  2
*Paper_Space0
340
26
 70
     0
280
     1
281
     0
  0
BLOCK_RECORD
  5
6E
330
1
100
AcDbSymbolTableRecord
100
AcDbBlockTableRecord
  2
1_023209_2
340
0
102
{BLKREFS
331
6F
102
}
 70
     0
280
     1
281
     0
  0
BLOCK_RECORD
  5
9B
330
1
100
AcDbSymbolTableRecord
100
AcDbBlockTableRecord
  2
2_3_1_2C_0_in_023209_2
340
0
102
{BLKREFS
331
9C
102
}
 70
     0
280
     1
281
     0
  0
BLOCK_RECORD
  5
D9
330
1
100
AcDbSymbolTableRecord
100
AcDbBlockTableRecord
  2
3_405020c_Inch_0_in_023209_2
340
0
102
{BLKREFS
331
DA
102
}
 70
     0
280
     1
281
     0
  0
BLOCK_RECORD
  5
123
330
1
100
AcDbSymbolTableRecord
100
AcDbBlockTableRecord
  2
4_S1U_K_308R_0_in_023209_2
340
0
102
{BLKREFS
331
124
102
}
 70
     0
280
     1
281
     0
  0
BLOCK_RECORD
  5
191
330
1
100
AcDbSymbolTableRecord
100
AcDbBlockTableRecord
  2
5_P2B_K_308RE_0_in_023209_2
340
0
102
{BLKREFS
331
192
102
}
 70
     0
280
     1
281
     0
  0
ENDTAB
  0
ENDSEC
  0
SECTION
  2
BLOCKS
  0
BLOCK
  5
20
330
1F
100
AcDbEntity
  8
0
100
AcDbBlockBegin
  2
*Model_Space
 70
     0
 10
0.0
 20
0.0
 30
0.0
  3
*Model_Space
  1

  0
ENDBLK
  5
21
330
1F
100
AcDbEntity
  8
0
100
AcDbBlockEnd
  0
BLOCK
  5
1C
330
1B
100
AcDbEntity
 67
     1
  8
0
100
AcDbBlockBegin
  2
*Paper_Space
 70
     0
 10
0.0
 20
0.0
 30
0.0
  3
*Paper_Space
  1

  0
ENDBLK
  5
1D
330
1B
100
AcDbEntity
 67
     1
  8
0
100
AcDbBlockEnd
  0
BLOCK
  5
24
330
23
100
AcDbEntity
  8
0
100
AcDbBlockBegin
  2
*Paper_Space0
 70
     0
 10
0.0
 20
0.0
 30
0.0
  3
*Paper_Space0
  1

  0
ENDBLK
  5
25
330
23
100
AcDbEntity
  8
0
100
AcDbBlockEnd
  0
BLOCK
  5
70
330
6E
100
AcDbEntity
  8
0
100
AcDbBlockBegin
  2
1_023209_2
 70
     2
 10
0.0
 20
0.0
 30
0.0
  3
1_023209_2
  1

  0
ATTDEF
  5
73
330
6E
100
AcDbEntity
  8
AM_6
100
AcDbText
 10
7.175
 20
7.043999862670898
 30
0.0
 40
0.5
  1
Type K Pillow Block 2&4-Bolt Base Expansion Inch Bore
100
AcDbAttributeDefinition
  3

  2
NN
 70
     8
280
     0
  0
ATTDEF
  5
74
330
6E
100
AcDbEntity
  8
AM_6
100
AcDbText
 10
7.175
 20
6.543999862670898
 30
0.0
 40
0.5
  1
Type K
100
AcDbAttributeDefinition
  3

  2
NT
 70
     8
280
     0
  0
ATTDEF
  5
75
330
6E
100
AcDbEntity
  8
AM_6
100
AcDbText
 10
7.175
 20
6.043999862670898
 30
0.0
 40
0.5
  1
023209
100
AcDbAttributeDefinition
  3

  2
NB
 70
     8
280
     0
  0
ATTDEF
  5
76
330
6E
100
AcDbEntity
  8
AM_6
100
AcDbText
 10
7.175
 20
5.543999862670898
 30
0.0
 40
0.5
  1
$PN.
100
AcDbAttributeDefinition
  3

  2
NBSYN
 70
     8
280
     0
  0
ATTDEF
  5
77
330
6E
100
AcDbEntity
  8
AM_6
100
AcDbText
 10
7.175
 20
5.043999862670898
 30
0.0
 40
0.5
  1
023209
100
AcDbAttributeDefinition
  3

  2
LINA
 70
     8
280
     0
  0
ATTDEF
  5
78
330
6E
100
AcDbEntity
  8
AM_6
100
AcDbText
 10
7.175
 20
4.543999862670898
 30
0.0
 40
0.5
  1
3-1/2
100
AcDbAttributeDefinition
  3

  2
SS
 70
     8
280
     0
  0
ATTDEF
  5
79
330
6E
100
AcDbEntity
  8
AM_6
100
AcDbText
 10
7.175
 20
4.043999862670898
 30
0.0
 40
0.5
  1
023209
100
AcDbAttributeDefinition
  3

  2
PN
 70
     8
280
     0
  0
ATTDEF
  5
7A
330
6E
100
AcDbEntity
  8
AM_6
100
AcDbText
 10
7.175
 20
3.543999862670898
 30
0.0
 40
0.5
  1
P2B-K-308RE
100
AcDbAttributeDefinition
  3

  2
PNA
 70
     8
280
     0
  0
ATTDEF
  5
7B
330
6E
100
AcDbEntity
  8
AM_6
100
AcDbText
 10
7.175
 20
3.043999862670898
 30
0.0
 40
0.5
  1
66
100
AcDbAttributeDefinition
  3

  2
WEIGHT
 70
     8
280
     0
  0
ATTDEF
  5
7C
330
6E
100
AcDbEntity
  8
AM_6
100
AcDbText
 10
7.175
 20
2.543999862670898
 30
0.0
 40
0.5
  1
4.26
100
AcDbAttributeDefinition
  3

  2
A
 70
     8
280
     0
  0
ATTDEF
  5
7D
330
6E
100
AcDbEntity
  8
AM_6
100
AcDbText
 10
7.175
 20
2.043999862670898
 30
0.0
 40
0.5
  1
16.00
100
AcDbAttributeDefinition
  3

  2
B
 70
     8
280
     0
  0
ATTDEF
  5
7E
330
6E
100
AcDbEntity
  8
AM_6
100
AcDbText
 10
7.175
 20
1.543999862670898
 30
0.0
 40
0.5
  1
3.44
100
AcDbAttributeDefinition
  3

  2
C
 70
     8
280
     0
  0
ATTDEF
  5
7F
330
6E
100
AcDbEntity
  8
AM_6
100
AcDbText
 10
7.175
 20
1.043999862670898
 30
0.0
 40
0.5
  1
12.81
100
AcDbAttributeDefinition
  3

  2
DMIN
 70
     8
280
     0
  0
ATTDEF
  5
80
330
6E
100
AcDbEntity
  8
AM_6
100
AcDbText
 10
7.175
 20
0.5439998626708977
 30
0.0
 40
0.5
  1
13.81
100
AcDbAttributeDefinition
  3

  2
DMAX
 70
     8
280
     0
  0
ATTDEF
  5
81
330
6E
100
AcDbEntity
  8
AM_6
100
AcDbText
 10
7.175
 20
0.0439998626708977
 30
0.0
 40
0.5
  1
N/A
100
AcDbAttributeDefinition
  3

  2
E
 70
     8
280
     0
  0
ATTDEF
  5
82
330
6E
100
AcDbEntity
  8
AM_6
100
AcDbText
 10
7.175
 20
-0.4560001373291023
 30
0.0
 40
0.5
  1
7/8
100
AcDbAttributeDefinition
  3

  2
F
 70
     8
280
     0
  0
ATTDEF
  5
83
330
6E
100
AcDbEntity
  8
AM_6
100
AcDbText
 10
7.175
 20
-0.9560001373291023
 30
0.0
 40
0.5
  1
1.50
100
AcDbAttributeDefinition
  3

  2
G
 70
     8
280
     0
  0
ATTDEF
  5
84
330
6E
100
AcDbEntity
  8
AM_6
100
AcDbText
 10
7.175
 20
-1.456000137329102
 30
0.0
 40
0.5
  1
2.25
100
AcDbAttributeDefinition
  3

  2
H
 70
     8
280
     0
  0
ATTDEF
  5
85
330
6E
100
AcDbEntity
  8
AM_6
100
AcDbText
 10
7.175
 20
-1.956000137329102
 30
0.0
 40
0.5
  1
9.42
100
AcDbAttributeDefinition
  3

  2
J
 70
     8
280
     0
  0
ATTDEF
  5
86
330
6E
100
AcDbEntity
  8
AM_6
100
AcDbText
 10
7.175
 20
-2.456000137329102
 30
0.0
 40
0.5
  1
5.50
100
AcDbAttributeDefinition
  3

  2
L
 70
     8
280
     0
  0
ATTDEF
  5
87
330
6E
100
AcDbEntity
  8
AM_6
100
AcDbText
 10
7.175
 20
-2.956000137329102
 30
0.0
 40
0.5
  1
4.50
100
AcDbAttributeDefinition
  3

  2
M
 70
     8
280
     0
  0
ATTDEF
  5
88
330
6E
100
AcDbEntity
  8
AM_6
100
AcDbText
 10
7.175
 20
-3.456000137329102
 30
0.0
 40
0.5
  1
10.10
100
AcDbAttributeDefinition
  3

  2
P
 70
     8
280
     0
  0
ATTDEF
  5
89
330
6E
100
AcDbEntity
  8
AM_6
100
AcDbText
 10
7.175
 20
-3.956000137329102
 30
0.0
 40
0.5
  1
1.68
100
AcDbAttributeDefinition
  3

  2
R
 70
     8
280
     0
  0
ATTDEF
  5
8A
330
6E
100
AcDbEntity
  8
AM_6
100
AcDbText
 10
7.175
 20
-4.456000137329102
 30
0.0
 40
0.5
  1
2.50
100
AcDbAttributeDefinition
  3

  2
S
 70
     8
280
     0
  0
ATTDEF
  5
8B
330
6E
100
AcDbEntity
  8
AM_6
100
AcDbText
 10
7.175
 20
-4.956000137329102
 30
0.0
 40
0.5
  1
.28
100
AcDbAttributeDefinition
  3

  2
T
 70
     8
280
     0
  0
ATTDEF
  5
8C
330
6E
100
AcDbEntity
  8
AM_6
100
AcDbText
 10
7.175
 20
-5.456000137329102
 30
0.0
 40
0.5
  1
108600
100
AcDbAttributeDefinition
  3

  2
CS
 70
     8
280
     0
  0
ATTDEF
  5
8D
330
6E
100
AcDbEntity
  8
AM_6
100
AcDbText
 10
7.175
 20
-5.956000137329102
 30
0.0
 40
0.5
  1
15300
100
AcDbAttributeDefinition
  3

  2
CD
 70
     8
280
     0
  0
ATTDEF
  5
8E
330
6E
100
AcDbEntity
  8
AM_6
100
AcDbText
 10
7.175
 20
-6.456000137329102
 30
0.0
 40
0.5
  1
26
100
AcDbAttributeDefinition
  3

  2
RN
 70
     8
280
     0
  0
ATTDEF
  5
8F
330
6E
100
AcDbEntity
  8
AM_6
100
AcDbText
 10
7.175
 20
-6.956000137329102
 30
0.0
 40
0.5
  1
.46
100
AcDbAttributeDefinition
  3

  2
RM
 70
     8
280
     0
  0
ATTDEF
  5
90
330
6E
100
AcDbEntity
  8
AM_6
100
AcDbText
 10
7.175
 20
-7.456000137329102
 30
0.0
 40
0.5
  1
4.780
100
AcDbAttributeDefinition
  3

  2
PDI
 70
     8
280
     0
  0
ATTDEF
  5
91
330
6E
100
AcDbEntity
  8
AM_6
100
AcDbText
 10
7.175
 20
-7.956000137329102
 30
0.0
 40
0.5
  1
.008-.012
100
AcDbAttributeDefinition
  3

  2
EP
 70
     8
280
     0
  0
ATTDEF
  5
92
330
6E
100
AcDbEntity
  8
AM_6
100
AcDbText
 10
7.175
 20
-8.456000137329102
 30
0.0
 40
0.5
  1
1/2-13*1
100
AcDbAttributeDefinition
  3

  2
SC
 70
     8
280
     0
  0
ATTDEF
  5
93
330
6E
100
AcDbEntity
  8
AM_6
100
AcDbText
 10
7.175
 20
-8.956000137329102
 30
0.0
 40
0.5
  1
620
100
AcDbAttributeDefinition
  3

  2
TC
 70
     8
280
     0
  0
ATTDEF
  5
94
330
6E
100
AcDbEntity
  8
AM_6
100
AcDbText
 10
7.175
 20
-9.456000137329102
 30
0.0
 40
0.5
  1
C.I. ASTM A48 CLASS 30
100
AcDbAttributeDefinition
  3

  2
MH
 70
     8
280
     0
  0
ATTDEF
  5
95
330
6E
100
AcDbEntity
  8
AM_6
100
AcDbText
 10
7.175
 20
-9.956000137329102
 30
0.0
 40
0.5
  1
4118 CASE CARB.
100
AcDbAttributeDefinition
  3

  2
MC
 70
     8
280
     0
  0
ATTDEF
  5
96
330
6E
100
AcDbEntity
  8
AM_6
100
AcDbText
 10
7.175
 20
-10.4560001373291
 30
0.0
 40
0.5
  1
4118 CASE CARB.
100
AcDbAttributeDefinition
  3

  2
MCU
 70
     8
280
     0
  0
ATTDEF
  5
97
330
6E
100
AcDbEntity
  8
AM_6
100
AcDbText
 10
7.175
 20
-10.9560001373291
 30
0.0
 40
0.5
  1
STEEL
100
AcDbAttributeDefinition
  3

  2
MR
 70
     8
280
     0
  0
ATTDEF
  5
98
330
6E
100
AcDbEntity
  8
AM_6
100
AcDbText
 10
7.175
 20
-11.4560001373291
 30
0.0
 40
0.5
  1
4118 CASE CARB.
100
AcDbAttributeDefinition
  3

  2
MRO
 70
     8
280
     0
  0
ATTDEF
  5
99
330
6E
100
AcDbEntity
  8
AM_6
100
AcDbText
 10
7.175
 20
-11.9560001373291
 30
0.0
 40
0.5
  1
4.08*
100
AcDbAttributeDefinition
  3

  2
SM
 70
     8
280
     0
  0
ATTDEF
  5
9A
330
6E
100
AcDbEntity
  8
AM_6
100
AcDbText
 10
7.175
 20
-12.4560001373291
 30
0.0
 40
0.5
  1
baldor
100
AcDbAttributeDefinition
  3

  2
COMPANY
 70
     8
280
     0
  0
INSERT
  5
9C
330
6E
100
AcDbEntity
  8
0
100
AcDbBlockReference
  2
2_3_1_2C_0_in_023209_2
 10
0.0
 20
0.0
 30
0.0
  0
INSERT
  5
DA
330
6E
100
AcDbEntity
  8
0
100
AcDbBlockReference
  2
3_405020c_Inch_0_in_023209_2
 10
0.0
 20
0.0
 30
0.0
  0
INSERT
  5
124
330
6E
100
AcDbEntity
  8
0
100
AcDbBlockReference
  2
4_S1U_K_308R_0_in_023209_2
 10
0.0
 20
0.0
 30
0.0
  0
INSERT
  5
192
330
6E
100
AcDbEntity
  8
0
100
AcDbBlockReference
  2
5_P2B_K_308RE_0_in_023209_2
 10
0.0
 20
0.0
 30
0.0
  0
ENDBLK
  5
71
330
6E
100
AcDbEntity
  8
0
100
AcDbBlockEnd
  0
BLOCK
  5
9D
330
9B
100
AcDbEntity
  8
0
100
AcDbBlockBegin
  2
2_3_1_2C_0_in_023209_2
 70
     2
 10
0.0
 20
0.0
 30
0.0
  3
2_3_1_2C_0_in_023209_2
  1

  0
ATTDEF
  5
9F
330
9B
100
AcDbEntity
  8
AM_6
100
AcDbText
 10
3.38
 20
2.799572916666667
 30
0.0
 40
0.5
  1
E-Type Collar -Inch
100
AcDbAttributeDefinition
  3

  2
NN
 70
     8
280
     0
  0
ATTDEF
  5
A0
330
9B
100
AcDbEntity
  8
AM_6
100
AcDbText
 10
3.38
 20
2.299572916666667
 30
0.0
 40
0.5
  1
E-Type Bearings
100
AcDbAttributeDefinition
  3

  2
NT
 70
     8
280
     0
  0
ATTDEF
  5
A1
330
9B
100
AcDbEntity
  8
AM_6
100
AcDbText
 10
3.38
 20
1.799572916666667
 30
0.0
 40
0.5
  1
3-1/2C
100
AcDbAttributeDefinition
  3

  2
NB
 70
     8
280
     0
  0
ATTDEF
  5
A2
330
9B
100
AcDbEntity
  8
AM_6
100
AcDbText
 10
3.38
 20
1.299572916666667
 30
0.0
 40
0.5
  1
$BORE.C
100
AcDbAttributeDefinition
  3

  2
NBSYN
 70
     8
280
     0
  0
ATTDEF
  5
A3
330
9B
100
AcDbEntity
  8
AM_6
100
AcDbText
 10
3.38
 20
0.7995729166666665
 30
0.0
 40
0.5
  1
3-1/2C
100
AcDbAttributeDefinition
  3

  2
LINA
 70
     8
280
     0
  0
ATTDEF
  5
A4
330
9B
100
AcDbEntity
  8
AM_6
100
AcDbText
 10
3.38
 20
0.2995729166666665
 30
0.0
 40
0.5
  1
3-1/2
100
AcDbAttributeDefinition
  3

  2
BORE
 70
     8
280
     0
  0
ATTDEF
  5
A5
330
9B
100
AcDbEntity
  8
AM_6
100
AcDbText
 10
3.38
 20
-0.2004270833333335
 30
0.0
 40
0.5
  1
5.53125
100
AcDbAttributeDefinition
  3

  2
L
 70
     8
280
     0
  0
ATTDEF
  5
A6
330
9B
100
AcDbEntity
  8
AM_6
100
AcDbText
 10
3.38
 20
-0.7004270833333335
 30
0.0
 40
0.5
  1
5.00
100
AcDbAttributeDefinition
  3

  2
A
 70
     8
280
     0
  0
ATTDEF
  5
A7
330
9B
100
AcDbEntity
  8
AM_6
100
AcDbText
 10
3.38
 20
-1.200427083333333
 30
0.0
 40
0.5
  1
2.25
100
AcDbAttributeDefinition
  3

  2
B
 70
     8
280
     0
  0
ATTDEF
  5
A8
330
9B
100
AcDbEntity
  8
AM_6
100
AcDbText
 10
3.38
 20
-1.700427083333333
 30
0.0
 40
0.5
  1
4.24
100
AcDbAttributeDefinition
  3

  2
C
 70
     8
280
     0
  0
ATTDEF
  5
A9
330
9B
100
AcDbEntity
  8
AM_6
100
AcDbText
 10
3.38
 20
-2.200427083333333
 30
0.0
 40
0.5
  1
5.84
100
AcDbAttributeDefinition
  3

  2
D
 70
     8
280
     0
  0
ATTDEF
  5
AA
330
9B
100
AcDbEntity
  8
AM_6
100
AcDbText
 10
3.38
 20
-2.700427083333333
 30
0.0
 40
0.5
  1
0.54
100
AcDbAttributeDefinition
  3

  2
E
 70
     8
280
     0
  0
ATTDEF
  5
AB
330
9B
100
AcDbEntity
  8
AM_6
100
AcDbText
 10
3.38
 20
-3.200427083333333
 30
0.0
 40
0.5
  1
0.44
100
AcDbAttributeDefinition
  3

  2
F
 70
     8
280
     0
  0
ATTDEF
  5
AC
330
9B
100
AcDbEntity
  8
AM_6
100
AcDbText
 10
3.38
 20
-3.700427083333333
 30
0.0
 40
0.5
  1
1/2-13
100
AcDbAttributeDefinition
  3

  2
CS
 70
     8
280
     0
  0
ATTDEF
  5
AD
330
9B
100
AcDbEntity
  8
AM_6
100
AcDbText
 10
3.38
 20
-4.200427083333333
 30
0.0
 40
0.5
  1
0.5000
100
AcDbAttributeDefinition
  3

  2
NDM
 70
     8
280
     0
  0
ATTDEF
  5
AE
330
9B
100
AcDbEntity
  8
AM_6
100
AcDbText
 10
3.38
 20
-4.700427083333333
 30
0.0
 40
0.5
  1
0.4170
100
AcDbAttributeDefinition
  3

  2
KDM
 70
     8
280
     0
  0
ATTDEF
  5
AF
330
9B
100
AcDbEntity
  8
AM_6
100
AcDbText
 10
3.38
 20
-5.200427083333333
 30
0.0
 40
0.5
  1
baldor
100
AcDbAttributeDefinition
  3

  2
COMPANY
 70
     8
280
     0
  0
LINE
  5
B2
330
9B
100
AcDbEntity
  8
AM_9
100
AcDbLine
 10
-1.85165
 20
2.128316666666667
 30
0.0
 11
-1.85165
 21
2.723975
 31
0.0
  0
LINE
  5
B3
330
9B
100
AcDbEntity
  8
AM_9
100
AcDbLine
 10
-2.26835
 20
2.723975
 30
0.0
 11
-2.26835
 21
2.128316666666667
 31
0.0
  0
LINE
  5
B4
330
9B
100
AcDbEntity
  8
AM_9
100
AcDbLine
 10
-2.26835
 20
2.128316666666667
 30
0.0
 11
-1.85165
 21
2.128316666666667
 31
0.0
  0
LINE
  5
B5
330
9B
100
AcDbEntity
  8
AM_9
100
AcDbLine
 10
-2.26835
 20
2.128316666666667
 30
0.0
 11
-2.27632665512292
 21
2.120340011543747
 31
0.0
  0
LINE
  5
B6
330
9B
100
AcDbEntity
  8
AM_9
100
AcDbLine
 10
-1.843622808238081
 20
2.120289474904749
 30
0.0
 11
-1.85165
 21
2.128316666666667
 31
0.0
  0
LINE
  5
B7
330
9B
100
AcDbEntity
  8
AM_9
100
AcDbLine
 10
-2.26835
 20
2.723975
 30
0.0
 11
-1.85165
 21
2.723975
 31
0.0
  0
LINE
  5
B8
330
9B
100
AcDbEntity
  8
AM_9
100
AcDbLine
 10
-1.85165
 20
2.723975
 30
0.0
 11
-1.81
 21
2.765625
 31
0.0
  0
LINE
  5
B9
330
9B
100
AcDbEntity
  8
AM_9
100
AcDbLine
 10
-2.31
 20
2.765625
 30
0.0
 11
-2.26835
 21
2.723975
 31
0.0
  0
LWPOLYLINE
  5
BA
330
9B
100
AcDbEntity
  8
AM_9
100
AcDbPolyline
 90
       38
 70
     0
 43
0.0
 10
-1.898527269720325
 20
0.7553325821002994
 10
-1.879156530532244
 20
0.7801819617212915
 10
-1.863735721553157
 20
0.8071919897255869
 10
-1.850981308949331
 20
0.841075323147585
 10
-1.844320148061696
 20
0.8761460700674862
 10
-1.844046838535621
 20
0.9124668146907514
 10
-1.850371643799554
 20
0.948016730488352
 10
-1.86336464503481
 20
0.9820358871958395
 10
-1.882630222958654
 20
1.013322024561616
 10
-1.907329963640261
 20
1.040470903864965
 10
-1.937054845632422
 20
1.06325611250384
 10
-1.969493259689729
 20
1.080173263803238
 10
-2.004880521281622
 20
1.091808745021455
 10
-2.039950344360223
 20
1.097450383710986
 10
-2.075628263858183
 20
1.097806206079551
 10
-2.109512587883563
 20
1.093065402581919
 10
-2.14202260781982
 20
1.083575345219365
 10
-2.172517053153456
 20
1.069446891839833
 10
-2.200020869556716
 20
1.051221507161746
 10
-2.224898641905716
 20
1.02826015568347
 10
-2.245319014011168
 20
1.001973630145817
 10
-2.261534341330013
 20
0.9713080817300328
 10
-2.27201166016802
 20
0.9384603132853394
 10
-2.276524871196479
 20
0.9028705789295719
 10
-2.274525336237965
 20
0.866782636017469
 10
-2.26579246465159
 20
0.8306666761628062
 10
-2.250581458022958
 20
0.7961441815955926
 10
-2.229361093349507
 20
0.7646092471893663
 10
-2.20260832287007
 20
0.7368045473401853
 10
-2.172130238998791
 20
0.714583459955741
 10
-2.137961439144591
 20
0.6977227203400462
 10
-2.103226657961343
 20
0.6875147685228971
 10
-2.067142861238747
 20
0.6832069106349892
 10
-2.032581780542767
 20
0.6848709731065872
 10
-1.998801935484985
 20
0.6919918567810912
 10
-1.966994881265923
 20
0.7042439095664906
 10
-1.937677427931419
 20
0.7211192011086273
 10
-1.898527269720325
 20
0.7553325821002994
  0
LINE
  5
BB
330
9B
100
AcDbEntity
  8
AM_9
100
AcDbLine
 10
-2.5
 20
-2.12
 30
0.0
 11
-1.62
 21
-2.12
 31
0.0
  0
LINE
  5
BC
330
9B
100
AcDbEntity
  8
AM_9
100
AcDbLine
 10
-1.62
 20
2.12
 30
0.0
 11
-1.843987010698913
 21
2.12
 31
0.0
  0
LINE
  5
BD
330
9B
100
AcDbEntity
  8
AM_9
100
AcDbLine
 10
-2.275899334973031
 20
2.12
 30
0.0
 11
-2.5
 21
2.12
 31
0.0
  0
LWPOLYLINE
  5
BE
330
9B
100
AcDbEntity
  8
AM_9
100
AcDbPolyline
 90
       11
 70
     0
 43
0.0
 10
-2.014137641995696
 20
2.108146559545371
 10
-2.01299329392418
 20
2.108174829241166
 10
-1.979890231451798
 20
2.10929348643794
 10
-1.949636014858393
 20
2.110823294463101
 10
-1.921581632183136
 20
2.112672808573442
 10
-1.896772845840065
 20
2.114651870692609
 10
-1.875816305205841
 20
2.11657330240036
 10
-1.85945351547205
 20
2.118231574436285
 10
-1.848466031346461
 20
2.119422462789338
 10
-1.843566681920977
 20
2.119973450609591
 10
-1.843333333333564
 20
2.119999999999973
  0
LWPOLYLINE
  5
BF
330
9B
100
AcDbEntity
  8
AM_9
100
AcDbPolyline
 90
       12
 70
     0
 43
0.0
 10
-2.276666666666597
 20
2.119999999999992
 10
-2.276182956173145
 20
2.119944996509076
 10
-2.27020631638895
 20
2.119275271596195
 10
-2.257861595767471
 20
2.117950007450867
 10
-2.23871033895681
 20
2.116049490654317
 10
-2.214763064002313
 20
2.113940558988845
 10
-2.184851475392248
 20
2.111726765405039
 10
-2.153136256702722
 20
2.109892892457725
 10
-2.117273549354084
 20
2.108459575893357
 10
-2.082772149730406
 20
2.107724895794853
 10
-2.046484095318383
 20
2.10763550093538
 10
-2.014137641995696
 20
2.108146559545371
  0
ELLIPSE
  5
C0
330
9B
100
AcDbEntity
  8
AM_9
100
AcDbEllipse
 10
-2.060000000000002
 20
0.8994654901004276
 30
0.0
 11
0.208349999999998
 21
0.0
 31
0.0
210
0.0
220
0.0
230
1.0
 40
0.9063077870366489
 41
2.411993640411821
 42
3.141592653589793
  0
LINE
  5
C1
330
9B
100
AcDbEntity
  8
AM_9
100
AcDbLine
 10
-1.85165
 20
0.8994654901004264
 30
0.0
 11
-1.85165
 21
1.151201579525122
 31
0.0
  0
LINE
  5
C2
330
9B
100
AcDbEntity
  8
AM_9
100
AcDbLine
 10
-2.26835
 20
1.151201579525122
 30
0.0
 11
-2.26835
 21
0.8994654901004264
 31
0.0
  0
ELLIPSE
  5
C3
330
9B
100
AcDbEntity
  8
AM_9
100
AcDbEllipse
 10
-2.06
 20
0.8994654901004265
 30
0.0
 11
0.2083500000000002
 21
3.104656934738163E-9
 31
0.0
210
0.0
220
0.0
230
1.0
 40
0.90630778703665
 41
3.141592638688632
 42
7.012784305220713
  0
LINE
  5
C4
330
9B
100
AcDbEntity
  8
AM_9
100
AcDbLine
 10
-1.75
 20
-2.765625
 30
0.0
 11
-1.62
 21
-2.765625
 31
0.0
  0
LINE
  5
C5
330
9B
100
AcDbEntity
  8
AM_9
100
AcDbLine
 10
-1.62
 20
2.765625
 30
0.0
 11
-1.75
 21
2.765625
 31
0.0
  0
LINE
  5
C6
330
9B
100
AcDbEntity
  8
AM_9
100
AcDbLine
 10
-1.62
 20
2.765625
 30
0.0
 11
-1.62
 21
-2.765625
 31
0.0
  0
LINE
  5
C8
330
9B
100
AcDbEntity
  8
AM_5
100
AcDbLine
 10
-1.81
 20
2.765625
 30
0.0
 11
-1.81
 21
2.12
 31
0.0
  0
LINE
  5
CB
330
9B
100
AcDbEntity
  8
AM_7
100
AcDbLine
 10
-2.06
 20
2.799572916666667
 30
0.0
 11
-2.06
 21
2.05271875
 31
0.0
  0
ELLIPSE
  5
CD
330
9B
100
AcDbEntity
  8
AM_4
100
AcDbEllipse
 10
-2.06
 20
0.8994654901004268
 30
0.0
 11
0.2083499999999996
 21
0.0
 31
0.0
210
0.0
220
0.0
230
1.0
 40
0.9063077870366495
 41
1.570796326794897
 42
2.411993640411823
  0
ELLIPSE
  5
CE
330
9B
100
AcDbEntity
  8
AM_4
100
AcDbEllipse
 10
-2.06
 20
0.8994654901004274
 30
0.0
 11
0.2083499999999987
 21
0.0
 31
0.0
210
0.0
220
0.0
230
1.0
 40
0.9063077870366504
 41
0.7295990131779684
 42
1.570796326794897
  0
LINE
  5
CF
330
9B
100
AcDbEntity
  8
AM_4
100
AcDbLine
 10
-2.5
 20
2.618958333333333
 30
0.0
 11
-2.5
 21
-2.618958333333333
 31
0.0
  0
ARC
  5
D0
330
9B
100
AcDbEntity
  8
AM_4
100
AcDbCircle
 10
-2.353333333333333
 20
-2.618958333333333
 30
0.0
 40
0.1466666666666665
100
AcDbArc
 50
179.9999991462263
 51
270.0
  0
ARC
  5
D1
330
9B
100
AcDbEntity
  8
AM_4
100
AcDbCircle
 10
-2.353333333333333
 20
2.618958333333333
 30
0.0
 40
0.1466666666666665
100
AcDbArc
 50
90.0
 51
179.9999991462263
  0
LWPOLYLINE
  5
D2
330
9B
100
AcDbEntity
  8
AM_4
100
AcDbPolyline
 90
       38
 70
     0
 43
0.0
 10
-1.86945614888546
 20
1.026451711298556
 10
-1.895595106237953
 20
1.002794012684716
 10
-1.925168227803887
 20
0.9828689636514688
 10
-1.962363309203198
 20
0.965220280033866
 10
-2.002120924653908
 20
0.9534014472575235
 10
-2.044714561147385
 20
0.9477022032084667
 10
-2.087727338148771
 20
0.9486524139600839
 10
-2.130591772637654
 20
0.9564827417226229
 10
-2.171444182224608
 20
0.9709323007771595
 10
-2.208817166659082
 20
0.9915615813438996
 10
-2.241844775217019
 20
1.017782120166919
 10
-2.268674417529128
 20
1.047998534011156
 10
-2.289425905261161
 20
1.081901934368151
 10
-2.302781924176859
 20
1.116894250659609
 10
-2.309358550585322
 20
1.153247557605483
 10
-2.308937410158271
 20
1.188503951349196
 10
-2.302002634740324
 20
1.22297339043453
 10
-2.288855825897105
 20
1.255389465439179
 10
-2.269992761535575
 20
1.285281143474083
 10
-2.24532565185167
 20
1.312484506152882
 10
-2.216043588687772
 20
1.335730724795755
 10
-2.181505497673463
 20
1.355174190027062
 10
-2.143837169016963
 20
1.369464797136195
 10
-2.10248355305022
 20
1.37850706452665
 10
-2.059981881092285
 20
1.381561671264592
 10
-2.016580082636519
 20
1.378369005254935
 10
-1.974402289691657
 20
1.368934306107206
 10
-1.934662822324092
 20
1.353343607654619
 10
-1.898562444813532
 20
1.331997328202906
 10
-1.867915814673118
 20
1.305890813806645
 10
-1.842891104021224
 20
1.275326969275161
 10
-1.825081310450273
 20
1.242444834380287
 10
-1.81394777968995
 20
1.207075524902919
 10
-1.810050537462284
 20
1.171768550621999
 10
-1.812830771049182
 20
1.136144148962878
 10
-1.822041235355646
 20
1.101924090800926
 10
-1.837258966098944
 20
1.069358309749664
 10
-1.869456148851914
 20
1.026451711248347
  0
LINE
  5
D3
330
9B
100
AcDbEntity
  8
AM_4
100
AcDbLine
 10
-2.353333333333333
 20
-2.765625
 30
0.0
 11
-1.75
 21
-2.765625
 31
0.0
  0
LINE
  5
D4
330
9B
100
AcDbEntity
  8
AM_4
100
AcDbLine
 10
-1.75
 20
2.765625
 30
0.0
 11
-1.81
 21
2.765625
 31
0.0
  0
LINE
  5
D5
330
9B
100
AcDbEntity
  8
AM_4
100
AcDbLine
 10
-2.31
 20
2.765625
 30
0.0
 11
-2.353333333333333
 21
2.765625
 31
0.0
  0
LINE
  5
D6
330
9B
100
AcDbEntity
  8
AM_4
100
AcDbLine
 10
-2.353333333333333
 20
2.765625
 30
0.0
 11
-2.353333333333333
 21
-2.765625
 31
0.0
  0
LWPOLYLINE
  5
D7
330
9B
100
AcDbEntity
  8
AM_4
100
AcDbPolyline
 90
       20
 70
     0
 43
0.0
 10
-1.810000000000012
 20
2.765624999999999
 10
-1.813189910085175
 20
2.765362215730176
 10
-1.822562414249223
 20
2.764609380378981
 10
-1.838310804003542
 20
2.763409253771417
 10
-1.859423890105266
 20
2.761928161472382
 10
-1.886174387082822
 20
2.760262568058591
 10
-1.917620076383417
 20
2.75860714167513
 10
-1.953592237731818
 20
2.757115618482621
 10
-1.992825692305774
 20
2.755979623175299
 10
-2.034954074112151
 20
2.755331175796079
 10
-2.077718291680144
 20
2.755278861587559
 10
-2.12119329861714
 20
2.755851499844154
 10
-2.16201189771363
 20
2.756962842291866
 10
-2.201039362641246
 20
2.758543850396657
 10
-2.234354545975526
 20
2.760293211692305
 10
-2.263480912538765
 20
2.762123231212157
 10
-2.284990278917517
 20
2.763654074655163
 10
-2.300549553365496
 20
2.764856155296163
 10
-2.30841968821041
 20
2.765494398114297
 10
-2.309999999999945
 20
2.765624999999995
  0
ELLIPSE
  5
D8
330
9B
100
AcDbEntity
  8
AM_4
100
AcDbEllipse
 10
-2.059999999999999
 20
1.151201579525121
 30
0.0
 11
0.2083499999999993
 21
3.104656934738150E-9
 31
0.0
210
0.0
220
0.0
230
1.0
 40
0.9063077870366533
 41
0.0
 42
6.283185307179586
  0
ENDBLK
  5
9E
330
9B
100
AcDbEntity
  8
0
100
AcDbBlockEnd
  0
BLOCK
  5
DB
330
D9
100
AcDbEntity
  8
0
100
AcDbBlockBegin
  2
3_405020c_Inch_0_in_023209_2
 70
     2
 10
0.0
 20
0.0
 30
0.0
  3
3_405020c_Inch_0_in_023209_2
  1

  0
ATTDEF
  5
DD
330
D9
100
AcDbEntity
  8
AM_6
100
AcDbText
 10
5.162408630723042
 20
4.9815
 30
0.0
 40
0.5
  1
405020C -Inch
100
AcDbAttributeDefinition
  3

  2
NN
 70
     8
280
     0
  0
ATTDEF
  5
DE
330
D9
100
AcDbEntity
  8
AM_6
100
AcDbText
 10
5.162408630723042
 20
4.4815
 30
0.0
 40
0.5
  1
Grease fitting
100
AcDbAttributeDefinition
  3

  2
NT
 70
     8
280
     0
  0
ATTDEF
  5
DF
330
D9
100
AcDbEntity
  8
AM_6
100
AcDbText
 10
5.162408630723042
 20
3.9815
 30
0.0
 40
0.5
  1
405020c-Inch
100
AcDbAttributeDefinition
  3

  2
NB
 70
     8
280
     0
  0
ATTDEF
  5
E0
330
D9
100
AcDbEntity
  8
AM_6
100
AcDbText
 10
5.162408630723042
 20
3.4815
 30
0.0
 40
0.5
  1
$MN.-Inch
100
AcDbAttributeDefinition
  3

  2
NBSYN
 70
     8
280
     0
  0
ATTDEF
  5
E1
330
D9
100
AcDbEntity
  8
AM_6
100
AcDbText
 10
5.162408630723042
 20
2.9815
 30
0.0
 40
0.5
  1
405020c
100
AcDbAttributeDefinition
  3

  2
LINA
 70
     8
280
     0
  0
ATTDEF
  5
E2
330
D9
100
AcDbEntity
  8
AM_6
100
AcDbText
 10
5.162408630723042
 20
2.4815
 30
0.0
 40
0.5
  1
405020c
100
AcDbAttributeDefinition
  3

  2
MN
 70
     8
280
     0
  0
ATTDEF
  5
E3
330
D9
100
AcDbEntity
  8
AM_6
100
AcDbText
 10
5.162408630723042
 20
1.9815
 30
0.0
 40
0.5
  1
0.230
100
AcDbAttributeDefinition
  3

  2
NDR
 70
     8
280
     0
  0
ATTDEF
  5
E4
330
D9
100
AcDbEntity
  8
AM_6
100
AcDbText
 10
5.162408630723042
 20
1.4815
 30
0.0
 40
0.5
  1
0.210
100
AcDbAttributeDefinition
  3

  2
KDR
 70
     8
280
     0
  0
ATTDEF
  5
E5
330
D9
100
AcDbEntity
  8
AM_6
100
AcDbText
 10
5.162408630723042
 20
0.9814999999999996
 30
0.0
 40
0.5
  1
0.157
100
AcDbAttributeDefinition
  3

  2
BZE
 70
     8
280
     0
  0
ATTDEF
  5
E6
330
D9
100
AcDbEntity
  8
AM_6
100
AcDbText
 10
5.162408630723042
 20
0.4814999999999996
 30
0.0
 40
0.5
  1
9/32
100
AcDbAttributeDefinition
  3

  2
WAF
 70
     8
280
     0
  0
ATTDEF
  5
E7
330
D9
100
AcDbEntity
  8
AM_6
100
AcDbText
 10
5.162408630723042
 20
-0.0185000000000004
 30
0.0
 40
0.5
  1
0.2813
100
AcDbAttributeDefinition
  3

  2
WAF1
 70
     8
280
     0
  0
ATTDEF
  5
E8
330
D9
100
AcDbEntity
  8
AM_6
100
AcDbText
 10
5.162408630723042
 20
-0.5185000000000004
 30
0.0
 40
0.5
  1
0.545
100
AcDbAttributeDefinition
  3

  2
BL
 70
     8
280
     0
  0
ATTDEF
  5
E9
330
D9
100
AcDbEntity
  8
AM_6
100
AcDbText
 10
5.162408630723042
 20
-1.0185
 30
0.0
 40
0.5
  1
0.200
100
AcDbAttributeDefinition
  3

  2
TL
 70
     8
280
     0
  0
ATTDEF
  5
EA
330
D9
100
AcDbEntity
  8
AM_6
100
AcDbText
 10
5.162408630723042
 20
-1.5185
 30
0.0
 40
0.5
  1
baldor
100
AcDbAttributeDefinition
  3

  2
COMPANY
 70
     8
280
     0
  0
LINE
  5
EB
330
D9
100
AcDbEntity
  8
AM_9
100
AcDbLine
 10
0.1406499999999998
 20
4.6365
 30
0.0
 11
0.1624086307230417
 21
4.642330207530645
 31
0.0
  0
LINE
  5
EC
330
D9
100
AcDbEntity
  8
AM_9
100
AcDbLine
 10
-0.1624086307230417
 20
4.642330207530645
 30
0.0
 11
-0.1406499999999998
 21
4.6365
 31
0.0
  0
LINE
  5
ED
330
D9
100
AcDbEntity
  8
AM_9
100
AcDbLine
 10
0.1624086307230417
 20
4.69733645913602
 30
0.0
 11
0.14065
 21
4.703166666666666
 31
0.0
  0
LINE
  5
EE
330
D9
100
AcDbEntity
  8
AM_9
100
AcDbLine
 10
-0.14065
 20
4.703166666666666
 30
0.0
 11
-0.1624086307230417
 21
4.69733645913602
 31
0.0
  0
LINE
  5
EF
330
D9
100
AcDbEntity
  8
AM_9
100
AcDbLine
 10
0.080806429716728
 20
4.9815
 30
0.0
 11
-0.0808064199833218
 21
4.9815
 31
0.0
  0
ARC
  5
F0
330
D9
100
AcDbEntity
  8
AM_9
100
AcDbCircle
 10
-0.0808064297167288
 20
4.956500000000001
 30
0.0
 40
0.0249999999999986
100
AcDbArc
 50
90.0
 51
157.0000000000024
  0
ARC
  5
F1
330
D9
100
AcDbEntity
  8
AM_9
100
AcDbCircle
 10
0.0808064297167288
 20
4.956500000000001
 30
0.0
 40
0.0249999999999987
100
AcDbArc
 50
22.99999999999757
 51
90.0
  0
ARC
  5
F2
330
D9
100
AcDbEntity
  8
AM_9
100
AcDbCircle
 10
-0.1446847896390981
 20
4.769842555146222
 30
0.0
 40
0.0499999999999995
100
AcDbArc
 50
314.9999999999995
 51
25.0000000000001
  0
ARC
  5
F3
330
D9
100
AcDbEntity
  8
AM_9
100
AcDbCircle
 10
0.1446847896390982
 20
4.769842555146222
 30
0.0
 40
0.0499999999999993
100
AcDbArc
 50
154.9999999999999
 51
225.0000000000004
  0
LINE
  5
F4
330
D9
100
AcDbEntity
  8
AM_9
100
AcDbLine
 10
0.1000886227036577
 20
4.4365
 30
0.0
 11
-0.1000886227036577
 21
4.4365
 31
0.0
  0
LINE
  5
F5
330
D9
100
AcDbEntity
  8
AM_9
100
AcDbLine
 10
0.1000886227036577
 20
4.4365
 30
0.0
 11
0.1104162595939891
 21
4.446827636890331
 31
0.0
  0
LINE
  5
F6
330
D9
100
AcDbEntity
  8
AM_9
100
AcDbLine
 10
-0.1104162595939891
 20
4.446827636890331
 30
0.0
 11
-0.1000886227036577
 21
4.4365
 31
0.0
  0
LINE
  5
F7
330
D9
100
AcDbEntity
  8
AM_9
100
AcDbLine
 10
0.1104162595939891
 20
4.446827636890331
 30
0.0
 11
-0.1104162595939891
 21
4.446827636890331
 31
0.0
  0
LINE
  5
F8
330
D9
100
AcDbEntity
  8
AM_9
100
AcDbLine
 10
0.1104162595939891
 20
4.446827636890331
 30
0.0
 11
0.1163438171532771
 21
4.6365
 31
0.0
  0
LINE
  5
F9
330
D9
100
AcDbEntity
  8
AM_9
100
AcDbLine
 10
-0.1163438171532771
 20
4.6365
 30
0.0
 11
-0.1104162595939891
 21
4.446827636890331
 31
0.0
  0
LINE
  5
FA
330
D9
100
AcDbEntity
  8
AM_9
100
AcDbLine
 10
0.0993694002872663
 20
4.790973468233257
 30
0.0
 11
-0.0993694002872663
 21
4.790973468233257
 31
0.0
  0
LINE
  5
FB
330
D9
100
AcDbEntity
  8
AM_9
100
AcDbLine
 10
0.0993694002872663
 20
4.790973468233257
 30
0.0
 11
0.1312419113468905
 21
4.859324288774639
 31
0.0
  0
LINE
  5
FC
330
D9
100
AcDbEntity
  8
AM_9
100
AcDbLine
 10
-0.1312419113468905
 20
4.859324288774639
 30
0.0
 11
-0.0993694002872663
 21
4.790973468233257
 31
0.0
  0
LINE
  5
FD
330
D9
100
AcDbEntity
  8
AM_9
100
AcDbLine
 10
0.1038190510530391
 20
4.966268278212231
 30
0.0
 11
-0.1038190510530391
 21
4.966268278212231
 31
0.0
  0
LINE
  5
FE
330
D9
100
AcDbEntity
  8
AM_9
100
AcDbLine
 10
-0.1038190510530391
 20
4.966268278212231
 30
0.0
 11
-0.13195176466768
 21
4.899991758286138
 31
0.0
  0
LINE
  5
FF
330
D9
100
AcDbEntity
  8
AM_9
100
AcDbLine
 10
0.13195176466768
 20
4.899991758286138
 30
0.0
 11
0.1038190510530391
 21
4.966268278212231
 31
0.0
  0
LINE
  5
100
330
D9
100
AcDbEntity
  8
AM_9
100
AcDbLine
 10
0.13195176466768
 20
4.899991758286138
 30
0.0
 11
-0.13195176466768
 21
4.899991758286138
 31
0.0
  0
LINE
  5
101
330
D9
100
AcDbEntity
  8
AM_9
100
AcDbLine
 10
0.1312419113468905
 20
4.859324288774639
 30
0.0
 11
-0.1312419113468905
 21
4.859324288774639
 31
0.0
  0
ARC
  5
102
330
D9
100
AcDbEntity
  8
AM_9
100
AcDbCircle
 10
-0.0859265219950521
 20
4.880455201861674
 30
0.0
 40
0.0500000000000053
100
AcDbArc
 50
157.0000000000029
 51
204.9999999999978
  0
ARC
  5
103
330
D9
100
AcDbEntity
  8
AM_9
100
AcDbCircle
 10
0.0859265219950521
 20
4.880455201861674
 30
0.0
 40
0.0500000000000056
100
AcDbArc
 50
335.0000000000022
 51
22.99999999999706
  0
LWPOLYLINE
  5
104
330
D9
100
AcDbEntity
  8
AM_9
100
AcDbPolyline
 90
        3
 70
     0
 43
0.0
 10
0.0470836401939622
 20
4.638555594189764
 10
0.0312428256208204
 20
4.637418591732272
 10
0.0
 20
4.6365
  0
LWPOLYLINE
  5
105
330
D9
100
AcDbEntity
  8
AM_9
100
AcDbPolyline
 90
        3
 70
     0
 43
0.0
 10
0.0812043153615209
 20
4.642330207530645
 10
0.0623017518439031
 20
4.640031798436252
 10
0.0470836401939622
 20
4.638555594189764
  0
LWPOLYLINE
  5
106
330
D9
100
AcDbEntity
  8
AM_9
100
AcDbPolyline
 90
        4
 70
     0
 43
0.0
 10
0.0
 20
4.703166666666666
 10
0.0311508759219516
 20
4.702253410066301
 10
0.0623017518439031
 20
4.699634868230414
 10
0.0812043153615209
 20
4.69733645913602
  0
LWPOLYLINE
  5
107
330
D9
100
AcDbEntity
  8
AM_9
100
AcDbPolyline
 90
        3
 70
     0
 43
0.0
 10
-0.0812043153615208
 20
4.69733645913602
 10
-0.0407847159147455
 20
4.701614196110488
 10
0.0
 20
4.703166666666666
  0
LINE
  5
108
330
D9
100
AcDbEntity
  8
AM_9
100
AcDbLine
 10
0.0812043153615209
 20
4.69733645913602
 30
0.0
 11
0.0812043153615209
 21
4.642330207530645
 31
0.0
  0
LINE
  5
109
330
D9
100
AcDbEntity
  8
AM_9
100
AcDbLine
 10
0.0981339088760522
 20
4.638577891507137
 30
0.0
 11
0.0812043153615209
 21
4.642330207530645
 31
0.0
  0
LWPOLYLINE
  5
10A
330
D9
100
AcDbEntity
  8
AM_9
100
AcDbPolyline
 90
        3
 70
     0
 43
0.0
 10
0.1218064730422813
 20
4.6365
 10
0.1015053942019011
 20
4.638038875462469
 10
0.0981339088760522
 20
4.638577891507137
  0
LWPOLYLINE
  5
10B
330
D9
100
AcDbEntity
  8
AM_9
100
AcDbPolyline
 90
        3
 70
     0
 43
0.0
 10
0.145501447214629
 20
4.638581724485504
 10
0.1421988309996541
 20
4.638052470556178
 10
0.1218064730422813
 20
4.6365
  0
LINE
  5
10C
330
D9
100
AcDbEntity
  8
AM_9
100
AcDbLine
 10
0.1624086307230417
 20
4.642330207530645
 30
0.0
 11
0.145501447214629
 21
4.638581724485504
 31
0.0
  0
LINE
  5
10D
330
D9
100
AcDbEntity
  8
AM_9
100
AcDbLine
 10
0.1624086307230417
 20
4.69733645913602
 30
0.0
 11
0.1624086307230417
 21
4.642330207530645
 31
0.0
  0
LWPOLYLINE
  5
10E
330
D9
100
AcDbEntity
  8
AM_9
100
AcDbPolyline
 90
        3
 70
     0
 43
0.0
 10
0.1218064730422813
 20
4.703166666666666
 10
0.1421075518826615
 20
4.701627791204197
 10
0.1624086307230417
 20
4.69733645913602
  0
LWPOLYLINE
  5
10F
330
D9
100
AcDbEntity
  8
AM_9
100
AcDbPolyline
 90
        3
 70
     0
 43
0.0
 10
0.0812043153615209
 20
4.69733645913602
 10
0.1014141150849086
 20
4.701614196110488
 10
0.1218064730422813
 20
4.703166666666666
  0
LINE
  5
110
330
D9
100
AcDbEntity
  8
AM_9
100
AcDbLine
 10
-0.0473451283324584
 20
4.638577891507137
 30
0.0
 11
-0.0812043153615208
 21
4.642330207530645
 31
0.0
  0
LWPOLYLINE
  5
111
330
D9
100
AcDbEntity
  8
AM_9
100
AcDbPolyline
 90
        3
 70
     0
 43
0.0
 10
0.0
 20
4.6365
 10
-0.0406021576807604
 20
4.638038875462469
 10
-0.0473451283324584
 20
4.638577891507137
  0
LINE
  5
112
330
D9
100
AcDbEntity
  8
AM_9
100
AcDbLine
 10
-0.1624086307230417
 20
4.69733645913602
 30
0.0
 11
-0.1624086307230417
 21
4.642330207530645
 31
0.0
  0
LINE
  5
113
330
D9
100
AcDbEntity
  8
AM_9
100
AcDbLine
 10
-0.1454790372085106
 20
4.638577891507137
 30
0.0
 11
-0.1624086307230417
 21
4.642330207530645
 31
0.0
  0
LWPOLYLINE
  5
114
330
D9
100
AcDbEntity
  8
AM_9
100
AcDbPolyline
 90
        3
 70
     0
 43
0.0
 10
-0.1218064730422813
 20
4.6365
 10
-0.1421075518826615
 20
4.638038875462469
 10
-0.1454790372085106
 20
4.638577891507137
  0
LWPOLYLINE
  5
115
330
D9
100
AcDbEntity
  8
AM_9
100
AcDbPolyline
 90
        3
 70
     0
 43
0.0
 10
-0.0981114988699334
 20
4.638581724485504
 10
-0.1014141150849086
 20
4.638052470556178
 10
-0.1218064730422813
 20
4.6365
  0
LINE
  5
116
330
D9
100
AcDbEntity
  8
AM_9
100
AcDbLine
 10
-0.0812043153615208
 20
4.642330207530645
 30
0.0
 11
-0.0981114988699334
 21
4.638581724485504
 31
0.0
  0
LINE
  5
117
330
D9
100
AcDbEntity
  8
AM_9
100
AcDbLine
 10
-0.0812043153615208
 20
4.69733645913602
 30
0.0
 11
-0.0812043153615208
 21
4.642330207530645
 31
0.0
  0
LWPOLYLINE
  5
118
330
D9
100
AcDbEntity
  8
AM_9
100
AcDbPolyline
 90
        3
 70
     0
 43
0.0
 10
-0.1218064730422813
 20
4.703166666666666
 10
-0.1015053942019011
 20
4.701627791204197
 10
-0.0812043153615208
 20
4.69733645913602
  0
LWPOLYLINE
  5
119
330
D9
100
AcDbEntity
  8
AM_9
100
AcDbPolyline
 90
        3
 70
     0
 43
0.0
 10
-0.1624086307230417
 20
4.69733645913602
 10
-0.142198830999654
 20
4.701614196110488
 10
-0.1218064730422813
 20
4.703166666666666
  0
LINE
  5
11A
330
D9
100
AcDbEntity
  8
AM_9
100
AcDbLine
 10
0.14065
 20
4.703166666666666
 30
0.0
 11
-0.14065
 21
4.703166666666666
 31
0.0
  0
LINE
  5
11B
330
D9
100
AcDbEntity
  8
AM_9
100
AcDbLine
 10
0.1093294505797714
 20
4.734487216086895
 30
0.0
 11
-0.1093294505797714
 21
4.734487216086895
 31
0.0
  0
LINE
  5
11C
330
D9
100
AcDbEntity
  8
AM_9
100
AcDbLine
 10
-0.1093294505797714
 20
4.734487216086895
 30
0.0
 11
-0.14065
 21
4.703166666666666
 31
0.0
  0
LINE
  5
11D
330
D9
100
AcDbEntity
  8
AM_9
100
AcDbLine
 10
0.14065
 20
4.703166666666666
 30
0.0
 11
0.1093294505797714
 21
4.734487216086895
 31
0.0
  0
LINE
  5
11E
330
D9
100
AcDbEntity
  8
AM_5
100
AcDbLine
 10
-0.1057663861878746
 20
4.61817935215437
 30
0.0
 11
-0.1000886227036577
 21
4.4365
 31
0.0
  0
LINE
  5
11F
330
D9
100
AcDbEntity
  8
AM_5
100
AcDbLine
 10
-0.1163438171532771
 20
4.6365
 30
0.0
 11
-0.1057663861878746
 21
4.61817935215437
 31
0.0
  0
LINE
  5
120
330
D9
100
AcDbEntity
  8
AM_5
100
AcDbLine
 10
0.11577126829667
 20
4.61817935215437
 30
0.0
 11
-0.11577126829667
 21
4.61817935215437
 31
0.0
  0
LINE
  5
121
330
D9
100
AcDbEntity
  8
AM_5
100
AcDbLine
 10
0.1057663861878746
 20
4.61817935215437
 30
0.0
 11
0.1000886227036577
 21
4.4365
 31
0.0
  0
LINE
  5
122
330
D9
100
AcDbEntity
  8
AM_5
100
AcDbLine
 10
0.1163438171532771
 20
4.6365
 30
0.0
 11
0.1057663861878746
 21
4.61817935215437
 31
0.0
  0
ENDBLK
  5
DC
330
D9
100
AcDbEntity
  8
0
100
AcDbBlockEnd
  0
BLOCK
  5
125
330
123
100
AcDbEntity
  8
0
100
AcDbBlockBegin
  2
4_S1U_K_308R_0_in_023209_2
 70
     2
 10
0.0
 20
0.0
 30
0.0
  3
4_S1U_K_308R_0_in_023209_2
  1

  0
ATTDEF
  5
127
330
123
100
AcDbEntity
  8
AM_6
100
AcDbText
 10
7.175
 20
4.6365
 30
0.0
 40
0.5
  1
Type K Units - Inch
100
AcDbAttributeDefinition
  3

  2
NN
 70
     8
280
     0
  0
ATTDEF
  5
128
330
123
100
AcDbEntity
  8
AM_6
100
AcDbText
 10
7.175
 20
4.1365
 30
0.0
 40
0.5
  1
Type K
100
AcDbAttributeDefinition
  3

  2
NT
 70
     8
280
     0
  0
ATTDEF
  5
129
330
123
100
AcDbEntity
  8
AM_6
100
AcDbText
 10
7.175
 20
3.6365
 30
0.0
 40
0.5
  1
S1U-K-308R
100
AcDbAttributeDefinition
  3

  2
NB
 70
     8
280
     0
  0
ATTDEF
  5
12A
330
123
100
AcDbEntity
  8
AM_6
100
AcDbText
 10
7.175
 20
3.1365
 30
0.0
 40
0.5
  1
$PN.
100
AcDbAttributeDefinition
  3

  2
NBSYN
 70
     8
280
     0
  0
ATTDEF
  5
12B
330
123
100
AcDbEntity
  8
AM_6
100
AcDbText
 10
7.175
 20
2.6365
 30
0.0
 40
0.5
  1
S1U-K-308R
100
AcDbAttributeDefinition
  3

  2
LINA
 70
     8
280
     0
  0
ATTDEF
  5
12C
330
123
100
AcDbEntity
  8
AM_6
100
AcDbText
 10
7.175
 20
2.1365
 30
0.0
 40
0.5
  1
3-1/2
100
AcDbAttributeDefinition
  3

  2
SS
 70
     8
280
     0
  0
ATTDEF
  5
12D
330
123
100
AcDbEntity
  8
AM_6
100
AcDbText
 10
7.175
 20
1.6365
 30
0.0
 40
0.5
  1
3.500000
100
AcDbAttributeDefinition
  3

  2
SS1
 70
     8
280
     0
  0
ATTDEF
  5
12E
330
123
100
AcDbEntity
  8
AM_6
100
AcDbText
 10
7.175
 20
1.1365
 30
0.0
 40
0.5
  1
S1U-K-308R
100
AcDbAttributeDefinition
  3

  2
PN
 70
     8
280
     0
  0
ATTDEF
  5
12F
330
123
100
AcDbEntity
  8
AM_6
100
AcDbText
 10
7.175
 20
0.6364999999999998
 30
0.0
 40
0.5
  1
S1U-K-308R
100
AcDbAttributeDefinition
  3

  2
PNA
 70
     8
280
     0
  0
ATTDEF
  5
130
330
123
100
AcDbEntity
  8
AM_6
100
AcDbText
 10
7.175
 20
0.1364999999999998
 30
0.0
 40
0.5
  1
28
100
AcDbAttributeDefinition
  3

  2
WEIGHT
 70
     8
280
     0
  0
ATTDEF
  5
131
330
123
100
AcDbEntity
  8
AM_6
100
AcDbText
 10
7.175
 20
-0.3635000000000002
 30
0.0
 40
0.5
  1
4-1/4
100
AcDbAttributeDefinition
  3

  2
A
 70
     8
280
     0
  0
ATTDEF
  5
132
330
123
100
AcDbEntity
  8
AM_6
100
AcDbText
 10
7.175
 20
-0.8635000000000002
 30
0.0
 40
0.5
  1
4.250000
100
AcDbAttributeDefinition
  3

  2
A1
 70
     8
280
     0
  0
ATTDEF
  5
133
330
123
100
AcDbEntity
  8
AM_6
100
AcDbText
 10
7.175
 20
-1.3635
 30
0.0
 40
0.5
  1
3-1/2
100
AcDbAttributeDefinition
  3

  2
B
 70
     8
280
     0
  0
ATTDEF
  5
134
330
123
100
AcDbEntity
  8
AM_6
100
AcDbText
 10
7.175
 20
-1.8635
 30
0.0
 40
0.5
  1
3.500000
100
AcDbAttributeDefinition
  3

  2
B1
 70
     8
280
     0
  0
ATTDEF
  5
135
330
123
100
AcDbEntity
  8
AM_6
100
AcDbText
 10
7.175
 20
-2.3635
 30
0.0
 40
0.5
  1
2
100
AcDbAttributeDefinition
  3

  2
C
 70
     8
280
     0
  0
ATTDEF
  5
136
330
123
100
AcDbEntity
  8
AM_6
100
AcDbText
 10
7.175
 20
-2.8635
 30
0.0
 40
0.5
  1
2.000000
100
AcDbAttributeDefinition
  3

  2
C1
 70
     8
280
     0
  0
ATTDEF
  5
137
330
123
100
AcDbEntity
  8
AM_6
100
AcDbText
 10
7.175
 20
-3.3635
 30
0.0
 40
0.5
  1
7-1/8
100
AcDbAttributeDefinition
  3

  2
D
 70
     8
280
     0
  0
ATTDEF
  5
138
330
123
100
AcDbEntity
  8
AM_6
100
AcDbText
 10
7.175
 20
-3.8635
 30
0.0
 40
0.5
  1
7.125000
100
AcDbAttributeDefinition
  3

  2
D1
 70
     8
280
     0
  0
ATTDEF
  5
139
330
123
100
AcDbEntity
  8
AM_6
100
AcDbText
 10
7.175
 20
-4.3635
 30
0.0
 40
0.5
  1
0.450
100
AcDbAttributeDefinition
  3

  2
E
 70
     8
280
     0
  0
ATTDEF
  5
13A
330
123
100
AcDbEntity
  8
AM_6
100
AcDbText
 10
7.175
 20
-4.8635
 30
0.0
 40
0.5
  1
6.813
100
AcDbAttributeDefinition
  3

  2
EM
 70
     8
280
     0
  0
ATTDEF
  5
13B
330
123
100
AcDbEntity
  8
AM_6
100
AcDbText
 10
7.175
 20
-5.3635
 30
0.0
 40
0.5
  1
6.880
100
AcDbAttributeDefinition
  3

  2
EC
 70
     8
280
     0
  0
ATTDEF
  5
13C
330
123
100
AcDbEntity
  8
AM_6
100
AcDbText
 10
7.175
 20
-5.8635
 30
0.0
 40
0.5
  1
11/16
100
AcDbAttributeDefinition
  3

  2
H
 70
     8
280
     0
  0
ATTDEF
  5
13D
330
123
100
AcDbEntity
  8
AM_6
100
AcDbText
 10
7.175
 20
-6.3635
 30
0.0
 40
0.5
  1
0.687500
100
AcDbAttributeDefinition
  3

  2
H1
 70
     8
280
     0
  0
ATTDEF
  5
13E
330
123
100
AcDbEntity
  8
AM_6
100
AcDbText
 10
7.175
 20
-6.8635
 30
0.0
 40
0.5
  1
4-1/2
100
AcDbAttributeDefinition
  3

  2
J
 70
     8
280
     0
  0
ATTDEF
  5
13F
330
123
100
AcDbEntity
  8
AM_6
100
AcDbText
 10
7.175
 20
-7.3635
 30
0.0
 40
0.5
  1
4.500000
100
AcDbAttributeDefinition
  3

  2
J1
 70
     8
280
     0
  0
ATTDEF
  5
140
330
123
100
AcDbEntity
  8
AM_6
100
AcDbText
 10
7.175
 20
-7.8635
 30
0.0
 40
0.5
  1
7.373
100
AcDbAttributeDefinition
  3

  2
K
 70
     8
280
     0
  0
ATTDEF
  5
141
330
123
100
AcDbEntity
  8
AM_6
100
AcDbText
 10
7.175
 20
-8.3635
 30
0.0
 40
0.5
  1
5-1/2
100
AcDbAttributeDefinition
  3

  2
L
 70
     8
280
     0
  0
ATTDEF
  5
142
330
123
100
AcDbEntity
  8
AM_6
100
AcDbText
 10
7.175
 20
-8.8635
 30
0.0
 40
0.5
  1
5.500000
100
AcDbAttributeDefinition
  3

  2
L1
 70
     8
280
     0
  0
ATTDEF
  5
143
330
123
100
AcDbEntity
  8
AM_6
100
AcDbText
 10
7.175
 20
-9.3635
 30
0.0
 40
0.5
  1
4-1/2
100
AcDbAttributeDefinition
  3

  2
M
 70
     8
280
     0
  0
ATTDEF
  5
144
330
123
100
AcDbEntity
  8
AM_6
100
AcDbText
 10
7.175
 20
-9.8635
 30
0.0
 40
0.5
  1
4.500000
100
AcDbAttributeDefinition
  3

  2
M1
 70
     8
280
     0
  0
ATTDEF
  5
145
330
123
100
AcDbEntity
  8
AM_6
100
AcDbText
 10
7.175
 20
-10.3635
 30
0.0
 40
0.5
  1
1-11/16
100
AcDbAttributeDefinition
  3

  2
R
 70
     8
280
     0
  0
ATTDEF
  5
146
330
123
100
AcDbEntity
  8
AM_6
100
AcDbText
 10
7.175
 20
-10.8635
 30
0.0
 40
0.5
  1
1.687500
100
AcDbAttributeDefinition
  3

  2
R1
 70
     8
280
     0
  0
ATTDEF
  5
147
330
123
100
AcDbEntity
  8
AM_6
100
AcDbText
 10
7.175
 20
-11.3635
 30
0.0
 40
0.5
  1
2-1/2
100
AcDbAttributeDefinition
  3

  2
S
 70
     8
280
     0
  0
ATTDEF
  5
148
330
123
100
AcDbEntity
  8
AM_6
100
AcDbText
 10
7.175
 20
-11.8635
 30
0.0
 40
0.5
  1
2.500000
100
AcDbAttributeDefinition
  3

  2
S1
 70
     8
280
     0
  0
ATTDEF
  5
149
330
123
100
AcDbEntity
  8
AM_6
100
AcDbText
 10
7.175
 20
-12.3635
 30
0.0
 40
0.5
  1
4.2400
100
AcDbAttributeDefinition
  3

  2
CC
 70
     8
280
     0
  0
ATTDEF
  5
14A
330
123
100
AcDbEntity
  8
AM_6
100
AcDbText
 10
7.175
 20
-12.8635
 30
0.0
 40
0.5
  1
baldor
100
AcDbAttributeDefinition
  3

  2
COMPANY
 70
     8
280
     0
  0
LINE
  5
14B
330
123
100
AcDbEntity
  8
AM_9
100
AcDbLine
 10
-2.225
 20
2.120000000000001
 30
0.0
 11
-2.225
 21
1.75
 31
0.0
  0
LINE
  5
14C
330
123
100
AcDbEntity
  8
AM_9
100
AcDbLine
 10
-1.775
 20
1.75
 30
0.0
 11
-1.775
 21
2.120000000000001
 31
0.0
  0
LINE
  5
14D
330
123
100
AcDbEntity
  8
AM_9
100
AcDbLine
 10
0.3053163691541439
 20
4.6365
 30
0.0
 11
-0.3053163682695456
 21
4.6365
 31
0.0
  0
ARC
  5
14E
330
123
100
AcDbEntity
  8
AM_9
100
AcDbCircle
 10
-0.3053163691541431
 20
4.591499999999999
 30
0.0
 40
0.0450000000000008
100
AcDbArc
 50
90.0
 51
170.9999999999987
  0
ARC
  5
14F
330
123
100
AcDbEntity
  8
AM_9
100
AcDbCircle
 10
0.3053163691541431
 20
4.591499999999999
 30
0.0
 40
0.045000000000001
100
AcDbArc
 50
9.000000000001284
 51
90.0
  0
LINE
  5
150
330
123
100
AcDbEntity
  8
AM_9
100
AcDbLine
 10
0.3497623444809251
 20
4.598539550926811
 30
0.0
 11
-0.3497623444809251
 21
4.598539550926811
 31
0.0
  0
LINE
  5
151
330
123
100
AcDbEntity
  8
AM_9
100
AcDbLine
 10
-0.3497623444809251
 20
4.598539550926811
 30
0.0
 11
-0.4945194132424288
 21
3.684579388773945
 31
0.0
  0
LINE
  5
152
330
123
100
AcDbEntity
  8
AM_9
100
AcDbLine
 10
0.5113247121644225
 20
3.57847490725064
 30
0.0
 11
0.3497623444809251
 21
4.598539550926811
 31
0.0
  0
LINE
  5
153
330
123
100
AcDbEntity
  8
AM_9
100
AcDbLine
 10
-2.5
 20
-1.75
 30
0.0
 11
1.75
 21
-1.75
 31
0.0
  0
LINE
  5
154
330
123
100
AcDbEntity
  8
AM_9
100
AcDbLine
 10
1.75
 20
1.75
 30
0.0
 11
-1.775
 21
1.75
 31
0.0
  0
LINE
  5
155
330
123
100
AcDbEntity
  8
AM_9
100
AcDbLine
 10
-2.225
 20
1.75
 30
0.0
 11
-2.5
 21
1.75
 31
0.0
  0
LWPOLYLINE
  5
156
330
123
100
AcDbEntity
  8
AM_9
100
AcDbPolyline
 90
       20
 70
     0
 43
0.0
 10
-2.22499999999975
 20
1.749999999999968
 10
-2.224693414178945
 20
1.749960608235337
 10
-2.219450215404867
 20
1.749295114336412
 10
-2.208321692430656
 20
1.747933902508094
 10
-2.190993595112732
 20
1.745953479727935
 10
-2.168775028065614
 20
1.743662814336117
 10
-2.141112087083387
 20
1.741202923590766
 10
-2.110101287860868
 20
1.738964431375358
 10
-2.074988907007485
 20
1.737094797693602
 10
-2.038838439357434
 20
1.735909970122794
 10
-2.000495803258275
 20
1.735475510003201
 10
-1.963492850849945
 20
1.735859375623228
 10
-1.926475593011673
 20
1.737032192684691
 10
-1.892552253648777
 20
1.738798440934416
 10
-1.860727684910209
 20
1.741054788842232
 10
-1.833443552916645
 20
1.743449468744371
 10
-1.810154522924234
 20
1.745828257637653
 10
-1.792752024300104
 20
1.747806260267912
 10
-1.780834405646925
 20
1.749259431230295
 10
-1.775
 20
1.75
  0
LWPOLYLINE
  5
157
330
123
100
AcDbEntity
  8
AM_9
100
AcDbPolyline
 90
       11
 70
     0
 43
0.0
 10
-2.0
 20
0.5295243613170458
 10
-1.962936614267127
 20
0.5324772731094252
 10
-1.925873228534254
 20
0.5415774534726661
 10
-1.891928636383914
 20
0.556007777384029
 10
-1.860108459995521
 20
0.5761081651420008
 10
-1.83291213006554
 20
0.6002660561432804
 10
-1.809729012640363
 20
0.6289986827138222
 10
-1.792443851795095
 20
0.6599443046194423
 10
-1.780655921304447
 20
0.6938437949287517
 10
-1.77538845630585
 20
0.7275833865835174
 10
-1.775000000870487
 20
0.7395640204498948
  0
LINE
  5
158
330
123
100
AcDbEntity
  8
AM_9
100
AcDbLine
 10
-2.225
 20
0.8959491104526031
 30
0.0
 11
-2.225
 21
0.7395797591331073
 31
0.0
  0
LINE
  5
159
330
123
100
AcDbEntity
  8
AM_9
100
AcDbLine
 10
-1.775
 20
0.7395418341884135
 30
0.0
 11
-1.775
 21
0.8959179361640245
 31
0.0
  0
LWPOLYLINE
  5
15A
330
123
100
AcDbEntity
  8
AM_9
100
AcDbPolyline
 90
        5
 70
     0
 43
0.0
 10
-2.207652359828869
 20
0.8171924450143464
 10
-2.212135119414573
 20
0.8068677713409309
 10
-2.221621890334022
 20
0.7746029943622658
 10
-2.224999439876695
 20
0.7400369403119826
 10
-2.224999999976079
 20
0.7395849315778387
  0
LWPOLYLINE
  5
15B
330
123
100
AcDbEntity
  8
AM_9
100
AcDbPolyline
 90
       16
 70
     0
 43
0.0
 10
-1.792025005952665
 20
0.8165040876132476
 10
-1.797071945545697
 20
0.8265214171850135
 10
-1.815822581882766
 20
0.854695939735481
 10
-1.840328098805955
 20
0.880212930691188
 10
-1.868779373146044
 20
0.9011862029713756
 10
-1.901843766848765
 20
0.9181075293266556
 10
-1.936767520849285
 20
0.9296311906063103
 10
-1.974562559264876
 20
0.9361342589154007
 10
-2.011746684844744
 20
0.9371015731037745
 10
-2.049668681616171
 20
0.9326325925800737
 10
-2.085011380502429
 20
0.9231268994214843
 10
-2.11893358695014
 20
0.9082658408037967
 10
-2.148790706291357
 20
0.8890999075286025
 10
-2.175246194667471
 20
0.8650681636201683
 10
-2.19621910146719
 20
0.8379054960945401
 10
-2.207652359828869
 20
0.8171924450143464
  0
LWPOLYLINE
  5
15C
330
123
100
AcDbEntity
  8
AM_9
100
AcDbPolyline
 90
        4
 70
     0
 43
0.0
 10
-1.775000000870487
 20
0.7395640204498948
 10
-1.776411233712085
 20
0.7623089010281477
 10
-1.783578019220164
 20
0.7948940297044549
 10
-1.792025005952665
 20
0.8165040876132476
  0
LWPOLYLINE
  5
15D
330
123
100
AcDbEntity
  8
AM_9
100
AcDbPolyline
 90
       10
 70
     0
 43
0.0
 10
-2.224999999976079
 20
0.7395849315778387
 10
-2.222019039966694
 20
0.7063371306113078
 10
-2.212647894478926
 20
0.6722929654452036
 10
-2.19768468647575
 20
0.6408026350795265
 10
-2.176710125891046
 20
0.6110066122429618
 10
-2.1512697381722
 20
0.5852692295752037
 10
-2.120759554121174
 20
0.5631566564954921
 10
-2.087593390931793
 20
0.5465452959174433
 10
-2.050901912550219
 20
0.5351266332877775
 10
-2.0
 20
0.5295243613170458
  0
LWPOLYLINE
  5
15E
330
123
100
AcDbEntity
  8
AM_9
100
AcDbPolyline
 90
        5
 70
     0
 43
0.0
 10
-2.18915365177908
 20
1.004897666091658
 10
-2.196941704661684
 20
0.993339712809207
 10
-2.212449145275964
 20
0.9625579599226739
 10
-2.221852106425148
 20
0.9296750910564265
 10
-2.224999999980258
 20
0.8959480133289377
  0
LWPOLYLINE
  5
15F
330
123
100
AcDbEntity
  8
AM_9
100
AcDbPolyline
 90
        7
 70
     0
 43
0.0
 10
-1.877341862916077
 20
1.06335099052734
 10
-1.902411446405506
 20
1.075584848122409
 10
-1.937887040894517
 20
1.087252322800458
 10
-1.975132706545042
 20
1.093622399969419
 10
-2.012913598279236
 20
1.094471522787592
 10
-2.050329037577345
 20
1.089896556459128
 10
-2.056769291021285
 20
1.088535263575686
  0
LWPOLYLINE
  5
160
330
123
100
AcDbEntity
  8
AM_9
100
AcDbPolyline
 90
        8
 70
     0
 43
0.0
 10
-1.775000000935392
 20
0.8959321205909763
 10
-1.776443287058736
 20
0.91894626079369
 10
-1.783851922377962
 20
0.9521227565698313
 10
-1.797280863148026
 20
0.9834754204337591
 10
-1.816470097904889
 20
1.01219153489323
 10
-1.840781598600497
 20
1.037512363252033
 10
-1.869754900034256
 20
1.058845533956132
 10
-1.877341862916077
 20
1.06335099052734
  0
LWPOLYLINE
  5
161
330
123
100
AcDbEntity
  8
AM_9
100
AcDbPolyline
 90
       11
 70
     0
 43
0.0
 10
-2.224999999980258
 20
0.8959480133289377
 10
-2.224999593258973
 20
0.8955629565067647
 10
-2.221740650789217
 20
0.8613423670501666
 10
-2.212290531393664
 20
0.8278311672743575
 10
-2.196841295995029
 20
0.796029739136694
 10
-2.175911403357186
 20
0.7668446112888097
 10
-2.149880615805409
 20
0.7410778985935864
 10
-2.119631143010497
 20
0.7196172007041313
 10
-2.085872063164234
 20
0.7031696659758954
 10
-2.049668120315408
 20
0.6922488932069611
 10
-2.0
 20
0.6869711704057374
  0
LWPOLYLINE
  5
162
330
123
100
AcDbEntity
  8
AM_9
100
AcDbPolyline
 90
       11
 70
     0
 43
0.0
 10
-2.016510897400546
 20
2.108090987062222
 10
-2.025446550579982
 20
2.108179908579062
 10
-2.061898716905996
 20
2.108934909179184
 10
-2.097619766424365
 20
2.11028543538469
 10
-2.129695638471647
 20
2.112012300778234
 10
-2.158977101779299
 20
2.114012468953328
 10
-2.183143813476233
 20
2.1159670735658
 10
-2.202734389625102
 20
2.117752637287146
 10
-2.216101799192346
 20
2.119074087334884
 10
-2.223621283295392
 20
2.119854117231343
 10
-2.224999999999898
 20
2.11999999999999
  0
LINE
  5
163
330
123
100
AcDbEntity
  8
AM_9
100
AcDbLine
 10
-2.014706802807201
 20
2.108077629037605
 30
0.0
 11
-2.016510897400546
 21
2.108090987062222
 31
0.0
  0
LWPOLYLINE
  5
164
330
123
100
AcDbEntity
  8
AM_9
100
AcDbPolyline
 90
       11
 70
     0
 43
0.0
 10
-1.775
 20
2.120000000000001
 10
-1.778083085691401
 20
2.119675002649286
 10
-1.787600688736991
 20
2.118699711479898
 10
-1.802745233526759
 20
2.117235093912911
 10
-1.823945421855613
 20
2.115365267391331
 10
-1.849530458755114
 20
2.113389713905708
 10
-1.880173067728178
 20
2.111429253775195
 10
-1.913398269631808
 20
2.109804460063246
 10
-1.950106377606048
 20
2.108616696688991
 10
-1.987052308910245
 20
2.108066090687044
 10
-2.014706802807201
 20
2.108077629037605
  0
LWPOLYLINE
  5
165
330
123
100
AcDbEntity
  8
AM_9
100
AcDbPolyline
 90
       11
 70
     0
 43
0.0
 10
-2.0
 20
0.6869711704057374
 10
-1.962348762060701
 20
0.6900115005205998
 10
-1.925761701096777
 20
0.6989431154479865
 10
-1.891303654511932
 20
0.7135530009340082
 10
-1.859896346081044
 20
0.7332943042444175
 10
-1.832373318644877
 20
0.757707520927241
 10
-1.809563160428534
 20
0.7859170897242754
 10
-1.79214505175453
 20
0.8171885880315918
 10
-1.780602069003363
 20
0.8504819753235817
 10
-1.775365108696086
 20
0.8846935401277641
 10
-1.775000000935392
 20
0.8959321205909763
  0
LINE
  5
166
330
123
100
AcDbEntity
  8
AM_9
100
AcDbLine
 10
-2.5
 20
-2.120000000000001
 30
0.0
 11
-1.500000000000001
 21
-2.120000000000001
 31
0.0
  0
LINE
  5
167
330
123
100
AcDbEntity
  8
AM_9
100
AcDbLine
 10
-1.500000000000001
 20
2.120000000000001
 30
0.0
 11
-1.775
 21
2.120000000000001
 31
0.0
  0
LINE
  5
168
330
123
100
AcDbEntity
  8
AM_9
100
AcDbLine
 10
-2.225
 20
2.120000000000001
 30
0.0
 11
-2.5
 21
2.120000000000001
 31
0.0
  0
LINE
  5
169
330
123
100
AcDbEntity
  8
AM_9
100
AcDbLine
 10
1.75
 20
2.291666666666667
 30
0.0
 11
1.125
 21
2.291666666666667
 31
0.0
  0
LINE
  5
16A
330
123
100
AcDbEntity
  8
AM_9
100
AcDbLine
 10
1.125
 20
-2.291666666666667
 30
0.0
 11
1.75
 21
-2.291666666666667
 31
0.0
  0
LINE
  5
16B
330
123
100
AcDbEntity
  8
AM_9
100
AcDbLine
 10
-1.5
 20
2.820512820512821
 30
0.0
 11
-1.75
 21
2.864594565689937
 31
0.0
  0
LINE
  5
16C
330
123
100
AcDbEntity
  8
AM_9
100
AcDbLine
 10
-1.75
 20
-2.864594565689937
 30
0.0
 11
-1.5
 21
-2.820512820512821
 31
0.0
  0
LINE
  5
16D
330
123
100
AcDbEntity
  8
AM_9
100
AcDbLine
 10
-1.5
 20
2.820512820512821
 30
0.0
 11
-1.5
 21
-2.820512820512821
 31
0.0
  0
LINE
  5
16E
330
123
100
AcDbEntity
  8
AM_9
100
AcDbLine
 10
1.125
 20
-2.820512820512821
 30
0.0
 11
1.125
 21
2.820512820512821
 31
0.0
  0
LINE
  5
16F
330
123
100
AcDbEntity
  8
AM_9
100
AcDbLine
 10
1.125
 20
-2.820512820512821
 30
0.0
 11
1.75
 21
-2.930717183455612
 31
0.0
  0
LINE
  5
170
330
123
100
AcDbEntity
  8
AM_9
100
AcDbLine
 10
1.75
 20
2.930717183455612
 30
0.0
 11
1.125
 21
2.820512820512821
 31
0.0
  0
LINE
  5
171
330
123
100
AcDbEntity
  8
AM_9
100
AcDbLine
 10
-1.679166666666666
 20
-3.4065
 30
0.0
 11
-1.0
 21
-3.4065
 31
0.0
  0
LINE
  5
172
330
123
100
AcDbEntity
  8
AM_9
100
AcDbLine
 10
-1.0
 20
3.4065
 30
0.0
 11
-1.679166666666666
 21
3.4065
 31
0.0
  0
LINE
  5
173
330
123
100
AcDbEntity
  8
AM_9
100
AcDbLine
 10
-1.75
 20
0.5624999999999999
 30
0.0
 11
-1.75
 21
0.0
 31
0.0
  0
ARC
  5
174
330
123
100
AcDbEntity
  8
AM_9
100
AcDbCircle
 10
-1.679166666666664
 20
-3.335666666666663
 30
0.0
 40
0.0708333333333373
100
AcDbArc
 50
234.7973164318127
 51
270.0
  0
ARC
  5
175
330
123
100
AcDbEntity
  8
AM_9
100
AcDbCircle
 10
-1.679166666666664
 20
3.335666666666663
 30
0.0
 40
0.0708333333333373
100
AcDbArc
 50
90.0
 51
125.2026835681873
  0
LINE
  5
176
330
123
100
AcDbEntity
  8
AM_9
100
AcDbLine
 10
-1.679166666666666
 20
3.4065
 30
0.0
 11
-1.679166666666666
 21
-3.4065
 31
0.0
  0
LINE
  5
177
330
123
100
AcDbEntity
  8
AM_9
100
AcDbLine
 10
1.75
 20
0.5625
 30
0.0
 11
1.75
 21
0.0
 31
0.0
  0
ARC
  5
178
330
123
100
AcDbEntity
  8
AM_9
100
AcDbCircle
 10
1.679166666666669
 20
-3.369166666666676
 30
0.0
 40
0.0708333333333244
100
AcDbArc
 50
270.0
 51
305.2026835681895
  0
ARC
  5
179
330
123
100
AcDbEntity
  8
AM_9
100
AcDbCircle
 10
1.679166666666669
 20
3.369166666666676
 30
0.0
 40
0.0708333333333245
100
AcDbArc
 50
54.79731643181051
 51
90.0
  0
LINE
  5
17A
330
123
100
AcDbEntity
  8
AM_9
100
AcDbLine
 10
1.0
 20
-3.44
 30
0.0
 11
1.679166666666667
 21
-3.44
 31
0.0
  0
LINE
  5
17B
330
123
100
AcDbEntity
  8
AM_9
100
AcDbLine
 10
1.679166666666667
 20
3.44
 30
0.0
 11
1.0
 21
3.44
 31
0.0
  0
LINE
  5
17C
330
123
100
AcDbEntity
  8
AM_9
100
AcDbLine
 10
1.0
 20
3.44
 30
0.0
 11
1.0
 21
-3.44
 31
0.0
  0
LINE
  5
17D
330
123
100
AcDbEntity
  8
AM_9
100
AcDbLine
 10
1.679166666666667
 20
3.44
 30
0.0
 11
1.679166666666667
 21
-3.44
 31
0.0
  0
ARC
  5
17E
330
123
100
AcDbEntity
  8
AM_9
100
AcDbCircle
 10
-0.375000000000025
 20
-0.0000000000000919
 30
0.0
 40
3.686500000000095
100
AcDbArc
 50
68.10032597912465
 51
76.09491023760039
  0
ARC
  5
17F
330
123
100
AcDbEntity
  8
AM_9
100
AcDbCircle
 10
-0.3749999999999764
 20
-0.0000000000002314
 30
0.0
 40
3.686500000000232
100
AcDbArc
 50
91.85276201741416
 51
99.76092952517085
  0
ARC
  5
180
330
123
100
AcDbEntity
  8
AM_9
100
AcDbCircle
 10
-0.3749999999999985
 20
-0.0000000000000098
 30
0.0
 40
3.686499999999991
100
AcDbArc
 50
260.2390704748288
 51
291.8996740208756
  0
LINE
  5
181
330
123
100
AcDbEntity
  8
AM_9
100
AcDbLine
 10
-1.0
 20
3.633133255194475
 30
0.0
 11
-1.0
 21
-3.633133255194475
 31
0.0
  0
LINE
  5
182
330
123
100
AcDbEntity
  8
AM_9
100
AcDbLine
 10
0.511342492380316
 20
3.578362647385109
 30
0.0
 11
-0.4945221766392542
 21
3.684561941300492
 31
0.0
  0
LINE
  5
183
330
123
100
AcDbEntity
  8
AM_9
100
AcDbLine
 10
0.3561677314138794
 20
3.594960624685423
 30
0.0
 11
0.3591890412375475
 21
3.594638223071832
 31
0.0
  0
LINE
  5
184
330
123
100
AcDbEntity
  8
AM_9
100
AcDbLine
 10
-0.4945221766392542
 20
3.684561941300492
 30
0.0
 11
-0.484126005829117
 21
3.683480713723329
 31
0.0
  0
LINE
  5
185
330
123
100
AcDbEntity
  8
AM_7
100
AcDbLine
 10
-2.0
 20
-0.1375
 30
0.0
 11
-2.0
 21
2.8875
 31
0.0
  0
LINE
  5
186
330
123
100
AcDbEntity
  8
AM_7
100
AcDbLine
 10
-2.7125
 20
0.0
 30
0.0
 11
2.175
 21
-0.0000000000000003
 31
0.0
  0
LWPOLYLINE
  5
187
330
123
100
AcDbEntity
  8
AM_4
100
AcDbPolyline
 90
        6
 70
     0
 43
0.0
 10
-2.067702448376549
 20
1.085818538941588
 10
-2.086218086747909
 20
1.079968906149084
 10
-2.119691134007446
 20
1.064997829327784
 10
-2.149883809415829
 20
1.045199898807345
 10
-2.175872403363124
 20
1.021172244403644
 10
-2.18915365177908
 20
1.004897666091658
  0
LINE
  5
188
330
123
100
AcDbEntity
  8
AM_4
100
AcDbLine
 10
-2.056769291021285
 20
1.088535263575686
 30
0.0
 11
-2.067702448376549
 21
1.085818538941588
 31
0.0
  0
LINE
  5
189
330
123
100
AcDbEntity
  8
AM_4
100
AcDbLine
 10
-1.75
 20
0.0
 30
0.0
 11
-1.75
 21
-3.335666667722163
 31
0.0
  0
LINE
  5
18A
330
123
100
AcDbEntity
  8
AM_4
100
AcDbLine
 10
-1.75
 20
3.335666667722163
 30
0.0
 11
-1.75
 21
0.5624999999999999
 31
0.0
  0
ARC
  5
18B
330
123
100
AcDbEntity
  8
AM_4
100
AcDbCircle
 10
-1.679166666666666
 20
-3.335666666666665
 30
0.0
 40
0.0708333333333346
100
AcDbArc
 50
180.0
 51
234.7973164318125
  0
ARC
  5
18C
330
123
100
AcDbEntity
  8
AM_4
100
AcDbCircle
 10
-1.679166666666666
 20
3.335666666666665
 30
0.0
 40
0.0708333333333342
100
AcDbArc
 50
125.2026835681875
 51
180.0
  0
LINE
  5
18D
330
123
100
AcDbEntity
  8
AM_4
100
AcDbLine
 10
1.75
 20
0.0
 30
0.0
 11
1.75
 21
-3.369166666666666
 31
0.0
  0
LINE
  5
18E
330
123
100
AcDbEntity
  8
AM_4
100
AcDbLine
 10
1.75
 20
3.369166666666666
 30
0.0
 11
1.75
 21
0.5625
 31
0.0
  0
ARC
  5
18F
330
123
100
AcDbEntity
  8
AM_4
100
AcDbCircle
 10
1.679166666666666
 20
-3.369166666666666
 30
0.0
 40
0.0708333333333337
100
AcDbArc
 50
305.2026835681869
 51
0.0
  0
ARC
  5
190
330
123
100
AcDbEntity
  8
AM_4
100
AcDbCircle
 10
1.679166666666666
 20
3.369166666666666
 30
0.0
 40
0.0708333333333335
100
AcDbArc
 50
0.0
 51
54.79731643181311
  0
ENDBLK
  5
126
330
123
100
AcDbEntity
  8
0
100
AcDbBlockEnd
  0
BLOCK
  5
193
330
191
100
AcDbEntity
  8
0
100
AcDbBlockBegin
  2
5_P2B_K_308RE_0_in_023209_2
 70
     2
 10
0.0
 20
0.0
 30
0.0
  3
5_P2B_K_308RE_0_in_023209_2
  1

  0
ATTDEF
  5
195
330
191
100
AcDbEntity
  8
AM_6
100
AcDbText
 10
6.82
 20
7.043999862670898
 30
0.0
 40
0.5
  1
2 & 4 Bolt Base - Body - Inch - EXP
100
AcDbAttributeDefinition
  3

  2
NN
 70
     8
280
     0
  0
ATTDEF
  5
196
330
191
100
AcDbEntity
  8
AM_6
100
AcDbText
 10
6.82
 20
6.543999862670898
 30
0.0
 40
0.5
  1
Type K
100
AcDbAttributeDefinition
  3

  2
NT
 70
     8
280
     0
  0
ATTDEF
  5
197
330
191
100
AcDbEntity
  8
AM_6
100
AcDbText
 10
6.82
 20
6.043999862670898
 30
0.0
 40
0.5
  1
P2B-K-308RE
100
AcDbAttributeDefinition
  3

  2
NB
 70
     8
280
     0
  0
ATTDEF
  5
198
330
191
100
AcDbEntity
  8
AM_6
100
AcDbText
 10
6.82
 20
5.543999862670898
 30
0.0
 40
0.5
  1
$PN.
100
AcDbAttributeDefinition
  3

  2
NBSYN
 70
     8
280
     0
  0
ATTDEF
  5
199
330
191
100
AcDbEntity
  8
AM_6
100
AcDbText
 10
6.82
 20
5.043999862670898
 30
0.0
 40
0.5
  1
P2B-K-308RE
100
AcDbAttributeDefinition
  3

  2
LINA
 70
     8
280
     0
  0
ATTDEF
  5
19A
330
191
100
AcDbEntity
  8
AM_6
100
AcDbText
 10
6.82
 20
4.543999862670898
 30
0.0
 40
0.5
  1
3-1/2
100
AcDbAttributeDefinition
  3

  2
SS
 70
     8
280
     0
  0
ATTDEF
  5
19B
330
191
100
AcDbEntity
  8
AM_6
100
AcDbText
 10
6.82
 20
4.043999862670898
 30
0.0
 40
0.5
  1
3.500000
100
AcDbAttributeDefinition
  3

  2
SS1
 70
     8
280
     0
  0
ATTDEF
  5
19C
330
191
100
AcDbEntity
  8
AM_6
100
AcDbText
 10
6.82
 20
3.543999862670898
 30
0.0
 40
0.5
  1
7.125000
100
AcDbAttributeDefinition
  3

  2
BORE
 70
     8
280
     0
  0
ATTDEF
  5
19D
330
191
100
AcDbEntity
  8
AM_6
100
AcDbText
 10
6.82
 20
3.043999862670898
 30
0.0
 40
0.5
  1
P2B-K-308RE
100
AcDbAttributeDefinition
  3

  2
PN
 70
     8
280
     0
  0
ATTDEF
  5
19E
330
191
100
AcDbEntity
  8
AM_6
100
AcDbText
 10
6.82
 20
2.543999862670898
 30
0.0
 40
0.5
  1
P2B-K-308RE
100
AcDbAttributeDefinition
  3

  2
PNA
 70
     8
280
     0
  0
ATTDEF
  5
19F
330
191
100
AcDbEntity
  8
AM_6
100
AcDbText
 10
6.82
 20
2.043999862670898
 30
0.0
 40
0.5
  1
66
100
AcDbAttributeDefinition
  3

  2
WEIGHT
 70
     8
280
     0
  0
ATTDEF
  5
1A0
330
191
100
AcDbEntity
  8
AM_6
100
AcDbText
 10
6.82
 20
1.543999862670898
 30
0.0
 40
0.5
  1
4.26
100
AcDbAttributeDefinition
  3

  2
A
 70
     8
280
     0
  0
ATTDEF
  5
1A1
330
191
100
AcDbEntity
  8
AM_6
100
AcDbText
 10
6.82
 20
1.043999862670898
 30
0.0
 40
0.5
  1
4.260000
100
AcDbAttributeDefinition
  3

  2
A1
 70
     8
280
     0
  0
ATTDEF
  5
1A2
330
191
100
AcDbEntity
  8
AM_6
100
AcDbText
 10
6.82
 20
0.5439998626708977
 30
0.0
 40
0.5
  1
16.00
100
AcDbAttributeDefinition
  3

  2
B
 70
     8
280
     0
  0
ATTDEF
  5
1A3
330
191
100
AcDbEntity
  8
AM_6
100
AcDbText
 10
6.82
 20
0.0439998626708977
 30
0.0
 40
0.5
  1
16.000000
100
AcDbAttributeDefinition
  3

  2
B1
 70
     8
280
     0
  0
ATTDEF
  5
1A4
330
191
100
AcDbEntity
  8
AM_6
100
AcDbText
 10
6.82
 20
-0.4560001373291023
 30
0.0
 40
0.5
  1
3.44
100
AcDbAttributeDefinition
  3

  2
C
 70
     8
280
     0
  0
ATTDEF
  5
1A5
330
191
100
AcDbEntity
  8
AM_6
100
AcDbText
 10
6.82
 20
-0.9560001373291023
 30
0.0
 40
0.5
  1
3.440000
100
AcDbAttributeDefinition
  3

  2
C1
 70
     8
280
     0
  0
ATTDEF
  5
1A6
330
191
100
AcDbEntity
  8
AM_6
100
AcDbText
 10
6.82
 20
-1.456000137329102
 30
0.0
 40
0.5
  1
12.81
100
AcDbAttributeDefinition
  3

  2
DMIN
 70
     8
280
     0
  0
ATTDEF
  5
1A7
330
191
100
AcDbEntity
  8
AM_6
100
AcDbText
 10
6.82
 20
-1.956000137329102
 30
0.0
 40
0.5
  1
12.810000
100
AcDbAttributeDefinition
  3

  2
DMIN1
 70
     8
280
     0
  0
ATTDEF
  5
1A8
330
191
100
AcDbEntity
  8
AM_6
100
AcDbText
 10
6.82
 20
-2.456000137329102
 30
0.0
 40
0.5
  1
13.81
100
AcDbAttributeDefinition
  3

  2
DMAX
 70
     8
280
     0
  0
ATTDEF
  5
1A9
330
191
100
AcDbEntity
  8
AM_6
100
AcDbText
 10
6.82
 20
-2.956000137329102
 30
0.0
 40
0.5
  1
13.810000
100
AcDbAttributeDefinition
  3

  2
DMAX1
 70
     8
280
     0
  0
ATTDEF
  5
1AA
330
191
100
AcDbEntity
  8
AM_6
100
AcDbText
 10
6.82
 20
-3.456000137329102
 30
0.0
 40
0.5
  1
7/8
100
AcDbAttributeDefinition
  3

  2
F
 70
     8
280
     0
  0
ATTDEF
  5
1AB
330
191
100
AcDbEntity
  8
AM_6
100
AcDbText
 10
6.82
 20
-3.956000137329102
 30
0.0
 40
0.5
  1
0.875000
100
AcDbAttributeDefinition
  3

  2
F1
 70
     8
280
     0
  0
ATTDEF
  5
1AC
330
191
100
AcDbEntity
  8
AM_6
100
AcDbText
 10
6.82
 20
-4.456000137329102
 30
0.0
 40
0.5
  1
1.50
100
AcDbAttributeDefinition
  3

  2
G
 70
     8
280
     0
  0
ATTDEF
  5
1AD
330
191
100
AcDbEntity
  8
AM_6
100
AcDbText
 10
6.82
 20
-4.956000137329102
 30
0.0
 40
0.5
  1
1.500000
100
AcDbAttributeDefinition
  3

  2
G1
 70
     8
280
     0
  0
ATTDEF
  5
1AE
330
191
100
AcDbEntity
  8
AM_6
100
AcDbText
 10
6.82
 20
-5.456000137329102
 30
0.0
 40
0.5
  1
2.25
100
AcDbAttributeDefinition
  3

  2
H
 70
     8
280
     0
  0
ATTDEF
  5
1AF
330
191
100
AcDbEntity
  8
AM_6
100
AcDbText
 10
6.82
 20
-5.956000137329102
 30
0.0
 40
0.5
  1
2.250000
100
AcDbAttributeDefinition
  3

  2
H1
 70
     8
280
     0
  0
ATTDEF
  5
1B0
330
191
100
AcDbEntity
  8
AM_6
100
AcDbText
 10
6.82
 20
-6.456000137329102
 30
0.0
 40
0.5
  1
9.42
100
AcDbAttributeDefinition
  3

  2
J
 70
     8
280
     0
  0
ATTDEF
  5
1B1
330
191
100
AcDbEntity
  8
AM_6
100
AcDbText
 10
6.82
 20
-6.956000137329102
 30
0.0
 40
0.5
  1
9.420000
100
AcDbAttributeDefinition
  3

  2
J1
 70
     8
280
     0
  0
ATTDEF
  5
1B2
330
191
100
AcDbEntity
  8
AM_6
100
AcDbText
 10
6.82
 20
-7.456000137329102
 30
0.0
 40
0.5
  1
5.50
100
AcDbAttributeDefinition
  3

  2
L
 70
     8
280
     0
  0
ATTDEF
  5
1B3
330
191
100
AcDbEntity
  8
AM_6
100
AcDbText
 10
6.82
 20
-7.956000137329102
 30
0.0
 40
0.5
  1
5.500000
100
AcDbAttributeDefinition
  3

  2
L1
 70
     8
280
     0
  0
ATTDEF
  5
1B4
330
191
100
AcDbEntity
  8
AM_6
100
AcDbText
 10
6.82
 20
-8.456000137329102
 30
0.0
 40
0.5
  1
4.50
100
AcDbAttributeDefinition
  3

  2
M
 70
     8
280
     0
  0
ATTDEF
  5
1B5
330
191
100
AcDbEntity
  8
AM_6
100
AcDbText
 10
6.82
 20
-8.956000137329102
 30
0.0
 40
0.5
  1
4.500000
100
AcDbAttributeDefinition
  3

  2
M1
 70
     8
280
     0
  0
ATTDEF
  5
1B6
330
191
100
AcDbEntity
  8
AM_6
100
AcDbText
 10
6.82
 20
-9.456000137329102
 30
0.0
 40
0.5
  1
10.10
100
AcDbAttributeDefinition
  3

  2
P
 70
     8
280
     0
  0
ATTDEF
  5
1B7
330
191
100
AcDbEntity
  8
AM_6
100
AcDbText
 10
6.82
 20
-9.956000137329102
 30
0.0
 40
0.5
  1
10.100000
100
AcDbAttributeDefinition
  3

  2
P1
 70
     8
280
     0
  0
ATTDEF
  5
1B8
330
191
100
AcDbEntity
  8
AM_6
100
AcDbText
 10
6.82
 20
-10.4560001373291
 30
0.0
 40
0.5
  1
1.68
100
AcDbAttributeDefinition
  3

  2
R
 70
     8
280
     0
  0
ATTDEF
  5
1B9
330
191
100
AcDbEntity
  8
AM_6
100
AcDbText
 10
6.82
 20
-10.9560001373291
 30
0.0
 40
0.5
  1
1.680000
100
AcDbAttributeDefinition
  3

  2
R1
 70
     8
280
     0
  0
ATTDEF
  5
1BA
330
191
100
AcDbEntity
  8
AM_6
100
AcDbText
 10
6.82
 20
-11.4560001373291
 30
0.0
 40
0.5
  1
2.50
100
AcDbAttributeDefinition
  3

  2
S
 70
     8
280
     0
  0
ATTDEF
  5
1BB
330
191
100
AcDbEntity
  8
AM_6
100
AcDbText
 10
6.82
 20
-11.9560001373291
 30
0.0
 40
0.5
  1
2.500000
100
AcDbAttributeDefinition
  3

  2
S1
 70
     8
280
     0
  0
ATTDEF
  5
1BC
330
191
100
AcDbEntity
  8
AM_6
100
AcDbText
 10
6.82
 20
-12.4560001373291
 30
0.0
 40
0.5
  1
0.281250
100
AcDbAttributeDefinition
  3

  2
EXP1
 70
     8
280
     0
  0
ATTDEF
  5
1BD
330
191
100
AcDbEntity
  8
AM_6
100
AcDbText
 10
6.82
 20
-12.9560001373291
 30
0.0
 40
0.5
  1
3
100
AcDbAttributeDefinition
  3

  2
HF
 70
     8
280
     0
  0
ATTDEF
  5
1BE
330
191
100
AcDbEntity
  8
AM_6
100
AcDbText
 10
6.82
 20
-13.4560001373291
 30
0.0
 40
0.5
  1
.28
100
AcDbAttributeDefinition
  3

  2
T
 70
     8
280
     0
  0
ATTDEF
  5
1BF
330
191
100
AcDbEntity
  8
AM_6
100
AcDbText
 10
6.82
 20
-13.9560001373291
 30
0.0
 40
0.5
  1
baldor
100
AcDbAttributeDefinition
  3

  2
COMPANY
 70
     8
280
     0
  0
LINE
  5
1C0
330
191
100
AcDbEntity
  8
AM_9
100
AcDbLine
 10
-1.0605
 20
5.02
 30
0.0
 11
-1.0605
 21
4.92
 31
0.0
  0
LINE
  5
1C1
330
191
100
AcDbEntity
  8
AM_9
100
AcDbLine
 10
0.252500015050172
 20
5.02
 30
0.0
 11
0.252500015050172
 21
4.92
 31
0.0
  0
LINE
  5
1C2
330
191
100
AcDbEntity
  8
AM_9
100
AcDbLine
 10
-0.86
 20
4.92
 30
0.0
 11
-0.86
 21
3.5625
 31
0.0
  0
LINE
  5
1C3
330
191
100
AcDbEntity
  8
AM_9
100
AcDbLine
 10
0.86
 20
3.5625
 30
0.0
 11
0.86
 21
4.92
 31
0.0
  0
LINE
  5
1C4
330
191
100
AcDbEntity
  8
AM_9
100
AcDbLine
 10
-0.8422008598862409
 20
3.558245148720522
 30
0.0
 11
-0.8599999999998945
 21
3.562499999999975
 31
0.0
  0
LINE
  5
1C5
330
191
100
AcDbEntity
  8
AM_9
100
AcDbLine
 10
-1.638095238095238
 20
-3.5625
 30
0.0
 11
1.638095238095238
 21
-3.5625
 31
0.0
  0
LINE
  5
1C6
330
191
100
AcDbEntity
  8
AM_9
100
AcDbLine
 10
1.638095238095238
 20
3.5625
 30
0.0
 11
0.8600000000000001
 21
3.5625
 31
0.0
  0
LINE
  5
1C7
330
191
100
AcDbEntity
  8
AM_9
100
AcDbLine
 10
-0.86
 20
3.5625
 30
0.0
 11
-1.638095238095238
 21
3.5625
 31
0.0
  0
LWPOLYLINE
  5
1C8
330
191
100
AcDbEntity
  8
AM_9
100
AcDbPolyline
 90
       40
 70
     0
 43
0.0
 10
-0.8599999999998945
 20
3.562499999999975
 10
-0.8596040771692058
 20
3.562404443558581
 10
-0.8543353688097736
 20
3.561135594813142
 10
-0.8429992893477832
 20
3.558434213504708
 10
-0.8265080346122952
 20
3.554562712117622
 10
-0.8046569676261253
 20
3.549546321087989
 10
-0.7767556464964179
 20
3.54332495532588
 10
-0.7435703034263345
 20
3.536198954546751
 10
-0.7057620605755339
 20
3.52844238536344
 10
-0.6632739375048214
 20
3.520190132105531
 10
-0.6150079345541638
 20
3.511416255911939
 10
-0.5624178272210651
 20
3.502587623797021
 10
-0.5061617254512413
 20
3.493996746853348
 10
-0.4463385825098564
 20
3.485831949511752
 10
-0.3814316696189924
 20
3.478118723212984
 10
-0.3136175353665999
 20
3.471334355617365
 10
-0.245873650372442
 20
3.465873064045952
 10
-0.1763466415381734
 20
3.461633196625805
 10
-0.1033350022935985
 20
3.4586855526937
 10
-0.0295155289930226
 20
3.457264441209515
 10
0.04044791066496
 20
3.457377596064228
 10
0.1101281817730849
 20
3.458892086553243
 10
0.1810457969104485
 20
3.461878332449458
 10
0.2506335918910025
 20
3.466211685310663
 10
0.3162002179838934
 20
3.471570408225966
 10
0.3796338211642433
 20
3.477920080762605
 10
0.4421711070354329
 20
3.485302125983046
 10
0.5016246584880178
 20
3.493341315703809
 10
0.5574279143577936
 20
3.501790567034488
 10
0.6094354088263241
 20
3.51044409833447
 10
0.658586975758193
 20
3.519310216298469
 10
0.703041831015251
 20
3.527899384358527
 10
0.7420175015830529
 20
3.535872431413981
 10
0.775829957946514
 20
3.543122686790183
 10
0.804975755128061
 20
3.54961772804343
 10
0.8281406887392659
 20
3.55494349467689
 10
0.8419000435906197
 20
3.558173516051381
 10
0.8518318318905088
 20
3.560536998799752
 10
0.8579522813237267
 20
3.562005684577653
 10
0.86
 20
3.5625
  0
LINE
  5
1C9
330
191
100
AcDbEntity
  8
AM_9
100
AcDbLine
 10
0.6703607103712531
 20
3.717499999999999
 30
0.0
 11
0.6703607103712532
 21
3.2800000164
 31
0.0
  0
LINE
  5
1CA
330
191
100
AcDbEntity
  8
AM_9
100
AcDbLine
 10
-0.6703607103712527
 20
3.7175
 30
0.0
 11
-0.6703607103712526
 21
3.2800000164
 31
0.0
  0
LINE
  5
1CB
330
191
100
AcDbEntity
  8
AM_9
100
AcDbLine
 10
-1.728095238095239
 20
0.5625
 30
0.0
 11
-1.728095238095239
 21
0.0
 31
0.0
  0
LINE
  5
1CC
330
191
100
AcDbEntity
  8
AM_9
100
AcDbLine
 10
-1.638095238095238
 20
3.761351351351351
 30
0.0
 11
-1.638095238095238
 21
-3.761351351351351
 31
0.0
  0
ARC
  5
1CD
330
191
100
AcDbEntity
  8
AM_9
100
AcDbCircle
 10
-1.728095238095238
 20
-3.761351351351351
 30
0.0
 40
0.09
100
AcDbArc
 50
275.1605632226651
 51
0.0
  0
ARC
  5
1CE
330
191
100
AcDbEntity
  8
AM_9
100
AcDbCircle
 10
-1.728095238095238
 20
3.761351351351351
 30
0.0
 40
0.0900000000000003
100
AcDbArc
 50
0.0
 51
84.8394367773349
  0
LINE
  5
1CF
330
191
100
AcDbEntity
  8
AM_9
100
AcDbLine
 10
1.728095238095239
 20
0.5625000000000001
 30
0.0
 11
1.728095238095239
 21
0.0
 31
0.0
  0
LINE
  5
1D0
330
191
100
AcDbEntity
  8
AM_9
100
AcDbLine
 10
1.638095238095238
 20
3.761351351351351
 30
0.0
 11
1.638095238095238
 21
-3.761351351351351
 31
0.0
  0
ARC
  5
1D1
330
191
100
AcDbEntity
  8
AM_9
100
AcDbCircle
 10
1.728095238095239
 20
-3.761351351351351
 30
0.0
 40
0.0900000000000007
100
AcDbArc
 50
179.9999991462263
 51
264.8394367773346
  0
ARC
  5
1D2
330
191
100
AcDbEntity
  8
AM_9
100
AcDbCircle
 10
1.728095238095239
 20
3.761351351351351
 30
0.0
 40
0.0900000000000009
100
AcDbArc
 50
95.1605632226652
 51
180.0
  0
LINE
  5
1D3
330
191
100
AcDbEntity
  8
AM_9
100
AcDbLine
 10
0.5000000000000002
 20
-2.249999999999998
 30
0.0
 11
0.5000000000000002
 21
-4.5
 31
0.0
  0
LINE
  5
1D4
330
191
100
AcDbEntity
  8
AM_9
100
AcDbLine
 10
-0.4999999999999996
 20
-2.249999999999998
 30
0.0
 11
-0.4999999999999996
 21
-4.5
 31
0.0
  0
LINE
  5
1D5
330
191
100
AcDbEntity
  8
AM_7
100
AcDbLine
 10
1.075
 20
3.18375
 30
0.0
 11
1.075
 21
3.37625
 31
0.0
  0
LINE
  5
1D6
330
191
100
AcDbEntity
  8
AM_7
100
AcDbLine
 10
-1.075
 20
3.18375
 30
0.0
 11
-1.075
 21
3.37625
 31
0.0
  0
LINE
  5
1D7
330
191
100
AcDbEntity
  8
AM_7
100
AcDbLine
 10
0.0
 20
-0.3585
 30
0.0
 11
0.0
 21
7.043999862670898
 31
0.0
  0
LINE
  5
1D8
330
191
100
AcDbEntity
  8
AM_4
100
AcDbLine
 10
-0.9470299461620747
 20
5.12
 30
0.0
 11
-0.9470299461620747
 21
5.02
 31
0.0
  0
LINE
  5
1D9
330
191
100
AcDbEntity
  8
AM_4
100
AcDbLine
 10
-1.004764973081038
 20
5.12
 30
0.0
 11
-1.004764973081038
 21
5.02
 31
0.0
  0
LINE
  5
1DA
330
191
100
AcDbEntity
  8
AM_4
100
AcDbLine
 10
-1.177970053837925
 20
5.12
 30
0.0
 11
-0.9470299461620747
 21
5.12
 31
0.0
  0
LINE
  5
1DB
330
191
100
AcDbEntity
  8
AM_4
100
AcDbLine
 10
-1.120235026918962
 20
5.12
 30
0.0
 11
-1.120235026918962
 21
5.02
 31
0.0
  0
LINE
  5
1DC
330
191
100
AcDbEntity
  8
AM_4
100
AcDbLine
 10
-1.177970053837925
 20
5.12
 30
0.0
 11
-1.177970053837925
 21
5.02
 31
0.0
  0
LINE
  5
1DD
330
191
100
AcDbEntity
  8
AM_4
100
AcDbLine
 10
1.177970053837925
 20
5.12
 30
0.0
 11
1.177970053837925
 21
5.02
 31
0.0
  0
LINE
  5
1DE
330
191
100
AcDbEntity
  8
AM_4
100
AcDbLine
 10
0.9470299461620747
 20
5.12
 30
0.0
 11
1.177970053837925
 21
5.12
 31
0.0
  0
LINE
  5
1DF
330
191
100
AcDbEntity
  8
AM_4
100
AcDbLine
 10
0.9470299461620747
 20
5.12
 30
0.0
 11
0.9470299461620747
 21
5.02
 31
0.0
  0
LINE
  5
1E0
330
191
100
AcDbEntity
  8
AM_4
100
AcDbLine
 10
1.120235026918963
 20
5.12
 30
0.0
 11
1.120235026918963
 21
5.02
 31
0.0
  0
LINE
  5
1E1
330
191
100
AcDbEntity
  8
AM_4
100
AcDbLine
 10
1.004764973081038
 20
5.12
 30
0.0
 11
1.004764973081038
 21
5.02
 31
0.0
  0
LINE
  5
1E2
330
191
100
AcDbEntity
  8
AM_4
100
AcDbLine
 10
1.2625
 20
5.02
 30
0.0
 11
1.2625
 21
4.92
 31
0.0
  0
LINE
  5
1E3
330
191
100
AcDbEntity
  8
AM_4
100
AcDbLine
 10
-1.2625
 20
5.02
 30
0.0
 11
1.2625
 21
5.02
 31
0.0
  0
LINE
  5
1E4
330
191
100
AcDbEntity
  8
AM_4
100
AcDbLine
 10
-1.2625
 20
5.02
 30
0.0
 11
-1.2625
 21
4.92
 31
0.0
  0
LINE
  5
1E5
330
191
100
AcDbEntity
  8
AM_4
100
AcDbLine
 10
1.0605
 20
5.02
 30
0.0
 11
1.0605
 21
4.92
 31
0.0
  0
LINE
  5
1E6
330
191
100
AcDbEntity
  8
AM_4
100
AcDbLine
 10
-0.2524999999999996
 20
5.02
 30
0.0
 11
-0.2524999999999995
 21
4.92
 31
0.0
  0
LWPOLYLINE
  5
1E7
330
191
100
AcDbEntity
  8
AM_4
100
AcDbPolyline
 90
       19
 70
     0
 43
0.0
 10
-1.43875
 20
4.919999999999999
 10
-1.463262552647779
 20
4.918929758838303
 10
-1.487588549968824
 20
4.915727180534683
 10
-1.511542856435084
 20
4.9104166386438
 10
-1.534943165310344
 20
4.903038549596036
 10
-1.557611386114572
 20
4.893649065104057
 10
-1.579375
 20
4.882319644814373
 10
-1.600068372723731
 20
4.869136512456278
 10
-1.619534015224339
 20
4.854199999627212
 10
-1.637623782208716
 20
4.837623782208716
 10
-1.654199999627212
 20
4.819534015224339
 10
-1.669136512456278
 20
4.800068372723731
 10
-1.682319644814373
 20
4.779375
 10
-1.693649065104057
 20
4.757611386114571
 10
-1.703038549596036
 20
4.734943165310344
 10
-1.7104166386438
 20
4.711542856435084
 10
-1.715727180534683
 20
4.687588549968824
 10
-1.718929758838303
 20
4.663262552647779
 10
-1.72
 20
4.63875
  0
LINE
  5
1E8
330
191
100
AcDbEntity
  8
AM_4
100
AcDbLine
 10
-1.43875
 20
4.92
 30
0.0
 11
1.43875
 21
4.92
 31
0.0
  0
LWPOLYLINE
  5
1E9
330
191
100
AcDbEntity
  8
AM_4
100
AcDbPolyline
 90
       19
 70
     0
 43
0.0
 10
1.72
 20
4.63875
 10
1.718929758838303
 20
4.663262552647779
 10
1.715727180534683
 20
4.687588549968823
 10
1.7104166386438
 20
4.711542856435083
 10
1.703038549596037
 20
4.734943165310344
 10
1.693649065104057
 20
4.757611386114571
 10
1.682319644814373
 20
4.779374999999999
 10
1.669136512456279
 20
4.800068372723731
 10
1.654199999627212
 20
4.819534015224339
 10
1.637623782208716
 20
4.837623782208715
 10
1.619534015224339
 20
4.854199999627212
 10
1.600068372723732
 20
4.869136512456278
 10
1.579375
 20
4.882319644814372
 10
1.557611386114572
 20
4.893649065104057
 10
1.534943165310345
 20
4.903038549596036
 10
1.511542856435084
 20
4.9104166386438
 10
1.487588549968824
 20
4.915727180534683
 10
1.463262552647779
 20
4.918929758838303
 10
1.43875
 20
4.919999999999999
  0
LINE
  5
1EA
330
191
100
AcDbEntity
  8
AM_4
100
AcDbLine
 10
-1.72
 20
4.63875
 30
0.0
 11
1.72
 21
4.638749999999999
 31
0.0
  0
LINE
  5
1EB
330
191
100
AcDbEntity
  8
AM_4
100
AcDbLine
 10
1.72
 20
4.322544441806109
 30
0.0
 11
0.6703607103712531
 21
4.623071369651229
 31
0.0
  0
LINE
  5
1EC
330
191
100
AcDbEntity
  8
AM_4
100
AcDbLine
 10
0.6703607103712531
 20
4.623071369651229
 30
0.0
 11
0.6703607103712531
 21
3.717499999999999
 31
0.0
  0
LINE
  5
1ED
330
191
100
AcDbEntity
  8
AM_4
100
AcDbLine
 10
0.6703607103712531
 20
4.623071369651229
 30
0.0
 11
-0.6703607103712527
 21
4.623071369651229
 31
0.0
  0
LINE
  5
1EE
330
191
100
AcDbEntity
  8
AM_4
100
AcDbLine
 10
-0.6703607103712527
 20
4.623071369651229
 30
0.0
 11
-0.6703607103712527
 21
3.7175
 31
0.0
  0
LINE
  5
1EF
330
191
100
AcDbEntity
  8
AM_4
100
AcDbLine
 10
-0.6703607103712527
 20
4.623071369651229
 30
0.0
 11
-1.72
 21
4.322544441806109
 31
0.0
  0
LINE
  5
1F0
330
191
100
AcDbEntity
  8
AM_4
100
AcDbLine
 10
0.3649599062861345
 20
0.5625
 30
0.0
 11
0.3649599062861345
 21
0.0
 31
0.0
  0
LINE
  5
1F1
330
191
100
AcDbEntity
  8
AM_4
100
AcDbLine
 10
-0.3649598960250654
 20
0.5625
 30
0.0
 11
-0.3649598960250654
 21
0.0
 31
0.0
  0
LINE
  5
1F2
330
191
100
AcDbEntity
  8
AM_4
100
AcDbLine
 10
0.637500000000001
 20
3.7175
 30
0.0
 11
1.5125
 21
3.7175
 31
0.0
  0
LINE
  5
1F3
330
191
100
AcDbEntity
  8
AM_4
100
AcDbLine
 10
0.637500000000001
 20
3.7175
 30
0.0
 11
0.637500000000001
 21
3.3675
 31
0.0
  0
LINE
  5
1F4
330
191
100
AcDbEntity
  8
AM_4
100
AcDbLine
 10
1.075
 20
3.7175
 30
0.0
 11
1.075
 21
3.3675
 31
0.0
  0
LINE
  5
1F5
330
191
100
AcDbEntity
  8
AM_4
100
AcDbLine
 10
1.5125
 20
3.7175
 30
0.0
 11
1.5125
 21
3.3675
 31
0.0
  0
LINE
  5
1F6
330
191
100
AcDbEntity
  8
AM_4
100
AcDbLine
 10
-0.6375
 20
3.7175
 30
0.0
 11
-0.6375
 21
3.3675
 31
0.0
  0
LINE
  5
1F7
330
191
100
AcDbEntity
  8
AM_4
100
AcDbLine
 10
-1.5125
 20
3.7175
 30
0.0
 11
-0.6375
 21
3.7175
 31
0.0
  0
LINE
  5
1F8
330
191
100
AcDbEntity
  8
AM_4
100
AcDbLine
 10
-1.5125
 20
3.7175
 30
0.0
 11
-1.5125
 21
3.3675
 31
0.0
  0
LINE
  5
1F9
330
191
100
AcDbEntity
  8
AM_4
100
AcDbLine
 10
-1.075
 20
3.7175
 30
0.0
 11
-1.075
 21
3.3675
 31
0.0
  0
LINE
  5
1FA
330
191
100
AcDbEntity
  8
AM_4
100
AcDbLine
 10
0.5281250000000003
 20
3.3675
 30
0.0
 11
1.621875
 21
3.3675
 31
0.0
  0
LINE
  5
1FB
330
191
100
AcDbEntity
  8
AM_4
100
AcDbLine
 10
0.5281250000000003
 20
3.3675
 30
0.0
 11
0.5281250000000003
 21
3.2800000164
 31
0.0
  0
LINE
  5
1FC
330
191
100
AcDbEntity
  8
AM_4
100
AcDbLine
 10
1.621875
 20
3.2800000164
 30
0.0
 11
1.621875
 21
3.3675
 31
0.0
  0
LINE
  5
1FD
330
191
100
AcDbEntity
  8
AM_4
100
AcDbLine
 10
-1.621875
 20
3.3675
 30
0.0
 11
-0.5281249999999997
 21
3.3675
 31
0.0
  0
LINE
  5
1FE
330
191
100
AcDbEntity
  8
AM_4
100
AcDbLine
 10
-1.621875
 20
3.3675
 30
0.0
 11
-1.621875
 21
3.2800000164
 31
0.0
  0
LINE
  5
1FF
330
191
100
AcDbEntity
  8
AM_4
100
AcDbLine
 10
-0.5281249999999997
 20
3.2800000164
 30
0.0
 11
-0.5281249999999997
 21
3.3675
 31
0.0
  0
LINE
  5
200
330
191
100
AcDbEntity
  8
AM_4
100
AcDbLine
 10
0.4876090763726922
 20
3.2800000164
 30
0.0
 11
0.4876090763726923
 21
0.5625000000000003
 31
0.0
  0
LINE
  5
201
330
191
100
AcDbEntity
  8
AM_4
100
AcDbLine
 10
0.4876090763726922
 20
0.0
 30
0.0
 11
0.4876090763726922
 21
-2.25
 31
0.0
  0
LINE
  5
202
330
191
100
AcDbEntity
  8
AM_4
100
AcDbLine
 10
-1.72
 20
3.280000016399999
 30
0.0
 11
1.720000000000001
 21
3.280000016399999
 31
0.0
  0
LINE
  5
203
330
191
100
AcDbEntity
  8
AM_4
100
AcDbLine
 10
1.72
 20
4.638749999999999
 30
0.0
 11
1.720000000000001
 21
0.5625000000000003
 31
0.0
  0
LINE
  5
204
330
191
100
AcDbEntity
  8
AM_4
100
AcDbLine
 10
-1.72
 20
4.63875
 30
0.0
 11
-1.72
 21
0.5625000000000003
 31
0.0
  0
LINE
  5
205
330
191
100
AcDbEntity
  8
AM_4
100
AcDbLine
 10
-0.4876090763726934
 20
3.2800000164
 30
0.0
 11
-0.4876090763726934
 21
0.5625000000000003
 31
0.0
  0
LINE
  5
206
330
191
100
AcDbEntity
  8
AM_4
100
AcDbLine
 10
-0.4876090763726934
 20
0.0
 30
0.0
 11
-0.4876090763726934
 21
-2.25
 31
0.0
  0
LINE
  5
207
330
191
100
AcDbEntity
  8
AM_4
100
AcDbLine
 10
-1.289999999999999
 20
3.280000016399999
 30
0.0
 11
-1.289999999999999
 21
0.5624999999999998
 31
0.0
  0
LINE
  5
208
330
191
100
AcDbEntity
  8
AM_4
100
AcDbLine
 10
1.29
 20
0.0
 30
0.0
 11
1.29
 21
-2.25
 31
0.0
  0
LINE
  5
209
330
191
100
AcDbEntity
  8
AM_4
100
AcDbLine
 10
-1.289999999999999
 20
0.0
 30
0.0
 11
-1.289999999999999
 21
-2.25
 31
0.0
  0
LINE
  5
20A
330
191
100
AcDbEntity
  8
AM_4
100
AcDbLine
 10
-0.8599999999999993
 20
-2.249999999999998
 30
0.0
 11
-0.86
 21
3.280000016399999
 31
0.0
  0
LINE
  5
20B
330
191
100
AcDbEntity
  8
AM_4
100
AcDbLine
 10
0.8599999999999983
 20
-2.25
 30
0.0
 11
0.8599999999999983
 21
3.280000016399999
 31
0.0
  0
LINE
  5
20C
330
191
100
AcDbEntity
  8
AM_4
100
AcDbLine
 10
1.29
 20
3.280000016399999
 30
0.0
 11
1.289999999999999
 21
0.5624999999999998
 31
0.0
  0
LINE
  5
20D
330
191
100
AcDbEntity
  8
AM_4
100
AcDbLine
 10
-1.82
 20
0.5625
 30
0.0
 11
-1.82
 21
0.0
 31
0.0
  0
LINE
  5
20E
330
191
100
AcDbEntity
  8
AM_4
100
AcDbLine
 10
-1.390000000000001
 20
0.5625
 30
0.0
 11
-1.390000000000001
 21
0.0
 31
0.0
  0
LINE
  5
20F
330
191
100
AcDbEntity
  8
AM_4
100
AcDbLine
 10
-1.82
 20
0.0
 30
0.0
 11
1.820000000000001
 21
0.0
 31
0.0
  0
LINE
  5
210
330
191
100
AcDbEntity
  8
AM_4
100
AcDbLine
 10
1.820000000000001
 20
0.5625
 30
0.0
 11
1.820000000000001
 21
0.0
 31
0.0
  0
LINE
  5
211
330
191
100
AcDbEntity
  8
AM_4
100
AcDbLine
 10
-1.82
 20
0.5625
 30
0.0
 11
1.820000000000001
 21
0.5625
 31
0.0
  0
LINE
  5
212
330
191
100
AcDbEntity
  8
AM_4
100
AcDbLine
 10
1.390000000000001
 20
0.5625
 30
0.0
 11
1.390000000000001
 21
0.0
 31
0.0
  0
LINE
  5
213
330
191
100
AcDbEntity
  8
AM_4
100
AcDbLine
 10
-0.4680249171988782
 20
0.5625
 30
0.0
 11
-0.4680249171988782
 21
0.0
 31
0.0
  0
LINE
  5
214
330
191
100
AcDbEntity
  8
AM_4
100
AcDbLine
 10
0.4680249150328215
 20
0.5625
 30
0.0
 11
0.4680249150328215
 21
0.0
 31
0.0
  0
LINE
  5
215
330
191
100
AcDbEntity
  8
AM_4
100
AcDbLine
 10
1.720000000000001
 20
0.0
 30
0.0
 11
1.72
 21
-4.5
 31
0.0
  0
LINE
  5
216
330
191
100
AcDbEntity
  8
AM_4
100
AcDbLine
 10
-1.72
 20
0.0
 30
0.0
 11
-1.719999999999999
 21
-4.5
 31
0.0
  0
LINE
  5
217
330
191
100
AcDbEntity
  8
AM_4
100
AcDbLine
 10
-1.719999999999999
 20
-4.5
 30
0.0
 11
1.72
 21
-4.5
 31
0.0
  0
LINE
  5
218
330
191
100
AcDbEntity
  8
AM_4
100
AcDbLine
 10
1.376
 20
-2.699999999999996
 30
0.0
 11
1.376
 21
-4.5
 31
0.0
  0
LINE
  5
219
330
191
100
AcDbEntity
  8
AM_4
100
AcDbLine
 10
-1.375999999999999
 20
-2.699999999999996
 30
0.0
 11
-1.375999999999999
 21
-4.5
 31
0.0
  0
LINE
  5
21A
330
191
100
AcDbEntity
  8
AM_4
100
AcDbLine
 10
-1.375999999999999
 20
-2.699999999999996
 30
0.0
 11
1.376
 21
-2.699999999999996
 31
0.0
  0
LWPOLYLINE
  5
21B
330
191
100
AcDbEntity
  8
AM_4
100
AcDbPolyline
 90
       17
 70
     0
 43
0.0
 10
1.376
 20
-2.699999999999996
 10
1.377712385858715
 20
-2.660779915763551
 10
1.382836511144507
 20
-2.621858320049879
 10
1.39133337816992
 20
-2.583531429703863
 10
1.403138320646341
 20
-2.546090935503447
 10
1.418161495833508
 20
-2.509821782216683
 10
1.436288568297002
 20
-2.474999999999998
 10
1.457381580069953
 20
-2.441890603642027
 10
1.481280000596459
 20
-2.410745575641055
 10
1.507801948466053
 20
-2.381801948466052
 10
1.536745575641056
 20
-2.355280000596458
 10
1.567890603642028
 20
-2.331381580069952
 10
1.600999999999999
 20
-2.310288568297001
 10
1.635821782216683
 20
-2.292161495833506
 10
1.672090935503447
 20
-2.27713832064634
 10
1.709531429703864
 20
-2.265333378169918
 10
1.72
 20
-2.262662601644907
  0
LINE
  5
21C
330
191
100
AcDbEntity
  8
AM_4
100
AcDbLine
 10
-1.719999999999999
 20
-2.249999999999999
 30
0.0
 11
1.72
 21
-2.249999999999999
 31
0.0
  0
LWPOLYLINE
  5
21D
330
191
100
AcDbEntity
  8
AM_4
100
AcDbPolyline
 90
       17
 70
     0
 43
0.0
 10
-1.719999999999999
 20
-2.262662601644907
 10
-1.682286896217308
 20
-2.27356531121267
 10
-1.645667535930747
 20
-2.28771344625041
 10
-1.610420614583473
 20
-2.304999330907612
 10
-1.57681438252961
 20
-2.325291409164531
 10
-1.545104603487086
 20
-2.348435246052942
 10
-1.515532608021304
 20
-2.374254702999492
 10
-1.488323456873816
 20
-2.402553278346605
 10
-1.463684228114189
 20
-2.433115602848741
 10
-1.441802441150858
 20
-2.465709078762402
 10
-1.422844629595198
 20
-2.500085650055408
 10
-1.406955073840187
 20
-2.535983690263077
 10
-1.394254702999496
 20
-2.5731299936236
 10
-1.384840174563917
 20
-2.611241854338851
 10
-1.378783138779492
 20
-2.650029218136217
 10
-1.376129693345879
 20
-2.68919688975675
 10
-1.375999999999999
 20
-2.699999999999996
  0
ENDBLK
  5
194
330
191
100
AcDbEntity
  8
0
100
AcDbBlockEnd
  0
ENDSEC
  0
SECTION
  2
ENTITIES
  0
INSERT
  5
6F
330
1F
100
AcDbEntity
  8
0
100
AcDbBlockReference
  2
1_023209_2
 10
0.0
 20
0.0
 30
0.0
  0
POINT
  5
21F
330
1F
100
AcDbEntity
  8
ConnectionPoints
100
AcDbPoint
 10
0.0
 20
4.6365
 30
0.0
  0
POINT
  5
220
330
1F
100
AcDbEntity
  8
ConnectionPoints
100
AcDbPoint
 10
0.0
 20
4.6365
 30
0.0
  0
POINT
  5
221
330
1F
100
AcDbEntity
  8
ConnectionPoints
100
AcDbPoint
 10
0.0
 20
0.0
 30
0.0
  0
POINT
  5
222
330
1F
100
AcDbEntity
  8
ConnectionPoints
100
AcDbPoint
 10
-2.5
 20
0.0
 30
0.0000000000000002
  0
POINT
  5
223
330
1F
100
AcDbEntity
  8
ConnectionPoints
100
AcDbPoint
 10
2.126
 20
0.0
 30
-0.0000000000000001
  0
POINT
  5
224
330
1F
100
AcDbEntity
  8
ConnectionPoints
100
AcDbPoint
 10
0.0
 20
0.0
 30
0.0
  0
POINT
  5
225
330
1F
100
AcDbEntity
  8
ConnectionPoints
100
AcDbPoint
 10
-2.5
 20
0.0
 30
0.0000000000000002
  0
ENDSEC
  0
SECTION
  2
OBJECTS
  0
DICTIONARY
  5
C
330
0
100
AcDbDictionary
281
     1
  3
ACAD_DETAILVIEWSTYLE
350
22D
  3
ACAD_GROUP
350
D
  3
ACAD_LAYOUT
350
1A
  3
ACAD_MATERIAL
350
43
  3
ACAD_MLEADERSTYLE
350
6B
  3
ACAD_MLINESTYLE
350
17
  3
ACAD_PLOTSETTINGS
350
19
  3
ACAD_PLOTSTYLENAME
350
E
  3
ACAD_SCALELIST
350
47
  3
ACAD_SECTIONVIEWSTYLE
350
22E
  3
ACAD_TABLESTYLE
350
69
  3
ACAD_VISUALSTYLE
350
2A
  3
ACDB_RECOMPOSE_DATA
350
22A
  3
AcDbVariableDictionary
350
226
  0
SUN
  5
6D
330
29
100
AcDbSun
 90
        1
290
     0
 63
     7
421
 16777215
 40
1.0
291
     1
 91
  2455826
 92
 54000000
292
     0
 70
     2
 71
   256
280
     1
  0
DICTIONARY
  5
22D
102
{ACAD_REACTORS
330
C
102
}
330
C
100
AcDbDictionary
281
     1
  0
DICTIONARY
  5
D
102
{ACAD_REACTORS
330
C
102
}
330
C
100
AcDbDictionary
281
     1
  0
DICTIONARY
  5
1A
102
{ACAD_REACTORS
330
C
102
}
330
C
100
AcDbDictionary
281
     1
  3
Layout1
350
1E
  3
Layout2
350
26
  3
Model
350
22
  0
DICTIONARY
  5
43
102
{ACAD_REACTORS
330
C
102
}
330
C
100
AcDbDictionary
281
     1
  3
ByBlock
350
45
  3
ByLayer
350
44
  3
Global
350
46
  0
DICTIONARY
  5
6B
102
{ACAD_REACTORS
330
C
102
}
330
C
100
AcDbDictionary
281
     1
  3
Standard
350
6C
  0
DICTIONARY
  5
17
102
{ACAD_REACTORS
330
C
102
}
330
C
100
AcDbDictionary
281
     1
  3
Standard
350
18
  0
DICTIONARY
  5
19
102
{ACAD_REACTORS
330
C
102
}
330
C
100
AcDbDictionary
281
     1
  0
ACDBDICTIONARYWDFLT
  5
E
102
{ACAD_REACTORS
330
C
102
}
330
C
100
AcDbDictionary
281
     1
  3
Normal
350
F
100
AcDbDictionaryWithDefault
340
F
  0
DICTIONARY
  5
47
102
{ACAD_REACTORS
330
C
102
}
330
C
100
AcDbDictionary
281
     1
  3
A0
350
48
  3
A1
350
49
  3
A2
350
4A
  3
A3
350
4B
  3
A4
350
4C
  3
A5
350
4D
  3
A6
350
4E
  3
A7
350
4F
  3
A8
350
50
  3
A9
350
51
  3
B0
350
52
  3
B1
350
53
  3
B2
350
54
  3
B3
350
55
  3
B4
350
56
  3
B5
350
57
  3
B6
350
58
  3
B7
350
59
  3
B8
350
5A
  3
B9
350
5B
  3
C0
350
5C
  3
C1
350
5D
  3
C2
350
5E
  3
C3
350
5F
  3
C4
350
60
  3
C5
350
61
  3
C6
350
62
  3
C7
350
63
  3
C8
350
64
  3
C9
350
65
  3
D0
350
66
  3
D1
350
67
  3
D2
350
68
  0
DICTIONARY
  5
22E
102
{ACAD_REACTORS
330
C
102
}
330
C
100
AcDbDictionary
281
     1
  0
DICTIONARY
  5
69
102
{ACAD_REACTORS
330
C
102
}
330
C
100
AcDbDictionary
281
     1
  3
Standard
350
6A
  0
DICTIONARY
  5
2A
102
{ACAD_REACTORS
330
C
102
}
330
C
100
AcDbDictionary
281
     1
  3
2dWireframe
350
2F
  3
Basic
350
32
  3
Brighten
350
36
  3
ColorChange
350
3A
  3
Conceptual
350
34
  3
Dim
350
35
  3
EdgeColorOff
350
3D
  3
Facepattern
350
39
  3
Flat
350
2B
  3
FlatWithEdges
350
2C
  3
Gouraud
350
2D
  3
GouraudWithEdges
350
2E
  3
Hidden
350
31
  3
JitterOff
350
3B
  3
Linepattern
350
38
  3
OverhangOff
350
3C
  3
Realistic
350
33
  3
Shaded
350
42
  3
Shaded with edges
350
41
  3
Shades of Gray
350
3E
  3
Sketchy
350
3F
  3
Thicken
350
37
  3
Wireframe
350
30
  3
X-Ray
350
40
  0
XRECORD
  5
22A
102
{ACAD_REACTORS
330
C
102
}
330
C
100
AcDbXrecord
280
     1
 90
        1
330
6A
  0
DICTIONARY
  5
226
102
{ACAD_REACTORS
330
C
102
}
330
C
100
AcDbDictionary
281
     1
  3
CANNOSCALE
350
227
  3
CMLEADERSTYLE
350
22C
  3
CTABLESTYLE
350
22B
  0
LAYOUT
  5
1E
102
{ACAD_REACTORS
330
1A
102
}
330
1A
100
AcDbPlotSettings
  1

  2
none_device
  4

  6

 40
0.0
 41
0.0
 42
0.0
 43
0.0
 44
0.0
 45
0.0
 46
0.0
 47
0.0
 48
0.0
 49
0.0
140
0.0
141
0.0
142
1.0
143
1.0
 70
   688
 72
     0
 73
     0
 74
     5
  7

 75
    16
 76
     0
 77
     2
 78
   300
147
1.0
148
0.0
149
0.0
100
AcDbLayout
  1
Layout1
 70
     1
 71
     1
 10
0.0
 20
0.0
 11
12.0
 21
9.0
 12
0.0
 22
0.0
 32
0.0
 14
1.000000000000000E+20
 24
1.000000000000000E+20
 34
1.000000000000000E+20
 15
-1.000000000000000E+20
 25
-1.000000000000000E+20
 35
-1.000000000000000E+20
146
0.0
 13
0.0
 23
0.0
 33
0.0
 16
1.0
 26
0.0
 36
0.0
 17
0.0
 27
1.0
 37
0.0
 76
     0
330
1B
  0
LAYOUT
  5
26
102
{ACAD_REACTORS
330
1A
102
}
330
1A
100
AcDbPlotSettings
  1

  2
none_device
  4

  6

 40
0.0
 41
0.0
 42
0.0
 43
0.0
 44
0.0
 45
0.0
 46
0.0
 47
0.0
 48
0.0
 49
0.0
140
0.0
141
0.0
142
1.0
143
1.0
 70
   688
 72
     0
 73
     0
 74
     5
  7

 75
    16
 76
     0
 77
     2
 78
   300
147
1.0
148
0.0
149
0.0
100
AcDbLayout
  1
Layout2
 70
     1
 71
     2
 10
0.0
 20
0.0
 11
0.0
 21
0.0
 12
0.0
 22
0.0
 32
0.0
 14
0.0
 24
0.0
 34
0.0
 15
0.0
 25
0.0
 35
0.0
146
0.0
 13
0.0
 23
0.0
 33
0.0
 16
1.0
 26
0.0
 36
0.0
 17
0.0
 27
1.0
 37
0.0
 76
     0
330
23
  0
LAYOUT
  5
22
102
{ACAD_REACTORS
330
1A
102
}
330
1A
100
AcDbPlotSettings
  1

  2
none_device
  4
Letter_(8.50_x_11.00_Inches)
  6

 40
6.35
 41
6.35
 42
6.35000508
 43
6.35000508
 44
215.9
 45
279.4
 46
0.0
 47
0.0
 48
0.0
 49
0.0
140
0.0
141
0.0
142
1.0
143
1.0
 70
  1712
 72
     0
 73
     0
 74
     0
  7

 75
     0
 76
     0
 77
     2
 78
   300
147
1.0
148
0.0
149
0.0
100
AcDbLayout
  1
Model
 70
     1
 71
     0
 10
0.0
 20
0.0
 11
12.0
 21
9.0
 12
0.0
 22
0.0
 32
0.0
 14
1.000000000000000E+20
 24
1.000000000000000E+20
 34
1.000000000000000E+20
 15
-1.000000000000000E+20
 25
-1.000000000000000E+20
 35
-1.000000000000000E+20
146
0.0
 13
0.0
 23
0.0
 33
0.0
 16
1.0
 26
0.0
 36
0.0
 17
0.0
 27
1.0
 37
0.0
 76
     0
330
1F
331
29
  0
MATERIAL
  5
45
102
{ACAD_REACTORS
330
43
102
}
330
43
100
AcDbMaterial
  1
ByBlock
 72
     1
 94
      127
  0
MATERIAL
  5
44
102
{ACAD_REACTORS
330
43
102
}
330
43
100
AcDbMaterial
  1
ByLayer
 72
     1
 94
      127
  0
MATERIAL
  5
46
102
{ACAD_REACTORS
330
43
102
}
330
43
100
AcDbMaterial
  1
Global
 72
     1
 94
      127
  0
MLEADERSTYLE
  5
6C
102
{ACAD_REACTORS
330
6B
102
}
330
6B
100
AcDbMLeaderStyle
179
     2
170
     2
171
     1
172
     0
 90
        2
 40
0.0
 41
0.0
173
     1
 91
-1056964608
340
14
 92
       -2
290
     1
 42
0.09
291
     1
 43
0.36
  3
Standard
341
0
 44
0.18
300

342
11
174
     1
178
     6
175
     1
176
     0
 93
-1056964608
 45
0.18
292
     0
297
     0
 46
0.18
343
0
 94
-1056964608
 47
1.0
 49
1.0
140
1.0
293
     1
141
0.0
294
     1
177
     0
142
1.0
295
     0
296
     0
143
0.125
271
     0
272
     9
273
     9
298
     0
  0
MLINESTYLE
  5
18
102
{ACAD_REACTORS
330
17
102
}
330
17
100
AcDbMlineStyle
  2
Standard
 70
     0
  3

 62
   256
 51
90.0
 52
90.0
 71
     2
 49
0.5
 62
   256
  6
BYLAYER
 49
-0.5
 62
   256
  6
BYLAYER
  0
ACDBPLACEHOLDER
  5
F
102
{ACAD_REACTORS
330
E
102
}
330
E
  0
SCALE
  5
48
102
{ACAD_REACTORS
330
47
102
}
330
47
100
AcDbScale
 70
     0
300
1:1
140
1.0
141
1.0
290
     1
  0
SCALE
  5
49
102
{ACAD_REACTORS
330
47
102
}
330
47
100
AcDbScale
 70
     0
300
1:2
140
1.0
141
2.0
290
     0
  0
SCALE
  5
4A
102
{ACAD_REACTORS
330
47
102
}
330
47
100
AcDbScale
 70
     0
300
1:4
140
1.0
141
4.0
290
     0
  0
SCALE
  5
4B
102
{ACAD_REACTORS
330
47
102
}
330
47
100
AcDbScale
 70
     0
300
1:5
140
1.0
141
5.0
290
     0
  0
SCALE
  5
4C
102
{ACAD_REACTORS
330
47
102
}
330
47
100
AcDbScale
 70
     0
300
1:8
140
1.0
141
8.0
290
     0
  0
SCALE
  5
4D
102
{ACAD_REACTORS
330
47
102
}
330
47
100
AcDbScale
 70
     0
300
1:10
140
1.0
141
10.0
290
     0
  0
SCALE
  5
4E
102
{ACAD_REACTORS
330
47
102
}
330
47
100
AcDbScale
 70
     0
300
1:16
140
1.0
141
16.0
290
     0
  0
SCALE
  5
4F
102
{ACAD_REACTORS
330
47
102
}
330
47
100
AcDbScale
 70
     0
300
1:20
140
1.0
141
20.0
290
     0
  0
SCALE
  5
50
102
{ACAD_REACTORS
330
47
102
}
330
47
100
AcDbScale
 70
     0
300
1:30
140
1.0
141
30.0
290
     0
  0
SCALE
  5
51
102
{ACAD_REACTORS
330
47
102
}
330
47
100
AcDbScale
 70
     0
300
1:40
140
1.0
141
40.0
290
     0
  0
SCALE
  5
52
102
{ACAD_REACTORS
330
47
102
}
330
47
100
AcDbScale
 70
     0
300
1:50
140
1.0
141
50.0
290
     0
  0
SCALE
  5
53
102
{ACAD_REACTORS
330
47
102
}
330
47
100
AcDbScale
 70
     0
300
1:100
140
1.0
141
100.0
290
     0
  0
SCALE
  5
54
102
{ACAD_REACTORS
330
47
102
}
330
47
100
AcDbScale
 70
     0
300
2:1
140
2.0
141
1.0
290
     0
  0
SCALE
  5
55
102
{ACAD_REACTORS
330
47
102
}
330
47
100
AcDbScale
 70
     0
300
4:1
140
4.0
141
1.0
290
     0
  0
SCALE
  5
56
102
{ACAD_REACTORS
330
47
102
}
330
47
100
AcDbScale
 70
     0
300
8:1
140
8.0
141
1.0
290
     0
  0
SCALE
  5
57
102
{ACAD_REACTORS
330
47
102
}
330
47
100
AcDbScale
 70
     0
300
10:1
140
10.0
141
1.0
290
     0
  0
SCALE
  5
58
102
{ACAD_REACTORS
330
47
102
}
330
47
100
AcDbScale
 70
     0
300
100:1
140
100.0
141
1.0
290
     0
  0
SCALE
  5
59
102
{ACAD_REACTORS
330
47
102
}
330
47
100
AcDbScale
 70
     0
300
1/128" = 1'-0"
140
0.0078125
141
12.0
290
     0
  0
SCALE
  5
5A
102
{ACAD_REACTORS
330
47
102
}
330
47
100
AcDbScale
 70
     0
300
1/64" = 1'-0"
140
0.015625
141
12.0
290
     0
  0
SCALE
  5
5B
102
{ACAD_REACTORS
330
47
102
}
330
47
100
AcDbScale
 70
     0
300
1/32" = 1'-0"
140
0.03125
141
12.0
290
     0
  0
SCALE
  5
5C
102
{ACAD_REACTORS
330
47
102
}
330
47
100
AcDbScale
 70
     0
300
1/16" = 1'-0"
140
0.0625
141
12.0
290
     0
  0
SCALE
  5
5D
102
{ACAD_REACTORS
330
47
102
}
330
47
100
AcDbScale
 70
     0
300
3/32" = 1'-0"
140
0.09375
141
12.0
290
     0
  0
SCALE
  5
5E
102
{ACAD_REACTORS
330
47
102
}
330
47
100
AcDbScale
 70
     0
300
1/8" = 1'-0"
140
0.125
141
12.0
290
     0
  0
SCALE
  5
5F
102
{ACAD_REACTORS
330
47
102
}
330
47
100
AcDbScale
 70
     0
300
3/16" = 1'-0"
140
0.1875
141
12.0
290
     0
  0
SCALE
  5
60
102
{ACAD_REACTORS
330
47
102
}
330
47
100
AcDbScale
 70
     0
300
1/4" = 1'-0"
140
0.25
141
12.0
290
     0
  0
SCALE
  5
61
102
{ACAD_REACTORS
330
47
102
}
330
47
100
AcDbScale
 70
     0
300
3/8" = 1'-0"
140
0.375
141
12.0
290
     0
  0
SCALE
  5
62
102
{ACAD_REACTORS
330
47
102
}
330
47
100
AcDbScale
 70
     0
300
1/2" = 1'-0"
140
0.5
141
12.0
290
     0
  0
SCALE
  5
63
102
{ACAD_REACTORS
330
47
102
}
330
47
100
AcDbScale
 70
     0
300
3/4" = 1'-0"
140
0.75
141
12.0
290
     0
  0
SCALE
  5
64
102
{ACAD_REACTORS
330
47
102
}
330
47
100
AcDbScale
 70
     0
300
1" = 1'-0"
140
1.0
141
12.0
290
     0
  0
SCALE
  5
65
102
{ACAD_REACTORS
330
47
102
}
330
47
100
AcDbScale
 70
     0
300
1-1/2" = 1'-0"
140
1.5
141
12.0
290
     0
  0
SCALE
  5
66
102
{ACAD_REACTORS
330
47
102
}
330
47
100
AcDbScale
 70
     0
300
3" = 1'-0"
140
3.0
141
12.0
290
     0
  0
SCALE
  5
67
102
{ACAD_REACTORS
330
47
102
}
330
47
100
AcDbScale
 70
     0
300
6" = 1'-0"
140
6.0
141
12.0
290
     0
  0
SCALE
  5
68
102
{ACAD_REACTORS
330
47
102
}
330
47
100
AcDbScale
 70
     0
300
1'-0" = 1'-0"
140
12.0
141
12.0
290
     0
  0
TABLESTYLE
  5
6A
102
{ACAD_REACTORS
330
69
102
}
102
{ACAD_XDICTIONARY
360
228
102
}
330
69
100
AcDbTableStyle
  3
Standard
 70
     0
 71
     0
 40
0.06
 41
0.06
280
     0
281
     0
  7
Standard
140
0.18
170
     2
 62
     0
 63
   257
283
     0
 90
        4
 91
        0
  1

274
    -2
284
     1
 64
     0
275
    -2
285
     1
 65
     0
276
    -2
286
     1
 66
     0
277
    -2
287
     1
 67
     0
278
    -2
288
     1
 68
     0
279
    -2
289
     1
 69
     0
  7
Standard
140
0.25
170
     5
 62
     0
 63
   257
283
     0
 90
        4
 91
        0
  1

274
    -2
284
     1
 64
     0
275
    -2
285
     1
 65
     0
276
    -2
286
     1
 66
     0
277
    -2
287
     1
 67
     0
278
    -2
288
     1
 68
     0
279
    -2
289
     1
 69
     0
  7
Standard
140
0.18
170
     5
 62
     0
 63
   257
283
     0
 90
        4
 91
        0
  1

274
    -2
284
     1
 64
     0
275
    -2
285
     1
 65
     0
276
    -2
286
     1
 66
     0
277
    -2
287
     1
 67
     0
278
    -2
288
     1
 68
     0
279
    -2
289
     1
 69
     0
  0
VISUALSTYLE
  5
2F
102
{ACAD_REACTORS
330
2A
102
}
330
2A
100
AcDbVisualStyle
  2
2dWireframe
 70
     4
177
     3
291
     0
 70
    58
 90
        0
176
     1
 90
        2
176
     1
 90
        0
176
     1
 90
        0
176
     1
 40
0.6
176
     1
 40
30.0
176
     1
 62
     7
420
 16777215
176
     1
 90
        1
176
     1
 90
        4
176
     1
 62
     7
176
     1
 62
   257
176
     1
 90
        1
176
     1
 90
        1
176
     1
 40
1.0
176
     1
 90
        0
176
     1
 62
   257
176
     1
 40
1.0
176
     1
 90
        1
176
     1
 90
        6
176
     1
 90
        2
176
     1
 62
     7
176
     1
 90
        5
176
     1
 90
        0
176
     1
 90
        0
176
     1
290
     0
176
     1
 90
        1
176
     1
 40
0.0
176
     1
 90
        0
176
     1
290
     1
176
     1
290
     1
176
     1
290
     0
176
     1
290
     0
176
     1
290
     0
176
     1
290
     0
176
     1
290
     0
176
     1
290
     0
176
     1
290
     0
176
     1
 90
       50
176
     1
 40
0.0
176
     1
 40
1.0
176
     1
 90
        0
176
     1
 62
    18
420
        0
176
     1
 90
       50
176
     1
 90
        3
176
     1
 62
     5
420
      255
176
     1
290
     0
176
     1
 90
       50
176
     1
 90
       50
176
     1
 90
       50
176
     1
290
     0
176
     1
 90
       50
176
     1
 62
   256
176
     0
 40
1.0
176
     0
 90
        2
176
     1
  1
strokes_ogs.tif
176
     1
290
     0
176
     1
 40
1.0
176
     1
 40
1.0
176
     1
  0
VISUALSTYLE
  5
32
102
{ACAD_REACTORS
330
2A
102
}
330
2A
100
AcDbVisualStyle
  2
Basic
 70
     7
177
     3
291
     1
 70
    58
 90
        1
176
     1
 90
        0
176
     1
 90
        1
176
     1
 90
        0
176
     1
 40
0.6
176
     1
 40
30.0
176
     1
 62
     7
420
 16777215
176
     1
 90
        0
176
     1
 90
        4
176
     1
 62
     7
176
     1
 62
   257
176
     1
 90
        1
176
     1
 90
        1
176
     1
 40
1.0
176
     1
 90
        8
176
     1
 62
     7
176
     1
 40
1.0
176
     1
 90
        1
176
     1
 90
        6
176
     1
 90
        2
176
     1
 62
     7
176
     1
 90
        5
176
     1
 90
        0
176
     1
 90
        0
176
     1
290
     0
176
     1
 90
        1
176
     1
 40
0.0
176
     1
 90
        0
176
     1
290
     0
176
     1
290
     1
176
     1
290
     1
176
     1
290
     0
176
     1
290
     0
176
     1
290
     0
176
     1
290
     0
176
     1
290
     0
176
     1
290
     0
176
     1
 90
       50
176
     1
 40
0.0
176
     1
 40
1.0
176
     1
 90
        0
176
     1
 62
    18
420
        0
176
     1
 90
       50
176
     1
 90
        3
176
     1
 62
     5
420
      255
176
     1
290
     0
176
     1
 90
       50
176
     1
 90
       50
176
     1
 90
       50
176
     1
290
     0
176
     1
 90
       50
176
     1
 62
   256
176
     0
 40
1.0
176
     0
 90
        2
176
     1
  1
strokes_ogs.tif
176
     1
290
     0
176
     1
 40
1.0
176
     1
 40
1.0
176
     1
  0
VISUALSTYLE
  5
36
102
{ACAD_REACTORS
330
2A
102
}
330
2A
100
AcDbVisualStyle
  2
Brighten
 70
    12
177
     3
291
     1
 70
    58
 90
        2
176
     1
 90
        2
176
     1
 90
        0
176
     1
 90
        0
176
     1
 40
0.6
176
     1
 40
30.0
176
     1
 62
     7
420
 16777215
176
     1
 90
        1
176
     1
 90
        4
176
     1
 62
     7
176
     1
 62
   257
176
     1
 90
        1
176
     1
 90
        1
176
     1
 40
1.0
176
     1
 90
        8
176
     1
 62
     7
176
     1
 40
1.0
176
     1
 90
        1
176
     1
 90
        6
176
     1
 90
        2
176
     1
 62
     7
176
     1
 90
        5
176
     1
 90
        0
176
     1
 90
        0
176
     1
290
     0
176
     1
 90
        1
176
     1
 40
50.0
176
     1
 90
        0
176
     1
290
     0
176
     1
290
     1
176
     1
290
     1
176
     1
290
     0
176
     1
290
     0
176
     1
290
     0
176
     1
290
     0
176
     1
290
     0
176
     1
290
     0
176
     1
 90
       50
176
     1
 40
0.0
176
     1
 40
1.0
176
     1
 90
        0
176
     1
 62
    18
420
        0
176
     1
 90
       50
176
     1
 90
        3
176
     1
 62
     5
420
      255
176
     1
290
     0
176
     1
 90
       50
176
     1
 90
       50
176
     1
 90
       50
176
     1
290
     0
176
     1
 90
       50
176
     1
 62
   256
176
     0
 40
1.0
176
     0
 90
        2
176
     1
  1
strokes_ogs.tif
176
     1
290
     0
176
     1
 40
1.0
176
     1
 40
1.0
176
     1
  0
VISUALSTYLE
  5
3A
102
{ACAD_REACTORS
330
2A
102
}
330
2A
100
AcDbVisualStyle
  2
ColorChange
 70
    16
177
     3
291
     1
 70
    58
 90
        2
176
     1
 90
        2
176
     1
 90
        3
176
     1
 90
        0
176
     1
 40
0.6
176
     1
 40
30.0
176
     1
 62
     8
420
  8421504
176
     1
 90
        1
176
     1
 90
        4
176
     1
 62
     7
176
     1
 62
   257
176
     1
 90
        1
176
     1
 90
        1
176
     1
 40
1.0
176
     1
 90
        8
176
     1
 62
     8
420
  8421504
176
     1
 40
1.0
176
     1
 90
        1
176
     1
 90
        6
176
     1
 90
        2
176
     1
 62
     7
176
     1
 90
        5
176
     1
 90
        0
176
     1
 90
        0
176
     1
290
     0
176
     1
 90
        1
176
     1
 40
0.0
176
     1
 90
        0
176
     1
290
     0
176
     1
290
     1
176
     1
290
     1
176
     1
290
     0
176
     1
290
     0
176
     1
290
     0
176
     1
290
     0
176
     1
290
     0
176
     1
290
     0
176
     1
 90
       50
176
     1
 40
0.0
176
     1
 40
1.0
176
     1
 90
        0
176
     1
 62
    18
420
        0
176
     1
 90
       50
176
     1
 90
        3
176
     1
 62
     5
420
      255
176
     1
290
     0
176
     1
 90
       50
176
     1
 90
       50
176
     1
 90
       50
176
     1
290
     0
176
     1
 90
       50
176
     1
 62
   256
176
     0
 40
1.0
176
     0
 90
        2
176
     1
  1
strokes_ogs.tif
176
     1
290
     0
176
     1
 40
1.0
176
     1
 40
1.0
176
     1
  0
VISUALSTYLE
  5
34
102
{ACAD_REACTORS
330
2A
102
}
330
2A
100
AcDbVisualStyle
  2
Conceptual
 70
     9
177
     3
291
     0
 70
    58
 90
        3
176
     1
 90
        2
176
     1
 90
        0
176
     1
 90
        0
176
     1
 40
0.6
176
     1
 40
30.0
176
     1
 62
     7
420
 16777215
176
     1
 90
        2
176
     1
 90
        2
176
     1
 62
     7
176
     1
 62
   257
176
     1
 90
        1
176
     1
 90
        1
176
     1
 40
179.0
176
     1
 90
        8
176
     1
 62
     7
176
     1
 40
1.0
176
     1
 90
        1
176
     1
 90
        6
176
     1
 90
        2
176
     1
 62
     7
176
     1
 90
        3
176
     1
 90
        0
176
     1
 90
        0
176
     1
290
     0
176
     1
 90
        1
176
     1
 40
0.0
176
     1
 90
        0
176
     1
290
     0
176
     1
290
     1
176
     1
290
     1
176
     1
290
     0
176
     1
290
     0
176
     1
290
     0
176
     1
290
     0
176
     1
290
     0
176
     1
290
     0
176
     1
 90
       50
176
     1
 40
0.0
176
     1
 40
1.0
176
     1
 90
        0
176
     1
 62
    18
420
        0
176
     1
 90
       50
176
     1
 90
        3
176
     1
 62
     5
420
      255
176
     1
290
     0
176
     1
 90
       50
176
     1
 90
       50
176
     1
 90
       50
176
     1
290
     0
176
     1
 90
       50
176
     1
 62
   256
176
     0
 40
1.0
176
     0
 90
        2
176
     1
  1
strokes_ogs.tif
176
     1
290
     0
176
     1
 40
1.0
176
     1
 40
1.0
176
     1
  0
VISUALSTYLE
  5
35
102
{ACAD_REACTORS
330
2A
102
}
330
2A
100
AcDbVisualStyle
  2
Dim
 70
    11
177
     3
291
     1
 70
    58
 90
        2
176
     1
 90
        2
176
     1
 90
        0
176
     1
 90
        0
176
     1
 40
0.6
176
     1
 40
30.0
176
     1
 62
     7
420
 16777215
176
     1
 90
        1
176
     1
 90
        4
176
     1
 62
     7
176
     1
 62
   257
176
     1
 90
        1
176
     1
 90
        1
176
     1
 40
1.0
176
     1
 90
        8
176
     1
 62
     7
176
     1
 40
1.0
176
     1
 90
        1
176
     1
 90
        6
176
     1
 90
        2
176
     1
 62
     7
176
     1
 90
        5
176
     1
 90
        0
176
     1
 90
        0
176
     1
290
     0
176
     1
 90
        1
176
     1
 40
-50.0
176
     1
 90
        0
176
     1
290
     0
176
     1
290
     1
176
     1
290
     1
176
     1
290
     0
176
     1
290
     0
176
     1
290
     0
176
     1
290
     0
176
     1
290
     0
176
     1
290
     0
176
     1
 90
       50
176
     1
 40
0.0
176
     1
 40
1.0
176
     1
 90
        0
176
     1
 62
    18
420
        0
176
     1
 90
       50
176
     1
 90
        3
176
     1
 62
     5
420
      255
176
     1
290
     0
176
     1
 90
       50
176
     1
 90
       50
176
     1
 90
       50
176
     1
290
     0
176
     1
 90
       50
176
     1
 62
   256
176
     0
 40
1.0
176
     0
 90
        2
176
     1
  1
strokes_ogs.tif
176
     1
290
     0
176
     1
 40
1.0
176
     1
 40
1.0
176
     1
  0
VISUALSTYLE
  5
3D
102
{ACAD_REACTORS
330
2A
102
}
330
2A
100
AcDbVisualStyle
  2
EdgeColorOff
 70
    22
177
     3
291
     1
 70
    58
 90
        2
176
     0
 90
        2
176
     0
 90
        0
176
     0
 90
        0
176
     0
 40
0.6
176
     0
 40
30.0
176
     0
 62
     7
420
 16777215
176
     0
 90
        1
176
     0
 90
        4
176
     0
 62
     7
176
     0
 62
   257
176
     0
 90
        1
176
     0
 90
        1
176
     0
 40
1.0
176
     0
 90
        8
176
     2
 62
     7
176
     0
 40
1.0
176
     0
 90
        1
176
     0
 90
        6
176
     0
 90
        2
176
     0
 62
     7
176
     0
 90
        5
176
     0
 90
        0
176
     0
 90
        0
176
     0
290
     0
176
     0
 90
        1
176
     0
 40
0.0
176
     0
 90
        0
176
     0
290
     0
176
     0
290
     1
176
     0
290
     1
176
     0
290
     0
176
     0
290
     0
176
     0
290
     0
176
     0
290
     0
176
     0
290
     0
176
     0
290
     0
176
     0
 90
       50
176
     0
 40
0.0
176
     0
 40
1.0
176
     0
 90
        0
176
     0
 62
    18
420
        0
176
     0
 90
       50
176
     0
 90
        3
176
     0
 62
     5
420
      255
176
     0
290
     0
176
     0
 90
       50
176
     0
 90
       50
176
     0
 90
       50
176
     0
290
     0
176
     0
 90
       50
176
     0
 62
   256
176
     0
 40
1.0
176
     0
 90
        2
176
     0
  1
strokes_ogs.tif
176
     0
290
     0
176
     0
 40
1.0
176
     0
 40
1.0
176
     0
  0
VISUALSTYLE
  5
39
102
{ACAD_REACTORS
330
2A
102
}
330
2A
100
AcDbVisualStyle
  2
Facepattern
 70
    15
177
     3
291
     1
 70
    58
 90
        2
176
     1
 90
        2
176
     1
 90
        0
176
     1
 90
        0
176
     1
 40
0.6
176
     1
 40
30.0
176
     1
 62
     7
420
 16777215
176
     1
 90
        1
176
     1
 90
        4
176
     1
 62
     7
176
     1
 62
   257
176
     1
 90
        1
176
     1
 90
        1
176
     1
 40
1.0
176
     1
 90
        8
176
     1
 62
     7
176
     1
 40
1.0
176
     1
 90
        1
176
     1
 90
        6
176
     1
 90
        2
176
     1
 62
     7
176
     1
 90
        5
176
     1
 90
        0
176
     1
 90
        0
176
     1
290
     0
176
     1
 90
        1
176
     1
 40
0.0
176
     1
 90
        0
176
     1
290
     0
176
     1
290
     1
176
     1
290
     1
176
     1
290
     0
176
     1
290
     0
176
     1
290
     0
176
     1
290
     0
176
     1
290
     0
176
     1
290
     0
176
     1
 90
       50
176
     1
 40
0.0
176
     1
 40
1.0
176
     1
 90
        0
176
     1
 62
    18
420
        0
176
     1
 90
       50
176
     1
 90
        3
176
     1
 62
     5
420
      255
176
     1
290
     0
176
     1
 90
       50
176
     1
 90
       50
176
     1
 90
       50
176
     1
290
     0
176
     1
 90
       50
176
     1
 62
   256
176
     0
 40
1.0
176
     0
 90
        2
176
     1
  1
strokes_ogs.tif
176
     1
290
     0
176
     1
 40
1.0
176
     1
 40
1.0
176
     1
  0
VISUALSTYLE
  5
2B
102
{ACAD_REACTORS
330
2A
102
}
330
2A
100
AcDbVisualStyle
  2
Flat
 70
     0
177
     3
291
     1
 70
    58
 90
        2
176
     1
 90
        1
176
     1
 90
        1
176
     1
 90
        2
176
     1
 40
0.6
176
     1
 40
30.0
176
     1
 62
     7
420
 16777215
176
     1
 90
        0
176
     1
 90
        0
176
     1
 62
     7
176
     1
 62
   257
176
     1
 90
        1
176
     1
 90
        1
176
     1
 40
1.0
176
     1
 90
        8
176
     1
 62
     7
176
     1
 40
1.0
176
     1
 90
        1
176
     1
 90
        6
176
     1
 90
        2
176
     1
 62
     7
176
     1
 90
        5
176
     1
 90
        0
176
     1
 90
        0
176
     1
290
     0
176
     1
 90
       13
176
     1
 40
0.0
176
     1
 90
        0
176
     1
290
     0
176
     1
290
     1
176
     1
290
     1
176
     1
290
     0
176
     1
290
     0
176
     1
290
     0
176
     1
290
     0
176
     1
290
     0
176
     1
290
     0
176
     1
 90
       50
176
     1
 40
0.0
176
     1
 40
1.0
176
     1
 90
        0
176
     1
 62
    18
420
        0
176
     1
 90
       50
176
     1
 90
        3
176
     1
 62
     5
420
      255
176
     1
290
     0
176
     1
 90
       50
176
     1
 90
       50
176
     1
 90
       50
176
     1
290
     0
176
     1
 90
       50
176
     1
 62
   256
176
     0
 40
1.0
176
     0
 90
        2
176
     1
  1
strokes_ogs.tif
176
     1
290
     0
176
     1
 40
1.0
176
     1
 40
1.0
176
     1
  0
VISUALSTYLE
  5
2C
102
{ACAD_REACTORS
330
2A
102
}
330
2A
100
AcDbVisualStyle
  2
FlatWithEdges
 70
     1
177
     3
291
     1
 70
    58
 90
        2
176
     1
 90
        1
176
     1
 90
        1
176
     1
 90
        2
176
     1
 40
0.6
176
     1
 40
30.0
176
     1
 62
     7
420
 16777215
176
     1
 90
        1
176
     1
 90
        0
176
     1
 62
     7
176
     1
 62
   257
176
     1
 90
        1
176
     1
 90
        1
176
     1
 40
1.0
176
     1
 90
        0
176
     1
 62
   257
176
     1
 40
1.0
176
     1
 90
        1
176
     1
 90
        6
176
     1
 90
        2
176
     1
 62
     7
176
     1
 90
        5
176
     1
 90
        0
176
     1
 90
        0
176
     1
290
     0
176
     1
 90
       13
176
     1
 40
0.0
176
     1
 90
        0
176
     1
290
     0
176
     1
290
     1
176
     1
290
     1
176
     1
290
     0
176
     1
290
     0
176
     1
290
     0
176
     1
290
     0
176
     1
290
     0
176
     1
290
     0
176
     1
 90
       50
176
     1
 40
0.0
176
     1
 40
1.0
176
     1
 90
        0
176
     1
 62
    18
420
        0
176
     1
 90
       50
176
     1
 90
        3
176
     1
 62
     5
420
      255
176
     1
290
     0
176
     1
 90
       50
176
     1
 90
       50
176
     1
 90
       50
176
     1
290
     0
176
     1
 90
       50
176
     1
 62
   256
176
     0
 40
1.0
176
     0
 90
        2
176
     1
  1
strokes_ogs.tif
176
     1
290
     0
176
     1
 40
1.0
176
     1
 40
1.0
176
     1
  0
VISUALSTYLE
  5
2D
102
{ACAD_REACTORS
330
2A
102
}
330
2A
100
AcDbVisualStyle
  2
Gouraud
 70
     2
177
     3
291
     1
 70
    58
 90
        2
176
     1
 90
        2
176
     1
 90
        1
176
     1
 90
        2
176
     1
 40
0.6
176
     1
 40
30.0
176
     1
 62
     7
420
 16777215
176
     1
 90
        0
176
     1
 90
        0
176
     1
 62
     7
176
     1
 62
   257
176
     1
 90
        1
176
     1
 90
        1
176
     1
 40
1.0
176
     1
 90
        0
176
     1
 62
     7
176
     1
 40
1.0
176
     1
 90
        1
176
     1
 90
        6
176
     1
 90
        2
176
     1
 62
     7
176
     1
 90
        5
176
     1
 90
        0
176
     1
 90
        0
176
     1
290
     0
176
     1
 90
       13
176
     1
 40
0.0
176
     1
 90
        0
176
     1
290
     0
176
     1
290
     1
176
     1
290
     1
176
     1
290
     0
176
     1
290
     0
176
     1
290
     0
176
     1
290
     0
176
     1
290
     0
176
     1
290
     0
176
     1
 90
       50
176
     1
 40
0.0
176
     1
 40
1.0
176
     1
 90
        0
176
     1
 62
    18
420
        0
176
     1
 90
       50
176
     1
 90
        3
176
     1
 62
     5
420
      255
176
     1
290
     0
176
     1
 90
       50
176
     1
 90
       50
176
     1
 90
       50
176
     1
290
     0
176
     1
 90
       50
176
     1
 62
   256
176
     0
 40
1.0
176
     0
 90
        2
176
     1
  1
strokes_ogs.tif
176
     1
290
     0
176
     1
 40
1.0
176
     1
 40
1.0
176
     1
  0
VISUALSTYLE
  5
2E
102
{ACAD_REACTORS
330
2A
102
}
330
2A
100
AcDbVisualStyle
  2
GouraudWithEdges
 70
     3
177
     3
291
     1
 70
    58
 90
        2
176
     1
 90
        2
176
     1
 90
        1
176
     1
 90
        2
176
     1
 40
0.6
176
     1
 40
30.0
176
     1
 62
     7
420
 16777215
176
     1
 90
        1
176
     1
 90
        0
176
     1
 62
     7
176
     1
 62
   257
176
     1
 90
        1
176
     1
 90
        1
176
     1
 40
1.0
176
     1
 90
        0
176
     1
 62
   257
176
     1
 40
1.0
176
     1
 90
        1
176
     1
 90
        6
176
     1
 90
        2
176
     1
 62
     7
176
     1
 90
        5
176
     1
 90
        0
176
     1
 90
        0
176
     1
290
     0
176
     1
 90
       13
176
     1
 40
0.0
176
     1
 90
        0
176
     1
290
     0
176
     1
290
     1
176
     1
290
     1
176
     1
290
     0
176
     1
290
     0
176
     1
290
     0
176
     1
290
     0
176
     1
290
     0
176
     1
290
     0
176
     1
 90
       50
176
     1
 40
0.0
176
     1
 40
1.0
176
     1
 90
        0
176
     1
 62
    18
420
        0
176
     1
 90
       50
176
     1
 90
        3
176
     1
 62
     5
420
      255
176
     1
290
     0
176
     1
 90
       50
176
     1
 90
       50
176
     1
 90
       50
176
     1
290
     0
176
     1
 90
       50
176
     1
 62
   256
176
     0
 40
1.0
176
     0
 90
        2
176
     1
  1
strokes_ogs.tif
176
     1
290
     0
176
     1
 40
1.0
176
     1
 40
1.0
176
     1
  0
VISUALSTYLE
  5
31
102
{ACAD_REACTORS
330
2A
102
}
330
2A
100
AcDbVisualStyle
  2
Hidden
 70
     6
177
     3
291
     0
 70
    58
 90
        1
176
     1
 90
        2
176
     1
 90
        2
176
     1
 90
        0
176
     1
 40
0.6
176
     1
 40
30.0
176
     1
 62
     7
420
 16777215
176
     1
 90
        2
176
     1
 90
        2
176
     1
 62
     7
176
     1
 62
   257
176
     1
 90
        2
176
     1
 90
        1
176
     1
 40
40.0
176
     1
 90
        0
176
     1
 62
   257
176
     1
 40
1.0
176
     1
 90
        1
176
     1
 90
        6
176
     1
 90
        2
176
     1
 62
     7
176
     1
 90
        3
176
     1
 90
        0
176
     1
 90
        0
176
     1
290
     0
176
     1
 90
        1
176
     1
 40
0.0
176
     1
 90
        0
176
     1
290
     0
176
     1
290
     1
176
     1
290
     1
176
     1
290
     0
176
     1
290
     0
176
     1
290
     0
176
     1
290
     0
176
     1
290
     0
176
     1
290
     0
176
     1
 90
       50
176
     1
 40
0.0
176
     1
 40
1.0
176
     1
 90
        0
176
     1
 62
    18
420
        0
176
     1
 90
       50
176
     1
 90
        3
176
     1
 62
     5
420
      255
176
     1
290
     0
176
     1
 90
       50
176
     1
 90
       50
176
     1
 90
       50
176
     1
290
     0
176
     1
 90
       50
176
     1
 62
   256
176
     0
 40
1.0
176
     0
 90
        2
176
     1
  1
strokes_ogs.tif
176
     1
290
     0
176
     1
 40
1.0
176
     1
 40
1.0
176
     1
  0
VISUALSTYLE
  5
3B
102
{ACAD_REACTORS
330
2A
102
}
330
2A
100
AcDbVisualStyle
  2
JitterOff
 70
    20
177
     3
291
     1
 70
    58
 90
        2
176
     0
 90
        2
176
     0
 90
        0
176
     0
 90
        0
176
     0
 40
0.6
176
     0
 40
30.0
176
     0
 62
     7
420
 16777215
176
     0
 90
        1
176
     0
 90
        4
176
     0
 62
     7
176
     0
 62
   257
176
     0
 90
        1
176
     0
 90
        1
176
     0
 40
1.0
176
     0
 90
       10
176
     2
 62
     7
176
     0
 40
1.0
176
     0
 90
        1
176
     0
 90
        6
176
     0
 90
        2
176
     0
 62
     7
176
     0
 90
        5
176
     0
 90
        0
176
     0
 90
        0
176
     0
290
     0
176
     0
 90
        1
176
     0
 40
0.0
176
     0
 90
        0
176
     0
290
     0
176
     0
290
     1
176
     0
290
     1
176
     0
290
     0
176
     0
290
     0
176
     0
290
     0
176
     0
290
     0
176
     0
290
     0
176
     0
290
     0
176
     0
 90
       50
176
     0
 40
0.0
176
     0
 40
1.0
176
     0
 90
        0
176
     0
 62
    18
420
        0
176
     0
 90
       50
176
     0
 90
        3
176
     0
 62
     5
420
      255
176
     0
290
     0
176
     0
 90
       50
176
     0
 90
       50
176
     0
 90
       50
176
     0
290
     0
176
     0
 90
       50
176
     0
 62
   256
176
     0
 40
1.0
176
     0
 90
        2
176
     0
  1
strokes_ogs.tif
176
     0
290
     0
176
     0
 40
1.0
176
     0
 40
1.0
176
     0
  0
VISUALSTYLE
  5
38
102
{ACAD_REACTORS
330
2A
102
}
330
2A
100
AcDbVisualStyle
  2
Linepattern
 70
    14
177
     3
291
     1
 70
    58
 90
        2
176
     1
 90
        2
176
     1
 90
        0
176
     1
 90
        0
176
     1
 40
0.6
176
     1
 40
30.0
176
     1
 62
     7
420
 16777215
176
     1
 90
        1
176
     1
 90
        4
176
     1
 62
     7
176
     1
 62
   257
176
     1
 90
        7
176
     1
 90
        7
176
     1
 40
1.0
176
     1
 90
        8
176
     1
 62
     7
176
     1
 40
1.0
176
     1
 90
        1
176
     1
 90
        6
176
     1
 90
        2
176
     1
 62
     7
176
     1
 90
        5
176
     1
 90
        0
176
     1
 90
        0
176
     1
290
     0
176
     1
 90
        1
176
     1
 40
0.0
176
     1
 90
        0
176
     1
290
     0
176
     1
290
     1
176
     1
290
     1
176
     1
290
     0
176
     1
290
     0
176
     1
290
     0
176
     1
290
     0
176
     1
290
     0
176
     1
290
     0
176
     1
 90
       50
176
     1
 40
0.0
176
     1
 40
1.0
176
     1
 90
        0
176
     1
 62
    18
420
        0
176
     1
 90
       50
176
     1
 90
        3
176
     1
 62
     5
420
      255
176
     1
290
     0
176
     1
 90
       50
176
     1
 90
       50
176
     1
 90
       50
176
     1
290
     0
176
     1
 90
       50
176
     1
 62
   256
176
     0
 40
1.0
176
     0
 90
        2
176
     1
  1
strokes_ogs.tif
176
     1
290
     0
176
     1
 40
1.0
176
     1
 40
1.0
176
     1
  0
VISUALSTYLE
  5
3C
102
{ACAD_REACTORS
330
2A
102
}
330
2A
100
AcDbVisualStyle
  2
OverhangOff
 70
    21
177
     3
291
     1
 70
    58
 90
        2
176
     0
 90
        2
176
     0
 90
        0
176
     0
 90
        0
176
     0
 40
0.6
176
     0
 40
30.0
176
     0
 62
     7
420
 16777215
176
     0
 90
        1
176
     0
 90
        4
176
     0
 62
     7
176
     0
 62
   257
176
     0
 90
        1
176
     0
 90
        1
176
     0
 40
1.0
176
     0
 90
        9
176
     2
 62
     7
176
     0
 40
1.0
176
     0
 90
        1
176
     0
 90
        6
176
     0
 90
        2
176
     0
 62
     7
176
     0
 90
        5
176
     0
 90
        0
176
     0
 90
        0
176
     0
290
     0
176
     0
 90
        1
176
     0
 40
0.0
176
     0
 90
        0
176
     0
290
     0
176
     0
290
     1
176
     0
290
     1
176
     0
290
     0
176
     0
290
     0
176
     0
290
     0
176
     0
290
     0
176
     0
290
     0
176
     0
290
     0
176
     0
 90
       50
176
     0
 40
0.0
176
     0
 40
1.0
176
     0
 90
        0
176
     0
 62
    18
420
        0
176
     0
 90
       50
176
     0
 90
        3
176
     0
 62
     5
420
      255
176
     0
290
     0
176
     0
 90
       50
176
     0
 90
       50
176
     0
 90
       50
176
     0
290
     0
176
     0
 90
       50
176
     0
 62
   256
176
     0
 40
1.0
176
     0
 90
        2
176
     0
  1
strokes_ogs.tif
176
     0
290
     0
176
     0
 40
1.0
176
     0
 40
1.0
176
     0
  0
VISUALSTYLE
  5
33
102
{ACAD_REACTORS
330
2A
102
}
330
2A
100
AcDbVisualStyle
  2
Realistic
 70
     8
177
     3
291
     0
 70
    58
 90
        2
176
     1
 90
        3
176
     1
 90
        0
176
     1
 90
        2
176
     1
 40
0.6
176
     1
 40
30.0
176
     1
 62
     7
420
 16777215
176
     1
 90
        0
176
     1
 90
        0
176
     1
 62
     7
176
     1
 62
   257
176
     1
 90
        1
176
     1
 90
        1
176
     1
 40
1.0
176
     1
 90
        8
176
     1
 62
   257
176
     1
 40
1.0
176
     1
 90
        1
176
     1
 90
        6
176
     1
 90
        2
176
     1
 62
     7
176
     1
 90
        3
176
     1
 90
        0
176
     1
 90
        0
176
     1
290
     0
176
     1
 90
       13
176
     1
 40
0.0
176
     1
 90
        0
176
     1
290
     0
176
     1
290
     1
176
     1
290
     1
176
     1
290
     0
176
     1
290
     0
176
     1
290
     0
176
     1
290
     0
176
     1
290
     0
176
     1
290
     0
176
     1
 90
       50
176
     1
 40
0.0
176
     1
 40
1.0
176
     1
 90
        0
176
     1
 62
    18
420
        0
176
     1
 90
       50
176
     1
 90
        3
176
     1
 62
     5
420
      255
176
     1
290
     0
176
     1
 90
       50
176
     1
 90
       50
176
     1
 90
       50
176
     1
290
     0
176
     1
 90
       50
176
     1
 62
   256
176
     0
 40
1.0
176
     0
 90
        2
176
     1
  1
strokes_ogs.tif
176
     1
290
     0
176
     1
 40
1.0
176
     1
 40
1.0
176
     1
  0
VISUALSTYLE
  5
42
102
{ACAD_REACTORS
330
2A
102
}
330
2A
100
AcDbVisualStyle
  2
Shaded
 70
    27
177
     3
291
     0
 70
    58
 90
        2
176
     1
 90
        2
176
     1
 90
        1
176
     1
 90
        2
176
     1
 40
0.6
176
     1
 40
30.0
176
     1
 62
     7
420
 16777215
176
     1
 90
        0
176
     1
 90
        4
176
     1
 62
     7
176
     1
 62
   257
176
     1
 90
        1
176
     1
 90
        1
176
     1
 40
1.0
176
     1
 90
        8
176
     1
 62
   257
176
     1
 40
1.0
176
     1
 90
        1
176
     1
 90
        6
176
     1
 90
        2
176
     1
 62
     8
420
  7895160
176
     1
 90
        3
176
     1
 90
        0
176
     1
 90
        0
176
     1
290
     0
176
     1
 90
        5
176
     1
 40
0.0
176
     1
 90
        0
176
     1
290
     0
176
     1
290
     1
176
     1
290
     1
176
     1
290
     0
176
     1
290
     0
176
     1
290
     0
176
     1
290
     0
176
     1
290
     0
176
     1
290
     0
176
     1
 90
       50
176
     1
 40
0.0
176
     1
 40
1.0
176
     1
 90
        0
176
     1
 62
    18
420
        0
176
     1
 90
       50
176
     1
 90
        3
176
     1
 62
     5
420
      255
176
     1
290
     0
176
     1
 90
       50
176
     1
 90
       50
176
     1
 90
       50
176
     1
290
     0
176
     1
 90
       50
176
     1
 62
   256
176
     0
 40
1.0
176
     0
 90
        2
176
     1
  1
strokes_ogs.tif
176
     1
290
     0
176
     1
 40
1.0
176
     1
 40
1.0
176
     1
  0
VISUALSTYLE
  5
41
102
{ACAD_REACTORS
330
2A
102
}
330
2A
100
AcDbVisualStyle
  2
Shaded with edges
 70
    26
177
     3
291
     0
 70
    58
 90
        2
176
     1
 90
        2
176
     1
 90
        1
176
     1
 90
        2
176
     1
 40
0.6
176
     1
 40
30.0
176
     1
 62
     7
420
 16777215
176
     1
 90
        1
176
     1
 90
       10
176
     1
 62
     7
176
     1
 62
   257
176
     1
 90
        2
176
     1
 90
        1
176
     1
 40
1.0
176
     1
 90
        8
176
     1
 62
   257
176
     1
 40
1.0
176
     1
 90
        1
176
     1
 90
        6
176
     1
 90
        2
176
     1
 62
     7
176
     1
 90
        3
176
     1
 90
        0
176
     1
 90
        0
176
     1
290
     0
176
     1
 90
        5
176
     1
 40
0.0
176
     1
 90
        0
176
     1
290
     0
176
     1
290
     1
176
     1
290
     1
176
     1
290
     0
176
     1
290
     0
176
     1
290
     0
176
     1
290
     0
176
     1
290
     0
176
     1
290
     0
176
     1
 90
       50
176
     1
 40
0.0
176
     1
 40
1.0
176
     1
 90
        0
176
     1
 62
    18
420
        0
176
     1
 90
       50
176
     1
 90
        3
176
     1
 62
     5
420
      255
176
     1
290
     0
176
     1
 90
       50
176
     1
 90
       50
176
     1
 90
       50
176
     1
290
     0
176
     1
 90
       50
176
     1
 62
   256
176
     0
 40
1.0
176
     0
 90
        2
176
     1
  1
strokes_ogs.tif
176
     1
290
     0
176
     1
 40
1.0
176
     1
 40
1.0
176
     1
  0
VISUALSTYLE
  5
3E
102
{ACAD_REACTORS
330
2A
102
}
330
2A
100
AcDbVisualStyle
  2
Shades of Gray
 70
    23
177
     3
291
     0
 70
    58
 90
        2
176
     1
 90
        2
176
     1
 90
        3
176
     1
 90
        0
176
     1
 40
0.6
176
     1
 40
30.0
176
     1
 62
     7
420
 16777215
176
     1
 90
        2
176
     1
 90
        2
176
     1
 62
     7
176
     1
 62
     7
176
     1
 90
        1
176
     1
 90
        1
176
     1
 40
40.0
176
     1
 90
        8
176
     1
 62
     7
176
     1
 40
1.0
176
     1
 90
        1
176
     1
 90
        6
176
     1
 90
        2
176
     1
 62
     7
176
     1
 90
        3
176
     1
 90
        0
176
     1
 90
        0
176
     1
290
     0
176
     1
 90
        1
176
     1
 40
0.0
176
     1
 90
        0
176
     1
290
     0
176
     1
290
     1
176
     1
290
     1
176
     1
290
     0
176
     1
290
     0
176
     1
290
     0
176
     1
290
     0
176
     1
290
     0
176
     1
290
     0
176
     1
 90
       50
176
     1
 40
0.0
176
     1
 40
1.0
176
     1
 90
        0
176
     1
 62
    18
420
        0
176
     1
 90
       50
176
     1
 90
        3
176
     1
 62
     5
420
      255
176
     1
290
     0
176
     1
 90
       50
176
     1
 90
       50
176
     1
 90
       50
176
     1
290
     0
176
     1
 90
       50
176
     1
 62
   256
176
     0
 40
1.0
176
     0
 90
        2
176
     1
  1
strokes_ogs.tif
176
     1
290
     0
176
     1
 40
1.0
176
     1
 40
1.0
176
     1
  0
VISUALSTYLE
  5
3F
102
{ACAD_REACTORS
330
2A
102
}
330
2A
100
AcDbVisualStyle
  2
Sketchy
 70
    24
177
     3
291
     0
 70
    58
 90
        1
176
     1
 90
        2
176
     1
 90
        2
176
     1
 90
        0
176
     1
 40
0.6
176
     1
 40
30.0
176
     1
 62
     7
420
 16777215
176
     1
 90
        2
176
     1
 90
        2
176
     1
 62
     7
176
     1
 62
     7
176
     1
 90
        1
176
     1
 90
        1
176
     1
 40
40.0
176
     1
 90
       11
176
     1
 62
     7
176
     1
 40
1.0
176
     1
 90
        1
176
     1
 90
        6
176
     1
 90
        2
176
     1
 62
     7
176
     1
 90
        6
176
     1
 90
        0
176
     1
 90
        0
176
     1
290
     0
176
     1
 90
        1
176
     1
 40
0.0
176
     1
 90
        0
176
     1
290
     0
176
     1
290
     1
176
     1
290
     1
176
     1
290
     0
176
     1
290
     0
176
     1
290
     0
176
     1
290
     0
176
     1
290
     0
176
     1
290
     0
176
     1
 90
       50
176
     1
 40
0.0
176
     1
 40
1.0
176
     1
 90
        0
176
     1
 62
    18
420
        0
176
     1
 90
       50
176
     1
 90
        3
176
     1
 62
     5
420
      255
176
     1
290
     0
176
     1
 90
       50
176
     1
 90
       50
176
     1
 90
       50
176
     1
290
     0
176
     1
 90
       50
176
     1
 62
   256
176
     0
 40
1.0
176
     0
 90
        2
176
     1
  1
strokes_ogs.tif
176
     1
290
     0
176
     1
 40
1.0
176
     1
 40
1.0
176
     1
  0
VISUALSTYLE
  5
37
102
{ACAD_REACTORS
330
2A
102
}
330
2A
100
AcDbVisualStyle
  2
Thicken
 70
    13
177
     3
291
     1
 70
    58
 90
        2
176
     1
 90
        2
176
     1
 90
        0
176
     1
 90
        0
176
     1
 40
0.6
176
     1
 40
30.0
176
     1
 62
     7
420
 16777215
176
     1
 90
        1
176
     1
 90
        4
176
     1
 62
     7
176
     1
 62
   257
176
     1
 90
        1
176
     1
 90
        1
176
     1
 40
1.0
176
     1
 90
       12
176
     1
 62
     7
176
     1
 40
1.0
176
     1
 90
        1
176
     1
 90
        6
176
     1
 90
        2
176
     1
 62
     7
176
     1
 90
        5
176
     1
 90
        0
176
     1
 90
        0
176
     1
290
     0
176
     1
 90
        1
176
     1
 40
0.0
176
     1
 90
        0
176
     1
290
     0
176
     1
290
     1
176
     1
290
     1
176
     1
290
     0
176
     1
290
     0
176
     1
290
     0
176
     1
290
     0
176
     1
290
     0
176
     1
290
     0
176
     1
 90
       50
176
     1
 40
0.0
176
     1
 40
1.0
176
     1
 90
        0
176
     1
 62
    18
420
        0
176
     1
 90
       50
176
     1
 90
        3
176
     1
 62
     5
420
      255
176
     1
290
     0
176
     1
 90
       50
176
     1
 90
       50
176
     1
 90
       50
176
     1
290
     0
176
     1
 90
       50
176
     1
 62
   256
176
     0
 40
1.0
176
     0
 90
        2
176
     1
  1
strokes_ogs.tif
176
     1
290
     0
176
     1
 40
1.0
176
     1
 40
1.0
176
     1
  0
VISUALSTYLE
  5
30
102
{ACAD_REACTORS
330
2A
102
}
330
2A
100
AcDbVisualStyle
  2
Wireframe
 70
     5
177
     3
291
     0
 70
    58
 90
        0
176
     1
 90
        2
176
     1
 90
        0
176
     1
 90
        0
176
     1
 40
0.6
176
     1
 40
30.0
176
     1
 62
     7
420
 16777215
176
     1
 90
        1
176
     1
 90
        4
176
     1
 62
     7
176
     1
 62
   257
176
     1
 90
        1
176
     1
 90
        1
176
     1
 40
1.0
176
     1
 90
        0
176
     1
 62
   257
176
     1
 40
1.0
176
     1
 90
        1
176
     1
 90
        6
176
     1
 90
        2
176
     1
 62
     7
176
     1
 90
        3
176
     1
 90
        0
176
     1
 90
        0
176
     1
290
     0
176
     1
 90
        1
176
     1
 40
0.0
176
     1
 90
        0
176
     1
290
     0
176
     1
290
     1
176
     1
290
     1
176
     1
290
     0
176
     1
290
     0
176
     1
290
     0
176
     1
290
     0
176
     1
290
     0
176
     1
290
     0
176
     1
 90
       50
176
     1
 40
0.0
176
     1
 40
1.0
176
     1
 90
        0
176
     1
 62
    18
420
        0
176
     1
 90
       50
176
     1
 90
        3
176
     1
 62
     5
420
      255
176
     1
290
     0
176
     1
 90
       50
176
     1
 90
       50
176
     1
 90
       50
176
     1
290
     0
176
     1
 90
       50
176
     1
 62
   256
176
     0
 40
1.0
176
     0
 90
        2
176
     1
  1
strokes_ogs.tif
176
     1
290
     0
176
     1
 40
1.0
176
     1
 40
1.0
176
     1
  0
VISUALSTYLE
  5
40
102
{ACAD_REACTORS
330
2A
102
}
330
2A
100
AcDbVisualStyle
  2
X-Ray
 70
    25
177
     3
291
     0
 70
    58
 90
        2
176
     1
 90
        2
176
     1
 90
        1
176
     1
 90
        1
176
     1
 40
0.5
176
     1
 40
30.0
176
     1
 62
     7
420
 16777215
176
     1
 90
        1
176
     1
 90
        0
176
     1
 62
     7
176
     1
 62
   257
176
     1
 90
        1
176
     1
 90
        1
176
     1
 40
1.0
176
     1
 90
        8
176
     1
 62
     7
176
     1
 40
1.0
176
     1
 90
        1
176
     1
 90
        6
176
     1
 90
        2
176
     1
 62
     7
176
     1
 90
        3
176
     1
 90
        0
176
     1
 90
        0
176
     1
290
     0
176
     1
 90
       13
176
     1
 40
0.0
176
     1
 90
        0
176
     1
290
     0
176
     1
290
     1
176
     1
290
     1
176
     1
290
     0
176
     1
290
     0
176
     1
290
     0
176
     1
290
     0
176
     1
290
     0
176
     1
290
     0
176
     1
 90
       50
176
     1
 40
0.0
176
     1
 40
1.0
176
     1
 90
        0
176
     1
 62
    18
420
        0
176
     1
 90
       50
176
     1
 90
        3
176
     1
 62
     5
420
      255
176
     1
290
     0
176
     1
 90
       50
176
     1
 90
       50
176
     1
 90
       50
176
     1
290
     0
176
     1
 90
       50
176
     1
 62
   256
176
     0
 40
1.0
176
     0
 90
        2
176
     1
  1
strokes_ogs.tif
176
     1
290
     0
176
     1
 40
1.0
176
     1
 40
1.0
176
     1
  0
DICTIONARYVAR
  5
227
102
{ACAD_REACTORS
330
226
102
}
330
226
100
DictionaryVariables
280
     0
  1
1:1
  0
DICTIONARYVAR
  5
22C
102
{ACAD_REACTORS
330
226
102
}
330
226
100
DictionaryVariables
280
     0
  1
Standard
  0
DICTIONARYVAR
  5
22B
102
{ACAD_REACTORS
330
226
102
}
330
226
100
DictionaryVariables
280
     0
  1
Standard
  0
DICTIONARY
  5
228
330
6A
100
AcDbDictionary
280
     1
281
     1
  3
ACAD_ROUNDTRIP_2008_TABLESTYLE_CELLSTYLEMAP
360
229
  0
CELLSTYLEMAP
  5
229
102
{ACAD_REACTORS
330
228
102
}
330
228
100
AcDbCellStyleMap
 90
        3
300
CELLSTYLE
  1
TABLEFORMAT_BEGIN
 90
        5
170
     1
 91
        0
 92
    32768
 62
   257
 93
        1
300
CONTENTFORMAT
  1
CONTENTFORMAT_BEGIN
 90
        0
 91
        0
 92
        4
 93
        0
300

 40
0.0
140
1.0
 94
        5
 62
     0
340
11
144
0.25
309
CONTENTFORMAT_END
171
     1
301
MARGIN
  1
CELLMARGIN_BEGIN
 40
0.06
 40
0.06
 40
0.06
 40
0.06
 40
0.06
 40
0.06
309
CELLMARGIN_END
 94
        6
 95
        1
302
GRIDFORMAT
  1
GRIDFORMAT_BEGIN
 90
        0
 91
        1
 62
     0
 92
       -2
340
14
 93
        0
 40
0.045
309
GRIDFORMAT_END
 95
        2
302
GRIDFORMAT
  1
GRIDFORMAT_BEGIN
 90
        0
 91
        1
 62
     0
 92
       -2
340
14
 93
        0
 40
0.045
309
GRIDFORMAT_END
 95
        4
302
GRIDFORMAT
  1
GRIDFORMAT_BEGIN
 90
        0
 91
        1
 62
     0
 92
       -2
340
14
 93
        0
 40
0.045
309
GRIDFORMAT_END
 95
        8
302
GRIDFORMAT
  1
GRIDFORMAT_BEGIN
 90
        0
 91
        1
 62
     0
 92
       -2
340
14
 93
        0
 40
0.045
309
GRIDFORMAT_END
 95
       16
302
GRIDFORMAT
  1
GRIDFORMAT_BEGIN
 90
        0
 91
        1
 62
     0
 92
       -2
340
14
 93
        0
 40
0.045
309
GRIDFORMAT_END
 95
       32
302
GRIDFORMAT
  1
GRIDFORMAT_BEGIN
 90
        0
 91
        1
 62
     0
 92
       -2
340
14
 93
        0
 40
0.045
309
GRIDFORMAT_END
309
TABLEFORMAT_END
  1
CELLSTYLE_BEGIN
 90
        1
 91
        1
300
_TITLE
309
CELLSTYLE_END
300
CELLSTYLE
  1
TABLEFORMAT_BEGIN
 90
        5
170
     1
 91
        0
 92
        0
 62
   257
 93
        1
300
CONTENTFORMAT
  1
CONTENTFORMAT_BEGIN
 90
        0
 91
        0
 92
        4
 93
        0
300

 40
0.0
140
1.0
 94
        5
 62
     0
340
11
144
0.18
309
CONTENTFORMAT_END
171
     1
301
MARGIN
  1
CELLMARGIN_BEGIN
 40
0.06
 40
0.06
 40
0.06
 40
0.06
 40
0.06
 40
0.06
309
CELLMARGIN_END
 94
        6
 95
        1
302
GRIDFORMAT
  1
GRIDFORMAT_BEGIN
 90
        0
 91
        1
 62
     0
 92
       -2
340
14
 93
        0
 40
0.045
309
GRIDFORMAT_END
 95
        2
302
GRIDFORMAT
  1
GRIDFORMAT_BEGIN
 90
        0
 91
        1
 62
     0
 92
       -2
340
14
 93
        0
 40
0.045
309
GRIDFORMAT_END
 95
        4
302
GRIDFORMAT
  1
GRIDFORMAT_BEGIN
 90
        0
 91
        1
 62
     0
 92
       -2
340
14
 93
        0
 40
0.045
309
GRIDFORMAT_END
 95
        8
302
GRIDFORMAT
  1
GRIDFORMAT_BEGIN
 90
        0
 91
        1
 62
     0
 92
       -2
340
14
 93
        0
 40
0.045
309
GRIDFORMAT_END
 95
       16
302
GRIDFORMAT
  1
GRIDFORMAT_BEGIN
 90
        0
 91
        1
 62
     0
 92
       -2
340
14
 93
        0
 40
0.045
309
GRIDFORMAT_END
 95
       32
302
GRIDFORMAT
  1
GRIDFORMAT_BEGIN
 90
        0
 91
        1
 62
     0
 92
       -2
340
14
 93
        0
 40
0.045
309
GRIDFORMAT_END
309
TABLEFORMAT_END
  1
CELLSTYLE_BEGIN
 90
        2
 91
        1
300
_HEADER
309
CELLSTYLE_END
300
CELLSTYLE
  1
TABLEFORMAT_BEGIN
 90
        5
170
     1
 91
        0
 92
        0
 62
   257
 93
        1
300
CONTENTFORMAT
  1
CONTENTFORMAT_BEGIN
 90
        0
 91
        0
 92
        4
 93
        0
300

 40
0.0
140
1.0
 94
        2
 62
     0
340
11
144
0.18
309
CONTENTFORMAT_END
171
     1
301
MARGIN
  1
CELLMARGIN_BEGIN
 40
0.06
 40
0.06
 40
0.06
 40
0.06
 40
0.06
 40
0.06
309
CELLMARGIN_END
 94
        6
 95
        1
302
GRIDFORMAT
  1
GRIDFORMAT_BEGIN
 90
        0
 91
        1
 62
     0
 92
       -2
340
14
 93
        0
 40
0.045
309
GRIDFORMAT_END
 95
        2
302
GRIDFORMAT
  1
GRIDFORMAT_BEGIN
 90
        0
 91
        1
 62
     0
 92
       -2
340
14
 93
        0
 40
0.045
309
GRIDFORMAT_END
 95
        4
302
GRIDFORMAT
  1
GRIDFORMAT_BEGIN
 90
        0
 91
        1
 62
     0
 92
       -2
340
14
 93
        0
 40
0.045
309
GRIDFORMAT_END
 95
        8
302
GRIDFORMAT
  1
GRIDFORMAT_BEGIN
 90
        0
 91
        1
 62
     0
 92
       -2
340
14
 93
        0
 40
0.045
309
GRIDFORMAT_END
 95
       16
302
GRIDFORMAT
  1
GRIDFORMAT_BEGIN
 90
        0
 91
        1
 62
     0
 92
       -2
340
14
 93
        0
 40
0.045
309
GRIDFORMAT_END
 95
       32
302
GRIDFORMAT
  1
GRIDFORMAT_BEGIN
 90
        0
 91
        1
 62
     0
 92
       -2
340
14
 93
        0
 40
0.045
309
GRIDFORMAT_END
309
TABLEFORMAT_END
  1
CELLSTYLE_BEGIN
 90
        3
 91
        2
300
_DATA
309
CELLSTYLE_END
  0
ENDSEC
  0
EOF