0
SECTION
  2
HEADER
  9
$ACADVER
  1
AC1027
  9
$ACADMAINTVER
 70
     8
  9
$DWGCODEPAGE
  3
ANSI_1252
  9
$REQUIREDVERSIONS
160
                 0
  9
$COMMENTS
  1
File was created by Cadenas
  9
$CUSTOMPROPERTYTAG
  1
NN
  9
$CUSTOMPROPERTY
  1
Type K Pillow Block 2&4-Bolt Base Expansion Inch Bore
  9
$CUSTOMPROPERTYTAG
  1
NT
  9
$CUSTOMPROPERTY
  1
Type K
  9
$CUSTOMPROPERTYTAG
  1
NB
  9
$CUSTOMPROPERTY
  1
023205
  9
$CUSTOMPROPERTYTAG
  1
NBSYN
  9
$CUSTOMPROPERTY
  1
$PN.
  9
$CUSTOMPROPERTYTAG
  1
LINA
  9
$CUSTOMPROPERTY
  1
023205
  9
$CUSTOMPROPERTYTAG
  1
SS
  9
$CUSTOMPROPERTY
  1
2-15/16
  9
$CUSTOMPROPERTYTAG
  1
PN
  9
$CUSTOMPROPERTY
  1
023205
  9
$CUSTOMPROPERTYTAG
  1
PNA
  9
$CUSTOMPROPERTY
  1
P2B-K-215RE
  9
$CUSTOMPROPERTYTAG
  1
WEIGHT
  9
$CUSTOMPROPERTY
  1
39
  9
$CUSTOMPROPERTYTAG
  1
A
  9
$CUSTOMPROPERTY
  1
3.78
  9
$CUSTOMPROPERTYTAG
  1
B
  9
$CUSTOMPROPERTY
  1
13.44
  9
$CUSTOMPROPERTYTAG
  1
C
  9
$CUSTOMPROPERTY
  1
2.94
  9
$CUSTOMPROPERTYTAG
  1
DMIN
  9
$CUSTOMPROPERTY
  1
9.88
  9
$CUSTOMPROPERTYTAG
  1
DMAX
  9
$CUSTOMPROPERTY
  1
11.50
  9
$CUSTOMPROPERTYTAG
  1
E
  9
$CUSTOMPROPERTY
  1
N/A
  9
$CUSTOMPROPERTYTAG
  1
F
  9
$CUSTOMPROPERTY
  1
3/4
  9
$CUSTOMPROPERTYTAG
  1
G
  9
$CUSTOMPROPERTY
  1
1.69
  9
$CUSTOMPROPERTYTAG
  1
H
  9
$CUSTOMPROPERTY
  1
2.00
  9
$CUSTOMPROPERTYTAG
  1
J
  9
$CUSTOMPROPERTY
  1
7.92
  9
$CUSTOMPROPERTYTAG
  1
L
  9
$CUSTOMPROPERTY
  1
4.72
  9
$CUSTOMPROPERTYTAG
  1
M
  9
$CUSTOMPROPERTY
  1
3.75
  9
$CUSTOMPROPERTYTAG
  1
P
  9
$CUSTOMPROPERTY
  1
8.31
  9
$CUSTOMPROPERTYTAG
  1
R
  9
$CUSTOMPROPERTY
  1
1.44
  9
$CUSTOMPROPERTYTAG
  1
S
  9
$CUSTOMPROPERTY
  1
2.25
  9
$CUSTOMPROPERTYTAG
  1
T
  9
$CUSTOMPROPERTY
  1
.28
  9
$CUSTOMPROPERTYTAG
  1
CS
  9
$CUSTOMPROPERTY
  1
61200
  9
$CUSTOMPROPERTYTAG
  1
CD
  9
$CUSTOMPROPERTY
  1
9600
  9
$CUSTOMPROPERTYTAG
  1
RN
  9
$CUSTOMPROPERTY
  1
24
  9
$CUSTOMPROPERTYTAG
  1
RM
  9
$CUSTOMPROPERTY
  1
.41
  9
$CUSTOMPROPERTYTAG
  1
PDI
  9
$CUSTOMPROPERTY
  1
3.900
  9
$CUSTOMPROPERTYTAG
  1
EP
  9
$CUSTOMPROPERTY
  1
.004-.012
  9
$CUSTOMPROPERTYTAG
  1
SC
  9
$CUSTOMPROPERTY
  1
1/2-13*7/8
  9
$CUSTOMPROPERTYTAG
  1
TC
  9
$CUSTOMPROPERTY
  1
620
  9
$CUSTOMPROPERTYTAG
  1
MH
  9
$CUSTOMPROPERTY
  1
C.I. ASTM A48 CLASS 30
  9
$CUSTOMPROPERTYTAG
  1
MC
  9
$CUSTOMPROPERTY
  1
4118 CASE CARB.
  9
$CUSTOMPROPERTYTAG
  1
MCU
  9
$CUSTOMPROPERTY
  1
4118 CASE CARB.
  9
$CUSTOMPROPERTYTAG
  1
MR
  9
$CUSTOMPROPERTY
  1
STEEL
  9
$CUSTOMPROPERTYTAG
  1
MRO
  9
$CUSTOMPROPERTY
  1
4118 CASE CARB.
  9
$CUSTOMPROPERTYTAG
  1
SM
  9
$CUSTOMPROPERTY
  1
4.80*
  9
$CUSTOMPROPERTYTAG
  1
COMPANY
  9
$CUSTOMPROPERTY
  1
baldor
  9
$INSBASE
 10
0.0
 20
0.0
 30
0.0
  9
$EXTMIN
 10
1.000000000000000E+20
 20
1.000000000000000E+20
 30
1.000000000000000E+20
  9
$EXTMAX
 10
-1.000000000000000E+20
 20
-1.000000000000000E+20
 30
-1.000000000000000E+20
  9
$LIMMIN
 10
0.0
 20
0.0
  9
$LIMMAX
 10
12.0
 20
9.0
  9
$ORTHOMODE
 70
     0
  9
$REGENMODE
 70
     1
  9
$FILLMODE
 70
     1
  9
$QTEXTMODE
 70
     0
  9
$MIRRTEXT
 70
     1
  9
$LTSCALE
 40
1.0
  9
$ATTMODE
 70
     1
  9
$TEXTSIZE
 40
0.2
  9
$TRACEWID
 40
0.05
  9
$TEXTSTYLE
  7
Standard
  9
$CLAYER
  8
0
  9
$CELTYPE
  6
ByLayer
  9
$CECOLOR
 62
   256
  9
$CELTSCALE
 40
1.0
  9
$DISPSILH
 70
     0
  9
$DIMSCALE
 40
1.0
  9
$DIMASZ
 40
0.18
  9
$DIMEXO
 40
0.0625
  9
$DIMDLI
 40
0.38
  9
$DIMRND
 40
0.0
  9
$DIMDLE
 40
0.0
  9
$DIMEXE
 40
0.18
  9
$DIMTP
 40
0.0
  9
$DIMTM
 40
0.0
  9
$DIMTXT
 40
0.18
  9
$DIMCEN
 40
0.09
  9
$DIMTSZ
 40
0.0
  9
$DIMTOL
 70
     0
  9
$DIMLIM
 70
     0
  9
$DIMTIH
 70
     1
  9
$DIMTOH
 70
     1
  9
$DIMSE1
 70
     0
  9
$DIMSE2
 70
     0
  9
$DIMTAD
 70
     0
  9
$DIMZIN
 70
     0
  9
$DIMBLK
  1

  9
$DIMASO
 70
     1
  9
$DIMSHO
 70
     1
  9
$DIMPOST
  1

  9
$DIMAPOST
  1

  9
$DIMALT
 70
     0
  9
$DIMALTD
 70
     2
  9
$DIMALTF
 40
25.4
  9
$DIMLFAC
 40
1.0
  9
$DIMTOFL
 70
     0
  9
$DIMTVP
 40
0.0
  9
$DIMTIX
 70
     0
  9
$DIMSOXD
 70
     0
  9
$DIMSAH
 70
     0
  9
$DIMBLK1
  1

  9
$DIMBLK2
  1

  9
$DIMSTYLE
  2
Standard
  9
$DIMCLRD
 70
     0
  9
$DIMCLRE
 70
     0
  9
$DIMCLRT
 70
     0
  9
$DIMTFAC
 40
1.0
  9
$DIMGAP
 40
0.09
  9
$DIMJUST
 70
     0
  9
$DIMSD1
 70
     0
  9
$DIMSD2
 70
     0
  9
$DIMTOLJ
 70
     1
  9
$DIMTZIN
 70
     0
  9
$DIMALTZ
 70
     0
  9
$DIMALTTZ
 70
     0
  9
$DIMUPT
 70
     0
  9
$DIMDEC
 70
     4
  9
$DIMTDEC
 70
     4
  9
$DIMALTU
 70
     2
  9
$DIMALTTD
 70
     2
  9
$DIMTXSTY
  7
Standard
  9
$DIMAUNIT
 70
     0
  9
$DIMADEC
 70
     0
  9
$DIMALTRND
 40
0.0
  9
$DIMAZIN
 70
     0
  9
$DIMDSEP
 70
    46
  9
$DIMATFIT
 70
     3
  9
$DIMFRAC
 70
     0
  9
$DIMLDRBLK
  1

  9
$DIMLUNIT
 70
     2
  9
$DIMLWD
 70
    -2
  9
$DIMLWE
 70
    -2
  9
$DIMTMOVE
 70
     0
  9
$DIMFXL
 40
1.0
  9
$DIMFXLON
 70
     0
  9
$DIMJOGANG
 40
0.7853981633974483
  9
$DIMTFILL
 70
     0
  9
$DIMTFILLCLR
 70
     0
  9
$DIMARCSYM
 70
     0
  9
$DIMLTYPE
  6

  9
$DIMLTEX1
  6

  9
$DIMLTEX2
  6

  9
$DIMTXTDIRECTION
 70
     0
  9
$LUNITS
 70
     2
  9
$LUPREC
 70
     4
  9
$SKETCHINC
 40
0.1
  9
$FILLETRAD
 40
0.5
  9
$AUNITS
 70
     0
  9
$AUPREC
 70
     0
  9
$MENU
  1
.
  9
$ELEVATION
 40
0.0
  9
$PELEVATION
 40
0.0
  9
$THICKNESS
 40
0.0
  9
$LIMCHECK
 70
     0
  9
$CHAMFERA
 40
0.0
  9
$CHAMFERB
 40
0.0
  9
$CHAMFERC
 40
0.0
  9
$CHAMFERD
 40
0.0
  9
$SKPOLY
 70
     0
  9
$TDCREATE
 40
2458169.004983704
  9
$TDUCREATE
 40
2458168.963317037
  9
$TDUPDATE
 40
2458169.004983889
  9
$TDUUPDATE
 40
2458168.963317222
  9
$TDINDWG
 40
0.0000000116
  9
$TDUSRTIMER
 40
0.0000000116
  9
$USRTIMER
 70
     1
  9
$ANGBASE
 50
0.0
  9
$ANGDIR
 70
     0
  9
$PDMODE
 70
     0
  9
$PDSIZE
 40
0.0
  9
$PLINEWID
 40
0.0
  9
$SPLFRAME
 70
     0
  9
$SPLINETYPE
 70
     6
  9
$SPLINESEGS
 70
     8
  9
$HANDSEED
  5
234
  9
$SURFTAB1
 70
     6
  9
$SURFTAB2
 70
     6
  9
$SURFTYPE
 70
     6
  9
$SURFU
 70
     6
  9
$SURFV
 70
     6
  9
$UCSBASE
  2

  9
$UCSNAME
  2

  9
$UCSORG
 10
0.0
 20
0.0
 30
0.0
  9
$UCSXDIR
 10
1.0
 20
0.0
 30
0.0
  9
$UCSYDIR
 10
0.0
 20
1.0
 30
0.0
  9
$UCSORTHOREF
  2

  9
$UCSORTHOVIEW
 70
     0
  9
$UCSORGTOP
 10
0.0
 20
0.0
 30
0.0
  9
$UCSORGBOTTOM
 10
0.0
 20
0.0
 30
0.0
  9
$UCSORGLEFT
 10
0.0
 20
0.0
 30
0.0
  9
$UCSORGRIGHT
 10
0.0
 20
0.0
 30
0.0
  9
$UCSORGFRONT
 10
0.0
 20
0.0
 30
0.0
  9
$UCSORGBACK
 10
0.0
 20
0.0
 30
0.0
  9
$PUCSBASE
  2

  9
$PUCSNAME
  2

  9
$PUCSORG
 10
0.0
 20
0.0
 30
0.0
  9
$PUCSXDIR
 10
1.0
 20
0.0
 30
0.0
  9
$PUCSYDIR
 10
0.0
 20
1.0
 30
0.0
  9
$PUCSORTHOREF
  2

  9
$PUCSORTHOVIEW
 70
     0
  9
$PUCSORGTOP
 10
0.0
 20
0.0
 30
0.0
  9
$PUCSORGBOTTOM
 10
0.0
 20
0.0
 30
0.0
  9
$PUCSORGLEFT
 10
0.0
 20
0.0
 30
0.0
  9
$PUCSORGRIGHT
 10
0.0
 20
0.0
 30
0.0
  9
$PUCSORGFRONT
 10
0.0
 20
0.0
 30
0.0
  9
$PUCSORGBACK
 10
0.0
 20
0.0
 30
0.0
  9
$USERI1
 70
     0
  9
$USERI2
 70
     0
  9
$USERI3
 70
     0
  9
$USERI4
 70
     0
  9
$USERI5
 70
     0
  9
$USERR1
 40
0.0
  9
$USERR2
 40
0.0
  9
$USERR3
 40
0.0
  9
$USERR4
 40
0.0
  9
$USERR5
 40
0.0
  9
$WORLDVIEW
 70
     1
  9
$SHADEDGE
 70
     3
  9
$SHADEDIF
 70
    70
  9
$TILEMODE
 70
     1
  9
$MAXACTVP
 70
    64
  9
$PINSBASE
 10
0.0
 20
0.0
 30
0.0
  9
$PLIMCHECK
 70
     0
  9
$PEXTMIN
 10
1.000000000000000E+20
 20
1.000000000000000E+20
 30
1.000000000000000E+20
  9
$PEXTMAX
 10
-1.000000000000000E+20
 20
-1.000000000000000E+20
 30
-1.000000000000000E+20
  9
$PLIMMIN
 10
0.0
 20
0.0
  9
$PLIMMAX
 10
12.0
 20
9.0
  9
$UNITMODE
 70
     0
  9
$VISRETAIN
 70
     1
  9
$PLINEGEN
 70
     0
  9
$PSLTSCALE
 70
     1
  9
$TREEDEPTH
 70
  3020
  9
$CMLSTYLE
  2
Standard
  9
$CMLJUST
 70
     0
  9
$CMLSCALE
 40
1.0
  9
$PROXYGRAPHICS
 70
     1
  9
$MEASUREMENT
 70
     0
  9
$CELWEIGHT
370
    -1
  9
$ENDCAPS
280
     0
  9
$JOINSTYLE
280
     0
  9
$LWDISPLAY
290
     0
  9
$INSUNITS
 70
     1
  9
$HYPERLINKBASE
  1

  9
$STYLESHEET
  1

  9
$XEDIT
290
     1
  9
$CEPSNTYPE
380
     0
  9
$PSTYLEMODE
290
     1
  9
$FINGERPRINTGUID
  2
{3F0D1AB9-8FE7-4B9A-B213-3BBAC59EF778}
  9
$VERSIONGUID
  2
{FAEB1C32-E019-11D5-929B-00C0DF256EC4}
  9
$EXTNAMES
290
     1
  9
$PSVPSCALE
 40
0.0
  9
$OLESTARTUP
290
     0
  9
$SORTENTS
280
   127
  9
$INDEXCTL
280
     0
  9
$HIDETEXT
280
     1
  9
$XCLIPFRAME
280
     2
  9
$HALOGAP
280
     0
  9
$OBSCOLOR
 70
   257
  9
$OBSLTYPE
280
     0
  9
$INTERSECTIONDISPLAY
280
     0
  9
$INTERSECTIONCOLOR
 70
   257
  9
$DIMASSOC
280
     2
  9
$PROJECTNAME
  1

  9
$CAMERADISPLAY
290
     0
  9
$LENSLENGTH
 40
50.0
  9
$CAMERAHEIGHT
 40
0.0
  9
$STEPSPERSEC
 40
2.0
  9
$STEPSIZE
 40
6.0
  9
$3DDWFPREC
 40
2.0
  9
$PSOLWIDTH
 40
0.25
  9
$PSOLHEIGHT
 40
4.0
  9
$LOFTANG1
 40
1.570796326794897
  9
$LOFTANG2
 40
1.570796326794897
  9
$LOFTMAG1
 40
0.0
  9
$LOFTMAG2
 40
0.0
  9
$LOFTPARAM
 70
     7
  9
$LOFTNORMALS
280
     1
  9
$LATITUDE
 40
37.795
  9
$LONGITUDE
 40
-122.394
  9
$NORTHDIRECTION
 40
0.0
  9
$TIMEZONE
 70
 -8000
  9
$LIGHTGLYPHDISPLAY
280
     1
  9
$TILEMODELIGHTSYNCH
280
     1
  9
$CMATERIAL
347
44
  9
$SOLIDHIST
280
     0
  9
$SHOWHIST
280
     1
  9
$DWFFRAME
280
     2
  9
$DGNFRAME
280
     2
  9
$REALWORLDSCALE
290
     1
  9
$INTERFERECOLOR
 62
   256
  9
$CSHADOW
280
     0
  9
$SHADOWPLANELOCATION
 40
0.0
  0
ENDSEC
  0
SECTION
  2
CLASSES
  0
CLASS
  1
ACDBDICTIONARYWDFLT
  2
AcDbDictionaryWithDefault
  3
ObjectDBX Classes
 90
        0
 91
        4
280
     0
281
     0
  0
CLASS
  1
VISUALSTYLE
  2
AcDbVisualStyle
  3
ObjectDBX Classes
 90
     4095
 91
        4
280
     0
281
     0
  0
CLASS
  1
MATERIAL
  2
AcDbMaterial
  3
ObjectDBX Classes
 90
     1153
 91
        4
280
     0
281
     0
  0
CLASS
  1
SCALE
  2
AcDbScale
  3
ObjectDBX Classes
 90
     1153
 91
        4
280
     0
281
     0
  0
CLASS
  1
TABLESTYLE
  2
AcDbTableStyle
  3
ObjectDBX Classes
 90
     4095
 91
        4
280
     0
281
     0
  0
CLASS
  1
MLEADERSTYLE
  2
AcDbMLeaderStyle
  3
ACDB_MLEADERSTYLE_CLASS
 90
     4095
 91
        4
280
     0
281
     0
  0
CLASS
  1
SUN
  2
AcDbSun
  3
SCENEOE
 90
     1153
 91
        4
280
     0
281
     0
  0
CLASS
  1
DICTIONARYVAR
  2
AcDbDictionaryVar
  3
ObjectDBX Classes
 90
        0
 91
        4
280
     0
281
     0
  0
CLASS
  1
CELLSTYLEMAP
  2
AcDbCellStyleMap
  3
ObjectDBX Classes
 90
     1152
 91
        4
280
     0
281
     0
  0
ENDSEC
  0
SECTION
  2
TABLES
  0
TABLE
  2
VPORT
  5
8
330
0
100
AcDbSymbolTable
 70
     1
  0
VPORT
  5
29
330
8
100
AcDbSymbolTableRecord
100
AcDbViewportTableRecord
  2
*Active
 70
     0
 10
0.0
 20
0.0
 11
1.0
 21
1.0
 12
-0.2578125
 22
1.121999931335449
 13
0.0
 23
0.0
 14
0.5
 24
0.5
 15
0.5
 25
0.5
 16
0.0
 26
0.0
 36
1.0
 17
0.0
 27
0.0
 37
0.0
 40
9.938879859924317
 41
0.4473907082758378
 42
50.0
 43
0.0
 44
0.0
 50
0.0
 51
0.0
 71
     0
 72
   100
 73
     1
 74
     3
 75
     0
 76
     0
 77
     0
 78
     0
281
     0
 65
     1
110
0.0
120
0.0
130
0.0
111
1.0
121
0.0
131
0.0
112
0.0
122
1.0
132
0.0
 79
     0
146
0.0
348
2F
 60
     3
 61
     5
292
     1
282
     1
141
0.0
142
0.0
 63
   250
361
6D
  0
ENDTAB
  0
TABLE
  2
LTYPE
  5
5
330
0
100
AcDbSymbolTable
 70
     3
  0
LTYPE
  5
14
330
5
100
AcDbSymbolTableRecord
100
AcDbLinetypeTableRecord
  2
ByBlock
 70
     0
  3

 72
    65
 73
     0
 40
0.0
  0
LTYPE
  5
15
330
5
100
AcDbSymbolTableRecord
100
AcDbLinetypeTableRecord
  2
ByLayer
 70
     0
  3

 72
    65
 73
     0
 40
0.0
  0
LTYPE
  5
16
330
5
100
AcDbSymbolTableRecord
100
AcDbLinetypeTableRecord
  2
Continuous
 70
     0
  3
Solid line
 72
    65
 73
     0
 40
0.0
  0
LTYPE
  5
B0
330
5
100
AcDbSymbolTableRecord
100
AcDbLinetypeTableRecord
  2
Dashed
 70
     0
  3

 72
    65
 73
     2
 40
2.0
 49
1.0
 74
     0
 49
-1.0
 74
     0
  0
LTYPE
  5
CC
330
5
100
AcDbSymbolTableRecord
100
AcDbLinetypeTableRecord
  2
Center
 70
     0
  3

 72
    65
 73
     4
 40
1.5
 49
0.45
 74
     0
 49
-0.5
 74
     0
 49
0.05
 74
     0
 49
-0.5
 74
     0
  0
ENDTAB
  0
TABLE
  2
LAYER
  5
2
330
0
100
AcDbSymbolTable
 70
     7
  0
LAYER
  5
10
330
2
100
AcDbSymbolTableRecord
100
AcDbLayerTableRecord
  2
0
 70
     0
 62
     7
  6
Continuous
370
    -3
390
F
347
46
348
0
  0
LAYER
  5
72
330
2
100
AcDbSymbolTableRecord
100
AcDbLayerTableRecord
  2
AM_6
 70
     0
 62
    -2
  6
Continuous
370
    35
390
F
347
46
348
0
  0
LAYER
  5
B1
330
2
100
AcDbSymbolTableRecord
100
AcDbLayerTableRecord
  2
AM_9
 70
     0
 62
     6
  6
Dashed
370
    25
390
F
347
46
348
0
  0
LAYER
  5
C9
330
2
100
AcDbSymbolTableRecord
100
AcDbLayerTableRecord
  2
AM_5
 70
     0
 62
     3
  6
Continuous
370
    25
390
F
347
46
348
0
  0
LAYER
  5
CD
330
2
100
AcDbSymbolTableRecord
100
AcDbLayerTableRecord
  2
AM_7
 70
     0
 62
     7
  6
Center
370
    25
390
F
347
46
348
0
  0
LAYER
  5
CF
330
2
100
AcDbSymbolTableRecord
100
AcDbLayerTableRecord
  2
AM_4
 70
     0
 62
     7
  6
Continuous
370
    50
390
F
347
46
348
0
  0
LAYER
  5
223
330
2
100
AcDbSymbolTableRecord
100
AcDbLayerTableRecord
  2
ConnectionPoints
 70
     0
 62
     7
  6
Continuous
370
    50
390
F
347
46
348
0
  0
ENDTAB
  0
TABLE
  2
STYLE
  5
3
330
0
100
AcDbSymbolTable
 70
     1
  0
STYLE
  5
11
330
3
100
AcDbSymbolTableRecord
100
AcDbTextStyleTableRecord
  2
Standard
 70
     0
 40
0.0
 41
1.0
 50
0.0
 71
     0
 42
0.2
  3
txt
  4

  0
ENDTAB
  0
TABLE
  2
VIEW
  5
6
330
0
100
AcDbSymbolTable
 70
     0
  0
ENDTAB
  0
TABLE
  2
UCS
  5
7
330
0
100
AcDbSymbolTable
 70
     0
  0
ENDTAB
  0
TABLE
  2
APPID
  5
9
330
0
100
AcDbSymbolTable
 70
     1
  0
APPID
  5
12
330
9
100
AcDbSymbolTableRecord
100
AcDbRegAppTableRecord
  2
ACAD
 70
     0
  0
ENDTAB
  0
TABLE
  2
DIMSTYLE
  5
A
330
0
100
AcDbSymbolTable
 70
     1
100
AcDbDimStyleTable
  0
DIMSTYLE
105
27
330
A
100
AcDbSymbolTableRecord
100
AcDbDimStyleTableRecord
  2
Standard
 70
     0
178
     0
340
11
  0
ENDTAB
  0
TABLE
  2
BLOCK_RECORD
  5
1
330
0
100
AcDbSymbolTable
 70
     6
  0
BLOCK_RECORD
  5
1F
330
1
100
AcDbSymbolTableRecord
100
AcDbBlockTableRecord
  2
*Model_Space
340
22
 70
     0
280
     1
281
     0
  0
BLOCK_RECORD
  5
1B
330
1
100
AcDbSymbolTableRecord
100
AcDbBlockTableRecord
  2
*Paper_Space
340
1E
 70
     0
280
     1
281
     0
  0
BLOCK_RECORD
  5
23
330
1
100
AcDbSymbolTableRecord
100
AcDbBlockTableRecord
  2
*Paper_Space0
340
26
 70
     0
280
     1
281
     0
  0
BLOCK_RECORD
  5
6E
330
1
100
AcDbSymbolTableRecord
100
AcDbBlockTableRecord
  2
1_023205_2
340
0
102
{BLKREFS
331
6F
102
}
 70
     0
280
     1
281
     0
  0
BLOCK_RECORD
  5
9B
330
1
100
AcDbSymbolTableRecord
100
AcDbBlockTableRecord
  2
2_2_15_16C_0_in_023205_2
340
0
102
{BLKREFS
331
9C
102
}
 70
     0
280
     1
281
     0
  0
BLOCK_RECORD
  5
DD
330
1
100
AcDbSymbolTableRecord
100
AcDbBlockTableRecord
  2
3_405020c_Inch_0_in_023205_2
340
0
102
{BLKREFS
331
DE
102
}
 70
     0
280
     1
281
     0
  0
BLOCK_RECORD
  5
121
330
1
100
AcDbSymbolTableRecord
100
AcDbBlockTableRecord
  2
4_S1U_K_215R_0_in_023205_2
340
0
102
{BLKREFS
331
122
102
}
 70
     0
280
     1
281
     0
  0
BLOCK_RECORD
  5
190
330
1
100
AcDbSymbolTableRecord
100
AcDbBlockTableRecord
  2
5_P2B_K_215RE_0_in_023205_2
340
0
102
{BLKREFS
331
191
102
}
 70
     0
280
     1
281
     0
  0
ENDTAB
  0
ENDSEC
  0
SECTION
  2
BLOCKS
  0
BLOCK
  5
20
330
1F
100
AcDbEntity
  8
0
100
AcDbBlockBegin
  2
*Model_Space
 70
     0
 10
0.0
 20
0.0
 30
0.0
  3
*Model_Space
  1

  0
ENDBLK
  5
21
330
1F
100
AcDbEntity
  8
0
100
AcDbBlockEnd
  0
BLOCK
  5
1C
330
1B
100
AcDbEntity
 67
     1
  8
0
100
AcDbBlockBegin
  2
*Paper_Space
 70
     0
 10
0.0
 20
0.0
 30
0.0
  3
*Paper_Space
  1

  0
ENDBLK
  5
1D
330
1B
100
AcDbEntity
 67
     1
  8
0
100
AcDbBlockEnd
  0
BLOCK
  5
24
330
23
100
AcDbEntity
  8
0
100
AcDbBlockBegin
  2
*Paper_Space0
 70
     0
 10
0.0
 20
0.0
 30
0.0
  3
*Paper_Space0
  1

  0
ENDBLK
  5
25
330
23
100
AcDbEntity
  8
0
100
AcDbBlockEnd
  0
BLOCK
  5
70
330
6E
100
AcDbEntity
  8
0
100
AcDbBlockBegin
  2
1_023205_2
 70
     2
 10
0.0
 20
0.0
 30
0.0
  3
1_023205_2
  1

  0
ATTDEF
  5
73
330
6E
100
AcDbEntity
  8
AM_6
100
AcDbText
 10
6.921875
 20
5.993999862670899
 30
0.0
 40
0.5
  1
Type K Pillow Block 2&4-Bolt Base Expansion Inch Bore
100
AcDbAttributeDefinition
  3

  2
NN
 70
     8
280
     0
  0
ATTDEF
  5
74
330
6E
100
AcDbEntity
  8
AM_6
100
AcDbText
 10
6.921875
 20
5.493999862670899
 30
0.0
 40
0.5
  1
Type K
100
AcDbAttributeDefinition
  3

  2
NT
 70
     8
280
     0
  0
ATTDEF
  5
75
330
6E
100
AcDbEntity
  8
AM_6
100
AcDbText
 10
6.921875
 20
4.993999862670899
 30
0.0
 40
0.5
  1
023205
100
AcDbAttributeDefinition
  3

  2
NB
 70
     8
280
     0
  0
ATTDEF
  5
76
330
6E
100
AcDbEntity
  8
AM_6
100
AcDbText
 10
6.921875
 20
4.493999862670899
 30
0.0
 40
0.5
  1
$PN.
100
AcDbAttributeDefinition
  3

  2
NBSYN
 70
     8
280
     0
  0
ATTDEF
  5
77
330
6E
100
AcDbEntity
  8
AM_6
100
AcDbText
 10
6.921875
 20
3.993999862670899
 30
0.0
 40
0.5
  1
023205
100
AcDbAttributeDefinition
  3

  2
LINA
 70
     8
280
     0
  0
ATTDEF
  5
78
330
6E
100
AcDbEntity
  8
AM_6
100
AcDbText
 10
6.921875
 20
3.493999862670899
 30
0.0
 40
0.5
  1
2-15/16
100
AcDbAttributeDefinition
  3

  2
SS
 70
     8
280
     0
  0
ATTDEF
  5
79
330
6E
100
AcDbEntity
  8
AM_6
100
AcDbText
 10
6.921875
 20
2.993999862670899
 30
0.0
 40
0.5
  1
023205
100
AcDbAttributeDefinition
  3

  2
PN
 70
     8
280
     0
  0
ATTDEF
  5
7A
330
6E
100
AcDbEntity
  8
AM_6
100
AcDbText
 10
6.921875
 20
2.493999862670899
 30
0.0
 40
0.5
  1
P2B-K-215RE
100
AcDbAttributeDefinition
  3

  2
PNA
 70
     8
280
     0
  0
ATTDEF
  5
7B
330
6E
100
AcDbEntity
  8
AM_6
100
AcDbText
 10
6.921875
 20
1.993999862670899
 30
0.0
 40
0.5
  1
39
100
AcDbAttributeDefinition
  3

  2
WEIGHT
 70
     8
280
     0
  0
ATTDEF
  5
7C
330
6E
100
AcDbEntity
  8
AM_6
100
AcDbText
 10
6.921875
 20
1.493999862670899
 30
0.0
 40
0.5
  1
3.78
100
AcDbAttributeDefinition
  3

  2
A
 70
     8
280
     0
  0
ATTDEF
  5
7D
330
6E
100
AcDbEntity
  8
AM_6
100
AcDbText
 10
6.921875
 20
0.9939998626708988
 30
0.0
 40
0.5
  1
13.44
100
AcDbAttributeDefinition
  3

  2
B
 70
     8
280
     0
  0
ATTDEF
  5
7E
330
6E
100
AcDbEntity
  8
AM_6
100
AcDbText
 10
6.921875
 20
0.4939998626708988
 30
0.0
 40
0.5
  1
2.94
100
AcDbAttributeDefinition
  3

  2
C
 70
     8
280
     0
  0
ATTDEF
  5
7F
330
6E
100
AcDbEntity
  8
AM_6
100
AcDbText
 10
6.921875
 20
-0.0060001373291012
 30
0.0
 40
0.5
  1
9.88
100
AcDbAttributeDefinition
  3

  2
DMIN
 70
     8
280
     0
  0
ATTDEF
  5
80
330
6E
100
AcDbEntity
  8
AM_6
100
AcDbText
 10
6.921875
 20
-0.5060001373291012
 30
0.0
 40
0.5
  1
11.50
100
AcDbAttributeDefinition
  3

  2
DMAX
 70
     8
280
     0
  0
ATTDEF
  5
81
330
6E
100
AcDbEntity
  8
AM_6
100
AcDbText
 10
6.921875
 20
-1.006000137329101
 30
0.0
 40
0.5
  1
N/A
100
AcDbAttributeDefinition
  3

  2
E
 70
     8
280
     0
  0
ATTDEF
  5
82
330
6E
100
AcDbEntity
  8
AM_6
100
AcDbText
 10
6.921875
 20
-1.506000137329101
 30
0.0
 40
0.5
  1
3/4
100
AcDbAttributeDefinition
  3

  2
F
 70
     8
280
     0
  0
ATTDEF
  5
83
330
6E
100
AcDbEntity
  8
AM_6
100
AcDbText
 10
6.921875
 20
-2.006000137329101
 30
0.0
 40
0.5
  1
1.69
100
AcDbAttributeDefinition
  3

  2
G
 70
     8
280
     0
  0
ATTDEF
  5
84
330
6E
100
AcDbEntity
  8
AM_6
100
AcDbText
 10
6.921875
 20
-2.506000137329101
 30
0.0
 40
0.5
  1
2.00
100
AcDbAttributeDefinition
  3

  2
H
 70
     8
280
     0
  0
ATTDEF
  5
85
330
6E
100
AcDbEntity
  8
AM_6
100
AcDbText
 10
6.921875
 20
-3.006000137329101
 30
0.0
 40
0.5
  1
7.92
100
AcDbAttributeDefinition
  3

  2
J
 70
     8
280
     0
  0
ATTDEF
  5
86
330
6E
100
AcDbEntity
  8
AM_6
100
AcDbText
 10
6.921875
 20
-3.506000137329101
 30
0.0
 40
0.5
  1
4.72
100
AcDbAttributeDefinition
  3

  2
L
 70
     8
280
     0
  0
ATTDEF
  5
87
330
6E
100
AcDbEntity
  8
AM_6
100
AcDbText
 10
6.921875
 20
-4.006000137329101
 30
0.0
 40
0.5
  1
3.75
100
AcDbAttributeDefinition
  3

  2
M
 70
     8
280
     0
  0
ATTDEF
  5
88
330
6E
100
AcDbEntity
  8
AM_6
100
AcDbText
 10
6.921875
 20
-4.506000137329101
 30
0.0
 40
0.5
  1
8.31
100
AcDbAttributeDefinition
  3

  2
P
 70
     8
280
     0
  0
ATTDEF
  5
89
330
6E
100
AcDbEntity
  8
AM_6
100
AcDbText
 10
6.921875
 20
-5.006000137329101
 30
0.0
 40
0.5
  1
1.44
100
AcDbAttributeDefinition
  3

  2
R
 70
     8
280
     0
  0
ATTDEF
  5
8A
330
6E
100
AcDbEntity
  8
AM_6
100
AcDbText
 10
6.921875
 20
-5.506000137329101
 30
0.0
 40
0.5
  1
2.25
100
AcDbAttributeDefinition
  3

  2
S
 70
     8
280
     0
  0
ATTDEF
  5
8B
330
6E
100
AcDbEntity
  8
AM_6
100
AcDbText
 10
6.921875
 20
-6.006000137329101
 30
0.0
 40
0.5
  1
.28
100
AcDbAttributeDefinition
  3

  2
T
 70
     8
280
     0
  0
ATTDEF
  5
8C
330
6E
100
AcDbEntity
  8
AM_6
100
AcDbText
 10
6.921875
 20
-6.506000137329101
 30
0.0
 40
0.5
  1
61200
100
AcDbAttributeDefinition
  3

  2
CS
 70
     8
280
     0
  0
ATTDEF
  5
8D
330
6E
100
AcDbEntity
  8
AM_6
100
AcDbText
 10
6.921875
 20
-7.006000137329101
 30
0.0
 40
0.5
  1
9600
100
AcDbAttributeDefinition
  3

  2
CD
 70
     8
280
     0
  0
ATTDEF
  5
8E
330
6E
100
AcDbEntity
  8
AM_6
100
AcDbText
 10
6.921875
 20
-7.506000137329101
 30
0.0
 40
0.5
  1
24
100
AcDbAttributeDefinition
  3

  2
RN
 70
     8
280
     0
  0
ATTDEF
  5
8F
330
6E
100
AcDbEntity
  8
AM_6
100
AcDbText
 10
6.921875
 20
-8.006000137329101
 30
0.0
 40
0.5
  1
.41
100
AcDbAttributeDefinition
  3

  2
RM
 70
     8
280
     0
  0
ATTDEF
  5
90
330
6E
100
AcDbEntity
  8
AM_6
100
AcDbText
 10
6.921875
 20
-8.506000137329101
 30
0.0
 40
0.5
  1
3.900
100
AcDbAttributeDefinition
  3

  2
PDI
 70
     8
280
     0
  0
ATTDEF
  5
91
330
6E
100
AcDbEntity
  8
AM_6
100
AcDbText
 10
6.921875
 20
-9.006000137329101
 30
0.0
 40
0.5
  1
.004-.012
100
AcDbAttributeDefinition
  3

  2
EP
 70
     8
280
     0
  0
ATTDEF
  5
92
330
6E
100
AcDbEntity
  8
AM_6
100
AcDbText
 10
6.921875
 20
-9.506000137329101
 30
0.0
 40
0.5
  1
1/2-13*7/8
100
AcDbAttributeDefinition
  3

  2
SC
 70
     8
280
     0
  0
ATTDEF
  5
93
330
6E
100
AcDbEntity
  8
AM_6
100
AcDbText
 10
6.921875
 20
-10.0060001373291
 30
0.0
 40
0.5
  1
620
100
AcDbAttributeDefinition
  3

  2
TC
 70
     8
280
     0
  0
ATTDEF
  5
94
330
6E
100
AcDbEntity
  8
AM_6
100
AcDbText
 10
6.921875
 20
-10.5060001373291
 30
0.0
 40
0.5
  1
C.I. ASTM A48 CLASS 30
100
AcDbAttributeDefinition
  3

  2
MH
 70
     8
280
     0
  0
ATTDEF
  5
95
330
6E
100
AcDbEntity
  8
AM_6
100
AcDbText
 10
6.921875
 20
-11.0060001373291
 30
0.0
 40
0.5
  1
4118 CASE CARB.
100
AcDbAttributeDefinition
  3

  2
MC
 70
     8
280
     0
  0
ATTDEF
  5
96
330
6E
100
AcDbEntity
  8
AM_6
100
AcDbText
 10
6.921875
 20
-11.5060001373291
 30
0.0
 40
0.5
  1
4118 CASE CARB.
100
AcDbAttributeDefinition
  3

  2
MCU
 70
     8
280
     0
  0
ATTDEF
  5
97
330
6E
100
AcDbEntity
  8
AM_6
100
AcDbText
 10
6.921875
 20
-12.0060001373291
 30
0.0
 40
0.5
  1
STEEL
100
AcDbAttributeDefinition
  3

  2
MR
 70
     8
280
     0
  0
ATTDEF
  5
98
330
6E
100
AcDbEntity
  8
AM_6
100
AcDbText
 10
6.921875
 20
-12.5060001373291
 30
0.0
 40
0.5
  1
4118 CASE CARB.
100
AcDbAttributeDefinition
  3

  2
MRO
 70
     8
280
     0
  0
ATTDEF
  5
99
330
6E
100
AcDbEntity
  8
AM_6
100
AcDbText
 10
6.921875
 20
-13.0060001373291
 30
0.0
 40
0.5
  1
4.80*
100
AcDbAttributeDefinition
  3

  2
SM
 70
     8
280
     0
  0
ATTDEF
  5
9A
330
6E
100
AcDbEntity
  8
AM_6
100
AcDbText
 10
6.921875
 20
-13.5060001373291
 30
0.0
 40
0.5
  1
baldor
100
AcDbAttributeDefinition
  3

  2
COMPANY
 70
     8
280
     0
  0
INSERT
  5
9C
330
6E
100
AcDbEntity
  8
0
100
AcDbBlockReference
  2
2_2_15_16C_0_in_023205_2
 10
0.0
 20
0.0
 30
0.0
  0
INSERT
  5
DE
330
6E
100
AcDbEntity
  8
0
100
AcDbBlockReference
  2
3_405020c_Inch_0_in_023205_2
 10
0.0
 20
0.0
 30
0.0
  0
INSERT
  5
122
330
6E
100
AcDbEntity
  8
0
100
AcDbBlockReference
  2
4_S1U_K_215R_0_in_023205_2
 10
0.0
 20
0.0
 30
0.0
  0
INSERT
  5
191
330
6E
100
AcDbEntity
  8
0
100
AcDbBlockReference
  2
5_P2B_K_215RE_0_in_023205_2
 10
0.0
 20
0.0
 30
0.0
  0
ENDBLK
  5
71
330
6E
100
AcDbEntity
  8
0
100
AcDbBlockEnd
  0
BLOCK
  5
9D
330
9B
100
AcDbEntity
  8
0
100
AcDbBlockBegin
  2
2_2_15_16C_0_in_023205_2
 70
     2
 10
0.0
 20
0.0
 30
0.0
  3
2_2_15_16C_0_in_023205_2
  1

  0
ATTDEF
  5
9F
330
9B
100
AcDbEntity
  8
AM_6
100
AcDbText
 10
3.63
 20
2.392260416666667
 30
0.0
 40
0.5
  1
E-Type Collar -Inch
100
AcDbAttributeDefinition
  3

  2
NN
 70
     8
280
     0
  0
ATTDEF
  5
A0
330
9B
100
AcDbEntity
  8
AM_6
100
AcDbText
 10
3.63
 20
1.892260416666667
 30
0.0
 40
0.5
  1
E-Type Bearings
100
AcDbAttributeDefinition
  3

  2
NT
 70
     8
280
     0
  0
ATTDEF
  5
A1
330
9B
100
AcDbEntity
  8
AM_6
100
AcDbText
 10
3.63
 20
1.392260416666667
 30
0.0
 40
0.5
  1
2-15/16C
100
AcDbAttributeDefinition
  3

  2
NB
 70
     8
280
     0
  0
ATTDEF
  5
A2
330
9B
100
AcDbEntity
  8
AM_6
100
AcDbText
 10
3.63
 20
0.8922604166666668
 30
0.0
 40
0.5
  1
$BORE.C
100
AcDbAttributeDefinition
  3

  2
NBSYN
 70
     8
280
     0
  0
ATTDEF
  5
A3
330
9B
100
AcDbEntity
  8
AM_6
100
AcDbText
 10
3.63
 20
0.3922604166666668
 30
0.0
 40
0.5
  1
2-15/16C
100
AcDbAttributeDefinition
  3

  2
LINA
 70
     8
280
     0
  0
ATTDEF
  5
A4
330
9B
100
AcDbEntity
  8
AM_6
100
AcDbText
 10
3.63
 20
-0.1077395833333332
 30
0.0
 40
0.5
  1
2-15/16
100
AcDbAttributeDefinition
  3

  2
BORE
 70
     8
280
     0
  0
ATTDEF
  5
A5
330
9B
100
AcDbEntity
  8
AM_6
100
AcDbText
 10
3.63
 20
-0.6077395833333332
 30
0.0
 40
0.5
  1
4.71875
100
AcDbAttributeDefinition
  3

  2
L
 70
     8
280
     0
  0
ATTDEF
  5
A6
330
9B
100
AcDbEntity
  8
AM_6
100
AcDbText
 10
3.63
 20
-1.107739583333333
 30
0.0
 40
0.5
  1
4.50
100
AcDbAttributeDefinition
  3

  2
A
 70
     8
280
     0
  0
ATTDEF
  5
A7
330
9B
100
AcDbEntity
  8
AM_6
100
AcDbText
 10
3.63
 20
-1.607739583333333
 30
0.0
 40
0.5
  1
1.94
100
AcDbAttributeDefinition
  3

  2
B
 70
     8
280
     0
  0
ATTDEF
  5
A8
330
9B
100
AcDbEntity
  8
AM_6
100
AcDbText
 10
3.63
 20
-2.107739583333333
 30
0.0
 40
0.5
  1
3.47
100
AcDbAttributeDefinition
  3

  2
C
 70
     8
280
     0
  0
ATTDEF
  5
A9
330
9B
100
AcDbEntity
  8
AM_6
100
AcDbText
 10
3.63
 20
-2.607739583333333
 30
0.0
 40
0.5
  1
4.78
100
AcDbAttributeDefinition
  3

  2
D
 70
     8
280
     0
  0
ATTDEF
  5
AA
330
9B
100
AcDbEntity
  8
AM_6
100
AcDbText
 10
3.63
 20
-3.107739583333333
 30
0.0
 40
0.5
  1
0.54
100
AcDbAttributeDefinition
  3

  2
E
 70
     8
280
     0
  0
ATTDEF
  5
AB
330
9B
100
AcDbEntity
  8
AM_6
100
AcDbText
 10
3.63
 20
-3.607739583333333
 30
0.0
 40
0.5
  1
0.44
100
AcDbAttributeDefinition
  3

  2
F
 70
     8
280
     0
  0
ATTDEF
  5
AC
330
9B
100
AcDbEntity
  8
AM_6
100
AcDbText
 10
3.63
 20
-4.107739583333333
 30
0.0
 40
0.5
  1
1/2-13
100
AcDbAttributeDefinition
  3

  2
CS
 70
     8
280
     0
  0
ATTDEF
  5
AD
330
9B
100
AcDbEntity
  8
AM_6
100
AcDbText
 10
3.63
 20
-4.607739583333333
 30
0.0
 40
0.5
  1
0.5000
100
AcDbAttributeDefinition
  3

  2
NDM
 70
     8
280
     0
  0
ATTDEF
  5
AE
330
9B
100
AcDbEntity
  8
AM_6
100
AcDbText
 10
3.63
 20
-5.107739583333333
 30
0.0
 40
0.5
  1
0.4170
100
AcDbAttributeDefinition
  3

  2
KDM
 70
     8
280
     0
  0
ATTDEF
  5
AF
330
9B
100
AcDbEntity
  8
AM_6
100
AcDbText
 10
3.63
 20
-5.607739583333333
 30
0.0
 40
0.5
  1
baldor
100
AcDbAttributeDefinition
  3

  2
COMPANY
 70
     8
280
     0
  0
LINE
  5
B2
330
9B
100
AcDbEntity
  8
AM_9
100
AcDbLine
 10
-1.60165
 20
1.743316666666667
 30
0.0
 11
-1.60165
 21
2.317725
 31
0.0
  0
LINE
  5
B3
330
9B
100
AcDbEntity
  8
AM_9
100
AcDbLine
 10
-2.01835
 20
2.317725
 30
0.0
 11
-2.01835
 21
1.743316666666667
 31
0.0
  0
LINE
  5
B4
330
9B
100
AcDbEntity
  8
AM_9
100
AcDbLine
 10
-2.01835
 20
1.743316666666667
 30
0.0
 11
-1.60165
 21
1.743316666666667
 31
0.0
  0
LINE
  5
B5
330
9B
100
AcDbEntity
  8
AM_9
100
AcDbLine
 10
-2.01835
 20
1.743316666666667
 30
0.0
 11
-2.026383499926558
 21
1.735283166740109
 31
0.0
  0
LINE
  5
B6
330
9B
100
AcDbEntity
  8
AM_9
100
AcDbLine
 10
-1.59367834970831
 20
1.735345016374976
 30
0.0
 11
-1.60165
 21
1.743316666666667
 31
0.0
  0
LINE
  5
B7
330
9B
100
AcDbEntity
  8
AM_9
100
AcDbLine
 10
-2.01835
 20
2.317725
 30
0.0
 11
-1.60165
 21
2.317725
 31
0.0
  0
LINE
  5
B8
330
9B
100
AcDbEntity
  8
AM_9
100
AcDbLine
 10
-1.60165
 20
2.317725
 30
0.0
 11
-1.56
 21
2.359375
 31
0.0
  0
LINE
  5
B9
330
9B
100
AcDbEntity
  8
AM_9
100
AcDbLine
 10
-2.06
 20
2.359375
 30
0.0
 11
-2.01835
 21
2.317725
 31
0.0
  0
LWPOLYLINE
  5
BA
330
9B
100
AcDbEntity
  8
AM_9
100
AcDbPolyline
 90
        5
 70
     0
 43
0.0
 10
-1.747177740596112
 20
0.5257724155579271
 10
-1.717762826461814
 20
0.5374759647080078
 10
-1.688992724445749
 20
0.5542453298024037
 10
-1.668167613816591
 20
0.5705464301926317
 10
-1.649555668756485
 20
0.5890254700626291
  0
LWPOLYLINE
  5
BB
330
9B
100
AcDbEntity
  8
AM_9
100
AcDbPolyline
 90
       25
 70
     0
 43
0.0
 10
-1.748676906904993
 20
0.9290424844895616
 10
-1.756437628082113
 20
0.9310007182481714
 10
-1.791318106206522
 20
0.9364023306210565
 10
-1.826778266969307
 20
0.9365686464404278
 10
-1.860006309297697
 20
0.9317852251762043
 10
-1.89185500592187
 20
0.9224310735818785
 10
-1.921822817727664
 20
0.9085724076092766
 10
-1.948868925596456
 20
0.8907712261375355
 10
-1.973714244414009
 20
0.8680718266968884
 10
-1.994175428933712
 20
0.8420767489012024
 10
-2.010743085542843
 20
0.811286905893542
 10
-2.02156688754621
 20
0.778219582931986
 10
-2.026455950329134
 20
0.7420183810332149
 10
-2.024738766420171
 20
0.7051854586134623
 10
-2.016166359535574
 20
0.6681214688356935
 10
-2.000972840272981
 20
0.632567701221001
 10
-1.97960814663297
 20
0.5999750677882284
 10
-1.95252598454245
 20
0.5711544343957885
 10
-1.921709367588373
 20
0.5482001815905636
 10
-1.887052376945246
 20
0.5307967420929401
 10
-1.852306650676082
 20
0.5204789177352669
 10
-1.816196659427123
 20
0.5162103991709229
 10
-1.782182542507812
 20
0.5180049648621396
 10
-1.748963263442655
 20
0.5252208835120284
 10
-1.747177740596112
 20
0.5257724155579271
  0
LWPOLYLINE
  5
BC
330
9B
100
AcDbEntity
  8
AM_9
100
AcDbPolyline
 90
       13
 70
     0
 43
0.0
 10
-1.649555668756485
 20
0.5890254700626291
 10
-1.630059625999035
 20
0.6141961062210209
 10
-1.614490675361804
 20
0.6415065184640424
 10
-1.601404494522102
 20
0.6760599527747658
 10
-1.594461797028247
 20
0.7117782647958293
 10
-1.593960288434045
 20
0.7488859425485209
 10
-1.60017042818074
 20
0.7851620103667684
 10
-1.613187605814695
 20
0.8198680908671213
 10
-1.632629757231117
 20
0.85175045400154
 10
-1.657641421991179
 20
0.879352269910662
 10
-1.68785489446845
 20
0.9024724552481161
 10
-1.720626323758072
 20
0.9194273976470249
 10
-1.748676906904993
 20
0.9290424844895616
  0
LINE
  5
BD
330
9B
100
AcDbEntity
  8
AM_9
100
AcDbLine
 10
-2.25
 20
-1.735
 30
0.0
 11
-1.37
 21
-1.735
 31
0.0
  0
LINE
  5
BE
330
9B
100
AcDbEntity
  8
AM_9
100
AcDbLine
 10
-1.37
 20
1.735
 30
0.0
 11
-1.594138124101324
 21
1.735
 31
0.0
  0
LINE
  5
BF
330
9B
100
AcDbEntity
  8
AM_9
100
AcDbLine
 10
-2.026005839839122
 20
1.735
 30
0.0
 11
-2.25
 21
1.735
 31
0.0
  0
LWPOLYLINE
  5
C0
330
9B
100
AcDbEntity
  8
AM_9
100
AcDbPolyline
 90
       10
 70
     0
 43
0.0
 10
-1.747418249458284
 20
1.720695765803913
 10
-1.732295213212401
 20
1.721407489605135
 10
-1.702422082354892
 20
1.723261129001908
 10
-1.674654236130354
 20
1.725513960970386
 10
-1.64965509630899
 20
1.727974975329969
 10
-1.628388550425192
 20
1.730388278227267
 10
-1.611321425731918
 20
1.732535648310732
 10
-1.599573200158219
 20
1.734121883030203
 10
-1.593831299756221
 20
1.7349290183679
 10
-1.59333333333354
 20
1.734999999999971
  0
LWPOLYLINE
  5
C1
330
9B
100
AcDbEntity
  8
AM_9
100
AcDbPolyline
 90
       13
 70
     0
 43
0.0
 10
-2.026666666666196
 20
1.734999999999933
 10
-2.026411114352762
 20
1.734963553231908
 10
-2.021067220647529
 20
1.73421087214332
 10
-2.009189965200795
 20
1.732602866727684
 10
-1.990340734915682
 20
1.730235875674304
 10
-1.966484769650646
 20
1.72756835787447
 10
-1.936410334238764
 20
1.724733588278365
 10
-1.904571293770885
 20
1.722381168611359
 10
-1.8683464517832
 20
1.720523846078998
 10
-1.834026229611861
 20
1.719574172208164
 10
-1.797831398016388
 20
1.719429892626525
 10
-1.764888599907363
 20
1.720064026576171
 10
-1.747418249458284
 20
1.720695765803913
  0
ELLIPSE
  5
C2
330
9B
100
AcDbEntity
  8
AM_9
100
AcDbEllipse
 10
-1.810000000000002
 20
0.7367574593302579
 30
0.0
 11
0.2083499999999976
 21
3.104656934738124E-9
 31
0.0
210
0.0
220
0.0
230
1.0
 40
0.9063077870366498
 41
2.443456527349722
 42
6.283187037607677
  0
LINE
  5
C3
330
9B
100
AcDbEntity
  8
AM_9
100
AcDbLine
 10
-1.60165
 20
0.7367574593302569
 30
0.0
 11
-1.60165
 21
0.9795129106929624
 31
0.0
  0
LINE
  5
C4
330
9B
100
AcDbEntity
  8
AM_9
100
AcDbLine
 10
-2.01835
 20
0.9795129106929624
 30
0.0
 11
-2.01835
 21
0.7367574593302569
 31
0.0
  0
ELLIPSE
  5
C5
330
9B
100
AcDbEntity
  8
AM_9
100
AcDbEllipse
 10
-1.809999999999999
 20
0.736757459330257
 30
0.0
 11
0.2083499999999991
 21
0.0
 31
0.0
210
0.0
220
0.0
230
1.0
 40
0.90630778703665
 41
0.0
 42
0.6981361110117928
  0
LINE
  5
C6
330
9B
100
AcDbEntity
  8
AM_9
100
AcDbLine
 10
-1.5
 20
-2.359375
 30
0.0
 11
-1.37
 21
-2.359375
 31
0.0
  0
LINE
  5
C7
330
9B
100
AcDbEntity
  8
AM_9
100
AcDbLine
 10
-1.37
 20
2.359375
 30
0.0
 11
-1.5
 21
2.359375
 31
0.0
  0
LINE
  5
C8
330
9B
100
AcDbEntity
  8
AM_9
100
AcDbLine
 10
-1.37
 20
2.359375
 30
0.0
 11
-1.37
 21
-2.359375
 31
0.0
  0
LINE
  5
CA
330
9B
100
AcDbEntity
  8
AM_5
100
AcDbLine
 10
-2.06
 20
1.735
 30
0.0
 11
-2.06
 21
1.701666666666667
 31
0.0
  0
LINE
  5
CB
330
9B
100
AcDbEntity
  8
AM_5
100
AcDbLine
 10
-1.56
 20
2.359375
 30
0.0
 11
-1.56
 21
1.735
 31
0.0
  0
LINE
  5
CE
330
9B
100
AcDbEntity
  8
AM_7
100
AcDbLine
 10
-1.81
 20
2.392260416666667
 30
0.0
 11
-1.81
 21
1.66878125
 31
0.0
  0
ELLIPSE
  5
D0
330
9B
100
AcDbEntity
  8
AM_4
100
AcDbEllipse
 10
-1.81
 20
0.7367574593302575
 30
0.0
 11
0.2083499999999996
 21
0.0
 31
0.0
210
0.0
220
0.0
230
1.0
 40
0.906307787036649
 41
1.570796326794897
 42
2.443456542578003
  0
ELLIPSE
  5
D1
330
9B
100
AcDbEntity
  8
AM_4
100
AcDbEllipse
 10
-1.81
 20
0.9795129106929624
 30
0.0
 11
0.20835
 21
0.0
 31
0.0
210
0.0
220
0.0
230
1.0
 40
0.9063077870366498
 41
3.141592653589793
 42
6.283185307179586
  0
ELLIPSE
  5
D2
330
9B
100
AcDbEntity
  8
AM_4
100
AcDbEllipse
 10
-1.81
 20
0.9795129106929625
 30
0.0
 11
0.20835
 21
0.0
 31
0.0
210
0.0
220
0.0
230
1.0
 40
0.9063077870366492
 41
0.0
 42
3.141592653589793
  0
ELLIPSE
  5
D3
330
9B
100
AcDbEntity
  8
AM_4
100
AcDbEllipse
 10
-1.81
 20
0.7367574593302575
 30
0.0
 11
0.2083499999999996
 21
0.0
 31
0.0
210
0.0
220
0.0
230
1.0
 40
0.906307787036649
 41
0.6981361110117899
 42
1.570796326794897
  0
LINE
  5
D4
330
9B
100
AcDbEntity
  8
AM_4
100
AcDbLine
 10
-2.25
 20
2.212708333333333
 30
0.0
 11
-2.25
 21
-2.212708333333333
 31
0.0
  0
ARC
  5
D5
330
9B
100
AcDbEntity
  8
AM_4
100
AcDbCircle
 10
-2.103333333333333
 20
-2.212708333333333
 30
0.0
 40
0.1466666666666669
100
AcDbArc
 50
180.0
 51
270.0
  0
ARC
  5
D6
330
9B
100
AcDbEntity
  8
AM_4
100
AcDbCircle
 10
-2.103333333333333
 20
2.212708333333333
 30
0.0
 40
0.1466666666666674
100
AcDbArc
 50
90.0
 51
180.0
  0
LWPOLYLINE
  5
D7
330
9B
100
AcDbEntity
  8
AM_4
100
AcDbPolyline
 90
       39
 70
     0
 43
0.0
 10
-1.619285365243439
 20
0.8556327230851023
 10
-1.645402722853204
 20
0.8319978546552359
 10
-1.674930600228178
 20
0.8120887096414533
 10
-1.712108774653523
 20
0.7944148519389849
 10
-1.751831614328399
 20
0.7825650159382259
 10
-1.79456404648549
 20
0.7768118464194397
 10
-1.837718466308976
 20
0.777752811058333
 10
-1.880797789163622
 20
0.7856384364243614
 10
-1.92185689160515
 20
0.8002116877431518
 10
-1.959393492189768
 20
0.8210175879704965
 10
-1.99254717544095
 20
0.8474712925964307
 10
-2.019343903191148
 20
0.8778414006266254
 10
-2.040007460099333
 20
0.9119003483436747
 10
-2.053122732471662
 20
0.9467604126244724
 10
-2.059458491903518
 20
0.9829201152517155
 10
-2.058826544248452
 20
1.017684204968099
 10
-2.051773801286873
 20
1.051604492999284
 10
-2.038633429695194
 20
1.083405041817086
 10
-2.01990401441403
 20
1.112683192664022
 10
-1.995387412921692
 20
1.139418418871424
 10
-1.96634609979954
 20
1.162249125616388
 10
-1.93190128760042
 20
1.181473742283764
 10
-1.894355779474501
 20
1.195611589965185
 10
-1.852922522691474
 20
1.204626370398941
 10
-1.810335157342085
 20
1.207702717556654
 10
-1.766728038421501
 20
1.204574167944354
 10
-1.724340608412546
 20
1.195222351923879
 10
-1.684388346186649
 20
1.179716108074031
 10
-1.648096106934724
 20
1.158432437544275
 10
-1.617376195886267
 20
1.132409697208659
 10
-1.592328862213463
 20
1.101882776657778
 10
-1.574673442383182
 20
1.069193830356992
 10
-1.563719650834173
 20
1.033993748365556
 10
-1.560038125304694
 20
0.9991012288579005
 10
-1.56296951277289
 20
0.9638860810333546
 10
-1.572215035880981
 20
0.9301675331894284
 10
-1.587344822729625
 20
0.8980713951308601
 10
-1.601979114065063
 20
0.8760276219872477
 10
-1.619285365177164
 20
0.8556327229866553
  0
LINE
  5
D8
330
9B
100
AcDbEntity
  8
AM_4
100
AcDbLine
 10
-2.103333333333333
 20
-2.359375
 30
0.0
 11
-1.5
 21
-2.359375
 31
0.0
  0
LINE
  5
D9
330
9B
100
AcDbEntity
  8
AM_4
100
AcDbLine
 10
-1.5
 20
2.359375
 30
0.0
 11
-1.56
 21
2.359375
 31
0.0
  0
LINE
  5
DA
330
9B
100
AcDbEntity
  8
AM_4
100
AcDbLine
 10
-2.06
 20
2.359375
 30
0.0
 11
-2.103333333333333
 21
2.359375
 31
0.0
  0
LINE
  5
DB
330
9B
100
AcDbEntity
  8
AM_4
100
AcDbLine
 10
-2.103333333333333
 20
2.359375
 30
0.0
 11
-2.103333333333333
 21
-2.359375
 31
0.0
  0
LWPOLYLINE
  5
DC
330
9B
100
AcDbEntity
  8
AM_4
100
AcDbPolyline
 90
       20
 70
     0
 43
0.0
 10
-1.560000000000038
 20
2.359374999999996
 10
-1.56304783600187
 20
2.359084739458873
 10
-1.572179289720224
 20
2.358236048300077
 10
-1.587572465257049
 20
2.35687660944692
 10
-1.608288276301587
 20
2.355188665856818
 10
-1.634542345156681
 20
2.353283729386875
 10
-1.665630273573559
 20
2.351368178351641
 10
-1.701214275261731
 20
2.349630216729071
 10
-1.740324688946399
 20
2.348282025785208
 10
-1.782369947754167
 20
2.347491113295463
 10
-1.825285198617749
 20
2.347388660866131
 10
-1.868982517114074
 20
2.348016128508163
 10
-1.910139280342119
 20
2.349281417176336
 10
-1.949567829201778
 20
2.351105280705856
 10
-1.98325880122131
 20
2.353136104588019
 10
-2.012785918076061
 20
2.355272190414748
 10
-2.034535294416357
 20
2.35705746351865
 10
-2.050329177094185
 20
2.358466058397719
 10
-2.058318007781718
 20
2.359214383260974
 10
-2.059999999999881
 20
2.359374999999988
  0
ENDBLK
  5
9E
330
9B
100
AcDbEntity
  8
0
100
AcDbBlockEnd
  0
BLOCK
  5
DF
330
DD
100
AcDbEntity
  8
0
100
AcDbBlockBegin
  2
3_405020c_Inch_0_in_023205_2
 70
     2
 10
0.0
 20
0.0
 30
0.0
  3
3_405020c_Inch_0_in_023205_2
  1

  0
ATTDEF
  5
E1
330
DD
100
AcDbEntity
  8
AM_6
100
AcDbText
 10
5.162408630723042
 20
4.16925
 30
0.0
 40
0.5
  1
405020C -Inch
100
AcDbAttributeDefinition
  3

  2
NN
 70
     8
280
     0
  0
ATTDEF
  5
E2
330
DD
100
AcDbEntity
  8
AM_6
100
AcDbText
 10
5.162408630723042
 20
3.66925
 30
0.0
 40
0.5
  1
Grease fitting
100
AcDbAttributeDefinition
  3

  2
NT
 70
     8
280
     0
  0
ATTDEF
  5
E3
330
DD
100
AcDbEntity
  8
AM_6
100
AcDbText
 10
5.162408630723042
 20
3.16925
 30
0.0
 40
0.5
  1
405020c-Inch
100
AcDbAttributeDefinition
  3

  2
NB
 70
     8
280
     0
  0
ATTDEF
  5
E4
330
DD
100
AcDbEntity
  8
AM_6
100
AcDbText
 10
5.162408630723042
 20
2.66925
 30
0.0
 40
0.5
  1
$MN.-Inch
100
AcDbAttributeDefinition
  3

  2
NBSYN
 70
     8
280
     0
  0
ATTDEF
  5
E5
330
DD
100
AcDbEntity
  8
AM_6
100
AcDbText
 10
5.162408630723042
 20
2.16925
 30
0.0
 40
0.5
  1
405020c
100
AcDbAttributeDefinition
  3

  2
LINA
 70
     8
280
     0
  0
ATTDEF
  5
E6
330
DD
100
AcDbEntity
  8
AM_6
100
AcDbText
 10
5.162408630723042
 20
1.66925
 30
0.0
 40
0.5
  1
405020c
100
AcDbAttributeDefinition
  3

  2
MN
 70
     8
280
     0
  0
ATTDEF
  5
E7
330
DD
100
AcDbEntity
  8
AM_6
100
AcDbText
 10
5.162408630723042
 20
1.16925
 30
0.0
 40
0.5
  1
0.230
100
AcDbAttributeDefinition
  3

  2
NDR
 70
     8
280
     0
  0
ATTDEF
  5
E8
330
DD
100
AcDbEntity
  8
AM_6
100
AcDbText
 10
5.162408630723042
 20
0.6692499999999999
 30
0.0
 40
0.5
  1
0.210
100
AcDbAttributeDefinition
  3

  2
KDR
 70
     8
280
     0
  0
ATTDEF
  5
E9
330
DD
100
AcDbEntity
  8
AM_6
100
AcDbText
 10
5.162408630723042
 20
0.1692499999999999
 30
0.0
 40
0.5
  1
0.157
100
AcDbAttributeDefinition
  3

  2
BZE
 70
     8
280
     0
  0
ATTDEF
  5
EA
330
DD
100
AcDbEntity
  8
AM_6
100
AcDbText
 10
5.162408630723042
 20
-0.3307500000000001
 30
0.0
 40
0.5
  1
9/32
100
AcDbAttributeDefinition
  3

  2
WAF
 70
     8
280
     0
  0
ATTDEF
  5
EB
330
DD
100
AcDbEntity
  8
AM_6
100
AcDbText
 10
5.162408630723042
 20
-0.8307500000000001
 30
0.0
 40
0.5
  1
0.2813
100
AcDbAttributeDefinition
  3

  2
WAF1
 70
     8
280
     0
  0
ATTDEF
  5
EC
330
DD
100
AcDbEntity
  8
AM_6
100
AcDbText
 10
5.162408630723042
 20
-1.33075
 30
0.0
 40
0.5
  1
0.545
100
AcDbAttributeDefinition
  3

  2
BL
 70
     8
280
     0
  0
ATTDEF
  5
ED
330
DD
100
AcDbEntity
  8
AM_6
100
AcDbText
 10
5.162408630723042
 20
-1.83075
 30
0.0
 40
0.5
  1
0.200
100
AcDbAttributeDefinition
  3

  2
TL
 70
     8
280
     0
  0
ATTDEF
  5
EE
330
DD
100
AcDbEntity
  8
AM_6
100
AcDbText
 10
5.162408630723042
 20
-2.33075
 30
0.0
 40
0.5
  1
baldor
100
AcDbAttributeDefinition
  3

  2
COMPANY
 70
     8
280
     0
  0
LINE
  5
EF
330
DD
100
AcDbEntity
  8
AM_9
100
AcDbLine
 10
0.1406499999999998
 20
3.82425
 30
0.0
 11
0.1624086307230417
 21
3.830080207530646
 31
0.0
  0
LINE
  5
F0
330
DD
100
AcDbEntity
  8
AM_9
100
AcDbLine
 10
-0.1624086307230417
 20
3.830080207530646
 30
0.0
 11
-0.1406499999999998
 21
3.82425
 31
0.0
  0
LINE
  5
F1
330
DD
100
AcDbEntity
  8
AM_9
100
AcDbLine
 10
0.1624086307230417
 20
3.885086459136021
 30
0.0
 11
0.14065
 21
3.890916666666667
 31
0.0
  0
LINE
  5
F2
330
DD
100
AcDbEntity
  8
AM_9
100
AcDbLine
 10
-0.14065
 20
3.890916666666667
 30
0.0
 11
-0.1624086307230417
 21
3.885086459136021
 31
0.0
  0
LINE
  5
F3
330
DD
100
AcDbEntity
  8
AM_9
100
AcDbLine
 10
0.080806429716728
 20
4.16925
 30
0.0
 11
-0.0807808946840675
 21
4.16925
 31
0.0
  0
ARC
  5
F4
330
DD
100
AcDbEntity
  8
AM_9
100
AcDbCircle
 10
-0.0808064297167265
 20
4.144249999999998
 30
0.0
 40
0.0250000000000021
100
AcDbArc
 50
90.0
 51
156.999999999997
  0
ARC
  5
F5
330
DD
100
AcDbEntity
  8
AM_9
100
AcDbCircle
 10
0.0808064297167265
 20
4.144249999999998
 30
0.0
 40
0.0250000000000022
100
AcDbArc
 50
23.00000000000301
 51
90.0
  0
ARC
  5
F6
330
DD
100
AcDbEntity
  8
AM_9
100
AcDbCircle
 10
-0.144684789639098
 20
3.957592555146223
 30
0.0
 40
0.0499999999999994
100
AcDbArc
 50
314.9999999999995
 51
25.00000000000012
  0
ARC
  5
F7
330
DD
100
AcDbEntity
  8
AM_9
100
AcDbCircle
 10
0.144684789639098
 20
3.957592555146223
 30
0.0
 40
0.0499999999999992
100
AcDbArc
 50
154.9999999999999
 51
225.0000000000005
  0
LINE
  5
F8
330
DD
100
AcDbEntity
  8
AM_9
100
AcDbLine
 10
0.1000886227036577
 20
3.62425
 30
0.0
 11
-0.1000886227036577
 21
3.62425
 31
0.0
  0
LINE
  5
F9
330
DD
100
AcDbEntity
  8
AM_9
100
AcDbLine
 10
0.1000886227036577
 20
3.62425
 30
0.0
 11
0.1104162595939891
 21
3.634577636890332
 31
0.0
  0
LINE
  5
FA
330
DD
100
AcDbEntity
  8
AM_9
100
AcDbLine
 10
-0.1104162595939891
 20
3.634577636890332
 30
0.0
 11
-0.1000886227036577
 21
3.62425
 31
0.0
  0
LINE
  5
FB
330
DD
100
AcDbEntity
  8
AM_9
100
AcDbLine
 10
0.1104162595939891
 20
3.634577636890332
 30
0.0
 11
-0.1104162595939891
 21
3.634577636890332
 31
0.0
  0
LINE
  5
FC
330
DD
100
AcDbEntity
  8
AM_9
100
AcDbLine
 10
0.1104162595939891
 20
3.634577636890332
 30
0.0
 11
0.1163438171532771
 21
3.82425
 31
0.0
  0
LINE
  5
FD
330
DD
100
AcDbEntity
  8
AM_9
100
AcDbLine
 10
-0.1163438171532771
 20
3.82425
 30
0.0
 11
-0.1104162595939891
 21
3.634577636890332
 31
0.0
  0
LINE
  5
FE
330
DD
100
AcDbEntity
  8
AM_9
100
AcDbLine
 10
0.0993694002872663
 20
3.978723468233258
 30
0.0
 11
-0.0993694002872663
 21
3.978723468233258
 31
0.0
  0
LINE
  5
FF
330
DD
100
AcDbEntity
  8
AM_9
100
AcDbLine
 10
0.0993694002872663
 20
3.978723468233258
 30
0.0
 11
0.1312419113468905
 21
4.047074288774639
 31
0.0
  0
LINE
  5
100
330
DD
100
AcDbEntity
  8
AM_9
100
AcDbLine
 10
-0.1312419113468905
 20
4.047074288774639
 30
0.0
 11
-0.0993694002872663
 21
3.978723468233258
 31
0.0
  0
LINE
  5
101
330
DD
100
AcDbEntity
  8
AM_9
100
AcDbLine
 10
0.1038190510530391
 20
4.154018278212232
 30
0.0
 11
-0.1038190510530391
 21
4.154018278212232
 31
0.0
  0
LINE
  5
102
330
DD
100
AcDbEntity
  8
AM_9
100
AcDbLine
 10
-0.1038190510530391
 20
4.154018278212232
 30
0.0
 11
-0.13195176466768
 21
4.087741758286138
 31
0.0
  0
LINE
  5
103
330
DD
100
AcDbEntity
  8
AM_9
100
AcDbLine
 10
0.13195176466768
 20
4.087741758286138
 30
0.0
 11
0.1038190510530391
 21
4.154018278212232
 31
0.0
  0
LINE
  5
104
330
DD
100
AcDbEntity
  8
AM_9
100
AcDbLine
 10
0.13195176466768
 20
4.087741758286138
 30
0.0
 11
-0.13195176466768
 21
4.087741758286138
 31
0.0
  0
LINE
  5
105
330
DD
100
AcDbEntity
  8
AM_9
100
AcDbLine
 10
0.1312419113468905
 20
4.047074288774639
 30
0.0
 11
-0.1312419113468905
 21
4.047074288774639
 31
0.0
  0
ARC
  5
106
330
DD
100
AcDbEntity
  8
AM_9
100
AcDbCircle
 10
-0.0859265219950563
 20
4.068205201861675
 30
0.0
 40
0.0500000000000015
100
AcDbArc
 50
157.0000000000011
 51
204.9999999999999
  0
ARC
  5
107
330
DD
100
AcDbEntity
  8
AM_9
100
AcDbCircle
 10
0.0859265219950563
 20
4.068205201861675
 30
0.0
 40
0.0500000000000018
100
AcDbArc
 50
335.0000000000001
 51
22.99999999999892
  0
LWPOLYLINE
  5
108
330
DD
100
AcDbEntity
  8
AM_9
100
AcDbPolyline
 90
        3
 70
     0
 43
0.0
 10
0.1624086307230417
 20
3.830080207530646
 10
0.1421988309996541
 20
3.825802470556179
 10
0.1218064730422813
 20
3.82425
  0
LINE
  5
109
330
DD
100
AcDbEntity
  8
AM_9
100
AcDbLine
 10
0.1624086307230417
 20
3.885086459136021
 30
0.0
 11
0.1624086307230417
 21
3.830080207530646
 31
0.0
  0
LWPOLYLINE
  5
10A
330
DD
100
AcDbEntity
  8
AM_9
100
AcDbPolyline
 90
        3
 70
     0
 43
0.0
 10
0.1218064730422813
 20
3.890916666666667
 10
0.1421075518826615
 20
3.889377791204198
 10
0.1624086307230417
 20
3.885086459136021
  0
LWPOLYLINE
  5
10B
330
DD
100
AcDbEntity
  8
AM_9
100
AcDbPolyline
 90
        3
 70
     0
 43
0.0
 10
0.0812043153615209
 20
3.885086459136021
 10
0.1014141150849086
 20
3.889364196110488
 10
0.1218064730422813
 20
3.890916666666667
  0
LWPOLYLINE
  5
10C
330
DD
100
AcDbEntity
  8
AM_9
100
AcDbPolyline
 90
        3
 70
     0
 43
0.0
 10
0.1218064730422813
 20
3.82425
 10
0.1015053942019011
 20
3.825788875462469
 10
0.0812043153615209
 20
3.830080207530646
  0
LWPOLYLINE
  5
10D
330
DD
100
AcDbEntity
  8
AM_9
100
AcDbPolyline
 90
        3
 70
     0
 43
0.0
 10
0.0
 20
3.82425
 10
-0.0406021576807604
 20
3.825788875462469
 10
-0.0812043153615208
 20
3.830080207530646
  0
LWPOLYLINE
  5
10E
330
DD
100
AcDbEntity
  8
AM_9
100
AcDbPolyline
 90
        4
 70
     0
 43
0.0
 10
0.0812043153615209
 20
3.830080207530646
 10
0.0623017518439031
 20
3.827781798436252
 10
0.0312428256208204
 20
3.825168591732273
 10
0.0
 20
3.82425
  0
LINE
  5
10F
330
DD
100
AcDbEntity
  8
AM_9
100
AcDbLine
 10
0.0812043153615209
 20
3.885086459136021
 30
0.0
 11
0.0812043153615209
 21
3.830080207530646
 31
0.0
  0
LWPOLYLINE
  5
110
330
DD
100
AcDbEntity
  8
AM_9
100
AcDbPolyline
 90
        4
 70
     0
 43
0.0
 10
0.0
 20
3.890916666666667
 10
0.0311508759219516
 20
3.890003410066301
 10
0.0623017518439031
 20
3.887384868230415
 10
0.0812043153615209
 20
3.885086459136021
  0
LWPOLYLINE
  5
111
330
DD
100
AcDbEntity
  8
AM_9
100
AcDbPolyline
 90
        3
 70
     0
 43
0.0
 10
-0.0812043153615208
 20
3.885086459136021
 10
-0.0407847159147455
 20
3.889364196110488
 10
0.0
 20
3.890916666666667
  0
LINE
  5
112
330
DD
100
AcDbEntity
  8
AM_9
100
AcDbLine
 10
0.14065
 20
3.890916666666667
 30
0.0
 11
-0.14065
 21
3.890916666666667
 31
0.0
  0
LINE
  5
113
330
DD
100
AcDbEntity
  8
AM_9
100
AcDbLine
 10
0.1093294505797714
 20
3.922237216086895
 30
0.0
 11
-0.1093294505797714
 21
3.922237216086895
 31
0.0
  0
LINE
  5
114
330
DD
100
AcDbEntity
  8
AM_9
100
AcDbLine
 10
-0.1093294505797714
 20
3.922237216086895
 30
0.0
 11
-0.14065
 21
3.890916666666667
 31
0.0
  0
LINE
  5
115
330
DD
100
AcDbEntity
  8
AM_9
100
AcDbLine
 10
0.14065
 20
3.890916666666667
 30
0.0
 11
0.1093294505797714
 21
3.922237216086895
 31
0.0
  0
LINE
  5
116
330
DD
100
AcDbEntity
  8
AM_9
100
AcDbLine
 10
-0.1624086307230417
 20
3.885086459136021
 30
0.0
 11
-0.1624086307230417
 21
3.830080207530646
 31
0.0
  0
LWPOLYLINE
  5
117
330
DD
100
AcDbEntity
  8
AM_9
100
AcDbPolyline
 90
        3
 70
     0
 43
0.0
 10
-0.1218064730422813
 20
3.82425
 10
-0.1421075518826615
 20
3.825788875462469
 10
-0.1624086307230417
 20
3.830080207530646
  0
LWPOLYLINE
  5
118
330
DD
100
AcDbEntity
  8
AM_9
100
AcDbPolyline
 90
        3
 70
     0
 43
0.0
 10
-0.0812043153615208
 20
3.830080207530646
 10
-0.1014141150849086
 20
3.825802470556179
 10
-0.1218064730422813
 20
3.82425
  0
LINE
  5
119
330
DD
100
AcDbEntity
  8
AM_9
100
AcDbLine
 10
-0.0812043153615208
 20
3.885086459136021
 30
0.0
 11
-0.0812043153615208
 21
3.830080207530646
 31
0.0
  0
LWPOLYLINE
  5
11A
330
DD
100
AcDbEntity
  8
AM_9
100
AcDbPolyline
 90
        3
 70
     0
 43
0.0
 10
-0.1218064730422813
 20
3.890916666666667
 10
-0.1015053942019011
 20
3.889377791204198
 10
-0.0812043153615208
 20
3.885086459136021
  0
LWPOLYLINE
  5
11B
330
DD
100
AcDbEntity
  8
AM_9
100
AcDbPolyline
 90
        3
 70
     0
 43
0.0
 10
-0.1624086307230417
 20
3.885086459136021
 10
-0.142198830999654
 20
3.889364196110488
 10
-0.1218064730422813
 20
3.890916666666667
  0
LINE
  5
11C
330
DD
100
AcDbEntity
  8
AM_5
100
AcDbLine
 10
-0.1057663861878746
 20
3.80592935215437
 30
0.0
 11
-0.1000886227036577
 21
3.62425
 31
0.0
  0
LINE
  5
11D
330
DD
100
AcDbEntity
  8
AM_5
100
AcDbLine
 10
-0.1163438171532771
 20
3.82425
 30
0.0
 11
-0.1057663861878746
 21
3.80592935215437
 31
0.0
  0
LINE
  5
11E
330
DD
100
AcDbEntity
  8
AM_5
100
AcDbLine
 10
0.11577126829667
 20
3.80592935215437
 30
0.0
 11
-0.11577126829667
 21
3.80592935215437
 31
0.0
  0
LINE
  5
11F
330
DD
100
AcDbEntity
  8
AM_5
100
AcDbLine
 10
0.1057663861878746
 20
3.80592935215437
 30
0.0
 11
0.1000886227036577
 21
3.62425
 31
0.0
  0
LINE
  5
120
330
DD
100
AcDbEntity
  8
AM_5
100
AcDbLine
 10
0.1163438171532771
 20
3.82425
 30
0.0
 11
0.1057663861878746
 21
3.80592935215437
 31
0.0
  0
ENDBLK
  5
E0
330
DD
100
AcDbEntity
  8
0
100
AcDbBlockEnd
  0
BLOCK
  5
123
330
121
100
AcDbEntity
  8
0
100
AcDbBlockBegin
  2
4_S1U_K_215R_0_in_023205_2
 70
     2
 10
0.0
 20
0.0
 30
0.0
  3
4_S1U_K_215R_0_in_023205_2
  1

  0
ATTDEF
  5
125
330
121
100
AcDbEntity
  8
AM_6
100
AcDbText
 10
6.921875
 20
3.824250000000001
 30
0.0
 40
0.5
  1
Type K Units - Inch
100
AcDbAttributeDefinition
  3

  2
NN
 70
     8
280
     0
  0
ATTDEF
  5
126
330
121
100
AcDbEntity
  8
AM_6
100
AcDbText
 10
6.921875
 20
3.324250000000001
 30
0.0
 40
0.5
  1
Type K
100
AcDbAttributeDefinition
  3

  2
NT
 70
     8
280
     0
  0
ATTDEF
  5
127
330
121
100
AcDbEntity
  8
AM_6
100
AcDbText
 10
6.921875
 20
2.824250000000001
 30
0.0
 40
0.5
  1
S1U-K-215R
100
AcDbAttributeDefinition
  3

  2
NB
 70
     8
280
     0
  0
ATTDEF
  5
128
330
121
100
AcDbEntity
  8
AM_6
100
AcDbText
 10
6.921875
 20
2.324250000000001
 30
0.0
 40
0.5
  1
$PN.
100
AcDbAttributeDefinition
  3

  2
NBSYN
 70
     8
280
     0
  0
ATTDEF
  5
129
330
121
100
AcDbEntity
  8
AM_6
100
AcDbText
 10
6.921875
 20
1.824250000000001
 30
0.0
 40
0.5
  1
S1U-K-215R
100
AcDbAttributeDefinition
  3

  2
LINA
 70
     8
280
     0
  0
ATTDEF
  5
12A
330
121
100
AcDbEntity
  8
AM_6
100
AcDbText
 10
6.921875
 20
1.324250000000001
 30
0.0
 40
0.5
  1
2-15/16
100
AcDbAttributeDefinition
  3

  2
SS
 70
     8
280
     0
  0
ATTDEF
  5
12B
330
121
100
AcDbEntity
  8
AM_6
100
AcDbText
 10
6.921875
 20
0.8242500000000006
 30
0.0
 40
0.5
  1
2.937500
100
AcDbAttributeDefinition
  3

  2
SS1
 70
     8
280
     0
  0
ATTDEF
  5
12C
330
121
100
AcDbEntity
  8
AM_6
100
AcDbText
 10
6.921875
 20
0.3242500000000006
 30
0.0
 40
0.5
  1
S1U-K-215R
100
AcDbAttributeDefinition
  3

  2
PN
 70
     8
280
     0
  0
ATTDEF
  5
12D
330
121
100
AcDbEntity
  8
AM_6
100
AcDbText
 10
6.921875
 20
-0.1757499999999994
 30
0.0
 40
0.5
  1
S1U-K-215R
100
AcDbAttributeDefinition
  3

  2
PNA
 70
     8
280
     0
  0
ATTDEF
  5
12E
330
121
100
AcDbEntity
  8
AM_6
100
AcDbText
 10
6.921875
 20
-0.6757499999999994
 30
0.0
 40
0.5
  1
15
100
AcDbAttributeDefinition
  3

  2
WEIGHT
 70
     8
280
     0
  0
ATTDEF
  5
12F
330
121
100
AcDbEntity
  8
AM_6
100
AcDbText
 10
6.921875
 20
-1.175749999999999
 30
0.0
 40
0.5
  1
3-3/4
100
AcDbAttributeDefinition
  3

  2
A
 70
     8
280
     0
  0
ATTDEF
  5
130
330
121
100
AcDbEntity
  8
AM_6
100
AcDbText
 10
6.921875
 20
-1.675749999999999
 30
0.0
 40
0.5
  1
3.750000
100
AcDbAttributeDefinition
  3

  2
A1
 70
     8
280
     0
  0
ATTDEF
  5
131
330
121
100
AcDbEntity
  8
AM_6
100
AcDbText
 10
6.921875
 20
-2.175749999999999
 30
0.0
 40
0.5
  1
3
100
AcDbAttributeDefinition
  3

  2
B
 70
     8
280
     0
  0
ATTDEF
  5
132
330
121
100
AcDbEntity
  8
AM_6
100
AcDbText
 10
6.921875
 20
-2.675749999999999
 30
0.0
 40
0.5
  1
3.000000
100
AcDbAttributeDefinition
  3

  2
B1
 70
     8
280
     0
  0
ATTDEF
  5
133
330
121
100
AcDbEntity
  8
AM_6
100
AcDbText
 10
6.921875
 20
-3.175749999999999
 30
0.0
 40
0.5
  1
1-7/8
100
AcDbAttributeDefinition
  3

  2
C
 70
     8
280
     0
  0
ATTDEF
  5
134
330
121
100
AcDbEntity
  8
AM_6
100
AcDbText
 10
6.921875
 20
-3.675749999999999
 30
0.0
 40
0.5
  1
1.875000
100
AcDbAttributeDefinition
  3

  2
C1
 70
     8
280
     0
  0
ATTDEF
  5
135
330
121
100
AcDbEntity
  8
AM_6
100
AcDbText
 10
6.921875
 20
-4.175749999999999
 30
0.0
 40
0.5
  1
5-7/8
100
AcDbAttributeDefinition
  3

  2
D
 70
     8
280
     0
  0
ATTDEF
  5
136
330
121
100
AcDbEntity
  8
AM_6
100
AcDbText
 10
6.921875
 20
-4.675749999999999
 30
0.0
 40
0.5
  1
5.875000
100
AcDbAttributeDefinition
  3

  2
D1
 70
     8
280
     0
  0
ATTDEF
  5
137
330
121
100
AcDbEntity
  8
AM_6
100
AcDbText
 10
6.921875
 20
-5.175749999999999
 30
0.0
 40
0.5
  1
0.450
100
AcDbAttributeDefinition
  3

  2
E
 70
     8
280
     0
  0
ATTDEF
  5
138
330
121
100
AcDbEntity
  8
AM_6
100
AcDbText
 10
6.921875
 20
-5.675749999999999
 30
0.0
 40
0.5
  1
5.563
100
AcDbAttributeDefinition
  3

  2
EM
 70
     8
280
     0
  0
ATTDEF
  5
139
330
121
100
AcDbEntity
  8
AM_6
100
AcDbText
 10
6.921875
 20
-6.175749999999999
 30
0.0
 40
0.5
  1
5.630
100
AcDbAttributeDefinition
  3

  2
EC
 70
     8
280
     0
  0
ATTDEF
  5
13A
330
121
100
AcDbEntity
  8
AM_6
100
AcDbText
 10
6.921875
 20
-6.675749999999999
 30
0.0
 40
0.5
  1
11/16
100
AcDbAttributeDefinition
  3

  2
H
 70
     8
280
     0
  0
ATTDEF
  5
13B
330
121
100
AcDbEntity
  8
AM_6
100
AcDbText
 10
6.921875
 20
-7.175749999999999
 30
0.0
 40
0.5
  1
0.687500
100
AcDbAttributeDefinition
  3

  2
H1
 70
     8
280
     0
  0
ATTDEF
  5
13C
330
121
100
AcDbEntity
  8
AM_6
100
AcDbText
 10
6.921875
 20
-7.675749999999999
 30
0.0
 40
0.5
  1
3-7/8
100
AcDbAttributeDefinition
  3

  2
J
 70
     8
280
     0
  0
ATTDEF
  5
13D
330
121
100
AcDbEntity
  8
AM_6
100
AcDbText
 10
6.921875
 20
-8.175749999999999
 30
0.0
 40
0.5
  1
3.875000
100
AcDbAttributeDefinition
  3

  2
J1
 70
     8
280
     0
  0
ATTDEF
  5
13E
330
121
100
AcDbEntity
  8
AM_6
100
AcDbText
 10
6.921875
 20
-8.675749999999999
 30
0.0
 40
0.5
  1
6.061
100
AcDbAttributeDefinition
  3

  2
K
 70
     8
280
     0
  0
ATTDEF
  5
13F
330
121
100
AcDbEntity
  8
AM_6
100
AcDbText
 10
6.921875
 20
-9.175749999999999
 30
0.0
 40
0.5
  1
4-23/32
100
AcDbAttributeDefinition
  3

  2
L
 70
     8
280
     0
  0
ATTDEF
  5
140
330
121
100
AcDbEntity
  8
AM_6
100
AcDbText
 10
6.921875
 20
-9.675749999999999
 30
0.0
 40
0.5
  1
4.718750
100
AcDbAttributeDefinition
  3

  2
L1
 70
     8
280
     0
  0
ATTDEF
  5
141
330
121
100
AcDbEntity
  8
AM_6
100
AcDbText
 10
6.921875
 20
-10.17575
 30
0.0
 40
0.5
  1
3-13/16
100
AcDbAttributeDefinition
  3

  2
M
 70
     8
280
     0
  0
ATTDEF
  5
142
330
121
100
AcDbEntity
  8
AM_6
100
AcDbText
 10
6.921875
 20
-10.67575
 30
0.0
 40
0.5
  1
3.812500
100
AcDbAttributeDefinition
  3

  2
M1
 70
     8
280
     0
  0
ATTDEF
  5
143
330
121
100
AcDbEntity
  8
AM_6
100
AcDbText
 10
6.921875
 20
-11.17575
 30
0.0
 40
0.5
  1
1-7/16
100
AcDbAttributeDefinition
  3

  2
R
 70
     8
280
     0
  0
ATTDEF
  5
144
330
121
100
AcDbEntity
  8
AM_6
100
AcDbText
 10
6.921875
 20
-11.67575
 30
0.0
 40
0.5
  1
1.437500
100
AcDbAttributeDefinition
  3

  2
R1
 70
     8
280
     0
  0
ATTDEF
  5
145
330
121
100
AcDbEntity
  8
AM_6
100
AcDbText
 10
6.921875
 20
-12.17575
 30
0.0
 40
0.5
  1
2-1/4
100
AcDbAttributeDefinition
  3

  2
S
 70
     8
280
     0
  0
ATTDEF
  5
146
330
121
100
AcDbEntity
  8
AM_6
100
AcDbText
 10
6.921875
 20
-12.67575
 30
0.0
 40
0.5
  1
2.250000
100
AcDbAttributeDefinition
  3

  2
S1
 70
     8
280
     0
  0
ATTDEF
  5
147
330
121
100
AcDbEntity
  8
AM_6
100
AcDbText
 10
6.921875
 20
-13.17575
 30
0.0
 40
0.5
  1
3.4700
100
AcDbAttributeDefinition
  3

  2
CC
 70
     8
280
     0
  0
ATTDEF
  5
148
330
121
100
AcDbEntity
  8
AM_6
100
AcDbText
 10
6.921875
 20
-13.67575
 30
0.0
 40
0.5
  1
baldor
100
AcDbAttributeDefinition
  3

  2
COMPANY
 70
     8
280
     0
  0
LINE
  5
149
330
121
100
AcDbEntity
  8
AM_9
100
AcDbLine
 10
-2.00625
 20
1.735
 30
0.0
 11
-2.00625
 21
1.46875
 31
0.0
  0
LINE
  5
14A
330
121
100
AcDbEntity
  8
AM_9
100
AcDbLine
 10
-1.55625
 20
1.46875
 30
0.0
 11
-1.55625
 21
1.735
 31
0.0
  0
LINE
  5
14B
330
121
100
AcDbEntity
  8
AM_9
100
AcDbLine
 10
0.305316369154144
 20
3.82425
 30
0.0
 11
-0.3053163686896809
 21
3.82425
 31
0.0
  0
ARC
  5
14C
330
121
100
AcDbEntity
  8
AM_9
100
AcDbCircle
 10
-0.3053163691541436
 20
3.77925
 30
0.0
 40
0.0449999999999999
100
AcDbArc
 50
90.0
 51
171.0000000000003
  0
ARC
  5
14D
330
121
100
AcDbEntity
  8
AM_9
100
AcDbCircle
 10
0.3053163691541436
 20
3.77925
 30
0.0
 40
0.0450000000000003
100
AcDbArc
 50
8.999999999999659
 51
90.0
  0
LINE
  5
14E
330
121
100
AcDbEntity
  8
AM_9
100
AcDbLine
 10
0.3497623444809251
 20
3.78628955092681
 30
0.0
 11
-0.3497623444809251
 21
3.78628955092681
 31
0.0
  0
LINE
  5
14F
330
121
100
AcDbEntity
  8
AM_9
100
AcDbLine
 10
-0.3497623444809251
 20
3.78628955092681
 30
0.0
 11
-0.4697009758302483
 21
3.02902683557697
 31
0.0
  0
LINE
  5
150
330
121
100
AcDbEntity
  8
AM_9
100
AcDbLine
 10
0.4893897021693996
 20
2.90471710983113
 30
0.0
 11
0.3497623444809251
 21
3.78628955092681
 31
0.0
  0
LINE
  5
151
330
121
100
AcDbEntity
  8
AM_9
100
AcDbLine
 10
-2.25
 20
-1.46875
 30
0.0
 11
1.5
 21
-1.46875
 31
0.0
  0
LINE
  5
152
330
121
100
AcDbEntity
  8
AM_9
100
AcDbLine
 10
1.5
 20
1.46875
 30
0.0
 11
-1.556250000000001
 21
1.46875
 31
0.0
  0
LINE
  5
153
330
121
100
AcDbEntity
  8
AM_9
100
AcDbLine
 10
-2.00625
 20
1.46875
 30
0.0
 11
-2.25
 21
1.46875
 31
0.0
  0
LWPOLYLINE
  5
154
330
121
100
AcDbEntity
  8
AM_9
100
AcDbPolyline
 90
       21
 70
     0
 43
0.0
 10
-2.006249999999426
 20
1.468749999999912
 10
-2.005984930749094
 20
1.468709417004875
 10
-2.0008948359162
 20
1.46793917327819
 10
-1.989954129403549
 20
1.466342039269861
 10
-1.972856732255373
 20
1.464006387399175
 10
-1.950838014901559
 20
1.461287670959504
 10
-1.923382240128675
 20
1.458356313177268
 10
-1.8924714041619
 20
1.45566883707928
 10
-1.857414388615001
 20
1.453410670317614
 10
-1.821308275852075
 20
1.451966331553263
 10
-1.782960760787412
 20
1.451414651022399
 10
-1.746039543892733
 20
1.4518406726357
 10
-1.709068900847223
 20
1.453207374594178
 10
-1.675163122576495
 20
1.45528553489048
 10
-1.643310518674349
 20
1.457953655987868
 10
-1.615858465639121
 20
1.460806599840734
 10
-1.592356232306146
 20
1.463653790338952
 10
-1.574679763837544
 20
1.466039844263523
 10
-1.562468595083702
 20
1.467810228073489
 10
-1.55783278732697
 20
1.468508363414586
 10
-1.55625
 20
1.46875
  0
LWPOLYLINE
  5
155
330
121
100
AcDbEntity
  8
AM_9
100
AcDbPolyline
 90
       11
 70
     0
 43
0.0
 10
-1.78125
 20
0.4094746587027575
 10
-1.744260195759745
 20
0.4124483729150992
 10
-1.70727039151949
 20
0.4216088183863848
 10
-1.673396349181855
 20
0.4361206813980623
 10
-1.641638507678244
 20
0.456309581486179
 10
-1.614419031582091
 20
0.4806059680237243
 10
-1.591198688547937
 20
0.5094755436095686
 10
-1.573838519300347
 20
0.5405868562748639
 10
-1.561977402998441
 20
0.5746372117555815
 10
-1.556659324601299
 20
0.6083993853573827
 10
-1.556250000785995
 20
0.6207035270817727
  0
LINE
  5
156
330
121
100
AcDbEntity
  8
AM_9
100
AcDbLine
 10
-2.00625
 20
0.7332401775066317
 30
0.0
 11
-2.00625
 21
0.6207118911943539
 31
0.0
  0
LINE
  5
157
330
121
100
AcDbEntity
  8
AM_9
100
AcDbLine
 10
-1.55625
 20
0.6206722191170464
 30
0.0
 11
-1.55625
 21
0.7332022455705952
 31
0.0
  0
LWPOLYLINE
  5
158
330
121
100
AcDbEntity
  8
AM_9
100
AcDbPolyline
 90
        4
 70
     0
 43
0.0
 10
-1.997474976141455
 20
0.6765569030878291
 10
-2.002653910353891
 20
0.6568019737846191
 10
-2.00624340044735
 20
0.6222819828438011
 10
-2.006249999773218
 20
0.6207297274988772
  0
LWPOLYLINE
  5
159
330
121
100
AcDbEntity
  8
AM_9
100
AcDbPolyline
 90
        7
 70
     0
 43
0.0
 10
-1.872573375696596
 20
0.8009739458797464
 10
-1.899188077026361
 20
0.7890761415666763
 10
-1.929108923694342
 20
0.7702745921520567
 10
-1.955666362225096
 20
0.746630069824061
 10
-1.976834326785969
 20
0.7197453080188636
 10
-1.992965091217982
 20
0.6889178954002254
 10
-1.997474976141455
 20
0.6765569030878291
  0
LWPOLYLINE
  5
15A
330
121
100
AcDbEntity
  8
AM_9
100
AcDbPolyline
 90
        6
 70
     0
 43
0.0
 10
-1.602730823228003
 20
0.742137108425447
 10
-1.620984912253869
 20
0.7602500791636321
 10
-1.649347896181082
 20
0.7811255383288876
 10
-1.682346426628924
 20
0.7979782246478788
 10
-1.717248839917765
 20
0.809485524059503
 10
-1.720275232108064
 20
0.8102234787034345
  0
LWPOLYLINE
  5
15B
330
121
100
AcDbEntity
  8
AM_9
100
AcDbPolyline
 90
        4
 70
     0
 43
0.0
 10
-1.565283149017354
 20
0.677347522057888
 10
-1.5780500613661
 20
0.7069405791981894
 10
-1.596654680056037
 20
0.734927078069977
 10
-1.602730823228003
 20
0.742137108425447
  0
LWPOLYLINE
  5
15C
330
121
100
AcDbEntity
  8
AM_9
100
AcDbPolyline
 90
        4
 70
     0
 43
0.0
 10
-1.556250000785995
 20
0.6207035270817727
 10
-1.557619701707762
 20
0.6430985343170749
 10
-1.564693098801824
 20
0.6755215342678604
 10
-1.565283149017354
 20
0.677347522057888
  0
LWPOLYLINE
  5
15D
330
121
100
AcDbEntity
  8
AM_9
100
AcDbPolyline
 90
       11
 70
     0
 43
0.0
 10
-2.006249999773218
 20
0.6207297274988772
 10
-2.003478875255818
 20
0.5886365156106598
 10
-1.994357648215672
 20
0.5545521243439238
 10
-1.979666541779481
 20
0.5229455123294048
 10
-1.95899754340856
 20
0.4929493855498023
 10
-1.933787759845489
 20
0.4668686228110332
 10
-1.903489238500456
 20
0.4443655106182999
 10
-1.870426000413174
 20
0.4273313546459018
 10
-1.833774414282404
 20
0.415510311599555
 10
-1.807886903232098
 20
0.4110119858241217
 10
-1.78125
 20
0.4094746587027575
  0
LWPOLYLINE
  5
15E
330
121
100
AcDbEntity
  8
AM_9
100
AcDbPolyline
 90
        6
 70
     0
 43
0.0
 10
-1.962122706461989
 20
0.8523479275674615
 10
-1.977691146299217
 20
0.8311621574018736
 10
-1.993367882451615
 20
0.8005659023238149
 10
-2.00293487875551
 20
0.7678134429204062
 10
-2.00624932123988
 20
0.7337435339653846
 10
-2.006249999968622
 20
0.7332460897289672
  0
LWPOLYLINE
  5
15F
330
121
100
AcDbEntity
  8
AM_9
100
AcDbPolyline
 90
        5
 70
     0
 43
0.0
 10
-1.74878939910379
 20
0.9289661748217857
 10
-1.755781527888528
 20
0.9297391503196343
 10
-1.793505952437713
 20
0.930667412436917
 10
-1.830882798370445
 20
0.9262493592610218
 10
-1.849683843419898
 20
0.9218842034429027
  0
LWPOLYLINE
  5
160
330
121
100
AcDbEntity
  8
AM_9
100
AcDbPolyline
 90
        5
 70
     0
 43
0.0
 10
-1.632182963688489
 20
0.8825196112593525
 10
-1.650456171701059
 20
0.8950514299650605
 10
-1.683062831634634
 20
0.9117121755587597
 10
-1.718523537952737
 20
0.9233488641076445
 10
-1.74878939910379
 20
0.9289661748217857
  0
LWPOLYLINE
  5
161
330
121
100
AcDbEntity
  8
AM_9
100
AcDbPolyline
 90
        7
 70
     0
 43
0.0
 10
-1.556250000869873
 20
0.7332247528473577
 10
-1.557659499578066
 20
0.7559550898390764
 10
-1.564990876764758
 20
0.7889846564874934
 10
-1.578310620458581
 20
0.8201513859819677
 10
-1.597378886305249
 20
0.8486858838224796
 10
-1.621553457905335
 20
0.8738257239396638
 10
-1.632182963688489
 20
0.8825196112593525
  0
LWPOLYLINE
  5
162
330
121
100
AcDbEntity
  8
AM_9
100
AcDbPolyline
 90
        7
 70
     0
 43
0.0
 10
-1.960394523032539
 20
0.607603569135129
 10
-1.958003386150287
 20
0.6046986183873062
 10
-1.932158594715624
 20
0.5786184318025797
 10
-1.902070937407042
 20
0.5568166351847882
 10
-1.868391481891149
 20
0.5400029854840879
 10
-1.832219112218063
 20
0.5287516075381696
 10
-1.78125
 20
0.5231315681390125
  0
LWPOLYLINE
  5
163
330
121
100
AcDbEntity
  8
AM_9
100
AcDbPolyline
 90
        5
 70
     0
 43
0.0
 10
-2.006249999968622
 20
0.7332460897289672
 10
-2.003167401825015
 20
0.6995590349989278
 10
-1.99391716553152
 20
0.6659995749149282
 10
-1.978692114518765
 20
0.634076949403829
 10
-1.960394523032539
 20
0.607603569135129
  0
LWPOLYLINE
  5
164
330
121
100
AcDbEntity
  8
AM_9
100
AcDbPolyline
 90
       12
 70
     0
 43
0.0
 10
-1.747524678072178
 20
1.720679341812162
 10
-1.76802445564436
 20
1.720399638172336
 10
-1.806401073807696
 20
1.720532643257221
 10
-1.842766022131578
 20
1.721448291694785
 10
-1.878409030059685
 20
1.723090211544985
 10
-1.910463047448456
 20
1.725194485161287
 10
-1.939743742145354
 20
1.727634297616031
 10
-1.963999868582904
 20
1.730028183142422
 10
-1.983694412681921
 20
1.732219310660786
 10
-1.997171490337389
 20
1.733846039874798
 10
-2.004803217700421
 20
1.734812970076087
 10
-2.00624999999974
 20
1.734999999999967
  0
LWPOLYLINE
  5
165
330
121
100
AcDbEntity
  8
AM_9
100
AcDbPolyline
 90
       10
 70
     0
 43
0.0
 10
-1.55625
 20
1.735
 10
-1.559323400422502
 20
1.73460410918458
 10
-1.568810214648658
 20
1.733415894238923
 10
-1.583901299159013
 20
1.731631170233323
 10
-1.605020254721977
 20
1.729351590371593
 10
-1.630555348471127
 20
1.726936269235031
 10
-1.661147154403187
 20
1.724536080666465
 10
-1.694374598013686
 20
1.72254095320555
 10
-1.731109393075373
 20
1.721079335900228
 10
-1.747524678072178
 20
1.720679341812162
  0
LWPOLYLINE
  5
166
330
121
100
AcDbEntity
  8
AM_9
100
AcDbPolyline
 90
       11
 70
     0
 43
0.0
 10
-1.747178492256535
 20
0.5256257091185534
 10
-1.743657684427761
 20
0.5261947886796621
 10
-1.707129312509571
 20
0.5351885002852621
 10
-1.67273001318632
 20
0.5498868303800236
 10
-1.641370034078952
 20
0.5697274979050694
 10
-1.613828561474208
 20
0.5942827658389745
 10
-1.590988075701573
 20
0.6226308654407529
 10
-1.573508542394948
 20
0.6540626777828914
 10
-1.561908866953497
 20
0.6874900591586657
 10
-1.556630835990092
 20
0.7217284201423231
 10
-1.556250000869873
 20
0.7332247528473577
  0
LINE
  5
167
330
121
100
AcDbEntity
  8
AM_9
100
AcDbLine
 10
-1.78125
 20
0.5231315681390125
 30
0.0
 11
-1.747178492256535
 21
0.5256257091185534
 31
0.0
  0
LINE
  5
168
330
121
100
AcDbEntity
  8
AM_9
100
AcDbLine
 10
-2.25
 20
-1.735
 30
0.0
 11
-1.3125
 21
-1.735
 31
0.0
  0
LINE
  5
169
330
121
100
AcDbEntity
  8
AM_9
100
AcDbLine
 10
-1.3125
 20
1.735
 30
0.0
 11
-1.55625
 21
1.735
 31
0.0
  0
LINE
  5
16A
330
121
100
AcDbEntity
  8
AM_9
100
AcDbLine
 10
-2.00625
 20
1.735
 30
0.0
 11
-2.25
 21
1.735
 31
0.0
  0
LINE
  5
16B
330
121
100
AcDbEntity
  8
AM_9
100
AcDbLine
 10
1.5
 20
1.966145833333333
 30
0.0
 11
0.9375000000000003
 21
1.966145833333334
 31
0.0
  0
LINE
  5
16C
330
121
100
AcDbEntity
  8
AM_9
100
AcDbLine
 10
0.9374999999999998
 20
-1.966145833333334
 30
0.0
 11
1.5
 21
-1.966145833333334
 31
0.0
  0
LINE
  5
16D
330
121
100
AcDbEntity
  8
AM_9
100
AcDbLine
 10
-1.3125
 20
2.419871794871795
 30
0.0
 11
-1.5
 21
2.452933103754632
 31
0.0
  0
LINE
  5
16E
330
121
100
AcDbEntity
  8
AM_9
100
AcDbLine
 10
-1.5
 20
-2.452933103754632
 30
0.0
 11
-1.3125
 21
-2.419871794871795
 31
0.0
  0
LINE
  5
16F
330
121
100
AcDbEntity
  8
AM_9
100
AcDbLine
 10
-1.3125
 20
2.419871794871795
 30
0.0
 11
-1.3125
 21
-2.419871794871795
 31
0.0
  0
LINE
  5
170
330
121
100
AcDbEntity
  8
AM_9
100
AcDbLine
 10
0.9374999999999997
 20
-2.419871794871795
 30
0.0
 11
1.5
 21
-2.519055721520307
 31
0.0
  0
LINE
  5
171
330
121
100
AcDbEntity
  8
AM_9
100
AcDbLine
 10
1.5
 20
2.519055721520306
 30
0.0
 11
0.9375000000000002
 21
2.419871794871795
 31
0.0
  0
LINE
  5
172
330
121
100
AcDbEntity
  8
AM_9
100
AcDbLine
 10
-1.4375
 20
-2.7815
 30
0.0
 11
-0.9375
 21
-2.7815
 31
0.0
  0
LINE
  5
173
330
121
100
AcDbEntity
  8
AM_9
100
AcDbLine
 10
-0.9375
 20
2.7815
 30
0.0
 11
-1.4375
 21
2.7815
 31
0.0
  0
LINE
  5
174
330
121
100
AcDbEntity
  8
AM_9
100
AcDbLine
 10
-1.5
 20
0.5000000000000001
 30
0.0
 11
-1.5
 21
0.0
 31
0.0
  0
ARC
  5
175
330
121
100
AcDbEntity
  8
AM_9
100
AcDbCircle
 10
-1.437500000000001
 20
-2.719000000000004
 30
0.0
 40
0.0624999999999959
100
AcDbArc
 50
238.6677485024044
 51
270.0
  0
ARC
  5
176
330
121
100
AcDbEntity
  8
AM_9
100
AcDbCircle
 10
-1.437499999999998
 20
2.718999999999995
 30
0.0
 40
0.0625000000000053
100
AcDbArc
 50
90.0
 51
121.3322514975934
  0
LINE
  5
177
330
121
100
AcDbEntity
  8
AM_9
100
AcDbLine
 10
-1.4375
 20
2.7815
 30
0.0
 11
-1.4375
 21
-2.7815
 31
0.0
  0
LINE
  5
178
330
121
100
AcDbEntity
  8
AM_9
100
AcDbLine
 10
0.9375
 20
-2.815
 30
0.0
 11
1.4375
 21
-2.815
 31
0.0
  0
LINE
  5
179
330
121
100
AcDbEntity
  8
AM_9
100
AcDbLine
 10
1.4375
 20
2.815
 30
0.0
 11
0.9375
 21
2.815
 31
0.0
  0
LINE
  5
17A
330
121
100
AcDbEntity
  8
AM_9
100
AcDbLine
 10
0.9375
 20
2.815
 30
0.0
 11
0.9375
 21
-2.815
 31
0.0
  0
LINE
  5
17B
330
121
100
AcDbEntity
  8
AM_9
100
AcDbLine
 10
1.5
 20
0.5000000000000001
 30
0.0
 11
1.5
 21
0.0
 31
0.0
  0
ARC
  5
17C
330
121
100
AcDbEntity
  8
AM_9
100
AcDbCircle
 10
1.437500000000001
 20
-2.752500000000004
 30
0.0
 40
0.062499999999996
100
AcDbArc
 50
270.0
 51
301.3322514975957
  0
ARC
  5
17D
330
121
100
AcDbEntity
  8
AM_9
100
AcDbCircle
 10
1.437500000000001
 20
2.752500000000004
 30
0.0
 40
0.0624999999999959
100
AcDbArc
 50
58.66774850240441
 51
90.0
  0
LINE
  5
17E
330
121
100
AcDbEntity
  8
AM_9
100
AcDbLine
 10
1.4375
 20
2.815
 30
0.0
 11
1.4375
 21
-2.815
 31
0.0
  0
ARC
  5
17F
330
121
100
AcDbEntity
  8
AM_9
100
AcDbCircle
 10
-0.3750000000000343
 20
-0.0000000000000808
 30
0.0
 40
3.030500000000087
100
AcDbArc
 50
64.33574490214552
 51
73.43439863352168
  0
ARC
  5
180
330
121
100
AcDbEntity
  8
AM_9
100
AcDbCircle
 10
-0.3750000000000359
 20
0.0000000000003189
 30
0.0
 40
3.03049999999968
100
AcDbArc
 50
91.78642070373066
 51
100.6968699425127
  0
ARC
  5
181
330
121
100
AcDbEntity
  8
AM_9
100
AcDbCircle
 10
-0.3750000000000164
 20
0.0000000000001359
 30
0.0
 40
3.030500000000123
100
AcDbArc
 50
259.3031300574885
 51
295.6642550978538
  0
LINE
  5
182
330
121
100
AcDbEntity
  8
AM_9
100
AcDbLine
 10
-0.9375000000000006
 20
2.977838813636493
 30
0.0
 11
-0.9375000000000006
 21
-2.977838813636486
 31
0.0
  0
LINE
  5
183
330
121
100
AcDbEntity
  8
AM_9
100
AcDbLine
 10
0.4894074646456707
 20
2.90460496196366
 30
0.0
 11
-0.4697020687046872
 21
3.029019935252195
 31
0.0
  0
LINE
  5
184
330
121
100
AcDbEntity
  8
AM_7
100
AcDbLine
 10
-1.78125
 20
-0.11796875
 30
0.0
 11
-1.78125
 21
2.47734375
 31
0.0
  0
LINE
  5
185
330
121
100
AcDbEntity
  8
AM_7
100
AcDbLine
 10
-2.4375
 20
0.0
 30
0.0
 11
1.921875
 21
-0.0000000000000002
 31
0.0
  0
LWPOLYLINE
  5
186
330
121
100
AcDbEntity
  8
AM_4
100
AcDbPolyline
 90
        6
 70
     0
 43
0.0
 10
-1.720275232108064
 20
0.8102234787034345
 10
-1.75506396755567
 20
0.8160272492154836
 10
-1.792178253774275
 20
0.8170898802576211
 10
-1.830054758960096
 20
0.8128048511228562
 10
-1.865317451877359
 20
0.8035726924298431
 10
-1.872573375696596
 20
0.8009739458797464
  0
LWPOLYLINE
  5
187
330
121
100
AcDbEntity
  8
AM_4
100
AcDbPolyline
 90
        6
 70
     0
 43
0.0
 10
-1.849683843419898
 20
0.9218842034429027
 10
-1.866706482067063
 20
0.9165663825831933
 10
-1.90014233809172
 20
0.9019102092119795
 10
-1.930388426178934
 20
0.8824394198781799
 10
-1.956461966976427
 20
0.8587450463459921
 10
-1.962122706461989
 20
0.8523479275674615
  0
LINE
  5
188
330
121
100
AcDbEntity
  8
AM_4
100
AcDbLine
 10
-1.5
 20
0.0
 30
0.0
 11
-1.5
 21
-2.718999999999999
 31
0.0
  0
LINE
  5
189
330
121
100
AcDbEntity
  8
AM_4
100
AcDbLine
 10
-1.5
 20
2.718999999999999
 30
0.0
 11
-1.5
 21
0.5000000000000001
 31
0.0
  0
ARC
  5
18A
330
121
100
AcDbEntity
  8
AM_4
100
AcDbCircle
 10
-1.437499999999996
 20
-2.718999999999998
 30
0.0
 40
0.0625000000000033
100
AcDbArc
 50
180.0
 51
238.6677485024037
  0
ARC
  5
18B
330
121
100
AcDbEntity
  8
AM_4
100
AcDbCircle
 10
-1.437499999999996
 20
2.718999999999998
 30
0.0
 40
0.0625000000000031
100
AcDbArc
 50
121.3322514975963
 51
180.0
  0
LINE
  5
18C
330
121
100
AcDbEntity
  8
AM_4
100
AcDbLine
 10
1.5
 20
0.0
 30
0.0
 11
1.5
 21
-2.7525
 31
0.0
  0
LINE
  5
18D
330
121
100
AcDbEntity
  8
AM_4
100
AcDbLine
 10
1.5
 20
2.7525
 30
0.0
 11
1.5
 21
0.5000000000000001
 31
0.0
  0
ARC
  5
18E
330
121
100
AcDbEntity
  8
AM_4
100
AcDbCircle
 10
1.437500000000001
 20
-2.7525
 30
0.0
 40
0.0624999999999994
100
AcDbArc
 50
301.3322514975939
 51
0.0
  0
ARC
  5
18F
330
121
100
AcDbEntity
  8
AM_4
100
AcDbCircle
 10
1.437500000000001
 20
2.7525
 30
0.0
 40
0.0624999999999991
100
AcDbArc
 50
0.0
 51
58.66774850240614
  0
ENDBLK
  5
124
330
121
100
AcDbEntity
  8
0
100
AcDbBlockEnd
  0
BLOCK
  5
192
330
190
100
AcDbEntity
  8
0
100
AcDbBlockBegin
  2
5_P2B_K_215RE_0_in_023205_2
 70
     2
 10
0.0
 20
0.0
 30
0.0
  3
5_P2B_K_215RE_0_in_023205_2
  1

  0
ATTDEF
  5
194
330
190
100
AcDbEntity
  8
AM_6
100
AcDbText
 10
6.57
 20
5.993999862670899
 30
0.0
 40
0.5
  1
2 & 4 Bolt Base - Body - Inch - EXP
100
AcDbAttributeDefinition
  3

  2
NN
 70
     8
280
     0
  0
ATTDEF
  5
195
330
190
100
AcDbEntity
  8
AM_6
100
AcDbText
 10
6.57
 20
5.493999862670899
 30
0.0
 40
0.5
  1
Type K
100
AcDbAttributeDefinition
  3

  2
NT
 70
     8
280
     0
  0
ATTDEF
  5
196
330
190
100
AcDbEntity
  8
AM_6
100
AcDbText
 10
6.57
 20
4.993999862670899
 30
0.0
 40
0.5
  1
P2B-K-215RE
100
AcDbAttributeDefinition
  3

  2
NB
 70
     8
280
     0
  0
ATTDEF
  5
197
330
190
100
AcDbEntity
  8
AM_6
100
AcDbText
 10
6.57
 20
4.493999862670899
 30
0.0
 40
0.5
  1
$PN.
100
AcDbAttributeDefinition
  3

  2
NBSYN
 70
     8
280
     0
  0
ATTDEF
  5
198
330
190
100
AcDbEntity
  8
AM_6
100
AcDbText
 10
6.57
 20
3.993999862670899
 30
0.0
 40
0.5
  1
P2B-K-215RE
100
AcDbAttributeDefinition
  3

  2
LINA
 70
     8
280
     0
  0
ATTDEF
  5
199
330
190
100
AcDbEntity
  8
AM_6
100
AcDbText
 10
6.57
 20
3.493999862670899
 30
0.0
 40
0.5
  1
2-15/16
100
AcDbAttributeDefinition
  3

  2
SS
 70
     8
280
     0
  0
ATTDEF
  5
19A
330
190
100
AcDbEntity
  8
AM_6
100
AcDbText
 10
6.57
 20
2.993999862670899
 30
0.0
 40
0.5
  1
2.937500
100
AcDbAttributeDefinition
  3

  2
SS1
 70
     8
280
     0
  0
ATTDEF
  5
19B
330
190
100
AcDbEntity
  8
AM_6
100
AcDbText
 10
6.57
 20
2.493999862670899
 30
0.0
 40
0.5
  1
5.875000
100
AcDbAttributeDefinition
  3

  2
BORE
 70
     8
280
     0
  0
ATTDEF
  5
19C
330
190
100
AcDbEntity
  8
AM_6
100
AcDbText
 10
6.57
 20
1.993999862670899
 30
0.0
 40
0.5
  1
P2B-K-215RE
100
AcDbAttributeDefinition
  3

  2
PN
 70
     8
280
     0
  0
ATTDEF
  5
19D
330
190
100
AcDbEntity
  8
AM_6
100
AcDbText
 10
6.57
 20
1.493999862670899
 30
0.0
 40
0.5
  1
P2B-K-215RE
100
AcDbAttributeDefinition
  3

  2
PNA
 70
     8
280
     0
  0
ATTDEF
  5
19E
330
190
100
AcDbEntity
  8
AM_6
100
AcDbText
 10
6.57
 20
0.9939998626708988
 30
0.0
 40
0.5
  1
39
100
AcDbAttributeDefinition
  3

  2
WEIGHT
 70
     8
280
     0
  0
ATTDEF
  5
19F
330
190
100
AcDbEntity
  8
AM_6
100
AcDbText
 10
6.57
 20
0.4939998626708988
 30
0.0
 40
0.5
  1
3.78
100
AcDbAttributeDefinition
  3

  2
A
 70
     8
280
     0
  0
ATTDEF
  5
1A0
330
190
100
AcDbEntity
  8
AM_6
100
AcDbText
 10
6.57
 20
-0.0060001373291012
 30
0.0
 40
0.5
  1
3.780000
100
AcDbAttributeDefinition
  3

  2
A1
 70
     8
280
     0
  0
ATTDEF
  5
1A1
330
190
100
AcDbEntity
  8
AM_6
100
AcDbText
 10
6.57
 20
-0.5060001373291012
 30
0.0
 40
0.5
  1
13.44
100
AcDbAttributeDefinition
  3

  2
B
 70
     8
280
     0
  0
ATTDEF
  5
1A2
330
190
100
AcDbEntity
  8
AM_6
100
AcDbText
 10
6.57
 20
-1.006000137329101
 30
0.0
 40
0.5
  1
13.440000
100
AcDbAttributeDefinition
  3

  2
B1
 70
     8
280
     0
  0
ATTDEF
  5
1A3
330
190
100
AcDbEntity
  8
AM_6
100
AcDbText
 10
6.57
 20
-1.506000137329101
 30
0.0
 40
0.5
  1
2.94
100
AcDbAttributeDefinition
  3

  2
C
 70
     8
280
     0
  0
ATTDEF
  5
1A4
330
190
100
AcDbEntity
  8
AM_6
100
AcDbText
 10
6.57
 20
-2.006000137329101
 30
0.0
 40
0.5
  1
2.940000
100
AcDbAttributeDefinition
  3

  2
C1
 70
     8
280
     0
  0
ATTDEF
  5
1A5
330
190
100
AcDbEntity
  8
AM_6
100
AcDbText
 10
6.57
 20
-2.506000137329101
 30
0.0
 40
0.5
  1
9.88
100
AcDbAttributeDefinition
  3

  2
DMIN
 70
     8
280
     0
  0
ATTDEF
  5
1A6
330
190
100
AcDbEntity
  8
AM_6
100
AcDbText
 10
6.57
 20
-3.006000137329101
 30
0.0
 40
0.5
  1
9.880000
100
AcDbAttributeDefinition
  3

  2
DMIN1
 70
     8
280
     0
  0
ATTDEF
  5
1A7
330
190
100
AcDbEntity
  8
AM_6
100
AcDbText
 10
6.57
 20
-3.506000137329101
 30
0.0
 40
0.5
  1
11.50
100
AcDbAttributeDefinition
  3

  2
DMAX
 70
     8
280
     0
  0
ATTDEF
  5
1A8
330
190
100
AcDbEntity
  8
AM_6
100
AcDbText
 10
6.57
 20
-4.006000137329101
 30
0.0
 40
0.5
  1
11.500000
100
AcDbAttributeDefinition
  3

  2
DMAX1
 70
     8
280
     0
  0
ATTDEF
  5
1A9
330
190
100
AcDbEntity
  8
AM_6
100
AcDbText
 10
6.57
 20
-4.506000137329101
 30
0.0
 40
0.5
  1
3/4
100
AcDbAttributeDefinition
  3

  2
F
 70
     8
280
     0
  0
ATTDEF
  5
1AA
330
190
100
AcDbEntity
  8
AM_6
100
AcDbText
 10
6.57
 20
-5.006000137329101
 30
0.0
 40
0.5
  1
0.750000
100
AcDbAttributeDefinition
  3

  2
F1
 70
     8
280
     0
  0
ATTDEF
  5
1AB
330
190
100
AcDbEntity
  8
AM_6
100
AcDbText
 10
6.57
 20
-5.506000137329101
 30
0.0
 40
0.5
  1
1.69
100
AcDbAttributeDefinition
  3

  2
G
 70
     8
280
     0
  0
ATTDEF
  5
1AC
330
190
100
AcDbEntity
  8
AM_6
100
AcDbText
 10
6.57
 20
-6.006000137329101
 30
0.0
 40
0.5
  1
1.690000
100
AcDbAttributeDefinition
  3

  2
G1
 70
     8
280
     0
  0
ATTDEF
  5
1AD
330
190
100
AcDbEntity
  8
AM_6
100
AcDbText
 10
6.57
 20
-6.506000137329101
 30
0.0
 40
0.5
  1
2.00
100
AcDbAttributeDefinition
  3

  2
H
 70
     8
280
     0
  0
ATTDEF
  5
1AE
330
190
100
AcDbEntity
  8
AM_6
100
AcDbText
 10
6.57
 20
-7.006000137329101
 30
0.0
 40
0.5
  1
2.000000
100
AcDbAttributeDefinition
  3

  2
H1
 70
     8
280
     0
  0
ATTDEF
  5
1AF
330
190
100
AcDbEntity
  8
AM_6
100
AcDbText
 10
6.57
 20
-7.506000137329101
 30
0.0
 40
0.5
  1
7.92
100
AcDbAttributeDefinition
  3

  2
J
 70
     8
280
     0
  0
ATTDEF
  5
1B0
330
190
100
AcDbEntity
  8
AM_6
100
AcDbText
 10
6.57
 20
-8.006000137329101
 30
0.0
 40
0.5
  1
7.920000
100
AcDbAttributeDefinition
  3

  2
J1
 70
     8
280
     0
  0
ATTDEF
  5
1B1
330
190
100
AcDbEntity
  8
AM_6
100
AcDbText
 10
6.57
 20
-8.506000137329101
 30
0.0
 40
0.5
  1
4.72
100
AcDbAttributeDefinition
  3

  2
L
 70
     8
280
     0
  0
ATTDEF
  5
1B2
330
190
100
AcDbEntity
  8
AM_6
100
AcDbText
 10
6.57
 20
-9.006000137329101
 30
0.0
 40
0.5
  1
4.720000
100
AcDbAttributeDefinition
  3

  2
L1
 70
     8
280
     0
  0
ATTDEF
  5
1B3
330
190
100
AcDbEntity
  8
AM_6
100
AcDbText
 10
6.57
 20
-9.506000137329101
 30
0.0
 40
0.5
  1
3.75
100
AcDbAttributeDefinition
  3

  2
M
 70
     8
280
     0
  0
ATTDEF
  5
1B4
330
190
100
AcDbEntity
  8
AM_6
100
AcDbText
 10
6.57
 20
-10.0060001373291
 30
0.0
 40
0.5
  1
3.750000
100
AcDbAttributeDefinition
  3

  2
M1
 70
     8
280
     0
  0
ATTDEF
  5
1B5
330
190
100
AcDbEntity
  8
AM_6
100
AcDbText
 10
6.57
 20
-10.5060001373291
 30
0.0
 40
0.5
  1
8.31
100
AcDbAttributeDefinition
  3

  2
P
 70
     8
280
     0
  0
ATTDEF
  5
1B6
330
190
100
AcDbEntity
  8
AM_6
100
AcDbText
 10
6.57
 20
-11.0060001373291
 30
0.0
 40
0.5
  1
8.310000
100
AcDbAttributeDefinition
  3

  2
P1
 70
     8
280
     0
  0
ATTDEF
  5
1B7
330
190
100
AcDbEntity
  8
AM_6
100
AcDbText
 10
6.57
 20
-11.5060001373291
 30
0.0
 40
0.5
  1
1.44
100
AcDbAttributeDefinition
  3

  2
R
 70
     8
280
     0
  0
ATTDEF
  5
1B8
330
190
100
AcDbEntity
  8
AM_6
100
AcDbText
 10
6.57
 20
-12.0060001373291
 30
0.0
 40
0.5
  1
1.440000
100
AcDbAttributeDefinition
  3

  2
R1
 70
     8
280
     0
  0
ATTDEF
  5
1B9
330
190
100
AcDbEntity
  8
AM_6
100
AcDbText
 10
6.57
 20
-12.5060001373291
 30
0.0
 40
0.5
  1
2.25
100
AcDbAttributeDefinition
  3

  2
S
 70
     8
280
     0
  0
ATTDEF
  5
1BA
330
190
100
AcDbEntity
  8
AM_6
100
AcDbText
 10
6.57
 20
-13.0060001373291
 30
0.0
 40
0.5
  1
2.250000
100
AcDbAttributeDefinition
  3

  2
S1
 70
     8
280
     0
  0
ATTDEF
  5
1BB
330
190
100
AcDbEntity
  8
AM_6
100
AcDbText
 10
6.57
 20
-13.5060001373291
 30
0.0
 40
0.5
  1
0.281250
100
AcDbAttributeDefinition
  3

  2
EXP1
 70
     8
280
     0
  0
ATTDEF
  5
1BC
330
190
100
AcDbEntity
  8
AM_6
100
AcDbText
 10
6.57
 20
-14.0060001373291
 30
0.0
 40
0.5
  1
1
100
AcDbAttributeDefinition
  3

  2
HF
 70
     8
280
     0
  0
ATTDEF
  5
1BD
330
190
100
AcDbEntity
  8
AM_6
100
AcDbText
 10
6.57
 20
-14.5060001373291
 30
0.0
 40
0.5
  1
.28
100
AcDbAttributeDefinition
  3

  2
T
 70
     8
280
     0
  0
ATTDEF
  5
1BE
330
190
100
AcDbEntity
  8
AM_6
100
AcDbText
 10
6.57
 20
-15.0060001373291
 30
0.0
 40
0.5
  1
baldor
100
AcDbAttributeDefinition
  3

  2
COMPANY
 70
     8
280
     0
  0
LINE
  5
1BF
330
190
100
AcDbEntity
  8
AM_9
100
AcDbLine
 10
-0.8725499999999997
 20
4.27
 30
0.0
 11
-0.8725499999999997
 21
4.17
 31
0.0
  0
LINE
  5
1C0
330
190
100
AcDbEntity
  8
AM_9
100
AcDbLine
 10
0.20775
 20
4.27
 30
0.0
 11
0.20775
 21
4.17
 31
0.0
  0
LINE
  5
1C1
330
190
100
AcDbEntity
  8
AM_9
100
AcDbLine
 10
-0.735
 20
4.17
 30
0.0
 11
-0.735
 21
2.9375
 31
0.0
  0
LINE
  5
1C2
330
190
100
AcDbEntity
  8
AM_9
100
AcDbLine
 10
0.735
 20
2.9375
 30
0.0
 11
0.735
 21
4.17
 31
0.0
  0
LINE
  5
1C3
330
190
100
AcDbEntity
  8
AM_9
100
AcDbLine
 10
-1.4
 20
-2.9375
 30
0.0
 11
1.4
 21
-2.9375
 31
0.0
  0
LINE
  5
1C4
330
190
100
AcDbEntity
  8
AM_9
100
AcDbLine
 10
1.4
 20
2.9375
 30
0.0
 11
0.7349999999999997
 21
2.9375
 31
0.0
  0
LINE
  5
1C5
330
190
100
AcDbEntity
  8
AM_9
100
AcDbLine
 10
-0.7350000000000001
 20
2.9375
 30
0.0
 11
-1.4
 21
2.9375
 31
0.0
  0
LWPOLYLINE
  5
1C6
330
190
100
AcDbEntity
  8
AM_9
100
AcDbPolyline
 90
       40
 70
     0
 43
0.0
 10
-0.7349999999998594
 20
2.937499999999964
 10
-0.7347098274596898
 20
2.937427408561078
 10
-0.7303511296692838
 20
2.936339198692832
 10
-0.7208138480232396
 20
2.933982592569709
 10
-0.7068898848838422
 20
2.930592162445736
 10
-0.6884018173702797
 20
2.926188358967806
 10
-0.6647663770814265
 20
2.920717851698088
 10
-0.6366315131119836
 20
2.914443503224458
 10
-0.604522643553818
 20
2.907598376489909
 10
-0.5684187942848025
 20
2.900307082999348
 10
-0.5273897222924335
 20
2.892546162774485
 10
-0.4826656338689685
 20
2.884726566612186
 10
-0.4347131577743349
 20
2.877092627980515
 10
-0.3836942986907958
 20
2.869826225548826
 10
-0.3283126107092683
 20
2.862949554400398
 10
-0.2704225345215945
 20
2.856888096719416
 10
-0.2125709610023515
 20
2.851995674655684
 10
-0.1531716336790633
 20
2.848182367645006
 10
-0.0907623720414638
 20
2.845511338998773
 10
-0.0276395720610448
 20
2.844194999634117
 10
0.0320729887833754
 20
2.844243796428273
 10
0.0915606193025644
 20
2.845534149682106
 10
0.1521243376601001
 20
2.848128518782255
 10
0.211569161800772
 20
2.851919136340489
 10
0.2675517450451746
 20
2.856619350612895
 10
0.3217321681189996
 20
2.862200698414168
 10
0.3751650747791561
 20
2.868699509820584
 10
0.4259901108830424
 20
2.875786644480105
 10
0.4738075497372459
 20
2.883258317902143
 10
0.5184026489497556
 20
2.89092071085288
 10
0.5605816311747541
 20
2.898781472574977
 10
0.5987722813559452
 20
2.906408349650854
 10
0.6323533781194745
 20
2.913511689746007
 10
0.661531712130735
 20
2.919983810940503
 10
0.6867388512015353
 20
2.925796820291454
 10
0.7068380846745922
 20
2.930580373909995
 10
0.7189940989476732
 20
2.933535634609611
 10
0.7277724881313634
 20
2.935699924120466
 10
0.7331878663942734
 20
2.937046591892519
 10
0.735
 20
2.9375
  0
LWPOLYLINE
  5
1C7
330
190
100
AcDbEntity
  8
AM_9
100
AcDbPolyline
 90
       12
 70
     0
 43
0.0
 10
1.016712021720251
 20
2.855307624016343
 10
0.9991207694757178
 20
2.864076385068596
 10
0.9474845469969341
 20
2.887322193808871
 10
0.8954993909610276
 20
2.907059405713638
 10
0.8425017295724693
 20
2.923488730986538
 10
0.7868275774622238
 20
2.936708920146854
 10
0.7310989790810484
 20
2.945711490327771
 10
0.6901070364523822
 20
2.94948492617272
 10
0.6497153333215884
 20
2.950700692272597
 10
0.6090745667321059
 20
2.949213008654634
 10
0.5696605320782272
 20
2.944941921519094
 10
0.5436484818049085
 20
2.94044054592689
  0
LWPOLYLINE
  5
1C8
330
190
100
AcDbEntity
  8
AM_9
100
AcDbPolyline
 90
        4
 70
     0
 43
0.0
 10
1.140903248684572
 20
2.78
 10
1.09596813367371
 20
2.810091583027188
 10
1.049044816113403
 20
2.838013704854625
 10
1.016712021720251
 20
2.855307624016343
  0
LWPOLYLINE
  5
1C9
330
190
100
AcDbEntity
  8
AM_9
100
AcDbPolyline
 90
        4
 70
     0
 43
0.0
 10
-1.01652468568512
 20
2.855403370459588
 10
-1.046187823605306
 20
2.839604199628856
 10
-1.094597574257409
 20
2.810956221355122
 10
-1.140903243981502
 20
2.780000013900001
  0
LWPOLYLINE
  5
1CA
330
190
100
AcDbEntity
  8
AM_9
100
AcDbPolyline
 90
       10
 70
     0
 43
0.0
 10
-0.5435685183582362
 20
2.940424510480704
 10
-0.5898091721954551
 20
2.94744170615433
 10
-0.6453737542948831
 20
2.95062621362787
 10
-0.7025547023771961
 20
2.948604578613903
 10
-0.7606523559236504
 20
2.941449383506407
 10
-0.8191947157066926
 20
2.929500789229545
 10
-0.8771382703385188
 20
2.913175072310185
 10
-0.9351482767921262
 20
2.892318232230167
 10
-0.9917121505265042
 20
2.867624084803152
 10
-1.01652468568512
 20
2.855403370459588
  0
LINE
  5
1CB
330
190
100
AcDbEntity
  8
AM_9
100
AcDbLine
 10
-1.479999999999998
 20
0.5
 30
0.0
 11
-1.479999999999998
 21
0.0
 31
0.0
  0
LINE
  5
1CC
330
190
100
AcDbEntity
  8
AM_9
100
AcDbLine
 10
-1.4
 20
3.095675675675676
 30
0.0
 11
-1.4
 21
-3.095675675675676
 31
0.0
  0
ARC
  5
1CD
330
190
100
AcDbEntity
  8
AM_9
100
AcDbCircle
 10
-1.479999999999999
 20
-3.095675675675676
 30
0.0
 40
0.0799999999999988
100
AcDbArc
 50
277.1807557814577
 51
0.0000008537736463
  0
ARC
  5
1CE
330
190
100
AcDbEntity
  8
AM_9
100
AcDbCircle
 10
-1.479999999999999
 20
3.095675675675676
 30
0.0
 40
0.079999999999999
100
AcDbArc
 50
0.0000008537736463
 51
82.81924421854227
  0
LINE
  5
1CF
330
190
100
AcDbEntity
  8
AM_9
100
AcDbLine
 10
1.48
 20
0.5
 30
0.0
 11
1.48
 21
0.0
 31
0.0
  0
LINE
  5
1D0
330
190
100
AcDbEntity
  8
AM_9
100
AcDbLine
 10
1.4
 20
3.095675675675675
 30
0.0
 11
1.4
 21
-3.095675675675675
 31
0.0
  0
ARC
  5
1D1
330
190
100
AcDbEntity
  8
AM_9
100
AcDbCircle
 10
1.479999999999999
 20
-3.095675675675677
 30
0.0
 40
0.0799999999999992
100
AcDbArc
 50
180.0
 51
262.8192442185423
  0
ARC
  5
1D2
330
190
100
AcDbEntity
  8
AM_9
100
AcDbCircle
 10
1.479999999999999
 20
3.095675675675677
 30
0.0
 40
0.0799999999999988
100
AcDbArc
 50
97.18075578145775
 51
180.0
  0
LINE
  5
1D3
330
190
100
AcDbEntity
  8
AM_9
100
AcDbLine
 10
0.4400000000000009
 20
-1.75
 30
0.0
 11
0.4400000000000009
 21
-3.75
 31
0.0
  0
LINE
  5
1D4
330
190
100
AcDbEntity
  8
AM_9
100
AcDbLine
 10
-0.4399999999999998
 20
-1.75
 30
0.0
 11
-0.4399999999999998
 21
-3.75
 31
0.0
  0
LINE
  5
1D5
330
190
100
AcDbEntity
  8
AM_7
100
AcDbLine
 10
0.9187500000000002
 20
2.6975
 30
0.0
 11
0.9187500000000002
 21
2.8625
 31
0.0
  0
LINE
  5
1D6
330
190
100
AcDbEntity
  8
AM_7
100
AcDbLine
 10
-0.9187500000000003
 20
2.6975
 30
0.0
 11
-0.9187500000000003
 21
2.8625
 31
0.0
  0
LINE
  5
1D7
330
190
100
AcDbEntity
  8
AM_7
100
AcDbLine
 10
0.0
 20
-0.30225
 30
0.0
 11
0.0
 21
5.993999862670899
 31
0.0
  0
LINE
  5
1D8
330
190
100
AcDbEntity
  8
AM_4
100
AcDbLine
 10
-0.8964850269189627
 20
4.37
 30
0.0
 11
-0.8964850269189627
 21
4.27
 31
0.0
  0
LINE
  5
1D9
330
190
100
AcDbEntity
  8
AM_4
100
AcDbLine
 10
-0.9542200538379252
 20
4.37
 30
0.0
 11
-0.9542200538379252
 21
4.27
 31
0.0
  0
LINE
  5
1DA
330
190
100
AcDbEntity
  8
AM_4
100
AcDbLine
 10
-0.7232799461620748
 20
4.37
 30
0.0
 11
-0.7232799461620748
 21
4.27
 31
0.0
  0
LINE
  5
1DB
330
190
100
AcDbEntity
  8
AM_4
100
AcDbLine
 10
-0.9542200538379252
 20
4.37
 30
0.0
 11
-0.7232799461620748
 21
4.37
 31
0.0
  0
LINE
  5
1DC
330
190
100
AcDbEntity
  8
AM_4
100
AcDbLine
 10
-0.7810149730810375
 20
4.37
 30
0.0
 11
-0.7810149730810375
 21
4.27
 31
0.0
  0
LINE
  5
1DD
330
190
100
AcDbEntity
  8
AM_4
100
AcDbLine
 10
0.7810149730810375
 20
4.37
 30
0.0
 11
0.7810149730810375
 21
4.27
 31
0.0
  0
LINE
  5
1DE
330
190
100
AcDbEntity
  8
AM_4
100
AcDbLine
 10
0.7232799461620748
 20
4.37
 30
0.0
 11
0.7232799461620748
 21
4.27
 31
0.0
  0
LINE
  5
1DF
330
190
100
AcDbEntity
  8
AM_4
100
AcDbLine
 10
0.7232799461620748
 20
4.37
 30
0.0
 11
0.9542200538379252
 21
4.37
 31
0.0
  0
LINE
  5
1E0
330
190
100
AcDbEntity
  8
AM_4
100
AcDbLine
 10
0.9542200538379252
 20
4.37
 30
0.0
 11
0.9542200538379254
 21
4.27
 31
0.0
  0
LINE
  5
1E1
330
190
100
AcDbEntity
  8
AM_4
100
AcDbLine
 10
0.8964850269189627
 20
4.37
 30
0.0
 11
0.8964850269189627
 21
4.27
 31
0.0
  0
LINE
  5
1E2
330
190
100
AcDbEntity
  8
AM_4
100
AcDbLine
 10
1.03875
 20
4.27
 30
0.0
 11
1.03875
 21
4.17
 31
0.0
  0
LINE
  5
1E3
330
190
100
AcDbEntity
  8
AM_4
100
AcDbLine
 10
-1.03875
 20
4.27
 30
0.0
 11
1.03875
 21
4.27
 31
0.0
  0
LINE
  5
1E4
330
190
100
AcDbEntity
  8
AM_4
100
AcDbLine
 10
-1.03875
 20
4.27
 30
0.0
 11
-1.03875
 21
4.17
 31
0.0
  0
LINE
  5
1E5
330
190
100
AcDbEntity
  8
AM_4
100
AcDbLine
 10
0.8725499999999999
 20
4.27
 30
0.0
 11
0.8725499999999999
 21
4.17
 31
0.0
  0
LINE
  5
1E6
330
190
100
AcDbEntity
  8
AM_4
100
AcDbLine
 10
-0.2077499999999995
 20
4.27
 30
0.0
 11
-0.2077499999999994
 21
4.17
 31
0.0
  0
LWPOLYLINE
  5
1E7
330
190
100
AcDbEntity
  8
AM_4
100
AcDbPolyline
 90
       19
 70
     0
 43
0.0
 10
1.469999999999999
 20
3.92
 10
1.469048674522936
 20
3.941788935686914
 10
1.466201938253051
 20
3.963412044416732
 10
1.461481456572266
 20
3.98470476127563
 10
1.454923155196476
 20
4.005505035831417
 10
1.446576946759162
 20
4.025654565435175
 10
1.436506350946109
 20
4.045
 10
1.424788011072247
 20
4.063394109087761
 10
1.411511110779744
 20
4.080696902421634
 10
1.396776695296636
 20
4.096776695296636
 10
1.380696902421634
 20
4.111511110779745
 10
1.363394109087761
 20
4.124788011072248
 10
1.344999999999999
 20
4.136506350946109
 10
1.325654565435174
 20
4.146576946759162
 10
1.305505035831416
 20
4.154923155196477
 10
1.284704761275629
 20
4.161481456572266
 10
1.263412044416732
 20
4.166201938253051
 10
1.241788935686914
 20
4.169048674522936
 10
1.219999999999999
 20
4.17
  0
LWPOLYLINE
  5
1E8
330
190
100
AcDbEntity
  8
AM_4
100
AcDbPolyline
 90
       19
 70
     0
 43
0.0
 10
-1.219999999999998
 20
4.17
 10
-1.241788935686913
 20
4.169048674522936
 10
-1.263412044416731
 20
4.166201938253052
 10
-1.284704761275629
 20
4.161481456572267
 10
-1.305505035831416
 20
4.154923155196477
 10
-1.325654565435173
 20
4.146576946759163
 10
-1.344999999999998
 20
4.13650635094611
 10
-1.36339410908776
 20
4.124788011072249
 10
-1.380696902421633
 20
4.111511110779745
 10
-1.396776695296635
 20
4.096776695296637
 10
-1.411511110779743
 20
4.080696902421635
 10
-1.424788011072246
 20
4.063394109087762
 10
-1.436506350946108
 20
4.045
 10
-1.446576946759161
 20
4.025654565435175
 10
-1.454923155196476
 20
4.005505035831417
 10
-1.461481456572266
 20
3.98470476127563
 10
-1.466201938253051
 20
3.963412044416733
 10
-1.469048674522935
 20
3.941788935686915
 10
-1.469999999999999
 20
3.92
  0
LINE
  5
1E9
330
190
100
AcDbEntity
  8
AM_4
100
AcDbLine
 10
-1.219999999999998
 20
4.17
 30
0.0
 11
1.219999999999999
 21
4.17
 31
0.0
  0
LINE
  5
1EA
330
190
100
AcDbEntity
  8
AM_4
100
AcDbLine
 10
-1.47
 20
3.919999999999998
 30
0.0
 11
-0.5837192844930899
 21
3.92
 31
0.0
  0
LINE
  5
1EB
330
190
100
AcDbEntity
  8
AM_4
100
AcDbLine
 10
0.5837192844930901
 20
3.92
 30
0.0
 11
1.47
 21
3.92
 31
0.0
  0
LINE
  5
1EC
330
190
100
AcDbEntity
  8
AM_4
100
AcDbLine
 10
-0.5369872981077805
 20
3.93340450740571
 30
0.0
 11
-1.47
 21
3.667175343503497
 31
0.0
  0
LINE
  5
1ED
330
190
100
AcDbEntity
  8
AM_4
100
AcDbLine
 10
1.47
 20
3.667175343503497
 30
0.0
 11
0.5369872981077806
 21
3.93340450740571
 31
0.0
  0
LINE
  5
1EE
330
190
100
AcDbEntity
  8
AM_4
100
AcDbLine
 10
0.5369872981077806
 20
3.93340450740571
 30
0.0
 11
0.5369872981077807
 21
2.939056919228884
 31
0.0
  0
LINE
  5
1EF
330
190
100
AcDbEntity
  8
AM_4
100
AcDbLine
 10
0.5369872981077806
 20
3.93340450740571
 30
0.0
 11
-0.5369872981077805
 21
3.93340450740571
 31
0.0
  0
LINE
  5
1F0
330
190
100
AcDbEntity
  8
AM_4
100
AcDbLine
 10
-0.5369872981077805
 20
3.93340450740571
 30
0.0
 11
-0.5369872981077802
 21
2.939056919228884
 31
0.0
  0
LWPOLYLINE
  5
1F1
330
190
100
AcDbEntity
  8
AM_4
100
AcDbPolyline
 90
        5
 70
     0
 43
0.0
 10
0.5369872981077807
 20
2.939056919228884
 10
0.4856674568638309
 20
2.905213377694007
 10
0.4384895212591918
 20
2.867406183932598
 10
0.3949434898215964
 20
2.825342558726875
 10
0.3558421454982066
 20
2.780000013899999
  0
LINE
  5
1F2
330
190
100
AcDbEntity
  8
AM_4
100
AcDbLine
 10
0.5436484818049085
 20
2.94044054592689
 30
0.0
 11
0.5369872981077806
 21
2.939056919228884
 31
0.0
  0
LWPOLYLINE
  5
1F3
330
190
100
AcDbEntity
  8
AM_4
100
AcDbPolyline
 90
        5
 70
     0
 43
0.0
 10
-0.3558421454982064
 20
2.780000013899999
 10
-0.3934791425245673
 20
2.823786341751931
 10
-0.4357927188412486
 20
2.865018979693033
 10
-0.4837442742643552
 20
2.903807451298547
 10
-0.5369872981077725
 20
2.939056919228888
  0
LINE
  5
1F4
330
190
100
AcDbEntity
  8
AM_4
100
AcDbLine
 10
-0.5369872981077802
 20
2.939056919228884
 30
0.0
 11
-0.5435685183582362
 21
2.940424510480704
 31
0.0
  0
LINE
  5
1F5
330
190
100
AcDbEntity
  8
AM_4
100
AcDbLine
 10
0.5437500000000002
 20
3.155000000000001
 30
0.0
 11
0.5437500000000002
 21
2.855
 31
0.0
  0
LINE
  5
1F6
330
190
100
AcDbEntity
  8
AM_4
100
AcDbLine
 10
0.5437500000000002
 20
3.155000000000001
 30
0.0
 11
1.29375
 21
3.155000000000001
 31
0.0
  0
LINE
  5
1F7
330
190
100
AcDbEntity
  8
AM_4
100
AcDbLine
 10
0.9187500000000003
 20
3.155000000000001
 30
0.0
 11
0.9187500000000003
 21
2.855
 31
0.0
  0
LINE
  5
1F8
330
190
100
AcDbEntity
  8
AM_4
100
AcDbLine
 10
1.29375
 20
3.155000000000001
 30
0.0
 11
1.29375
 21
2.855
 31
0.0
  0
LINE
  5
1F9
330
190
100
AcDbEntity
  8
AM_4
100
AcDbLine
 10
-0.54375
 20
3.155000000000001
 30
0.0
 11
-0.54375
 21
2.855
 31
0.0
  0
LINE
  5
1FA
330
190
100
AcDbEntity
  8
AM_4
100
AcDbLine
 10
-1.29375
 20
3.155000000000001
 30
0.0
 11
-0.54375
 21
3.155000000000001
 31
0.0
  0
LINE
  5
1FB
330
190
100
AcDbEntity
  8
AM_4
100
AcDbLine
 10
-1.29375
 20
3.155000000000001
 30
0.0
 11
-1.29375
 21
2.855
 31
0.0
  0
LINE
  5
1FC
330
190
100
AcDbEntity
  8
AM_4
100
AcDbLine
 10
-0.9187499999999997
 20
3.155000000000001
 30
0.0
 11
-0.9187499999999997
 21
2.855
 31
0.0
  0
LINE
  5
1FD
330
190
100
AcDbEntity
  8
AM_4
100
AcDbLine
 10
0.2819479765683163
 20
0.5
 30
0.0
 11
0.2819479765683163
 21
0.0
 31
0.0
  0
LINE
  5
1FE
330
190
100
AcDbEntity
  8
AM_4
100
AcDbLine
 10
-0.2819479731529869
 20
0.5
 30
0.0
 11
-0.2819479731529869
 21
0.0
 31
0.0
  0
LINE
  5
1FF
330
190
100
AcDbEntity
  8
AM_4
100
AcDbLine
 10
-1.3875
 20
2.855
 30
0.0
 11
-0.4499999999999998
 21
2.855
 31
0.0
  0
LINE
  5
200
330
190
100
AcDbEntity
  8
AM_4
100
AcDbLine
 10
-1.3875
 20
2.855
 30
0.0
 11
-1.3875
 21
2.780000013900001
 31
0.0
  0
LINE
  5
201
330
190
100
AcDbEntity
  8
AM_4
100
AcDbLine
 10
-0.4499999999999998
 20
2.780000013900001
 30
0.0
 11
-0.4499999999999998
 21
2.855
 31
0.0
  0
LINE
  5
202
330
190
100
AcDbEntity
  8
AM_4
100
AcDbLine
 10
0.4500000000000002
 20
2.855
 30
0.0
 11
1.3875
 21
2.855
 31
0.0
  0
LINE
  5
203
330
190
100
AcDbEntity
  8
AM_4
100
AcDbLine
 10
0.4500000000000002
 20
2.855
 30
0.0
 11
0.4500000000000002
 21
2.780000013900001
 31
0.0
  0
LINE
  5
204
330
190
100
AcDbEntity
  8
AM_4
100
AcDbLine
 10
1.3875
 20
2.780000013900001
 30
0.0
 11
1.3875
 21
2.855
 31
0.0
  0
LINE
  5
205
330
190
100
AcDbEntity
  8
AM_4
100
AcDbLine
 10
-0.4167356641092199
 20
2.780000013900001
 30
0.0
 11
-0.4167356641092199
 21
0.4999999999999996
 31
0.0
  0
LINE
  5
206
330
190
100
AcDbEntity
  8
AM_4
100
AcDbLine
 10
-1.1025
 20
0.0
 30
0.0
 11
-1.1025
 21
-1.75
 31
0.0
  0
LINE
  5
207
330
190
100
AcDbEntity
  8
AM_4
100
AcDbLine
 10
-1.47
 20
3.919999999999998
 30
0.0
 11
-1.47
 21
0.4999999999999996
 31
0.0
  0
LINE
  5
208
330
190
100
AcDbEntity
  8
AM_4
100
AcDbLine
 10
-1.1025
 20
2.780000013899999
 30
0.0
 11
-1.1025
 21
0.4999999999999998
 31
0.0
  0
LINE
  5
209
330
190
100
AcDbEntity
  8
AM_4
100
AcDbLine
 10
0.4167356641092206
 20
2.780000013900001
 30
0.0
 11
0.4167356641092206
 21
0.4999999999999996
 31
0.0
  0
LINE
  5
20A
330
190
100
AcDbEntity
  8
AM_4
100
AcDbLine
 10
-0.7349999999999997
 20
-1.75
 30
0.0
 11
-0.7349999999999998
 21
2.780000013899999
 31
0.0
  0
LINE
  5
20B
330
190
100
AcDbEntity
  8
AM_4
100
AcDbLine
 10
-0.4167356641092199
 20
0.0
 30
0.0
 11
-0.4167356641092199
 21
-1.75
 31
0.0
  0
LINE
  5
20C
330
190
100
AcDbEntity
  8
AM_4
100
AcDbLine
 10
1.1025
 20
0.0
 30
0.0
 11
1.1025
 21
-1.75
 31
0.0
  0
LINE
  5
20D
330
190
100
AcDbEntity
  8
AM_4
100
AcDbLine
 10
0.4167356641092206
 20
0.0
 30
0.0
 11
0.4167356641092206
 21
-1.75
 31
0.0
  0
LINE
  5
20E
330
190
100
AcDbEntity
  8
AM_4
100
AcDbLine
 10
0.7350000000000037
 20
-1.75
 30
0.0
 11
0.7350000000000037
 21
2.780000013899999
 31
0.0
  0
LINE
  5
20F
330
190
100
AcDbEntity
  8
AM_4
100
AcDbLine
 10
1.1025
 20
2.780000013899999
 30
0.0
 11
1.1025
 21
0.4999999999999998
 31
0.0
  0
LINE
  5
210
330
190
100
AcDbEntity
  8
AM_4
100
AcDbLine
 10
1.47
 20
3.92
 30
0.0
 11
1.47
 21
0.4999999999999996
 31
0.0
  0
LINE
  5
211
330
190
100
AcDbEntity
  8
AM_4
100
AcDbLine
 10
-1.47
 20
2.780000013899999
 30
0.0
 11
1.47
 21
2.780000013899999
 31
0.0
  0
LINE
  5
212
330
190
100
AcDbEntity
  8
AM_4
100
AcDbLine
 10
1.57
 20
0.5
 30
0.0
 11
1.57
 21
0.0
 31
0.0
  0
LINE
  5
213
330
190
100
AcDbEntity
  8
AM_4
100
AcDbLine
 10
1.2025
 20
0.5
 30
0.0
 11
1.2025
 21
0.0
 31
0.0
  0
LINE
  5
214
330
190
100
AcDbEntity
  8
AM_4
100
AcDbLine
 10
0.4006379582747603
 20
0.5
 30
0.0
 11
0.4006379582747603
 21
0.0
 31
0.0
  0
LINE
  5
215
330
190
100
AcDbEntity
  8
AM_4
100
AcDbLine
 10
-0.4006379626473279
 20
0.5
 30
0.0
 11
-0.4006379626473279
 21
0.0
 31
0.0
  0
LINE
  5
216
330
190
100
AcDbEntity
  8
AM_4
100
AcDbLine
 10
-1.57
 20
0.0
 30
0.0
 11
1.57
 21
0.0
 31
0.0
  0
LINE
  5
217
330
190
100
AcDbEntity
  8
AM_4
100
AcDbLine
 10
-1.57
 20
0.5
 30
0.0
 11
1.57
 21
0.5
 31
0.0
  0
LINE
  5
218
330
190
100
AcDbEntity
  8
AM_4
100
AcDbLine
 10
-1.57
 20
0.5
 30
0.0
 11
-1.57
 21
0.0
 31
0.0
  0
LINE
  5
219
330
190
100
AcDbEntity
  8
AM_4
100
AcDbLine
 10
-1.202500000000001
 20
0.5
 30
0.0
 11
-1.202500000000001
 21
0.0
 31
0.0
  0
LINE
  5
21A
330
190
100
AcDbEntity
  8
AM_4
100
AcDbLine
 10
-1.47
 20
0.0
 30
0.0
 11
-1.47
 21
-3.75
 31
0.0
  0
LINE
  5
21B
330
190
100
AcDbEntity
  8
AM_4
100
AcDbLine
 10
-1.47
 20
-1.75
 30
0.0
 11
1.47
 21
-1.75
 31
0.0
  0
LWPOLYLINE
  5
21C
330
190
100
AcDbEntity
  8
AM_4
100
AcDbPolyline
 90
       16
 70
     0
 43
0.0
 10
-1.469999999999999
 20
-1.764300635209234
 10
-1.436787447386635
 20
-1.775006846469336
 10
-1.404634386357496
 20
-1.788566982054864
 10
-1.373785521121563
 20
-1.804877841146177
 10
-1.344475630170336
 20
-1.823815288256825
 10
-1.316927779471749
 20
-1.845235197979553
 10
-1.291351624803466
 20
-1.868974551867674
 10
-1.267941816145817
 20
-1.894852679103888
 10
-1.246876516277915
 20
-1.922672631514286
 10
-1.228316044851332
 20
-1.952222682462878
 10
-1.212401658260741
 20
-1.983277938219136
 10
-1.199254474597468
 20
-2.015602049535081
 10
-1.188974551867676
 20
-2.048949010405765
 10
-1.181640126490525
 20
-2.083065030323517
 10
-1.177307017871784
 20
-2.117690465776946
 10
-1.175999999999999
 20
-2.149999999999998
  0
LINE
  5
21D
330
190
100
AcDbEntity
  8
AM_4
100
AcDbLine
 10
-1.47
 20
-3.75
 30
0.0
 11
1.47
 21
-3.75
 31
0.0
  0
LINE
  5
21E
330
190
100
AcDbEntity
  8
AM_4
100
AcDbLine
 10
1.47
 20
0.0
 30
0.0
 11
1.47
 21
-3.75
 31
0.0
  0
LWPOLYLINE
  5
21F
330
190
100
AcDbEntity
  8
AM_4
100
AcDbPolyline
 90
       16
 70
     0
 43
0.0
 10
1.176000000000001
 20
-2.149999999999998
 10
1.177522120763302
 20
-2.115137702900935
 10
1.182076898795117
 20
-2.080540728933226
 10
1.189629669484373
 20
-2.04647238195899
 10
1.200122951685637
 20
-2.013191942669731
 10
1.21347688518534
 20
-1.980952695303719
 10
1.229589838486225
 20
-1.949999999999999
 10
1.248339182284403
 20
-1.920569425459581
 10
1.269582222752409
 20
-1.892884956125384
 10
1.293157287525381
 20
-1.86715728752538
 10
1.318884956125384
 20
-1.843582222752408
 10
1.346569425459581
 20
-1.822339182284403
 10
1.375999999999999
 20
-1.803589838486224
 10
1.406952695303719
 20
-1.78747688518534
 10
1.439191942669731
 20
-1.774122951685636
 10
1.47
 20
-1.764300635209234
  0
LINE
  5
220
330
190
100
AcDbEntity
  8
AM_4
100
AcDbLine
 10
1.176
 20
-2.149999999999998
 30
0.0
 11
1.176
 21
-3.75
 31
0.0
  0
LINE
  5
221
330
190
100
AcDbEntity
  8
AM_4
100
AcDbLine
 10
-1.175999999999999
 20
-2.149999999999998
 30
0.0
 11
1.176
 21
-2.149999999999998
 31
0.0
  0
LINE
  5
222
330
190
100
AcDbEntity
  8
AM_4
100
AcDbLine
 10
-1.175999999999999
 20
-2.149999999999998
 30
0.0
 11
-1.175999999999999
 21
-3.75
 31
0.0
  0
ENDBLK
  5
193
330
190
100
AcDbEntity
  8
0
100
AcDbBlockEnd
  0
ENDSEC
  0
SECTION
  2
ENTITIES
  0
INSERT
  5
6F
330
1F
100
AcDbEntity
  8
0
100
AcDbBlockReference
  2
1_023205_2
 10
0.0
 20
0.0
 30
0.0
  0
POINT
  5
224
330
1F
100
AcDbEntity
  8
ConnectionPoints
100
AcDbPoint
 10
0.0
 20
3.82425
 30
0.0
  0
POINT
  5
225
330
1F
100
AcDbEntity
  8
ConnectionPoints
100
AcDbPoint
 10
0.0
 20
3.82425
 30
0.0
  0
POINT
  5
226
330
1F
100
AcDbEntity
  8
ConnectionPoints
100
AcDbPoint
 10
0.0
 20
0.0
 30
0.0
  0
POINT
  5
227
330
1F
100
AcDbEntity
  8
ConnectionPoints
100
AcDbPoint
 10
-2.25
 20
0.0
 30
0.0000000000000001
  0
POINT
  5
228
330
1F
100
AcDbEntity
  8
ConnectionPoints
100
AcDbPoint
 10
1.876
 20
0.0
 30
-0.0000000000000001
  0
POINT
  5
229
330
1F
100
AcDbEntity
  8
ConnectionPoints
100
AcDbPoint
 10
0.0
 20
0.0
 30
0.0
  0
POINT
  5
22A
330
1F
100
AcDbEntity
  8
ConnectionPoints
100
AcDbPoint
 10
-2.25
 20
0.0
 30
0.0000000000000001
  0
ENDSEC
  0
SECTION
  2
OBJECTS
  0
DICTIONARY
  5
C
330
0
100
AcDbDictionary
281
     1
  3
ACAD_DETAILVIEWSTYLE
350
232
  3
ACAD_GROUP
350
D
  3
ACAD_LAYOUT
350
1A
  3
ACAD_MATERIAL
350
43
  3
ACAD_MLEADERSTYLE
350
6B
  3
ACAD_MLINESTYLE
350
17
  3
ACAD_PLOTSETTINGS
350
19
  3
ACAD_PLOTSTYLENAME
350
E
  3
ACAD_SCALELIST
350
47
  3
ACAD_SECTIONVIEWSTYLE
350
233
  3
ACAD_TABLESTYLE
350
69
  3
ACAD_VISUALSTYLE
350
2A
  3
ACDB_RECOMPOSE_DATA
350
22F
  3
AcDbVariableDictionary
350
22B
  0
SUN
  5
6D
330
29
100
AcDbSun
 90
        1
290
     0
 63
     7
421
 16777215
 40
1.0
291
     1
 91
  2455826
 92
 54000000
292
     0
 70
     2
 71
   256
280
     1
  0
DICTIONARY
  5
232
102
{ACAD_REACTORS
330
C
102
}
330
C
100
AcDbDictionary
281
     1
  0
DICTIONARY
  5
D
102
{ACAD_REACTORS
330
C
102
}
330
C
100
AcDbDictionary
281
     1
  0
DICTIONARY
  5
1A
102
{ACAD_REACTORS
330
C
102
}
330
C
100
AcDbDictionary
281
     1
  3
Layout1
350
1E
  3
Layout2
350
26
  3
Model
350
22
  0
DICTIONARY
  5
43
102
{ACAD_REACTORS
330
C
102
}
330
C
100
AcDbDictionary
281
     1
  3
ByBlock
350
45
  3
ByLayer
350
44
  3
Global
350
46
  0
DICTIONARY
  5
6B
102
{ACAD_REACTORS
330
C
102
}
330
C
100
AcDbDictionary
281
     1
  3
Standard
350
6C
  0
DICTIONARY
  5
17
102
{ACAD_REACTORS
330
C
102
}
330
C
100
AcDbDictionary
281
     1
  3
Standard
350
18
  0
DICTIONARY
  5
19
102
{ACAD_REACTORS
330
C
102
}
330
C
100
AcDbDictionary
281
     1
  0
ACDBDICTIONARYWDFLT
  5
E
102
{ACAD_REACTORS
330
C
102
}
330
C
100
AcDbDictionary
281
     1
  3
Normal
350
F
100
AcDbDictionaryWithDefault
340
F
  0
DICTIONARY
  5
47
102
{ACAD_REACTORS
330
C
102
}
330
C
100
AcDbDictionary
281
     1
  3
A0
350
48
  3
A1
350
49
  3
A2
350
4A
  3
A3
350
4B
  3
A4
350
4C
  3
A5
350
4D
  3
A6
350
4E
  3
A7
350
4F
  3
A8
350
50
  3
A9
350
51
  3
B0
350
52
  3
B1
350
53
  3
B2
350
54
  3
B3
350
55
  3
B4
350
56
  3
B5
350
57
  3
B6
350
58
  3
B7
350
59
  3
B8
350
5A
  3
B9
350
5B
  3
C0
350
5C
  3
C1
350
5D
  3
C2
350
5E
  3
C3
350
5F
  3
C4
350
60
  3
C5
350
61
  3
C6
350
62
  3
C7
350
63
  3
C8
350
64
  3
C9
350
65
  3
D0
350
66
  3
D1
350
67
  3
D2
350
68
  0
DICTIONARY
  5
233
102
{ACAD_REACTORS
330
C
102
}
330
C
100
AcDbDictionary
281
     1
  0
DICTIONARY
  5
69
102
{ACAD_REACTORS
330
C
102
}
330
C
100
AcDbDictionary
281
     1
  3
Standard
350
6A
  0
DICTIONARY
  5
2A
102
{ACAD_REACTORS
330
C
102
}
330
C
100
AcDbDictionary
281
     1
  3
2dWireframe
350
2F
  3
Basic
350
32
  3
Brighten
350
36
  3
ColorChange
350
3A
  3
Conceptual
350
34
  3
Dim
350
35
  3
EdgeColorOff
350
3D
  3
Facepattern
350
39
  3
Flat
350
2B
  3
FlatWithEdges
350
2C
  3
Gouraud
350
2D
  3
GouraudWithEdges
350
2E
  3
Hidden
350
31
  3
JitterOff
350
3B
  3
Linepattern
350
38
  3
OverhangOff
350
3C
  3
Realistic
350
33
  3
Shaded
350
42
  3
Shaded with edges
350
41
  3
Shades of Gray
350
3E
  3
Sketchy
350
3F
  3
Thicken
350
37
  3
Wireframe
350
30
  3
X-Ray
350
40
  0
XRECORD
  5
22F
102
{ACAD_REACTORS
330
C
102
}
330
C
100
AcDbXrecord
280
     1
 90
        1
330
6A
  0
DICTIONARY
  5
22B
102
{ACAD_REACTORS
330
C
102
}
330
C
100
AcDbDictionary
281
     1
  3
CANNOSCALE
350
22C
  3
CMLEADERSTYLE
350
231
  3
CTABLESTYLE
350
230
  0
LAYOUT
  5
1E
102
{ACAD_REACTORS
330
1A
102
}
330
1A
100
AcDbPlotSettings
  1

  2
none_device
  4

  6

 40
0.0
 41
0.0
 42
0.0
 43
0.0
 44
0.0
 45
0.0
 46
0.0
 47
0.0
 48
0.0
 49
0.0
140
0.0
141
0.0
142
1.0
143
1.0
 70
   688
 72
     0
 73
     0
 74
     5
  7

 75
    16
 76
     0
 77
     2
 78
   300
147
1.0
148
0.0
149
0.0
100
AcDbLayout
  1
Layout1
 70
     1
 71
     1
 10
0.0
 20
0.0
 11
12.0
 21
9.0
 12
0.0
 22
0.0
 32
0.0
 14
1.000000000000000E+20
 24
1.000000000000000E+20
 34
1.000000000000000E+20
 15
-1.000000000000000E+20
 25
-1.000000000000000E+20
 35
-1.000000000000000E+20
146
0.0
 13
0.0
 23
0.0
 33
0.0
 16
1.0
 26
0.0
 36
0.0
 17
0.0
 27
1.0
 37
0.0
 76
     0
330
1B
  0
LAYOUT
  5
26
102
{ACAD_REACTORS
330
1A
102
}
330
1A
100
AcDbPlotSettings
  1

  2
none_device
  4

  6

 40
0.0
 41
0.0
 42
0.0
 43
0.0
 44
0.0
 45
0.0
 46
0.0
 47
0.0
 48
0.0
 49
0.0
140
0.0
141
0.0
142
1.0
143
1.0
 70
   688
 72
     0
 73
     0
 74
     5
  7

 75
    16
 76
     0
 77
     2
 78
   300
147
1.0
148
0.0
149
0.0
100
AcDbLayout
  1
Layout2
 70
     1
 71
     2
 10
0.0
 20
0.0
 11
0.0
 21
0.0
 12
0.0
 22
0.0
 32
0.0
 14
0.0
 24
0.0
 34
0.0
 15
0.0
 25
0.0
 35
0.0
146
0.0
 13
0.0
 23
0.0
 33
0.0
 16
1.0
 26
0.0
 36
0.0
 17
0.0
 27
1.0
 37
0.0
 76
     0
330
23
  0
LAYOUT
  5
22
102
{ACAD_REACTORS
330
1A
102
}
330
1A
100
AcDbPlotSettings
  1

  2
none_device
  4
Letter_(8.50_x_11.00_Inches)
  6

 40
6.35
 41
6.35
 42
6.35000508
 43
6.35000508
 44
215.9
 45
279.4
 46
0.0
 47
0.0
 48
0.0
 49
0.0
140
0.0
141
0.0
142
1.0
143
1.0
 70
  1712
 72
     0
 73
     0
 74
     0
  7

 75
     0
 76
     0
 77
     2
 78
   300
147
1.0
148
0.0
149
0.0
100
AcDbLayout
  1
Model
 70
     1
 71
     0
 10
0.0
 20
0.0
 11
12.0
 21
9.0
 12
0.0
 22
0.0
 32
0.0
 14
1.000000000000000E+20
 24
1.000000000000000E+20
 34
1.000000000000000E+20
 15
-1.000000000000000E+20
 25
-1.000000000000000E+20
 35
-1.000000000000000E+20
146
0.0
 13
0.0
 23
0.0
 33
0.0
 16
1.0
 26
0.0
 36
0.0
 17
0.0
 27
1.0
 37
0.0
 76
     0
330
1F
331
29
  0
MATERIAL
  5
45
102
{ACAD_REACTORS
330
43
102
}
330
43
100
AcDbMaterial
  1
ByBlock
 72
     1
 94
      127
  0
MATERIAL
  5
44
102
{ACAD_REACTORS
330
43
102
}
330
43
100
AcDbMaterial
  1
ByLayer
 72
     1
 94
      127
  0
MATERIAL
  5
46
102
{ACAD_REACTORS
330
43
102
}
330
43
100
AcDbMaterial
  1
Global
 72
     1
 94
      127
  0
MLEADERSTYLE
  5
6C
102
{ACAD_REACTORS
330
6B
102
}
330
6B
100
AcDbMLeaderStyle
179
     2
170
     2
171
     1
172
     0
 90
        2
 40
0.0
 41
0.0
173
     1
 91
-1056964608
340
14
 92
       -2
290
     1
 42
0.09
291
     1
 43
0.36
  3
Standard
341
0
 44
0.18
300

342
11
174
     1
178
     6
175
     1
176
     0
 93
-1056964608
 45
0.18
292
     0
297
     0
 46
0.18
343
0
 94
-1056964608
 47
1.0
 49
1.0
140
1.0
293
     1
141
0.0
294
     1
177
     0
142
1.0
295
     0
296
     0
143
0.125
271
     0
272
     9
273
     9
298
     0
  0
MLINESTYLE
  5
18
102
{ACAD_REACTORS
330
17
102
}
330
17
100
AcDbMlineStyle
  2
Standard
 70
     0
  3

 62
   256
 51
90.0
 52
90.0
 71
     2
 49
0.5
 62
   256
  6
BYLAYER
 49
-0.5
 62
   256
  6
BYLAYER
  0
ACDBPLACEHOLDER
  5
F
102
{ACAD_REACTORS
330
E
102
}
330
E
  0
SCALE
  5
48
102
{ACAD_REACTORS
330
47
102
}
330
47
100
AcDbScale
 70
     0
300
1:1
140
1.0
141
1.0
290
     1
  0
SCALE
  5
49
102
{ACAD_REACTORS
330
47
102
}
330
47
100
AcDbScale
 70
     0
300
1:2
140
1.0
141
2.0
290
     0
  0
SCALE
  5
4A
102
{ACAD_REACTORS
330
47
102
}
330
47
100
AcDbScale
 70
     0
300
1:4
140
1.0
141
4.0
290
     0
  0
SCALE
  5
4B
102
{ACAD_REACTORS
330
47
102
}
330
47
100
AcDbScale
 70
     0
300
1:5
140
1.0
141
5.0
290
     0
  0
SCALE
  5
4C
102
{ACAD_REACTORS
330
47
102
}
330
47
100
AcDbScale
 70
     0
300
1:8
140
1.0
141
8.0
290
     0
  0
SCALE
  5
4D
102
{ACAD_REACTORS
330
47
102
}
330
47
100
AcDbScale
 70
     0
300
1:10
140
1.0
141
10.0
290
     0
  0
SCALE
  5
4E
102
{ACAD_REACTORS
330
47
102
}
330
47
100
AcDbScale
 70
     0
300
1:16
140
1.0
141
16.0
290
     0
  0
SCALE
  5
4F
102
{ACAD_REACTORS
330
47
102
}
330
47
100
AcDbScale
 70
     0
300
1:20
140
1.0
141
20.0
290
     0
  0
SCALE
  5
50
102
{ACAD_REACTORS
330
47
102
}
330
47
100
AcDbScale
 70
     0
300
1:30
140
1.0
141
30.0
290
     0
  0
SCALE
  5
51
102
{ACAD_REACTORS
330
47
102
}
330
47
100
AcDbScale
 70
     0
300
1:40
140
1.0
141
40.0
290
     0
  0
SCALE
  5
52
102
{ACAD_REACTORS
330
47
102
}
330
47
100
AcDbScale
 70
     0
300
1:50
140
1.0
141
50.0
290
     0
  0
SCALE
  5
53
102
{ACAD_REACTORS
330
47
102
}
330
47
100
AcDbScale
 70
     0
300
1:100
140
1.0
141
100.0
290
     0
  0
SCALE
  5
54
102
{ACAD_REACTORS
330
47
102
}
330
47
100
AcDbScale
 70
     0
300
2:1
140
2.0
141
1.0
290
     0
  0
SCALE
  5
55
102
{ACAD_REACTORS
330
47
102
}
330
47
100
AcDbScale
 70
     0
300
4:1
140
4.0
141
1.0
290
     0
  0
SCALE
  5
56
102
{ACAD_REACTORS
330
47
102
}
330
47
100
AcDbScale
 70
     0
300
8:1
140
8.0
141
1.0
290
     0
  0
SCALE
  5
57
102
{ACAD_REACTORS
330
47
102
}
330
47
100
AcDbScale
 70
     0
300
10:1
140
10.0
141
1.0
290
     0
  0
SCALE
  5
58
102
{ACAD_REACTORS
330
47
102
}
330
47
100
AcDbScale
 70
     0
300
100:1
140
100.0
141
1.0
290
     0
  0
SCALE
  5
59
102
{ACAD_REACTORS
330
47
102
}
330
47
100
AcDbScale
 70
     0
300
1/128" = 1'-0"
140
0.0078125
141
12.0
290
     0
  0
SCALE
  5
5A
102
{ACAD_REACTORS
330
47
102
}
330
47
100
AcDbScale
 70
     0
300
1/64" = 1'-0"
140
0.015625
141
12.0
290
     0
  0
SCALE
  5
5B
102
{ACAD_REACTORS
330
47
102
}
330
47
100
AcDbScale
 70
     0
300
1/32" = 1'-0"
140
0.03125
141
12.0
290
     0
  0
SCALE
  5
5C
102
{ACAD_REACTORS
330
47
102
}
330
47
100
AcDbScale
 70
     0
300
1/16" = 1'-0"
140
0.0625
141
12.0
290
     0
  0
SCALE
  5
5D
102
{ACAD_REACTORS
330
47
102
}
330
47
100
AcDbScale
 70
     0
300
3/32" = 1'-0"
140
0.09375
141
12.0
290
     0
  0
SCALE
  5
5E
102
{ACAD_REACTORS
330
47
102
}
330
47
100
AcDbScale
 70
     0
300
1/8" = 1'-0"
140
0.125
141
12.0
290
     0
  0
SCALE
  5
5F
102
{ACAD_REACTORS
330
47
102
}
330
47
100
AcDbScale
 70
     0
300
3/16" = 1'-0"
140
0.1875
141
12.0
290
     0
  0
SCALE
  5
60
102
{ACAD_REACTORS
330
47
102
}
330
47
100
AcDbScale
 70
     0
300
1/4" = 1'-0"
140
0.25
141
12.0
290
     0
  0
SCALE
  5
61
102
{ACAD_REACTORS
330
47
102
}
330
47
100
AcDbScale
 70
     0
300
3/8" = 1'-0"
140
0.375
141
12.0
290
     0
  0
SCALE
  5
62
102
{ACAD_REACTORS
330
47
102
}
330
47
100
AcDbScale
 70
     0
300
1/2" = 1'-0"
140
0.5
141
12.0
290
     0
  0
SCALE
  5
63
102
{ACAD_REACTORS
330
47
102
}
330
47
100
AcDbScale
 70
     0
300
3/4" = 1'-0"
140
0.75
141
12.0
290
     0
  0
SCALE
  5
64
102
{ACAD_REACTORS
330
47
102
}
330
47
100
AcDbScale
 70
     0
300
1" = 1'-0"
140
1.0
141
12.0
290
     0
  0
SCALE
  5
65
102
{ACAD_REACTORS
330
47
102
}
330
47
100
AcDbScale
 70
     0
300
1-1/2" = 1'-0"
140
1.5
141
12.0
290
     0
  0
SCALE
  5
66
102
{ACAD_REACTORS
330
47
102
}
330
47
100
AcDbScale
 70
     0
300
3" = 1'-0"
140
3.0
141
12.0
290
     0
  0
SCALE
  5
67
102
{ACAD_REACTORS
330
47
102
}
330
47
100
AcDbScale
 70
     0
300
6" = 1'-0"
140
6.0
141
12.0
290
     0
  0
SCALE
  5
68
102
{ACAD_REACTORS
330
47
102
}
330
47
100
AcDbScale
 70
     0
300
1'-0" = 1'-0"
140
12.0
141
12.0
290
     0
  0
TABLESTYLE
  5
6A
102
{ACAD_REACTORS
330
69
102
}
102
{ACAD_XDICTIONARY
360
22D
102
}
330
69
100
AcDbTableStyle
  3
Standard
 70
     0
 71
     0
 40
0.06
 41
0.06
280
     0
281
     0
  7
Standard
140
0.18
170
     2
 62
     0
 63
   257
283
     0
 90
        4
 91
        0
  1

274
    -2
284
     1
 64
     0
275
    -2
285
     1
 65
     0
276
    -2
286
     1
 66
     0
277
    -2
287
     1
 67
     0
278
    -2
288
     1
 68
     0
279
    -2
289
     1
 69
     0
  7
Standard
140
0.25
170
     5
 62
     0
 63
   257
283
     0
 90
        4
 91
        0
  1

274
    -2
284
     1
 64
     0
275
    -2
285
     1
 65
     0
276
    -2
286
     1
 66
     0
277
    -2
287
     1
 67
     0
278
    -2
288
     1
 68
     0
279
    -2
289
     1
 69
     0
  7
Standard
140
0.18
170
     5
 62
     0
 63
   257
283
     0
 90
        4
 91
        0
  1

274
    -2
284
     1
 64
     0
275
    -2
285
     1
 65
     0
276
    -2
286
     1
 66
     0
277
    -2
287
     1
 67
     0
278
    -2
288
     1
 68
     0
279
    -2
289
     1
 69
     0
  0
VISUALSTYLE
  5
2F
102
{ACAD_REACTORS
330
2A
102
}
330
2A
100
AcDbVisualStyle
  2
2dWireframe
 70
     4
177
     3
291
     0
 70
    58
 90
        0
176
     1
 90
        2
176
     1
 90
        0
176
     1
 90
        0
176
     1
 40
0.6
176
     1
 40
30.0
176
     1
 62
     7
420
 16777215
176
     1
 90
        1
176
     1
 90
        4
176
     1
 62
     7
176
     1
 62
   257
176
     1
 90
        1
176
     1
 90
        1
176
     1
 40
1.0
176
     1
 90
        0
176
     1
 62
   257
176
     1
 40
1.0
176
     1
 90
        1
176
     1
 90
        6
176
     1
 90
        2
176
     1
 62
     7
176
     1
 90
        5
176
     1
 90
        0
176
     1
 90
        0
176
     1
290
     0
176
     1
 90
        1
176
     1
 40
0.0
176
     1
 90
        0
176
     1
290
     1
176
     1
290
     1
176
     1
290
     0
176
     1
290
     0
176
     1
290
     0
176
     1
290
     0
176
     1
290
     0
176
     1
290
     0
176
     1
290
     0
176
     1
 90
       50
176
     1
 40
0.0
176
     1
 40
1.0
176
     1
 90
        0
176
     1
 62
    18
420
        0
176
     1
 90
       50
176
     1
 90
        3
176
     1
 62
     5
420
      255
176
     1
290
     0
176
     1
 90
       50
176
     1
 90
       50
176
     1
 90
       50
176
     1
290
     0
176
     1
 90
       50
176
     1
 62
   256
176
     0
 40
1.0
176
     0
 90
        2
176
     1
  1
strokes_ogs.tif
176
     1
290
     0
176
     1
 40
1.0
176
     1
 40
1.0
176
     1
  0
VISUALSTYLE
  5
32
102
{ACAD_REACTORS
330
2A
102
}
330
2A
100
AcDbVisualStyle
  2
Basic
 70
     7
177
     3
291
     1
 70
    58
 90
        1
176
     1
 90
        0
176
     1
 90
        1
176
     1
 90
        0
176
     1
 40
0.6
176
     1
 40
30.0
176
     1
 62
     7
420
 16777215
176
     1
 90
        0
176
     1
 90
        4
176
     1
 62
     7
176
     1
 62
   257
176
     1
 90
        1
176
     1
 90
        1
176
     1
 40
1.0
176
     1
 90
        8
176
     1
 62
     7
176
     1
 40
1.0
176
     1
 90
        1
176
     1
 90
        6
176
     1
 90
        2
176
     1
 62
     7
176
     1
 90
        5
176
     1
 90
        0
176
     1
 90
        0
176
     1
290
     0
176
     1
 90
        1
176
     1
 40
0.0
176
     1
 90
        0
176
     1
290
     0
176
     1
290
     1
176
     1
290
     1
176
     1
290
     0
176
     1
290
     0
176
     1
290
     0
176
     1
290
     0
176
     1
290
     0
176
     1
290
     0
176
     1
 90
       50
176
     1
 40
0.0
176
     1
 40
1.0
176
     1
 90
        0
176
     1
 62
    18
420
        0
176
     1
 90
       50
176
     1
 90
        3
176
     1
 62
     5
420
      255
176
     1
290
     0
176
     1
 90
       50
176
     1
 90
       50
176
     1
 90
       50
176
     1
290
     0
176
     1
 90
       50
176
     1
 62
   256
176
     0
 40
1.0
176
     0
 90
        2
176
     1
  1
strokes_ogs.tif
176
     1
290
     0
176
     1
 40
1.0
176
     1
 40
1.0
176
     1
  0
VISUALSTYLE
  5
36
102
{ACAD_REACTORS
330
2A
102
}
330
2A
100
AcDbVisualStyle
  2
Brighten
 70
    12
177
     3
291
     1
 70
    58
 90
        2
176
     1
 90
        2
176
     1
 90
        0
176
     1
 90
        0
176
     1
 40
0.6
176
     1
 40
30.0
176
     1
 62
     7
420
 16777215
176
     1
 90
        1
176
     1
 90
        4
176
     1
 62
     7
176
     1
 62
   257
176
     1
 90
        1
176
     1
 90
        1
176
     1
 40
1.0
176
     1
 90
        8
176
     1
 62
     7
176
     1
 40
1.0
176
     1
 90
        1
176
     1
 90
        6
176
     1
 90
        2
176
     1
 62
     7
176
     1
 90
        5
176
     1
 90
        0
176
     1
 90
        0
176
     1
290
     0
176
     1
 90
        1
176
     1
 40
50.0
176
     1
 90
        0
176
     1
290
     0
176
     1
290
     1
176
     1
290
     1
176
     1
290
     0
176
     1
290
     0
176
     1
290
     0
176
     1
290
     0
176
     1
290
     0
176
     1
290
     0
176
     1
 90
       50
176
     1
 40
0.0
176
     1
 40
1.0
176
     1
 90
        0
176
     1
 62
    18
420
        0
176
     1
 90
       50
176
     1
 90
        3
176
     1
 62
     5
420
      255
176
     1
290
     0
176
     1
 90
       50
176
     1
 90
       50
176
     1
 90
       50
176
     1
290
     0
176
     1
 90
       50
176
     1
 62
   256
176
     0
 40
1.0
176
     0
 90
        2
176
     1
  1
strokes_ogs.tif
176
     1
290
     0
176
     1
 40
1.0
176
     1
 40
1.0
176
     1
  0
VISUALSTYLE
  5
3A
102
{ACAD_REACTORS
330
2A
102
}
330
2A
100
AcDbVisualStyle
  2
ColorChange
 70
    16
177
     3
291
     1
 70
    58
 90
        2
176
     1
 90
        2
176
     1
 90
        3
176
     1
 90
        0
176
     1
 40
0.6
176
     1
 40
30.0
176
     1
 62
     8
420
  8421504
176
     1
 90
        1
176
     1
 90
        4
176
     1
 62
     7
176
     1
 62
   257
176
     1
 90
        1
176
     1
 90
        1
176
     1
 40
1.0
176
     1
 90
        8
176
     1
 62
     8
420
  8421504
176
     1
 40
1.0
176
     1
 90
        1
176
     1
 90
        6
176
     1
 90
        2
176
     1
 62
     7
176
     1
 90
        5
176
     1
 90
        0
176
     1
 90
        0
176
     1
290
     0
176
     1
 90
        1
176
     1
 40
0.0
176
     1
 90
        0
176
     1
290
     0
176
     1
290
     1
176
     1
290
     1
176
     1
290
     0
176
     1
290
     0
176
     1
290
     0
176
     1
290
     0
176
     1
290
     0
176
     1
290
     0
176
     1
 90
       50
176
     1
 40
0.0
176
     1
 40
1.0
176
     1
 90
        0
176
     1
 62
    18
420
        0
176
     1
 90
       50
176
     1
 90
        3
176
     1
 62
     5
420
      255
176
     1
290
     0
176
     1
 90
       50
176
     1
 90
       50
176
     1
 90
       50
176
     1
290
     0
176
     1
 90
       50
176
     1
 62
   256
176
     0
 40
1.0
176
     0
 90
        2
176
     1
  1
strokes_ogs.tif
176
     1
290
     0
176
     1
 40
1.0
176
     1
 40
1.0
176
     1
  0
VISUALSTYLE
  5
34
102
{ACAD_REACTORS
330
2A
102
}
330
2A
100
AcDbVisualStyle
  2
Conceptual
 70
     9
177
     3
291
     0
 70
    58
 90
        3
176
     1
 90
        2
176
     1
 90
        0
176
     1
 90
        0
176
     1
 40
0.6
176
     1
 40
30.0
176
     1
 62
     7
420
 16777215
176
     1
 90
        2
176
     1
 90
        2
176
     1
 62
     7
176
     1
 62
   257
176
     1
 90
        1
176
     1
 90
        1
176
     1
 40
179.0
176
     1
 90
        8
176
     1
 62
     7
176
     1
 40
1.0
176
     1
 90
        1
176
     1
 90
        6
176
     1
 90
        2
176
     1
 62
     7
176
     1
 90
        3
176
     1
 90
        0
176
     1
 90
        0
176
     1
290
     0
176
     1
 90
        1
176
     1
 40
0.0
176
     1
 90
        0
176
     1
290
     0
176
     1
290
     1
176
     1
290
     1
176
     1
290
     0
176
     1
290
     0
176
     1
290
     0
176
     1
290
     0
176
     1
290
     0
176
     1
290
     0
176
     1
 90
       50
176
     1
 40
0.0
176
     1
 40
1.0
176
     1
 90
        0
176
     1
 62
    18
420
        0
176
     1
 90
       50
176
     1
 90
        3
176
     1
 62
     5
420
      255
176
     1
290
     0
176
     1
 90
       50
176
     1
 90
       50
176
     1
 90
       50
176
     1
290
     0
176
     1
 90
       50
176
     1
 62
   256
176
     0
 40
1.0
176
     0
 90
        2
176
     1
  1
strokes_ogs.tif
176
     1
290
     0
176
     1
 40
1.0
176
     1
 40
1.0
176
     1
  0
VISUALSTYLE
  5
35
102
{ACAD_REACTORS
330
2A
102
}
330
2A
100
AcDbVisualStyle
  2
Dim
 70
    11
177
     3
291
     1
 70
    58
 90
        2
176
     1
 90
        2
176
     1
 90
        0
176
     1
 90
        0
176
     1
 40
0.6
176
     1
 40
30.0
176
     1
 62
     7
420
 16777215
176
     1
 90
        1
176
     1
 90
        4
176
     1
 62
     7
176
     1
 62
   257
176
     1
 90
        1
176
     1
 90
        1
176
     1
 40
1.0
176
     1
 90
        8
176
     1
 62
     7
176
     1
 40
1.0
176
     1
 90
        1
176
     1
 90
        6
176
     1
 90
        2
176
     1
 62
     7
176
     1
 90
        5
176
     1
 90
        0
176
     1
 90
        0
176
     1
290
     0
176
     1
 90
        1
176
     1
 40
-50.0
176
     1
 90
        0
176
     1
290
     0
176
     1
290
     1
176
     1
290
     1
176
     1
290
     0
176
     1
290
     0
176
     1
290
     0
176
     1
290
     0
176
     1
290
     0
176
     1
290
     0
176
     1
 90
       50
176
     1
 40
0.0
176
     1
 40
1.0
176
     1
 90
        0
176
     1
 62
    18
420
        0
176
     1
 90
       50
176
     1
 90
        3
176
     1
 62
     5
420
      255
176
     1
290
     0
176
     1
 90
       50
176
     1
 90
       50
176
     1
 90
       50
176
     1
290
     0
176
     1
 90
       50
176
     1
 62
   256
176
     0
 40
1.0
176
     0
 90
        2
176
     1
  1
strokes_ogs.tif
176
     1
290
     0
176
     1
 40
1.0
176
     1
 40
1.0
176
     1
  0
VISUALSTYLE
  5
3D
102
{ACAD_REACTORS
330
2A
102
}
330
2A
100
AcDbVisualStyle
  2
EdgeColorOff
 70
    22
177
     3
291
     1
 70
    58
 90
        2
176
     0
 90
        2
176
     0
 90
        0
176
     0
 90
        0
176
     0
 40
0.6
176
     0
 40
30.0
176
     0
 62
     7
420
 16777215
176
     0
 90
        1
176
     0
 90
        4
176
     0
 62
     7
176
     0
 62
   257
176
     0
 90
        1
176
     0
 90
        1
176
     0
 40
1.0
176
     0
 90
        8
176
     2
 62
     7
176
     0
 40
1.0
176
     0
 90
        1
176
     0
 90
        6
176
     0
 90
        2
176
     0
 62
     7
176
     0
 90
        5
176
     0
 90
        0
176
     0
 90
        0
176
     0
290
     0
176
     0
 90
        1
176
     0
 40
0.0
176
     0
 90
        0
176
     0
290
     0
176
     0
290
     1
176
     0
290
     1
176
     0
290
     0
176
     0
290
     0
176
     0
290
     0
176
     0
290
     0
176
     0
290
     0
176
     0
290
     0
176
     0
 90
       50
176
     0
 40
0.0
176
     0
 40
1.0
176
     0
 90
        0
176
     0
 62
    18
420
        0
176
     0
 90
       50
176
     0
 90
        3
176
     0
 62
     5
420
      255
176
     0
290
     0
176
     0
 90
       50
176
     0
 90
       50
176
     0
 90
       50
176
     0
290
     0
176
     0
 90
       50
176
     0
 62
   256
176
     0
 40
1.0
176
     0
 90
        2
176
     0
  1
strokes_ogs.tif
176
     0
290
     0
176
     0
 40
1.0
176
     0
 40
1.0
176
     0
  0
VISUALSTYLE
  5
39
102
{ACAD_REACTORS
330
2A
102
}
330
2A
100
AcDbVisualStyle
  2
Facepattern
 70
    15
177
     3
291
     1
 70
    58
 90
        2
176
     1
 90
        2
176
     1
 90
        0
176
     1
 90
        0
176
     1
 40
0.6
176
     1
 40
30.0
176
     1
 62
     7
420
 16777215
176
     1
 90
        1
176
     1
 90
        4
176
     1
 62
     7
176
     1
 62
   257
176
     1
 90
        1
176
     1
 90
        1
176
     1
 40
1.0
176
     1
 90
        8
176
     1
 62
     7
176
     1
 40
1.0
176
     1
 90
        1
176
     1
 90
        6
176
     1
 90
        2
176
     1
 62
     7
176
     1
 90
        5
176
     1
 90
        0
176
     1
 90
        0
176
     1
290
     0
176
     1
 90
        1
176
     1
 40
0.0
176
     1
 90
        0
176
     1
290
     0
176
     1
290
     1
176
     1
290
     1
176
     1
290
     0
176
     1
290
     0
176
     1
290
     0
176
     1
290
     0
176
     1
290
     0
176
     1
290
     0
176
     1
 90
       50
176
     1
 40
0.0
176
     1
 40
1.0
176
     1
 90
        0
176
     1
 62
    18
420
        0
176
     1
 90
       50
176
     1
 90
        3
176
     1
 62
     5
420
      255
176
     1
290
     0
176
     1
 90
       50
176
     1
 90
       50
176
     1
 90
       50
176
     1
290
     0
176
     1
 90
       50
176
     1
 62
   256
176
     0
 40
1.0
176
     0
 90
        2
176
     1
  1
strokes_ogs.tif
176
     1
290
     0
176
     1
 40
1.0
176
     1
 40
1.0
176
     1
  0
VISUALSTYLE
  5
2B
102
{ACAD_REACTORS
330
2A
102
}
330
2A
100
AcDbVisualStyle
  2
Flat
 70
     0
177
     3
291
     1
 70
    58
 90
        2
176
     1
 90
        1
176
     1
 90
        1
176
     1
 90
        2
176
     1
 40
0.6
176
     1
 40
30.0
176
     1
 62
     7
420
 16777215
176
     1
 90
        0
176
     1
 90
        0
176
     1
 62
     7
176
     1
 62
   257
176
     1
 90
        1
176
     1
 90
        1
176
     1
 40
1.0
176
     1
 90
        8
176
     1
 62
     7
176
     1
 40
1.0
176
     1
 90
        1
176
     1
 90
        6
176
     1
 90
        2
176
     1
 62
     7
176
     1
 90
        5
176
     1
 90
        0
176
     1
 90
        0
176
     1
290
     0
176
     1
 90
       13
176
     1
 40
0.0
176
     1
 90
        0
176
     1
290
     0
176
     1
290
     1
176
     1
290
     1
176
     1
290
     0
176
     1
290
     0
176
     1
290
     0
176
     1
290
     0
176
     1
290
     0
176
     1
290
     0
176
     1
 90
       50
176
     1
 40
0.0
176
     1
 40
1.0
176
     1
 90
        0
176
     1
 62
    18
420
        0
176
     1
 90
       50
176
     1
 90
        3
176
     1
 62
     5
420
      255
176
     1
290
     0
176
     1
 90
       50
176
     1
 90
       50
176
     1
 90
       50
176
     1
290
     0
176
     1
 90
       50
176
     1
 62
   256
176
     0
 40
1.0
176
     0
 90
        2
176
     1
  1
strokes_ogs.tif
176
     1
290
     0
176
     1
 40
1.0
176
     1
 40
1.0
176
     1
  0
VISUALSTYLE
  5
2C
102
{ACAD_REACTORS
330
2A
102
}
330
2A
100
AcDbVisualStyle
  2
FlatWithEdges
 70
     1
177
     3
291
     1
 70
    58
 90
        2
176
     1
 90
        1
176
     1
 90
        1
176
     1
 90
        2
176
     1
 40
0.6
176
     1
 40
30.0
176
     1
 62
     7
420
 16777215
176
     1
 90
        1
176
     1
 90
        0
176
     1
 62
     7
176
     1
 62
   257
176
     1
 90
        1
176
     1
 90
        1
176
     1
 40
1.0
176
     1
 90
        0
176
     1
 62
   257
176
     1
 40
1.0
176
     1
 90
        1
176
     1
 90
        6
176
     1
 90
        2
176
     1
 62
     7
176
     1
 90
        5
176
     1
 90
        0
176
     1
 90
        0
176
     1
290
     0
176
     1
 90
       13
176
     1
 40
0.0
176
     1
 90
        0
176
     1
290
     0
176
     1
290
     1
176
     1
290
     1
176
     1
290
     0
176
     1
290
     0
176
     1
290
     0
176
     1
290
     0
176
     1
290
     0
176
     1
290
     0
176
     1
 90
       50
176
     1
 40
0.0
176
     1
 40
1.0
176
     1
 90
        0
176
     1
 62
    18
420
        0
176
     1
 90
       50
176
     1
 90
        3
176
     1
 62
     5
420
      255
176
     1
290
     0
176
     1
 90
       50
176
     1
 90
       50
176
     1
 90
       50
176
     1
290
     0
176
     1
 90
       50
176
     1
 62
   256
176
     0
 40
1.0
176
     0
 90
        2
176
     1
  1
strokes_ogs.tif
176
     1
290
     0
176
     1
 40
1.0
176
     1
 40
1.0
176
     1
  0
VISUALSTYLE
  5
2D
102
{ACAD_REACTORS
330
2A
102
}
330
2A
100
AcDbVisualStyle
  2
Gouraud
 70
     2
177
     3
291
     1
 70
    58
 90
        2
176
     1
 90
        2
176
     1
 90
        1
176
     1
 90
        2
176
     1
 40
0.6
176
     1
 40
30.0
176
     1
 62
     7
420
 16777215
176
     1
 90
        0
176
     1
 90
        0
176
     1
 62
     7
176
     1
 62
   257
176
     1
 90
        1
176
     1
 90
        1
176
     1
 40
1.0
176
     1
 90
        0
176
     1
 62
     7
176
     1
 40
1.0
176
     1
 90
        1
176
     1
 90
        6
176
     1
 90
        2
176
     1
 62
     7
176
     1
 90
        5
176
     1
 90
        0
176
     1
 90
        0
176
     1
290
     0
176
     1
 90
       13
176
     1
 40
0.0
176
     1
 90
        0
176
     1
290
     0
176
     1
290
     1
176
     1
290
     1
176
     1
290
     0
176
     1
290
     0
176
     1
290
     0
176
     1
290
     0
176
     1
290
     0
176
     1
290
     0
176
     1
 90
       50
176
     1
 40
0.0
176
     1
 40
1.0
176
     1
 90
        0
176
     1
 62
    18
420
        0
176
     1
 90
       50
176
     1
 90
        3
176
     1
 62
     5
420
      255
176
     1
290
     0
176
     1
 90
       50
176
     1
 90
       50
176
     1
 90
       50
176
     1
290
     0
176
     1
 90
       50
176
     1
 62
   256
176
     0
 40
1.0
176
     0
 90
        2
176
     1
  1
strokes_ogs.tif
176
     1
290
     0
176
     1
 40
1.0
176
     1
 40
1.0
176
     1
  0
VISUALSTYLE
  5
2E
102
{ACAD_REACTORS
330
2A
102
}
330
2A
100
AcDbVisualStyle
  2
GouraudWithEdges
 70
     3
177
     3
291
     1
 70
    58
 90
        2
176
     1
 90
        2
176
     1
 90
        1
176
     1
 90
        2
176
     1
 40
0.6
176
     1
 40
30.0
176
     1
 62
     7
420
 16777215
176
     1
 90
        1
176
     1
 90
        0
176
     1
 62
     7
176
     1
 62
   257
176
     1
 90
        1
176
     1
 90
        1
176
     1
 40
1.0
176
     1
 90
        0
176
     1
 62
   257
176
     1
 40
1.0
176
     1
 90
        1
176
     1
 90
        6
176
     1
 90
        2
176
     1
 62
     7
176
     1
 90
        5
176
     1
 90
        0
176
     1
 90
        0
176
     1
290
     0
176
     1
 90
       13
176
     1
 40
0.0
176
     1
 90
        0
176
     1
290
     0
176
     1
290
     1
176
     1
290
     1
176
     1
290
     0
176
     1
290
     0
176
     1
290
     0
176
     1
290
     0
176
     1
290
     0
176
     1
290
     0
176
     1
 90
       50
176
     1
 40
0.0
176
     1
 40
1.0
176
     1
 90
        0
176
     1
 62
    18
420
        0
176
     1
 90
       50
176
     1
 90
        3
176
     1
 62
     5
420
      255
176
     1
290
     0
176
     1
 90
       50
176
     1
 90
       50
176
     1
 90
       50
176
     1
290
     0
176
     1
 90
       50
176
     1
 62
   256
176
     0
 40
1.0
176
     0
 90
        2
176
     1
  1
strokes_ogs.tif
176
     1
290
     0
176
     1
 40
1.0
176
     1
 40
1.0
176
     1
  0
VISUALSTYLE
  5
31
102
{ACAD_REACTORS
330
2A
102
}
330
2A
100
AcDbVisualStyle
  2
Hidden
 70
     6
177
     3
291
     0
 70
    58
 90
        1
176
     1
 90
        2
176
     1
 90
        2
176
     1
 90
        0
176
     1
 40
0.6
176
     1
 40
30.0
176
     1
 62
     7
420
 16777215
176
     1
 90
        2
176
     1
 90
        2
176
     1
 62
     7
176
     1
 62
   257
176
     1
 90
        2
176
     1
 90
        1
176
     1
 40
40.0
176
     1
 90
        0
176
     1
 62
   257
176
     1
 40
1.0
176
     1
 90
        1
176
     1
 90
        6
176
     1
 90
        2
176
     1
 62
     7
176
     1
 90
        3
176
     1
 90
        0
176
     1
 90
        0
176
     1
290
     0
176
     1
 90
        1
176
     1
 40
0.0
176
     1
 90
        0
176
     1
290
     0
176
     1
290
     1
176
     1
290
     1
176
     1
290
     0
176
     1
290
     0
176
     1
290
     0
176
     1
290
     0
176
     1
290
     0
176
     1
290
     0
176
     1
 90
       50
176
     1
 40
0.0
176
     1
 40
1.0
176
     1
 90
        0
176
     1
 62
    18
420
        0
176
     1
 90
       50
176
     1
 90
        3
176
     1
 62
     5
420
      255
176
     1
290
     0
176
     1
 90
       50
176
     1
 90
       50
176
     1
 90
       50
176
     1
290
     0
176
     1
 90
       50
176
     1
 62
   256
176
     0
 40
1.0
176
     0
 90
        2
176
     1
  1
strokes_ogs.tif
176
     1
290
     0
176
     1
 40
1.0
176
     1
 40
1.0
176
     1
  0
VISUALSTYLE
  5
3B
102
{ACAD_REACTORS
330
2A
102
}
330
2A
100
AcDbVisualStyle
  2
JitterOff
 70
    20
177
     3
291
     1
 70
    58
 90
        2
176
     0
 90
        2
176
     0
 90
        0
176
     0
 90
        0
176
     0
 40
0.6
176
     0
 40
30.0
176
     0
 62
     7
420
 16777215
176
     0
 90
        1
176
     0
 90
        4
176
     0
 62
     7
176
     0
 62
   257
176
     0
 90
        1
176
     0
 90
        1
176
     0
 40
1.0
176
     0
 90
       10
176
     2
 62
     7
176
     0
 40
1.0
176
     0
 90
        1
176
     0
 90
        6
176
     0
 90
        2
176
     0
 62
     7
176
     0
 90
        5
176
     0
 90
        0
176
     0
 90
        0
176
     0
290
     0
176
     0
 90
        1
176
     0
 40
0.0
176
     0
 90
        0
176
     0
290
     0
176
     0
290
     1
176
     0
290
     1
176
     0
290
     0
176
     0
290
     0
176
     0
290
     0
176
     0
290
     0
176
     0
290
     0
176
     0
290
     0
176
     0
 90
       50
176
     0
 40
0.0
176
     0
 40
1.0
176
     0
 90
        0
176
     0
 62
    18
420
        0
176
     0
 90
       50
176
     0
 90
        3
176
     0
 62
     5
420
      255
176
     0
290
     0
176
     0
 90
       50
176
     0
 90
       50
176
     0
 90
       50
176
     0
290
     0
176
     0
 90
       50
176
     0
 62
   256
176
     0
 40
1.0
176
     0
 90
        2
176
     0
  1
strokes_ogs.tif
176
     0
290
     0
176
     0
 40
1.0
176
     0
 40
1.0
176
     0
  0
VISUALSTYLE
  5
38
102
{ACAD_REACTORS
330
2A
102
}
330
2A
100
AcDbVisualStyle
  2
Linepattern
 70
    14
177
     3
291
     1
 70
    58
 90
        2
176
     1
 90
        2
176
     1
 90
        0
176
     1
 90
        0
176
     1
 40
0.6
176
     1
 40
30.0
176
     1
 62
     7
420
 16777215
176
     1
 90
        1
176
     1
 90
        4
176
     1
 62
     7
176
     1
 62
   257
176
     1
 90
        7
176
     1
 90
        7
176
     1
 40
1.0
176
     1
 90
        8
176
     1
 62
     7
176
     1
 40
1.0
176
     1
 90
        1
176
     1
 90
        6
176
     1
 90
        2
176
     1
 62
     7
176
     1
 90
        5
176
     1
 90
        0
176
     1
 90
        0
176
     1
290
     0
176
     1
 90
        1
176
     1
 40
0.0
176
     1
 90
        0
176
     1
290
     0
176
     1
290
     1
176
     1
290
     1
176
     1
290
     0
176
     1
290
     0
176
     1
290
     0
176
     1
290
     0
176
     1
290
     0
176
     1
290
     0
176
     1
 90
       50
176
     1
 40
0.0
176
     1
 40
1.0
176
     1
 90
        0
176
     1
 62
    18
420
        0
176
     1
 90
       50
176
     1
 90
        3
176
     1
 62
     5
420
      255
176
     1
290
     0
176
     1
 90
       50
176
     1
 90
       50
176
     1
 90
       50
176
     1
290
     0
176
     1
 90
       50
176
     1
 62
   256
176
     0
 40
1.0
176
     0
 90
        2
176
     1
  1
strokes_ogs.tif
176
     1
290
     0
176
     1
 40
1.0
176
     1
 40
1.0
176
     1
  0
VISUALSTYLE
  5
3C
102
{ACAD_REACTORS
330
2A
102
}
330
2A
100
AcDbVisualStyle
  2
OverhangOff
 70
    21
177
     3
291
     1
 70
    58
 90
        2
176
     0
 90
        2
176
     0
 90
        0
176
     0
 90
        0
176
     0
 40
0.6
176
     0
 40
30.0
176
     0
 62
     7
420
 16777215
176
     0
 90
        1
176
     0
 90
        4
176
     0
 62
     7
176
     0
 62
   257
176
     0
 90
        1
176
     0
 90
        1
176
     0
 40
1.0
176
     0
 90
        9
176
     2
 62
     7
176
     0
 40
1.0
176
     0
 90
        1
176
     0
 90
        6
176
     0
 90
        2
176
     0
 62
     7
176
     0
 90
        5
176
     0
 90
        0
176
     0
 90
        0
176
     0
290
     0
176
     0
 90
        1
176
     0
 40
0.0
176
     0
 90
        0
176
     0
290
     0
176
     0
290
     1
176
     0
290
     1
176
     0
290
     0
176
     0
290
     0
176
     0
290
     0
176
     0
290
     0
176
     0
290
     0
176
     0
290
     0
176
     0
 90
       50
176
     0
 40
0.0
176
     0
 40
1.0
176
     0
 90
        0
176
     0
 62
    18
420
        0
176
     0
 90
       50
176
     0
 90
        3
176
     0
 62
     5
420
      255
176
     0
290
     0
176
     0
 90
       50
176
     0
 90
       50
176
     0
 90
       50
176
     0
290
     0
176
     0
 90
       50
176
     0
 62
   256
176
     0
 40
1.0
176
     0
 90
        2
176
     0
  1
strokes_ogs.tif
176
     0
290
     0
176
     0
 40
1.0
176
     0
 40
1.0
176
     0
  0
VISUALSTYLE
  5
33
102
{ACAD_REACTORS
330
2A
102
}
330
2A
100
AcDbVisualStyle
  2
Realistic
 70
     8
177
     3
291
     0
 70
    58
 90
        2
176
     1
 90
        3
176
     1
 90
        0
176
     1
 90
        2
176
     1
 40
0.6
176
     1
 40
30.0
176
     1
 62
     7
420
 16777215
176
     1
 90
        0
176
     1
 90
        0
176
     1
 62
     7
176
     1
 62
   257
176
     1
 90
        1
176
     1
 90
        1
176
     1
 40
1.0
176
     1
 90
        8
176
     1
 62
   257
176
     1
 40
1.0
176
     1
 90
        1
176
     1
 90
        6
176
     1
 90
        2
176
     1
 62
     7
176
     1
 90
        3
176
     1
 90
        0
176
     1
 90
        0
176
     1
290
     0
176
     1
 90
       13
176
     1
 40
0.0
176
     1
 90
        0
176
     1
290
     0
176
     1
290
     1
176
     1
290
     1
176
     1
290
     0
176
     1
290
     0
176
     1
290
     0
176
     1
290
     0
176
     1
290
     0
176
     1
290
     0
176
     1
 90
       50
176
     1
 40
0.0
176
     1
 40
1.0
176
     1
 90
        0
176
     1
 62
    18
420
        0
176
     1
 90
       50
176
     1
 90
        3
176
     1
 62
     5
420
      255
176
     1
290
     0
176
     1
 90
       50
176
     1
 90
       50
176
     1
 90
       50
176
     1
290
     0
176
     1
 90
       50
176
     1
 62
   256
176
     0
 40
1.0
176
     0
 90
        2
176
     1
  1
strokes_ogs.tif
176
     1
290
     0
176
     1
 40
1.0
176
     1
 40
1.0
176
     1
  0
VISUALSTYLE
  5
42
102
{ACAD_REACTORS
330
2A
102
}
330
2A
100
AcDbVisualStyle
  2
Shaded
 70
    27
177
     3
291
     0
 70
    58
 90
        2
176
     1
 90
        2
176
     1
 90
        1
176
     1
 90
        2
176
     1
 40
0.6
176
     1
 40
30.0
176
     1
 62
     7
420
 16777215
176
     1
 90
        0
176
     1
 90
        4
176
     1
 62
     7
176
     1
 62
   257
176
     1
 90
        1
176
     1
 90
        1
176
     1
 40
1.0
176
     1
 90
        8
176
     1
 62
   257
176
     1
 40
1.0
176
     1
 90
        1
176
     1
 90
        6
176
     1
 90
        2
176
     1
 62
     8
420
  7895160
176
     1
 90
        3
176
     1
 90
        0
176
     1
 90
        0
176
     1
290
     0
176
     1
 90
        5
176
     1
 40
0.0
176
     1
 90
        0
176
     1
290
     0
176
     1
290
     1
176
     1
290
     1
176
     1
290
     0
176
     1
290
     0
176
     1
290
     0
176
     1
290
     0
176
     1
290
     0
176
     1
290
     0
176
     1
 90
       50
176
     1
 40
0.0
176
     1
 40
1.0
176
     1
 90
        0
176
     1
 62
    18
420
        0
176
     1
 90
       50
176
     1
 90
        3
176
     1
 62
     5
420
      255
176
     1
290
     0
176
     1
 90
       50
176
     1
 90
       50
176
     1
 90
       50
176
     1
290
     0
176
     1
 90
       50
176
     1
 62
   256
176
     0
 40
1.0
176
     0
 90
        2
176
     1
  1
strokes_ogs.tif
176
     1
290
     0
176
     1
 40
1.0
176
     1
 40
1.0
176
     1
  0
VISUALSTYLE
  5
41
102
{ACAD_REACTORS
330
2A
102
}
330
2A
100
AcDbVisualStyle
  2
Shaded with edges
 70
    26
177
     3
291
     0
 70
    58
 90
        2
176
     1
 90
        2
176
     1
 90
        1
176
     1
 90
        2
176
     1
 40
0.6
176
     1
 40
30.0
176
     1
 62
     7
420
 16777215
176
     1
 90
        1
176
     1
 90
       10
176
     1
 62
     7
176
     1
 62
   257
176
     1
 90
        2
176
     1
 90
        1
176
     1
 40
1.0
176
     1
 90
        8
176
     1
 62
   257
176
     1
 40
1.0
176
     1
 90
        1
176
     1
 90
        6
176
     1
 90
        2
176
     1
 62
     7
176
     1
 90
        3
176
     1
 90
        0
176
     1
 90
        0
176
     1
290
     0
176
     1
 90
        5
176
     1
 40
0.0
176
     1
 90
        0
176
     1
290
     0
176
     1
290
     1
176
     1
290
     1
176
     1
290
     0
176
     1
290
     0
176
     1
290
     0
176
     1
290
     0
176
     1
290
     0
176
     1
290
     0
176
     1
 90
       50
176
     1
 40
0.0
176
     1
 40
1.0
176
     1
 90
        0
176
     1
 62
    18
420
        0
176
     1
 90
       50
176
     1
 90
        3
176
     1
 62
     5
420
      255
176
     1
290
     0
176
     1
 90
       50
176
     1
 90
       50
176
     1
 90
       50
176
     1
290
     0
176
     1
 90
       50
176
     1
 62
   256
176
     0
 40
1.0
176
     0
 90
        2
176
     1
  1
strokes_ogs.tif
176
     1
290
     0
176
     1
 40
1.0
176
     1
 40
1.0
176
     1
  0
VISUALSTYLE
  5
3E
102
{ACAD_REACTORS
330
2A
102
}
330
2A
100
AcDbVisualStyle
  2
Shades of Gray
 70
    23
177
     3
291
     0
 70
    58
 90
        2
176
     1
 90
        2
176
     1
 90
        3
176
     1
 90
        0
176
     1
 40
0.6
176
     1
 40
30.0
176
     1
 62
     7
420
 16777215
176
     1
 90
        2
176
     1
 90
        2
176
     1
 62
     7
176
     1
 62
     7
176
     1
 90
        1
176
     1
 90
        1
176
     1
 40
40.0
176
     1
 90
        8
176
     1
 62
     7
176
     1
 40
1.0
176
     1
 90
        1
176
     1
 90
        6
176
     1
 90
        2
176
     1
 62
     7
176
     1
 90
        3
176
     1
 90
        0
176
     1
 90
        0
176
     1
290
     0
176
     1
 90
        1
176
     1
 40
0.0
176
     1
 90
        0
176
     1
290
     0
176
     1
290
     1
176
     1
290
     1
176
     1
290
     0
176
     1
290
     0
176
     1
290
     0
176
     1
290
     0
176
     1
290
     0
176
     1
290
     0
176
     1
 90
       50
176
     1
 40
0.0
176
     1
 40
1.0
176
     1
 90
        0
176
     1
 62
    18
420
        0
176
     1
 90
       50
176
     1
 90
        3
176
     1
 62
     5
420
      255
176
     1
290
     0
176
     1
 90
       50
176
     1
 90
       50
176
     1
 90
       50
176
     1
290
     0
176
     1
 90
       50
176
     1
 62
   256
176
     0
 40
1.0
176
     0
 90
        2
176
     1
  1
strokes_ogs.tif
176
     1
290
     0
176
     1
 40
1.0
176
     1
 40
1.0
176
     1
  0
VISUALSTYLE
  5
3F
102
{ACAD_REACTORS
330
2A
102
}
330
2A
100
AcDbVisualStyle
  2
Sketchy
 70
    24
177
     3
291
     0
 70
    58
 90
        1
176
     1
 90
        2
176
     1
 90
        2
176
     1
 90
        0
176
     1
 40
0.6
176
     1
 40
30.0
176
     1
 62
     7
420
 16777215
176
     1
 90
        2
176
     1
 90
        2
176
     1
 62
     7
176
     1
 62
     7
176
     1
 90
        1
176
     1
 90
        1
176
     1
 40
40.0
176
     1
 90
       11
176
     1
 62
     7
176
     1
 40
1.0
176
     1
 90
        1
176
     1
 90
        6
176
     1
 90
        2
176
     1
 62
     7
176
     1
 90
        6
176
     1
 90
        0
176
     1
 90
        0
176
     1
290
     0
176
     1
 90
        1
176
     1
 40
0.0
176
     1
 90
        0
176
     1
290
     0
176
     1
290
     1
176
     1
290
     1
176
     1
290
     0
176
     1
290
     0
176
     1
290
     0
176
     1
290
     0
176
     1
290
     0
176
     1
290
     0
176
     1
 90
       50
176
     1
 40
0.0
176
     1
 40
1.0
176
     1
 90
        0
176
     1
 62
    18
420
        0
176
     1
 90
       50
176
     1
 90
        3
176
     1
 62
     5
420
      255
176
     1
290
     0
176
     1
 90
       50
176
     1
 90
       50
176
     1
 90
       50
176
     1
290
     0
176
     1
 90
       50
176
     1
 62
   256
176
     0
 40
1.0
176
     0
 90
        2
176
     1
  1
strokes_ogs.tif
176
     1
290
     0
176
     1
 40
1.0
176
     1
 40
1.0
176
     1
  0
VISUALSTYLE
  5
37
102
{ACAD_REACTORS
330
2A
102
}
330
2A
100
AcDbVisualStyle
  2
Thicken
 70
    13
177
     3
291
     1
 70
    58
 90
        2
176
     1
 90
        2
176
     1
 90
        0
176
     1
 90
        0
176
     1
 40
0.6
176
     1
 40
30.0
176
     1
 62
     7
420
 16777215
176
     1
 90
        1
176
     1
 90
        4
176
     1
 62
     7
176
     1
 62
   257
176
     1
 90
        1
176
     1
 90
        1
176
     1
 40
1.0
176
     1
 90
       12
176
     1
 62
     7
176
     1
 40
1.0
176
     1
 90
        1
176
     1
 90
        6
176
     1
 90
        2
176
     1
 62
     7
176
     1
 90
        5
176
     1
 90
        0
176
     1
 90
        0
176
     1
290
     0
176
     1
 90
        1
176
     1
 40
0.0
176
     1
 90
        0
176
     1
290
     0
176
     1
290
     1
176
     1
290
     1
176
     1
290
     0
176
     1
290
     0
176
     1
290
     0
176
     1
290
     0
176
     1
290
     0
176
     1
290
     0
176
     1
 90
       50
176
     1
 40
0.0
176
     1
 40
1.0
176
     1
 90
        0
176
     1
 62
    18
420
        0
176
     1
 90
       50
176
     1
 90
        3
176
     1
 62
     5
420
      255
176
     1
290
     0
176
     1
 90
       50
176
     1
 90
       50
176
     1
 90
       50
176
     1
290
     0
176
     1
 90
       50
176
     1
 62
   256
176
     0
 40
1.0
176
     0
 90
        2
176
     1
  1
strokes_ogs.tif
176
     1
290
     0
176
     1
 40
1.0
176
     1
 40
1.0
176
     1
  0
VISUALSTYLE
  5
30
102
{ACAD_REACTORS
330
2A
102
}
330
2A
100
AcDbVisualStyle
  2
Wireframe
 70
     5
177
     3
291
     0
 70
    58
 90
        0
176
     1
 90
        2
176
     1
 90
        0
176
     1
 90
        0
176
     1
 40
0.6
176
     1
 40
30.0
176
     1
 62
     7
420
 16777215
176
     1
 90
        1
176
     1
 90
        4
176
     1
 62
     7
176
     1
 62
   257
176
     1
 90
        1
176
     1
 90
        1
176
     1
 40
1.0
176
     1
 90
        0
176
     1
 62
   257
176
     1
 40
1.0
176
     1
 90
        1
176
     1
 90
        6
176
     1
 90
        2
176
     1
 62
     7
176
     1
 90
        3
176
     1
 90
        0
176
     1
 90
        0
176
     1
290
     0
176
     1
 90
        1
176
     1
 40
0.0
176
     1
 90
        0
176
     1
290
     0
176
     1
290
     1
176
     1
290
     1
176
     1
290
     0
176
     1
290
     0
176
     1
290
     0
176
     1
290
     0
176
     1
290
     0
176
     1
290
     0
176
     1
 90
       50
176
     1
 40
0.0
176
     1
 40
1.0
176
     1
 90
        0
176
     1
 62
    18
420
        0
176
     1
 90
       50
176
     1
 90
        3
176
     1
 62
     5
420
      255
176
     1
290
     0
176
     1
 90
       50
176
     1
 90
       50
176
     1
 90
       50
176
     1
290
     0
176
     1
 90
       50
176
     1
 62
   256
176
     0
 40
1.0
176
     0
 90
        2
176
     1
  1
strokes_ogs.tif
176
     1
290
     0
176
     1
 40
1.0
176
     1
 40
1.0
176
     1
  0
VISUALSTYLE
  5
40
102
{ACAD_REACTORS
330
2A
102
}
330
2A
100
AcDbVisualStyle
  2
X-Ray
 70
    25
177
     3
291
     0
 70
    58
 90
        2
176
     1
 90
        2
176
     1
 90
        1
176
     1
 90
        1
176
     1
 40
0.5
176
     1
 40
30.0
176
     1
 62
     7
420
 16777215
176
     1
 90
        1
176
     1
 90
        0
176
     1
 62
     7
176
     1
 62
   257
176
     1
 90
        1
176
     1
 90
        1
176
     1
 40
1.0
176
     1
 90
        8
176
     1
 62
     7
176
     1
 40
1.0
176
     1
 90
        1
176
     1
 90
        6
176
     1
 90
        2
176
     1
 62
     7
176
     1
 90
        3
176
     1
 90
        0
176
     1
 90
        0
176
     1
290
     0
176
     1
 90
       13
176
     1
 40
0.0
176
     1
 90
        0
176
     1
290
     0
176
     1
290
     1
176
     1
290
     1
176
     1
290
     0
176
     1
290
     0
176
     1
290
     0
176
     1
290
     0
176
     1
290
     0
176
     1
290
     0
176
     1
 90
       50
176
     1
 40
0.0
176
     1
 40
1.0
176
     1
 90
        0
176
     1
 62
    18
420
        0
176
     1
 90
       50
176
     1
 90
        3
176
     1
 62
     5
420
      255
176
     1
290
     0
176
     1
 90
       50
176
     1
 90
       50
176
     1
 90
       50
176
     1
290
     0
176
     1
 90
       50
176
     1
 62
   256
176
     0
 40
1.0
176
     0
 90
        2
176
     1
  1
strokes_ogs.tif
176
     1
290
     0
176
     1
 40
1.0
176
     1
 40
1.0
176
     1
  0
DICTIONARYVAR
  5
22C
102
{ACAD_REACTORS
330
22B
102
}
330
22B
100
DictionaryVariables
280
     0
  1
1:1
  0
DICTIONARYVAR
  5
231
102
{ACAD_REACTORS
330
22B
102
}
330
22B
100
DictionaryVariables
280
     0
  1
Standard
  0
DICTIONARYVAR
  5
230
102
{ACAD_REACTORS
330
22B
102
}
330
22B
100
DictionaryVariables
280
     0
  1
Standard
  0
DICTIONARY
  5
22D
330
6A
100
AcDbDictionary
280
     1
281
     1
  3
ACAD_ROUNDTRIP_2008_TABLESTYLE_CELLSTYLEMAP
360
22E
  0
CELLSTYLEMAP
  5
22E
102
{ACAD_REACTORS
330
22D
102
}
330
22D
100
AcDbCellStyleMap
 90
        3
300
CELLSTYLE
  1
TABLEFORMAT_BEGIN
 90
        5
170
     1
 91
        0
 92
    32768
 62
   257
 93
        1
300
CONTENTFORMAT
  1
CONTENTFORMAT_BEGIN
 90
        0
 91
        0
 92
        4
 93
        0
300

 40
0.0
140
1.0
 94
        5
 62
     0
340
11
144
0.25
309
CONTENTFORMAT_END
171
     1
301
MARGIN
  1
CELLMARGIN_BEGIN
 40
0.06
 40
0.06
 40
0.06
 40
0.06
 40
0.06
 40
0.06
309
CELLMARGIN_END
 94
        6
 95
        1
302
GRIDFORMAT
  1
GRIDFORMAT_BEGIN
 90
        0
 91
        1
 62
     0
 92
       -2
340
14
 93
        0
 40
0.045
309
GRIDFORMAT_END
 95
        2
302
GRIDFORMAT
  1
GRIDFORMAT_BEGIN
 90
        0
 91
        1
 62
     0
 92
       -2
340
14
 93
        0
 40
0.045
309
GRIDFORMAT_END
 95
        4
302
GRIDFORMAT
  1
GRIDFORMAT_BEGIN
 90
        0
 91
        1
 62
     0
 92
       -2
340
14
 93
        0
 40
0.045
309
GRIDFORMAT_END
 95
        8
302
GRIDFORMAT
  1
GRIDFORMAT_BEGIN
 90
        0
 91
        1
 62
     0
 92
       -2
340
14
 93
        0
 40
0.045
309
GRIDFORMAT_END
 95
       16
302
GRIDFORMAT
  1
GRIDFORMAT_BEGIN
 90
        0
 91
        1
 62
     0
 92
       -2
340
14
 93
        0
 40
0.045
309
GRIDFORMAT_END
 95
       32
302
GRIDFORMAT
  1
GRIDFORMAT_BEGIN
 90
        0
 91
        1
 62
     0
 92
       -2
340
14
 93
        0
 40
0.045
309
GRIDFORMAT_END
309
TABLEFORMAT_END
  1
CELLSTYLE_BEGIN
 90
        1
 91
        1
300
_TITLE
309
CELLSTYLE_END
300
CELLSTYLE
  1
TABLEFORMAT_BEGIN
 90
        5
170
     1
 91
        0
 92
        0
 62
   257
 93
        1
300
CONTENTFORMAT
  1
CONTENTFORMAT_BEGIN
 90
        0
 91
        0
 92
        4
 93
        0
300

 40
0.0
140
1.0
 94
        5
 62
     0
340
11
144
0.18
309
CONTENTFORMAT_END
171
     1
301
MARGIN
  1
CELLMARGIN_BEGIN
 40
0.06
 40
0.06
 40
0.06
 40
0.06
 40
0.06
 40
0.06
309
CELLMARGIN_END
 94
        6
 95
        1
302
GRIDFORMAT
  1
GRIDFORMAT_BEGIN
 90
        0
 91
        1
 62
     0
 92
       -2
340
14
 93
        0
 40
0.045
309
GRIDFORMAT_END
 95
        2
302
GRIDFORMAT
  1
GRIDFORMAT_BEGIN
 90
        0
 91
        1
 62
     0
 92
       -2
340
14
 93
        0
 40
0.045
309
GRIDFORMAT_END
 95
        4
302
GRIDFORMAT
  1
GRIDFORMAT_BEGIN
 90
        0
 91
        1
 62
     0
 92
       -2
340
14
 93
        0
 40
0.045
309
GRIDFORMAT_END
 95
        8
302
GRIDFORMAT
  1
GRIDFORMAT_BEGIN
 90
        0
 91
        1
 62
     0
 92
       -2
340
14
 93
        0
 40
0.045
309
GRIDFORMAT_END
 95
       16
302
GRIDFORMAT
  1
GRIDFORMAT_BEGIN
 90
        0
 91
        1
 62
     0
 92
       -2
340
14
 93
        0
 40
0.045
309
GRIDFORMAT_END
 95
       32
302
GRIDFORMAT
  1
GRIDFORMAT_BEGIN
 90
        0
 91
        1
 62
     0
 92
       -2
340
14
 93
        0
 40
0.045
309
GRIDFORMAT_END
309
TABLEFORMAT_END
  1
CELLSTYLE_BEGIN
 90
        2
 91
        1
300
_HEADER
309
CELLSTYLE_END
300
CELLSTYLE
  1
TABLEFORMAT_BEGIN
 90
        5
170
     1
 91
        0
 92
        0
 62
   257
 93
        1
300
CONTENTFORMAT
  1
CONTENTFORMAT_BEGIN
 90
        0
 91
        0
 92
        4
 93
        0
300

 40
0.0
140
1.0
 94
        2
 62
     0
340
11
144
0.18
309
CONTENTFORMAT_END
171
     1
301
MARGIN
  1
CELLMARGIN_BEGIN
 40
0.06
 40
0.06
 40
0.06
 40
0.06
 40
0.06
 40
0.06
309
CELLMARGIN_END
 94
        6
 95
        1
302
GRIDFORMAT
  1
GRIDFORMAT_BEGIN
 90
        0
 91
        1
 62
     0
 92
       -2
340
14
 93
        0
 40
0.045
309
GRIDFORMAT_END
 95
        2
302
GRIDFORMAT
  1
GRIDFORMAT_BEGIN
 90
        0
 91
        1
 62
     0
 92
       -2
340
14
 93
        0
 40
0.045
309
GRIDFORMAT_END
 95
        4
302
GRIDFORMAT
  1
GRIDFORMAT_BEGIN
 90
        0
 91
        1
 62
     0
 92
       -2
340
14
 93
        0
 40
0.045
309
GRIDFORMAT_END
 95
        8
302
GRIDFORMAT
  1
GRIDFORMAT_BEGIN
 90
        0
 91
        1
 62
     0
 92
       -2
340
14
 93
        0
 40
0.045
309
GRIDFORMAT_END
 95
       16
302
GRIDFORMAT
  1
GRIDFORMAT_BEGIN
 90
        0
 91
        1
 62
     0
 92
       -2
340
14
 93
        0
 40
0.045
309
GRIDFORMAT_END
 95
       32
302
GRIDFORMAT
  1
GRIDFORMAT_BEGIN
 90
        0
 91
        1
 62
     0
 92
       -2
340
14
 93
        0
 40
0.045
309
GRIDFORMAT_END
309
TABLEFORMAT_END
  1
CELLSTYLE_BEGIN
 90
        3
 91
        2
300
_DATA
309
CELLSTYLE_END
  0
ENDSEC
  0
EOF