0
SECTION
  2
HEADER
  9
$ACADVER
  1
AC1027
  9
$ACADMAINTVER
 70
     8
  9
$DWGCODEPAGE
  3
ANSI_1252
  9
$REQUIREDVERSIONS
160
                 0
  9
$COMMENTS
  1
File was created by Cadenas
  9
$CUSTOMPROPERTYTAG
  1
NN
  9
$CUSTOMPROPERTY
  1
Type K Pillow Block 2&4-Bolt Base Expansion Inch Bore
  9
$CUSTOMPROPERTYTAG
  1
NT
  9
$CUSTOMPROPERTY
  1
Type K
  9
$CUSTOMPROPERTYTAG
  1
NB
  9
$CUSTOMPROPERTY
  1
023200
  9
$CUSTOMPROPERTYTAG
  1
NBSYN
  9
$CUSTOMPROPERTY
  1
$PN.
  9
$CUSTOMPROPERTYTAG
  1
LINA
  9
$CUSTOMPROPERTY
  1
023200
  9
$CUSTOMPROPERTYTAG
  1
SS
  9
$CUSTOMPROPERTY
  1
2-1/4
  9
$CUSTOMPROPERTYTAG
  1
PN
  9
$CUSTOMPROPERTY
  1
023200
  9
$CUSTOMPROPERTYTAG
  1
PNA
  9
$CUSTOMPROPERTY
  1
P2B-K-204RE
  9
$CUSTOMPROPERTYTAG
  1
WEIGHT
  9
$CUSTOMPROPERTY
  1
28
  9
$CUSTOMPROPERTYTAG
  1
A
  9
$CUSTOMPROPERTY
  1
3.34
  9
$CUSTOMPROPERTYTAG
  1
B
  9
$CUSTOMPROPERTY
  1
12.00
  9
$CUSTOMPROPERTYTAG
  1
C
  9
$CUSTOMPROPERTY
  1
2.81
  9
$CUSTOMPROPERTYTAG
  1
DMIN
  9
$CUSTOMPROPERTY
  1
9.26
  9
$CUSTOMPROPERTYTAG
  1
DMAX
  9
$CUSTOMPROPERTY
  1
10.25
  9
$CUSTOMPROPERTYTAG
  1
E
  9
$CUSTOMPROPERTY
  1
N/A
  9
$CUSTOMPROPERTYTAG
  1
F
  9
$CUSTOMPROPERTY
  1
5/8
  9
$CUSTOMPROPERTYTAG
  1
G
  9
$CUSTOMPROPERTY
  1
1.26
  9
$CUSTOMPROPERTYTAG
  1
H
  9
$CUSTOMPROPERTY
  1
1.75
  9
$CUSTOMPROPERTYTAG
  1
J
  9
$CUSTOMPROPERTY
  1
7.03
  9
$CUSTOMPROPERTYTAG
  1
L
  9
$CUSTOMPROPERTY
  1
4.06
  9
$CUSTOMPROPERTYTAG
  1
M
  9
$CUSTOMPROPERTY
  1
3.25
  9
$CUSTOMPROPERTYTAG
  1
P
  9
$CUSTOMPROPERTY
  1
7.37
  9
$CUSTOMPROPERTYTAG
  1
R
  9
$CUSTOMPROPERTY
  1
1.31
  9
$CUSTOMPROPERTYTAG
  1
S
  9
$CUSTOMPROPERTY
  1
2
  9
$CUSTOMPROPERTYTAG
  1
T
  9
$CUSTOMPROPERTY
  1
.28
  9
$CUSTOMPROPERTYTAG
  1
CS
  9
$CUSTOMPROPERTY
  1
54000
  9
$CUSTOMPROPERTYTAG
  1
CD
  9
$CUSTOMPROPERTY
  1
9090
  9
$CUSTOMPROPERTYTAG
  1
RN
  9
$CUSTOMPROPERTY
  1
21
  9
$CUSTOMPROPERTYTAG
  1
RM
  9
$CUSTOMPROPERTY
  1
.41
  9
$CUSTOMPROPERTYTAG
  1
PDI
  9
$CUSTOMPROPERTY
  1
3.337
  9
$CUSTOMPROPERTYTAG
  1
EP
  9
$CUSTOMPROPERTY
  1
.004-.012
  9
$CUSTOMPROPERTYTAG
  1
SC
  9
$CUSTOMPROPERTY
  1
3/8-16*3/4
  9
$CUSTOMPROPERTYTAG
  1
TC
  9
$CUSTOMPROPERTY
  1
290
  9
$CUSTOMPROPERTYTAG
  1
MH
  9
$CUSTOMPROPERTY
  1
C.I. ASTM A48 CLASS 30
  9
$CUSTOMPROPERTYTAG
  1
MC
  9
$CUSTOMPROPERTY
  1
4118 CASE CARB.
  9
$CUSTOMPROPERTYTAG
  1
MCU
  9
$CUSTOMPROPERTY
  1
4118 CASE CARB.
  9
$CUSTOMPROPERTYTAG
  1
MR
  9
$CUSTOMPROPERTY
  1
STEEL
  9
$CUSTOMPROPERTYTAG
  1
MRO
  9
$CUSTOMPROPERTY
  1
4118 CASE CARB.
  9
$CUSTOMPROPERTYTAG
  1
SM
  9
$CUSTOMPROPERTY
  1
5.40*
  9
$CUSTOMPROPERTYTAG
  1
COMPANY
  9
$CUSTOMPROPERTY
  1
baldor
  9
$INSBASE
 10
0.0
 20
0.0
 30
0.0
  9
$EXTMIN
 10
1.000000000000000E+20
 20
1.000000000000000E+20
 30
1.000000000000000E+20
  9
$EXTMAX
 10
-1.000000000000000E+20
 20
-1.000000000000000E+20
 30
-1.000000000000000E+20
  9
$LIMMIN
 10
0.0
 20
0.0
  9
$LIMMAX
 10
12.0
 20
9.0
  9
$ORTHOMODE
 70
     0
  9
$REGENMODE
 70
     1
  9
$FILLMODE
 70
     1
  9
$QTEXTMODE
 70
     0
  9
$MIRRTEXT
 70
     1
  9
$LTSCALE
 40
1.0
  9
$ATTMODE
 70
     1
  9
$TEXTSIZE
 40
0.2
  9
$TRACEWID
 40
0.05
  9
$TEXTSTYLE
  7
Standard
  9
$CLAYER
  8
0
  9
$CELTYPE
  6
ByLayer
  9
$CECOLOR
 62
   256
  9
$CELTSCALE
 40
1.0
  9
$DISPSILH
 70
     0
  9
$DIMSCALE
 40
1.0
  9
$DIMASZ
 40
0.18
  9
$DIMEXO
 40
0.0625
  9
$DIMDLI
 40
0.38
  9
$DIMRND
 40
0.0
  9
$DIMDLE
 40
0.0
  9
$DIMEXE
 40
0.18
  9
$DIMTP
 40
0.0
  9
$DIMTM
 40
0.0
  9
$DIMTXT
 40
0.18
  9
$DIMCEN
 40
0.09
  9
$DIMTSZ
 40
0.0
  9
$DIMTOL
 70
     0
  9
$DIMLIM
 70
     0
  9
$DIMTIH
 70
     1
  9
$DIMTOH
 70
     1
  9
$DIMSE1
 70
     0
  9
$DIMSE2
 70
     0
  9
$DIMTAD
 70
     0
  9
$DIMZIN
 70
     0
  9
$DIMBLK
  1

  9
$DIMASO
 70
     1
  9
$DIMSHO
 70
     1
  9
$DIMPOST
  1

  9
$DIMAPOST
  1

  9
$DIMALT
 70
     0
  9
$DIMALTD
 70
     2
  9
$DIMALTF
 40
25.4
  9
$DIMLFAC
 40
1.0
  9
$DIMTOFL
 70
     0
  9
$DIMTVP
 40
0.0
  9
$DIMTIX
 70
     0
  9
$DIMSOXD
 70
     0
  9
$DIMSAH
 70
     0
  9
$DIMBLK1
  1

  9
$DIMBLK2
  1

  9
$DIMSTYLE
  2
Standard
  9
$DIMCLRD
 70
     0
  9
$DIMCLRE
 70
     0
  9
$DIMCLRT
 70
     0
  9
$DIMTFAC
 40
1.0
  9
$DIMGAP
 40
0.09
  9
$DIMJUST
 70
     0
  9
$DIMSD1
 70
     0
  9
$DIMSD2
 70
     0
  9
$DIMTOLJ
 70
     1
  9
$DIMTZIN
 70
     0
  9
$DIMALTZ
 70
     0
  9
$DIMALTTZ
 70
     0
  9
$DIMUPT
 70
     0
  9
$DIMDEC
 70
     4
  9
$DIMTDEC
 70
     4
  9
$DIMALTU
 70
     2
  9
$DIMALTTD
 70
     2
  9
$DIMTXSTY
  7
Standard
  9
$DIMAUNIT
 70
     0
  9
$DIMADEC
 70
     0
  9
$DIMALTRND
 40
0.0
  9
$DIMAZIN
 70
     0
  9
$DIMDSEP
 70
    46
  9
$DIMATFIT
 70
     3
  9
$DIMFRAC
 70
     0
  9
$DIMLDRBLK
  1

  9
$DIMLUNIT
 70
     2
  9
$DIMLWD
 70
    -2
  9
$DIMLWE
 70
    -2
  9
$DIMTMOVE
 70
     0
  9
$DIMFXL
 40
1.0
  9
$DIMFXLON
 70
     0
  9
$DIMJOGANG
 40
0.7853981633974483
  9
$DIMTFILL
 70
     0
  9
$DIMTFILLCLR
 70
     0
  9
$DIMARCSYM
 70
     0
  9
$DIMLTYPE
  6

  9
$DIMLTEX1
  6

  9
$DIMLTEX2
  6

  9
$DIMTXTDIRECTION
 70
     0
  9
$LUNITS
 70
     2
  9
$LUPREC
 70
     4
  9
$SKETCHINC
 40
0.1
  9
$FILLETRAD
 40
0.5
  9
$AUNITS
 70
     0
  9
$AUPREC
 70
     0
  9
$MENU
  1
.
  9
$ELEVATION
 40
0.0
  9
$PELEVATION
 40
0.0
  9
$THICKNESS
 40
0.0
  9
$LIMCHECK
 70
     0
  9
$CHAMFERA
 40
0.0
  9
$CHAMFERB
 40
0.0
  9
$CHAMFERC
 40
0.0
  9
$CHAMFERD
 40
0.0
  9
$SKPOLY
 70
     0
  9
$TDCREATE
 40
2458169.005071967
  9
$TDUCREATE
 40
2458168.963405301
  9
$TDUPDATE
 40
2458169.005072141
  9
$TDUUPDATE
 40
2458168.963405475
  9
$TDINDWG
 40
0.0000000116
  9
$TDUSRTIMER
 40
0.0000000116
  9
$USRTIMER
 70
     1
  9
$ANGBASE
 50
0.0
  9
$ANGDIR
 70
     0
  9
$PDMODE
 70
     0
  9
$PDSIZE
 40
0.0
  9
$PLINEWID
 40
0.0
  9
$SPLFRAME
 70
     0
  9
$SPLINETYPE
 70
     6
  9
$SPLINESEGS
 70
     8
  9
$HANDSEED
  5
224
  9
$SURFTAB1
 70
     6
  9
$SURFTAB2
 70
     6
  9
$SURFTYPE
 70
     6
  9
$SURFU
 70
     6
  9
$SURFV
 70
     6
  9
$UCSBASE
  2

  9
$UCSNAME
  2

  9
$UCSORG
 10
0.0
 20
0.0
 30
0.0
  9
$UCSXDIR
 10
1.0
 20
0.0
 30
0.0
  9
$UCSYDIR
 10
0.0
 20
1.0
 30
0.0
  9
$UCSORTHOREF
  2

  9
$UCSORTHOVIEW
 70
     0
  9
$UCSORGTOP
 10
0.0
 20
0.0
 30
0.0
  9
$UCSORGBOTTOM
 10
0.0
 20
0.0
 30
0.0
  9
$UCSORGLEFT
 10
0.0
 20
0.0
 30
0.0
  9
$UCSORGRIGHT
 10
0.0
 20
0.0
 30
0.0
  9
$UCSORGFRONT
 10
0.0
 20
0.0
 30
0.0
  9
$UCSORGBACK
 10
0.0
 20
0.0
 30
0.0
  9
$PUCSBASE
  2

  9
$PUCSNAME
  2

  9
$PUCSORG
 10
0.0
 20
0.0
 30
0.0
  9
$PUCSXDIR
 10
1.0
 20
0.0
 30
0.0
  9
$PUCSYDIR
 10
0.0
 20
1.0
 30
0.0
  9
$PUCSORTHOREF
  2

  9
$PUCSORTHOVIEW
 70
     0
  9
$PUCSORGTOP
 10
0.0
 20
0.0
 30
0.0
  9
$PUCSORGBOTTOM
 10
0.0
 20
0.0
 30
0.0
  9
$PUCSORGLEFT
 10
0.0
 20
0.0
 30
0.0
  9
$PUCSORGRIGHT
 10
0.0
 20
0.0
 30
0.0
  9
$PUCSORGFRONT
 10
0.0
 20
0.0
 30
0.0
  9
$PUCSORGBACK
 10
0.0
 20
0.0
 30
0.0
  9
$USERI1
 70
     0
  9
$USERI2
 70
     0
  9
$USERI3
 70
     0
  9
$USERI4
 70
     0
  9
$USERI5
 70
     0
  9
$USERR1
 40
0.0
  9
$USERR2
 40
0.0
  9
$USERR3
 40
0.0
  9
$USERR4
 40
0.0
  9
$USERR5
 40
0.0
  9
$WORLDVIEW
 70
     1
  9
$SHADEDGE
 70
     3
  9
$SHADEDIF
 70
    70
  9
$TILEMODE
 70
     1
  9
$MAXACTVP
 70
    64
  9
$PINSBASE
 10
0.0
 20
0.0
 30
0.0
  9
$PLIMCHECK
 70
     0
  9
$PEXTMIN
 10
1.000000000000000E+20
 20
1.000000000000000E+20
 30
1.000000000000000E+20
  9
$PEXTMAX
 10
-1.000000000000000E+20
 20
-1.000000000000000E+20
 30
-1.000000000000000E+20
  9
$PLIMMIN
 10
0.0
 20
0.0
  9
$PLIMMAX
 10
12.0
 20
9.0
  9
$UNITMODE
 70
     0
  9
$VISRETAIN
 70
     1
  9
$PLINEGEN
 70
     0
  9
$PSLTSCALE
 70
     1
  9
$TREEDEPTH
 70
  3020
  9
$CMLSTYLE
  2
Standard
  9
$CMLJUST
 70
     0
  9
$CMLSCALE
 40
1.0
  9
$PROXYGRAPHICS
 70
     1
  9
$MEASUREMENT
 70
     0
  9
$CELWEIGHT
370
    -1
  9
$ENDCAPS
280
     0
  9
$JOINSTYLE
280
     0
  9
$LWDISPLAY
290
     0
  9
$INSUNITS
 70
     1
  9
$HYPERLINKBASE
  1

  9
$STYLESHEET
  1

  9
$XEDIT
290
     1
  9
$CEPSNTYPE
380
     0
  9
$PSTYLEMODE
290
     1
  9
$FINGERPRINTGUID
  2
{E355B0B6-A38F-4682-95D0-BADCE04B1E37}
  9
$VERSIONGUID
  2
{FAEB1C32-E019-11D5-929B-00C0DF256EC4}
  9
$EXTNAMES
290
     1
  9
$PSVPSCALE
 40
0.0
  9
$OLESTARTUP
290
     0
  9
$SORTENTS
280
   127
  9
$INDEXCTL
280
     0
  9
$HIDETEXT
280
     1
  9
$XCLIPFRAME
280
     2
  9
$HALOGAP
280
     0
  9
$OBSCOLOR
 70
   257
  9
$OBSLTYPE
280
     0
  9
$INTERSECTIONDISPLAY
280
     0
  9
$INTERSECTIONCOLOR
 70
   257
  9
$DIMASSOC
280
     2
  9
$PROJECTNAME
  1

  9
$CAMERADISPLAY
290
     0
  9
$LENSLENGTH
 40
50.0
  9
$CAMERAHEIGHT
 40
0.0
  9
$STEPSPERSEC
 40
2.0
  9
$STEPSIZE
 40
6.0
  9
$3DDWFPREC
 40
2.0
  9
$PSOLWIDTH
 40
0.25
  9
$PSOLHEIGHT
 40
4.0
  9
$LOFTANG1
 40
1.570796326794897
  9
$LOFTANG2
 40
1.570796326794897
  9
$LOFTMAG1
 40
0.0
  9
$LOFTMAG2
 40
0.0
  9
$LOFTPARAM
 70
     7
  9
$LOFTNORMALS
280
     1
  9
$LATITUDE
 40
37.795
  9
$LONGITUDE
 40
-122.394
  9
$NORTHDIRECTION
 40
0.0
  9
$TIMEZONE
 70
 -8000
  9
$LIGHTGLYPHDISPLAY
280
     1
  9
$TILEMODELIGHTSYNCH
280
     1
  9
$CMATERIAL
347
44
  9
$SOLIDHIST
280
     0
  9
$SHOWHIST
280
     1
  9
$DWFFRAME
280
     2
  9
$DGNFRAME
280
     2
  9
$REALWORLDSCALE
290
     1
  9
$INTERFERECOLOR
 62
   256
  9
$CSHADOW
280
     0
  9
$SHADOWPLANELOCATION
 40
0.0
  0
ENDSEC
  0
SECTION
  2
CLASSES
  0
CLASS
  1
ACDBDICTIONARYWDFLT
  2
AcDbDictionaryWithDefault
  3
ObjectDBX Classes
 90
        0
 91
        4
280
     0
281
     0
  0
CLASS
  1
VISUALSTYLE
  2
AcDbVisualStyle
  3
ObjectDBX Classes
 90
     4095
 91
        4
280
     0
281
     0
  0
CLASS
  1
MATERIAL
  2
AcDbMaterial
  3
ObjectDBX Classes
 90
     1153
 91
        4
280
     0
281
     0
  0
CLASS
  1
SCALE
  2
AcDbScale
  3
ObjectDBX Classes
 90
     1153
 91
        4
280
     0
281
     0
  0
CLASS
  1
TABLESTYLE
  2
AcDbTableStyle
  3
ObjectDBX Classes
 90
     4095
 91
        4
280
     0
281
     0
  0
CLASS
  1
MLEADERSTYLE
  2
AcDbMLeaderStyle
  3
ACDB_MLEADERSTYLE_CLASS
 90
     4095
 91
        4
280
     0
281
     0
  0
CLASS
  1
SUN
  2
AcDbSun
  3
SCENEOE
 90
     1153
 91
        4
280
     0
281
     0
  0
CLASS
  1
DICTIONARYVAR
  2
AcDbDictionaryVar
  3
ObjectDBX Classes
 90
        0
 91
        4
280
     0
281
     0
  0
CLASS
  1
CELLSTYLEMAP
  2
AcDbCellStyleMap
  3
ObjectDBX Classes
 90
     1152
 91
        4
280
     0
281
     0
  0
ENDSEC
  0
SECTION
  2
TABLES
  0
TABLE
  2
VPORT
  5
8
330
0
100
AcDbSymbolTable
 70
     1
  0
VPORT
  5
29
330
8
100
AcDbSymbolTableRecord
100
AcDbViewportTableRecord
  2
*Active
 70
     0
 10
0.0
 20
0.0
 11
1.0
 21
1.0
 12
-0.2012321428571422
 22
1.088000011444092
 13
0.0
 23
0.0
 14
0.5
 24
0.5
 15
0.5
 25
0.5
 16
0.0
 26
0.0
 36
1.0
 17
0.0
 27
0.0
 37
0.0
 40
8.849520023345947
 41
0.4535541383016003
 42
50.0
 43
0.0
 44
0.0
 50
0.0
 51
0.0
 71
     0
 72
   100
 73
     1
 74
     3
 75
     0
 76
     0
 77
     0
 78
     0
281
     0
 65
     1
110
0.0
120
0.0
130
0.0
111
1.0
121
0.0
131
0.0
112
0.0
122
1.0
132
0.0
 79
     0
146
0.0
348
2F
 60
     3
 61
     5
292
     1
282
     1
141
0.0
142
0.0
 63
   250
361
6D
  0
ENDTAB
  0
TABLE
  2
LTYPE
  5
5
330
0
100
AcDbSymbolTable
 70
     3
  0
LTYPE
  5
14
330
5
100
AcDbSymbolTableRecord
100
AcDbLinetypeTableRecord
  2
ByBlock
 70
     0
  3

 72
    65
 73
     0
 40
0.0
  0
LTYPE
  5
15
330
5
100
AcDbSymbolTableRecord
100
AcDbLinetypeTableRecord
  2
ByLayer
 70
     0
  3

 72
    65
 73
     0
 40
0.0
  0
LTYPE
  5
16
330
5
100
AcDbSymbolTableRecord
100
AcDbLinetypeTableRecord
  2
Continuous
 70
     0
  3
Solid line
 72
    65
 73
     0
 40
0.0
  0
LTYPE
  5
B0
330
5
100
AcDbSymbolTableRecord
100
AcDbLinetypeTableRecord
  2
Dashed
 70
     0
  3

 72
    65
 73
     2
 40
2.0
 49
1.0
 74
     0
 49
-1.0
 74
     0
  0
LTYPE
  5
C8
330
5
100
AcDbSymbolTableRecord
100
AcDbLinetypeTableRecord
  2
Center
 70
     0
  3

 72
    65
 73
     4
 40
1.5
 49
0.45
 74
     0
 49
-0.5
 74
     0
 49
0.05
 74
     0
 49
-0.5
 74
     0
  0
ENDTAB
  0
TABLE
  2
LAYER
  5
2
330
0
100
AcDbSymbolTable
 70
     7
  0
LAYER
  5
10
330
2
100
AcDbSymbolTableRecord
100
AcDbLayerTableRecord
  2
0
 70
     0
 62
     7
  6
Continuous
370
    -3
390
F
347
46
348
0
  0
LAYER
  5
72
330
2
100
AcDbSymbolTableRecord
100
AcDbLayerTableRecord
  2
AM_6
 70
     0
 62
    -2
  6
Continuous
370
    35
390
F
347
46
348
0
  0
LAYER
  5
B1
330
2
100
AcDbSymbolTableRecord
100
AcDbLayerTableRecord
  2
AM_9
 70
     0
 62
     6
  6
Dashed
370
    25
390
F
347
46
348
0
  0
LAYER
  5
C5
330
2
100
AcDbSymbolTableRecord
100
AcDbLayerTableRecord
  2
AM_5
 70
     0
 62
     3
  6
Continuous
370
    25
390
F
347
46
348
0
  0
LAYER
  5
C9
330
2
100
AcDbSymbolTableRecord
100
AcDbLayerTableRecord
  2
AM_7
 70
     0
 62
     7
  6
Center
370
    25
390
F
347
46
348
0
  0
LAYER
  5
CB
330
2
100
AcDbSymbolTableRecord
100
AcDbLayerTableRecord
  2
AM_4
 70
     0
 62
     7
  6
Continuous
370
    50
390
F
347
46
348
0
  0
LAYER
  5
213
330
2
100
AcDbSymbolTableRecord
100
AcDbLayerTableRecord
  2
ConnectionPoints
 70
     0
 62
     7
  6
Continuous
370
    50
390
F
347
46
348
0
  0
ENDTAB
  0
TABLE
  2
STYLE
  5
3
330
0
100
AcDbSymbolTable
 70
     1
  0
STYLE
  5
11
330
3
100
AcDbSymbolTableRecord
100
AcDbTextStyleTableRecord
  2
Standard
 70
     0
 40
0.0
 41
1.0
 50
0.0
 71
     0
 42
0.2
  3
txt
  4

  0
ENDTAB
  0
TABLE
  2
VIEW
  5
6
330
0
100
AcDbSymbolTable
 70
     0
  0
ENDTAB
  0
TABLE
  2
UCS
  5
7
330
0
100
AcDbSymbolTable
 70
     0
  0
ENDTAB
  0
TABLE
  2
APPID
  5
9
330
0
100
AcDbSymbolTable
 70
     1
  0
APPID
  5
12
330
9
100
AcDbSymbolTableRecord
100
AcDbRegAppTableRecord
  2
ACAD
 70
     0
  0
ENDTAB
  0
TABLE
  2
DIMSTYLE
  5
A
330
0
100
AcDbSymbolTable
 70
     1
100
AcDbDimStyleTable
  0
DIMSTYLE
105
27
330
A
100
AcDbSymbolTableRecord
100
AcDbDimStyleTableRecord
  2
Standard
 70
     0
178
     0
340
11
  0
ENDTAB
  0
TABLE
  2
BLOCK_RECORD
  5
1
330
0
100
AcDbSymbolTable
 70
     6
  0
BLOCK_RECORD
  5
1F
330
1
100
AcDbSymbolTableRecord
100
AcDbBlockTableRecord
  2
*Model_Space
340
22
 70
     0
280
     1
281
     0
  0
BLOCK_RECORD
  5
1B
330
1
100
AcDbSymbolTableRecord
100
AcDbBlockTableRecord
  2
*Paper_Space
340
1E
 70
     0
280
     1
281
     0
  0
BLOCK_RECORD
  5
23
330
1
100
AcDbSymbolTableRecord
100
AcDbBlockTableRecord
  2
*Paper_Space0
340
26
 70
     0
280
     1
281
     0
  0
BLOCK_RECORD
  5
6E
330
1
100
AcDbSymbolTableRecord
100
AcDbBlockTableRecord
  2
1_023200_2
340
0
102
{BLKREFS
331
6F
102
}
 70
     0
280
     1
281
     0
  0
BLOCK_RECORD
  5
9B
330
1
100
AcDbSymbolTableRecord
100
AcDbBlockTableRecord
  2
2_2_1_4C_0_in_023200_2
340
0
102
{BLKREFS
331
9C
102
}
 70
     0
280
     1
281
     0
  0
BLOCK_RECORD
  5
D8
330
1
100
AcDbSymbolTableRecord
100
AcDbBlockTableRecord
  2
3_405020c_Inch_0_in_023200_2
340
0
102
{BLKREFS
331
D9
102
}
 70
     0
280
     1
281
     0
  0
BLOCK_RECORD
  5
11C
330
1
100
AcDbSymbolTableRecord
100
AcDbBlockTableRecord
  2
4_S1U_K_204R_0_in_023200_2
340
0
102
{BLKREFS
331
11D
102
}
 70
     0
280
     1
281
     0
  0
BLOCK_RECORD
  5
17C
330
1
100
AcDbSymbolTableRecord
100
AcDbBlockTableRecord
  2
5_P2B_K_204RE_0_in_023200_2
340
0
102
{BLKREFS
331
17D
102
}
 70
     0
280
     1
281
     0
  0
ENDTAB
  0
ENDSEC
  0
SECTION
  2
BLOCKS
  0
BLOCK
  5
20
330
1F
100
AcDbEntity
  8
0
100
AcDbBlockBegin
  2
*Model_Space
 70
     0
 10
0.0
 20
0.0
 30
0.0
  3
*Model_Space
  1

  0
ENDBLK
  5
21
330
1F
100
AcDbEntity
  8
0
100
AcDbBlockEnd
  0
BLOCK
  5
1C
330
1B
100
AcDbEntity
 67
     1
  8
0
100
AcDbBlockBegin
  2
*Paper_Space
 70
     0
 10
0.0
 20
0.0
 30
0.0
  3
*Paper_Space
  1

  0
ENDBLK
  5
1D
330
1B
100
AcDbEntity
 67
     1
  8
0
100
AcDbBlockEnd
  0
BLOCK
  5
24
330
23
100
AcDbEntity
  8
0
100
AcDbBlockBegin
  2
*Paper_Space0
 70
     0
 10
0.0
 20
0.0
 30
0.0
  3
*Paper_Space0
  1

  0
ENDBLK
  5
25
330
23
100
AcDbEntity
  8
0
100
AcDbBlockEnd
  0
BLOCK
  5
70
330
6E
100
AcDbEntity
  8
0
100
AcDbBlockBegin
  2
1_023200_2
 70
     2
 10
0.0
 20
0.0
 30
0.0
  3
1_023200_2
  1

  0
ATTDEF
  5
73
330
6E
100
AcDbEntity
  8
AM_6
100
AcDbText
 10
6.766285714285714
 20
5.426000022888184
 30
0.0
 40
0.5
  1
Type K Pillow Block 2&4-Bolt Base Expansion Inch Bore
100
AcDbAttributeDefinition
  3

  2
NN
 70
     8
280
     0
  0
ATTDEF
  5
74
330
6E
100
AcDbEntity
  8
AM_6
100
AcDbText
 10
6.766285714285714
 20
4.926000022888184
 30
0.0
 40
0.5
  1
Type K
100
AcDbAttributeDefinition
  3

  2
NT
 70
     8
280
     0
  0
ATTDEF
  5
75
330
6E
100
AcDbEntity
  8
AM_6
100
AcDbText
 10
6.766285714285714
 20
4.426000022888184
 30
0.0
 40
0.5
  1
023200
100
AcDbAttributeDefinition
  3

  2
NB
 70
     8
280
     0
  0
ATTDEF
  5
76
330
6E
100
AcDbEntity
  8
AM_6
100
AcDbText
 10
6.766285714285714
 20
3.926000022888184
 30
0.0
 40
0.5
  1
$PN.
100
AcDbAttributeDefinition
  3

  2
NBSYN
 70
     8
280
     0
  0
ATTDEF
  5
77
330
6E
100
AcDbEntity
  8
AM_6
100
AcDbText
 10
6.766285714285714
 20
3.426000022888184
 30
0.0
 40
0.5
  1
023200
100
AcDbAttributeDefinition
  3

  2
LINA
 70
     8
280
     0
  0
ATTDEF
  5
78
330
6E
100
AcDbEntity
  8
AM_6
100
AcDbText
 10
6.766285714285714
 20
2.926000022888184
 30
0.0
 40
0.5
  1
2-1/4
100
AcDbAttributeDefinition
  3

  2
SS
 70
     8
280
     0
  0
ATTDEF
  5
79
330
6E
100
AcDbEntity
  8
AM_6
100
AcDbText
 10
6.766285714285714
 20
2.426000022888184
 30
0.0
 40
0.5
  1
023200
100
AcDbAttributeDefinition
  3

  2
PN
 70
     8
280
     0
  0
ATTDEF
  5
7A
330
6E
100
AcDbEntity
  8
AM_6
100
AcDbText
 10
6.766285714285714
 20
1.926000022888184
 30
0.0
 40
0.5
  1
P2B-K-204RE
100
AcDbAttributeDefinition
  3

  2
PNA
 70
     8
280
     0
  0
ATTDEF
  5
7B
330
6E
100
AcDbEntity
  8
AM_6
100
AcDbText
 10
6.766285714285714
 20
1.426000022888184
 30
0.0
 40
0.5
  1
28
100
AcDbAttributeDefinition
  3

  2
WEIGHT
 70
     8
280
     0
  0
ATTDEF
  5
7C
330
6E
100
AcDbEntity
  8
AM_6
100
AcDbText
 10
6.766285714285714
 20
0.926000022888184
 30
0.0
 40
0.5
  1
3.34
100
AcDbAttributeDefinition
  3

  2
A
 70
     8
280
     0
  0
ATTDEF
  5
7D
330
6E
100
AcDbEntity
  8
AM_6
100
AcDbText
 10
6.766285714285714
 20
0.4260000228881839
 30
0.0
 40
0.5
  1
12.00
100
AcDbAttributeDefinition
  3

  2
B
 70
     8
280
     0
  0
ATTDEF
  5
7E
330
6E
100
AcDbEntity
  8
AM_6
100
AcDbText
 10
6.766285714285714
 20
-0.0739999771118161
 30
0.0
 40
0.5
  1
2.81
100
AcDbAttributeDefinition
  3

  2
C
 70
     8
280
     0
  0
ATTDEF
  5
7F
330
6E
100
AcDbEntity
  8
AM_6
100
AcDbText
 10
6.766285714285714
 20
-0.573999977111816
 30
0.0
 40
0.5
  1
9.26
100
AcDbAttributeDefinition
  3

  2
DMIN
 70
     8
280
     0
  0
ATTDEF
  5
80
330
6E
100
AcDbEntity
  8
AM_6
100
AcDbText
 10
6.766285714285714
 20
-1.073999977111816
 30
0.0
 40
0.5
  1
10.25
100
AcDbAttributeDefinition
  3

  2
DMAX
 70
     8
280
     0
  0
ATTDEF
  5
81
330
6E
100
AcDbEntity
  8
AM_6
100
AcDbText
 10
6.766285714285714
 20
-1.573999977111816
 30
0.0
 40
0.5
  1
N/A
100
AcDbAttributeDefinition
  3

  2
E
 70
     8
280
     0
  0
ATTDEF
  5
82
330
6E
100
AcDbEntity
  8
AM_6
100
AcDbText
 10
6.766285714285714
 20
-2.073999977111816
 30
0.0
 40
0.5
  1
5/8
100
AcDbAttributeDefinition
  3

  2
F
 70
     8
280
     0
  0
ATTDEF
  5
83
330
6E
100
AcDbEntity
  8
AM_6
100
AcDbText
 10
6.766285714285714
 20
-2.573999977111816
 30
0.0
 40
0.5
  1
1.26
100
AcDbAttributeDefinition
  3

  2
G
 70
     8
280
     0
  0
ATTDEF
  5
84
330
6E
100
AcDbEntity
  8
AM_6
100
AcDbText
 10
6.766285714285714
 20
-3.073999977111816
 30
0.0
 40
0.5
  1
1.75
100
AcDbAttributeDefinition
  3

  2
H
 70
     8
280
     0
  0
ATTDEF
  5
85
330
6E
100
AcDbEntity
  8
AM_6
100
AcDbText
 10
6.766285714285714
 20
-3.573999977111816
 30
0.0
 40
0.5
  1
7.03
100
AcDbAttributeDefinition
  3

  2
J
 70
     8
280
     0
  0
ATTDEF
  5
86
330
6E
100
AcDbEntity
  8
AM_6
100
AcDbText
 10
6.766285714285714
 20
-4.073999977111816
 30
0.0
 40
0.5
  1
4.06
100
AcDbAttributeDefinition
  3

  2
L
 70
     8
280
     0
  0
ATTDEF
  5
87
330
6E
100
AcDbEntity
  8
AM_6
100
AcDbText
 10
6.766285714285714
 20
-4.573999977111816
 30
0.0
 40
0.5
  1
3.25
100
AcDbAttributeDefinition
  3

  2
M
 70
     8
280
     0
  0
ATTDEF
  5
88
330
6E
100
AcDbEntity
  8
AM_6
100
AcDbText
 10
6.766285714285714
 20
-5.073999977111816
 30
0.0
 40
0.5
  1
7.37
100
AcDbAttributeDefinition
  3

  2
P
 70
     8
280
     0
  0
ATTDEF
  5
89
330
6E
100
AcDbEntity
  8
AM_6
100
AcDbText
 10
6.766285714285714
 20
-5.573999977111816
 30
0.0
 40
0.5
  1
1.31
100
AcDbAttributeDefinition
  3

  2
R
 70
     8
280
     0
  0
ATTDEF
  5
8A
330
6E
100
AcDbEntity
  8
AM_6
100
AcDbText
 10
6.766285714285714
 20
-6.073999977111816
 30
0.0
 40
0.5
  1
2
100
AcDbAttributeDefinition
  3

  2
S
 70
     8
280
     0
  0
ATTDEF
  5
8B
330
6E
100
AcDbEntity
  8
AM_6
100
AcDbText
 10
6.766285714285714
 20
-6.573999977111816
 30
0.0
 40
0.5
  1
.28
100
AcDbAttributeDefinition
  3

  2
T
 70
     8
280
     0
  0
ATTDEF
  5
8C
330
6E
100
AcDbEntity
  8
AM_6
100
AcDbText
 10
6.766285714285714
 20
-7.073999977111816
 30
0.0
 40
0.5
  1
54000
100
AcDbAttributeDefinition
  3

  2
CS
 70
     8
280
     0
  0
ATTDEF
  5
8D
330
6E
100
AcDbEntity
  8
AM_6
100
AcDbText
 10
6.766285714285714
 20
-7.573999977111816
 30
0.0
 40
0.5
  1
9090
100
AcDbAttributeDefinition
  3

  2
CD
 70
     8
280
     0
  0
ATTDEF
  5
8E
330
6E
100
AcDbEntity
  8
AM_6
100
AcDbText
 10
6.766285714285714
 20
-8.073999977111816
 30
0.0
 40
0.5
  1
21
100
AcDbAttributeDefinition
  3

  2
RN
 70
     8
280
     0
  0
ATTDEF
  5
8F
330
6E
100
AcDbEntity
  8
AM_6
100
AcDbText
 10
6.766285714285714
 20
-8.573999977111816
 30
0.0
 40
0.5
  1
.41
100
AcDbAttributeDefinition
  3

  2
RM
 70
     8
280
     0
  0
ATTDEF
  5
90
330
6E
100
AcDbEntity
  8
AM_6
100
AcDbText
 10
6.766285714285714
 20
-9.073999977111816
 30
0.0
 40
0.5
  1
3.337
100
AcDbAttributeDefinition
  3

  2
PDI
 70
     8
280
     0
  0
ATTDEF
  5
91
330
6E
100
AcDbEntity
  8
AM_6
100
AcDbText
 10
6.766285714285714
 20
-9.573999977111816
 30
0.0
 40
0.5
  1
.004-.012
100
AcDbAttributeDefinition
  3

  2
EP
 70
     8
280
     0
  0
ATTDEF
  5
92
330
6E
100
AcDbEntity
  8
AM_6
100
AcDbText
 10
6.766285714285714
 20
-10.07399997711182
 30
0.0
 40
0.5
  1
3/8-16*3/4
100
AcDbAttributeDefinition
  3

  2
SC
 70
     8
280
     0
  0
ATTDEF
  5
93
330
6E
100
AcDbEntity
  8
AM_6
100
AcDbText
 10
6.766285714285714
 20
-10.57399997711182
 30
0.0
 40
0.5
  1
290
100
AcDbAttributeDefinition
  3

  2
TC
 70
     8
280
     0
  0
ATTDEF
  5
94
330
6E
100
AcDbEntity
  8
AM_6
100
AcDbText
 10
6.766285714285714
 20
-11.07399997711182
 30
0.0
 40
0.5
  1
C.I. ASTM A48 CLASS 30
100
AcDbAttributeDefinition
  3

  2
MH
 70
     8
280
     0
  0
ATTDEF
  5
95
330
6E
100
AcDbEntity
  8
AM_6
100
AcDbText
 10
6.766285714285714
 20
-11.57399997711182
 30
0.0
 40
0.5
  1
4118 CASE CARB.
100
AcDbAttributeDefinition
  3

  2
MC
 70
     8
280
     0
  0
ATTDEF
  5
96
330
6E
100
AcDbEntity
  8
AM_6
100
AcDbText
 10
6.766285714285714
 20
-12.07399997711182
 30
0.0
 40
0.5
  1
4118 CASE CARB.
100
AcDbAttributeDefinition
  3

  2
MCU
 70
     8
280
     0
  0
ATTDEF
  5
97
330
6E
100
AcDbEntity
  8
AM_6
100
AcDbText
 10
6.766285714285714
 20
-12.57399997711182
 30
0.0
 40
0.5
  1
STEEL
100
AcDbAttributeDefinition
  3

  2
MR
 70
     8
280
     0
  0
ATTDEF
  5
98
330
6E
100
AcDbEntity
  8
AM_6
100
AcDbText
 10
6.766285714285714
 20
-13.07399997711182
 30
0.0
 40
0.5
  1
4118 CASE CARB.
100
AcDbAttributeDefinition
  3

  2
MRO
 70
     8
280
     0
  0
ATTDEF
  5
99
330
6E
100
AcDbEntity
  8
AM_6
100
AcDbText
 10
6.766285714285714
 20
-13.57399997711182
 30
0.0
 40
0.5
  1
5.40*
100
AcDbAttributeDefinition
  3

  2
SM
 70
     8
280
     0
  0
ATTDEF
  5
9A
330
6E
100
AcDbEntity
  8
AM_6
100
AcDbText
 10
6.766285714285714
 20
-14.07399997711182
 30
0.0
 40
0.5
  1
baldor
100
AcDbAttributeDefinition
  3

  2
COMPANY
 70
     8
280
     0
  0
INSERT
  5
9C
330
6E
100
AcDbEntity
  8
0
100
AcDbBlockReference
  2
2_2_1_4C_0_in_023200_2
 10
0.0
 20
0.0
 30
0.0
  0
INSERT
  5
D9
330
6E
100
AcDbEntity
  8
0
100
AcDbBlockReference
  2
3_405020c_Inch_0_in_023200_2
 10
0.0
 20
0.0
 30
0.0
  0
INSERT
  5
11D
330
6E
100
AcDbEntity
  8
0
100
AcDbBlockReference
  2
4_S1U_K_204R_0_in_023200_2
 10
0.0
 20
0.0
 30
0.0
  0
INSERT
  5
17D
330
6E
100
AcDbEntity
  8
0
100
AcDbBlockReference
  2
5_P2B_K_204RE_0_in_023200_2
 10
0.0
 20
0.0
 30
0.0
  0
ENDBLK
  5
71
330
6E
100
AcDbEntity
  8
0
100
AcDbBlockEnd
  0
BLOCK
  5
9D
330
9B
100
AcDbEntity
  8
0
100
AcDbBlockBegin
  2
2_2_1_4C_0_in_023200_2
 70
     2
 10
0.0
 20
0.0
 30
0.0
  3
2_2_1_4C_0_in_023200_2
  1

  0
ATTDEF
  5
9F
330
9B
100
AcDbEntity
  8
AM_6
100
AcDbText
 10
3.62
 20
2.0605625
 30
0.0
 40
0.5
  1
E-Type Collar -Inch
100
AcDbAttributeDefinition
  3

  2
NN
 70
     8
280
     0
  0
ATTDEF
  5
A0
330
9B
100
AcDbEntity
  8
AM_6
100
AcDbText
 10
3.62
 20
1.5605625
 30
0.0
 40
0.5
  1
E-Type Bearings
100
AcDbAttributeDefinition
  3

  2
NT
 70
     8
280
     0
  0
ATTDEF
  5
A1
330
9B
100
AcDbEntity
  8
AM_6
100
AcDbText
 10
3.62
 20
1.0605625
 30
0.0
 40
0.5
  1
2-1/4C
100
AcDbAttributeDefinition
  3

  2
NB
 70
     8
280
     0
  0
ATTDEF
  5
A2
330
9B
100
AcDbEntity
  8
AM_6
100
AcDbText
 10
3.62
 20
0.5605625000000001
 30
0.0
 40
0.5
  1
$BORE.C
100
AcDbAttributeDefinition
  3

  2
NBSYN
 70
     8
280
     0
  0
ATTDEF
  5
A3
330
9B
100
AcDbEntity
  8
AM_6
100
AcDbText
 10
3.62
 20
0.0605625000000001
 30
0.0
 40
0.5
  1
2-1/4C
100
AcDbAttributeDefinition
  3

  2
LINA
 70
     8
280
     0
  0
ATTDEF
  5
A4
330
9B
100
AcDbEntity
  8
AM_6
100
AcDbText
 10
3.62
 20
-0.4394374999999999
 30
0.0
 40
0.5
  1
2-1/4
100
AcDbAttributeDefinition
  3

  2
BORE
 70
     8
280
     0
  0
ATTDEF
  5
A5
330
9B
100
AcDbEntity
  8
AM_6
100
AcDbText
 10
3.62
 20
-0.9394374999999999
 30
0.0
 40
0.5
  1
4.06250
100
AcDbAttributeDefinition
  3

  2
L
 70
     8
280
     0
  0
ATTDEF
  5
A6
330
9B
100
AcDbEntity
  8
AM_6
100
AcDbText
 10
3.62
 20
-1.4394375
 30
0.0
 40
0.5
  1
4.00
100
AcDbAttributeDefinition
  3

  2
A
 70
     8
280
     0
  0
ATTDEF
  5
A7
330
9B
100
AcDbEntity
  8
AM_6
100
AcDbText
 10
3.62
 20
-1.9394375
 30
0.0
 40
0.5
  1
1.70
100
AcDbAttributeDefinition
  3

  2
B
 70
     8
280
     0
  0
ATTDEF
  5
A8
330
9B
100
AcDbEntity
  8
AM_6
100
AcDbText
 10
3.62
 20
-2.4394375
 30
0.0
 40
0.5
  1
2.94
100
AcDbAttributeDefinition
  3

  2
C
 70
     8
280
     0
  0
ATTDEF
  5
A9
330
9B
100
AcDbEntity
  8
AM_6
100
AcDbText
 10
3.62
 20
-2.9394375
 30
0.0
 40
0.5
  1
4.12
100
AcDbAttributeDefinition
  3

  2
D
 70
     8
280
     0
  0
ATTDEF
  5
AA
330
9B
100
AcDbEntity
  8
AM_6
100
AcDbText
 10
3.62
 20
-3.4394375
 30
0.0
 40
0.5
  1
0.41
100
AcDbAttributeDefinition
  3

  2
E
 70
     8
280
     0
  0
ATTDEF
  5
AB
330
9B
100
AcDbEntity
  8
AM_6
100
AcDbText
 10
3.62
 20
-3.9394375
 30
0.0
 40
0.5
  1
0.31
100
AcDbAttributeDefinition
  3

  2
F
 70
     8
280
     0
  0
ATTDEF
  5
AC
330
9B
100
AcDbEntity
  8
AM_6
100
AcDbText
 10
3.62
 20
-4.4394375
 30
0.0
 40
0.5
  1
3/8-16
100
AcDbAttributeDefinition
  3

  2
CS
 70
     8
280
     0
  0
ATTDEF
  5
AD
330
9B
100
AcDbEntity
  8
AM_6
100
AcDbText
 10
3.62
 20
-4.9394375
 30
0.0
 40
0.5
  1
0.3750
100
AcDbAttributeDefinition
  3

  2
NDM
 70
     8
280
     0
  0
ATTDEF
  5
AE
330
9B
100
AcDbEntity
  8
AM_6
100
AcDbText
 10
3.62
 20
-5.4394375
 30
0.0
 40
0.5
  1
0.3070
100
AcDbAttributeDefinition
  3

  2
KDM
 70
     8
280
     0
  0
ATTDEF
  5
AF
330
9B
100
AcDbEntity
  8
AM_6
100
AcDbText
 10
3.62
 20
-5.9394375
 30
0.0
 40
0.5
  1
baldor
100
AcDbAttributeDefinition
  3

  2
COMPANY
 70
     8
280
     0
  0
LINE
  5
B2
330
9B
100
AcDbEntity
  8
AM_9
100
AcDbLine
 10
-1.53635
 20
1.47885
 30
0.0
 11
-1.53635
 21
1.9974
 31
0.0
  0
LINE
  5
B3
330
9B
100
AcDbEntity
  8
AM_9
100
AcDbLine
 10
-1.84365
 20
1.9974
 30
0.0
 11
-1.84365
 21
1.47885
 31
0.0
  0
LINE
  5
B4
330
9B
100
AcDbEntity
  8
AM_9
100
AcDbLine
 10
-1.84365
 20
1.47885
 30
0.0
 11
-1.53635
 21
1.47885
 31
0.0
  0
LINE
  5
B5
330
9B
100
AcDbEntity
  8
AM_9
100
AcDbLine
 10
-1.84365
 20
1.47885
 30
0.0
 11
-1.852257593413386
 21
1.470242406586614
 31
0.0
  0
LINE
  5
B6
330
9B
100
AcDbEntity
  8
AM_9
100
AcDbLine
 10
-1.527735870667618
 20
1.470235870667618
 30
0.0
 11
-1.53635
 21
1.47885
 31
0.0
  0
LINE
  5
B7
330
9B
100
AcDbEntity
  8
AM_9
100
AcDbLine
 10
-1.84365
 20
1.9974
 30
0.0
 11
-1.53635
 21
1.9974
 31
0.0
  0
LINE
  5
B8
330
9B
100
AcDbEntity
  8
AM_9
100
AcDbLine
 10
-1.53635
 20
1.9974
 30
0.0
 11
-1.5025
 21
2.03125
 31
0.0
  0
LINE
  5
B9
330
9B
100
AcDbEntity
  8
AM_9
100
AcDbLine
 10
-1.8775
 20
2.03125
 30
0.0
 11
-1.84365
 21
1.9974
 31
0.0
  0
LWPOLYLINE
  5
BA
330
9B
100
AcDbEntity
  8
AM_9
100
AcDbPolyline
 90
       38
 70
     0
 43
0.0
 10
-1.569289438370362
 20
0.5146837495901996
 10
-1.554705728926732
 20
0.5333956653873269
 10
-1.543077262917381
 20
0.5537257927356821
 10
-1.533395802571749
 20
0.5793069639454874
 10
-1.528295237646095
 20
0.6057766466606561
 10
-1.527997315861997
 20
0.6332314413594383
 10
-1.532679019343003
 20
0.6600965568428381
 10
-1.542402011676165
 20
0.6858111942120637
 10
-1.556874026234256
 20
0.7094555039507517
 10
-1.575461621957355
 20
0.7299599228603243
 10
-1.597869816854495
 20
0.7471624406600673
 10
-1.622275405848488
 20
0.7598840809393814
 10
-1.648921743985311
 20
0.7686191919518975
 10
-1.675172826139212
 20
0.7728099352040113
 10
-1.701877379624312
 20
0.7730491941003077
 10
-1.727120896206091
 20
0.7695031008768268
 10
-1.751336015025139
 20
0.7624416362604652
 10
-1.774074159602232
 20
0.7519380922144729
 10
-1.794591196266356
 20
0.7384022811345642
 10
-1.813255087034343
 20
0.7212715702002607
 10
-1.828599152053088
 20
0.7016531834582257
 10
-1.840878021810585
 20
0.6786357754527865
 10
-1.848854740441031
 20
0.653953065992132
 10
-1.852370073700271
 20
0.6271002309954915
 10
-1.850976259825302
 20
0.599833441484698
 10
-1.844498321371628
 20
0.5724815177461744
 10
-1.833120512588065
 20
0.5462978730967152
 10
-1.817188425922101
 20
0.5223442253456688
 10
-1.797053118707599
 20
0.5011961950238533
 10
-1.774118876585749
 20
0.4843112398157978
 10
-1.748372362384886
 20
0.4714948147030072
 10
-1.722323361674165
 20
0.4637829448334963
 10
-1.695253692110982
 20
0.4605357747473235
 10
-1.669475178627994
 20
0.4617948268101638
 10
-1.644282242319745
 20
0.4671394148390464
 10
-1.620582022152445
 20
0.476309313538853
 10
-1.598729825610207
 20
0.4889197175227187
 10
-1.569289438370362
 20
0.5146837495901997
  0
LINE
  5
BB
330
9B
100
AcDbEntity
  8
AM_9
100
AcDbLine
 10
-2.0
 20
-1.47
 30
0.0
 11
-1.38
 21
-1.47
 31
0.0
  0
LINE
  5
BC
330
9B
100
AcDbEntity
  8
AM_9
100
AcDbLine
 10
-1.38
 20
1.47
 30
0.0
 11
-1.528038830069028
 21
1.47
 31
0.0
  0
LINE
  5
BD
330
9B
100
AcDbEntity
  8
AM_9
100
AcDbLine
 10
-1.851946352836782
 20
1.47
 30
0.0
 11
-2.0
 21
1.47
 31
0.0
  0
LWPOLYLINE
  5
BE
330
9B
100
AcDbEntity
  8
AM_9
100
AcDbPolyline
 90
       21
 70
     0
 43
0.0
 10
-1.852499999999877
 20
1.469999999999984
 10
-1.852204694987161
 20
1.469963330931792
 10
-1.847890339424635
 20
1.469434979268364
 10
-1.838753413306858
 20
1.468361743863902
 10
-1.824464619652971
 20
1.466808455843292
 10
-1.806523936179177
 20
1.465075748064412
 10
-1.784040770599332
 20
1.463249050051434
 10
-1.760222462372669
 20
1.461735503021439
 10
-1.733231656816433
 20
1.460548397930296
 10
-1.70740785885086
 20
1.459940495715826
 10
-1.680221677539698
 20
1.459859932564025
 10
-1.655251116569449
 20
1.460291675631193
 10
-1.630561129721632
 20
1.461193739523056
 10
-1.607971313926027
 20
1.462431313695708
 10
-1.587005878699983
 20
1.463930347093519
 10
-1.568346267382886
 20
1.465546352084191
 10
-1.552543745800934
 20
1.467120992139931
 10
-1.540081910056273
 20
1.468495087636685
 10
-1.531636785972304
 20
1.469492214862596
 10
-1.527737211153408
 20
1.469970539544335
 10
-1.527500000000197
 20
1.469999999999975
  0
LINE
  5
BF
330
9B
100
AcDbEntity
  8
AM_9
100
AcDbLine
 10
-1.53635
 20
0.6249890163752333
 30
0.0
 11
-1.53635
 21
0.8441377160008731
 31
0.0
  0
LINE
  5
C0
330
9B
100
AcDbEntity
  8
AM_9
100
AcDbLine
 10
-1.84365
 20
0.8441377160008731
 30
0.0
 11
-1.84365
 21
0.6249890163752333
 31
0.0
  0
ELLIPSE
  5
C1
330
9B
100
AcDbEntity
  8
AM_9
100
AcDbEllipse
 10
-1.690000000000001
 20
0.6249890163752329
 30
0.0
 11
0.153650000000001
 21
0.0
 31
0.0
210
0.0
220
0.0
230
1.0
 40
0.9063077870366504
 41
2.235879076071477
 42
7.188898884697894
  0
LINE
  5
C2
330
9B
100
AcDbEntity
  8
AM_9
100
AcDbLine
 10
-1.405
 20
-2.03125
 30
0.0
 11
-1.38
 21
-2.03125
 31
0.0
  0
LINE
  5
C3
330
9B
100
AcDbEntity
  8
AM_9
100
AcDbLine
 10
-1.38
 20
2.03125
 30
0.0
 11
-1.405
 21
2.03125
 31
0.0
  0
LINE
  5
C4
330
9B
100
AcDbEntity
  8
AM_9
100
AcDbLine
 10
-1.38
 20
2.03125
 30
0.0
 11
-1.38
 21
-2.03125
 31
0.0
  0
LINE
  5
C6
330
9B
100
AcDbEntity
  8
AM_5
100
AcDbLine
 10
-1.8775
 20
1.47
 30
0.0
 11
-1.8775
 21
1.445
 31
0.0
  0
LINE
  5
C7
330
9B
100
AcDbEntity
  8
AM_5
100
AcDbLine
 10
-1.5025
 20
2.03125
 30
0.0
 11
-1.5025
 21
1.47
 31
0.0
  0
LINE
  5
CA
330
9B
100
AcDbEntity
  8
AM_7
100
AcDbLine
 10
-1.69
 20
2.0605625
 30
0.0
 11
-1.69
 21
1.4156875
 31
0.0
  0
ELLIPSE
  5
CC
330
9B
100
AcDbEntity
  8
AM_4
100
AcDbEllipse
 10
-1.69
 20
0.624989016375232
 30
0.0
 11
0.1536500000000012
 21
0.0
 31
0.0
210
0.0
220
0.0
230
1.0
 40
0.9063077870366512
 41
1.570796326794897
 42
2.23587907607148
  0
ELLIPSE
  5
CD
330
9B
100
AcDbEntity
  8
AM_4
100
AcDbEllipse
 10
-1.69
 20
0.6249890163752334
 30
0.0
 11
0.1536499999999996
 21
0.0
 31
0.0
210
0.0
220
0.0
230
1.0
 40
0.9063077870366509
 41
0.9057135775183092
 42
1.570796326794897
  0
LWPOLYLINE
  5
CE
330
9B
100
AcDbEntity
  8
AM_4
100
AcDbPolyline
 90
       38
 70
     0
 43
0.0
 10
-1.547070705293375
 20
0.7517660994475587
 10
-1.566672137683651
 20
0.7340240845006035
 10
-1.588847159619536
 20
0.7190808457793569
 10
-1.616740961797478
 20
0.7058410427565713
 10
-1.646555141894785
 20
0.6969729168029961
 10
-1.678513000457022
 20
0.6926921268128664
 10
-1.710785716259739
 20
0.6934025263490667
 10
-1.742954677460487
 20
0.6992790809403207
 10
-1.77361408782087
 20
0.7101265778736733
 10
-1.801660044583945
 20
0.7256139653596464
 10
-1.826443637532696
 20
0.7453002672348101
 10
-1.846563918051434
 20
0.7679761972836505
 10
-1.862120635656467
 20
0.7934177361282476
 10
-1.872116596303496
 20
0.819649671075944
 10
-1.877028004913196
 20
0.8468968648124913
 10
-1.876693637668492
 20
0.8732938233921331
 10
-1.87148251129042
 20
0.8990953747037947
 10
-1.861623849402899
 20
0.9233504462743256
 10
-1.847489732026093
 20
0.945712451683705
 10
-1.829004317200677
 20
0.9660716685324106
 10
-1.807066043113323
 20
0.9834680517021913
 10
-1.781172056482904
 20
0.9980309116205284
 10
-1.752933056551788
 20
1.008735439579442
 10
-1.721910891950673
 20
1.015515635531445
 10
-1.690026945247891
 20
1.017809724108686
 10
-1.657456111866257
 20
1.0154222800121
 10
-1.625802672949687
 20
1.008354914458461
 10
-1.595977436697594
 20
0.9966704912144219
 10
-1.568883334006796
 20
0.9806671568216612
 10
-1.545890720485193
 20
0.9610956736041052
 10
-1.527119115011543
 20
0.9381767645037178
 10
-1.513775085782116
 20
0.913533584712539
 10
-1.505440523298934
 20
0.8870226721215105
 10
-1.502536631114294
 20
0.8605809500955569
 10
-1.504634957275816
 20
0.8339004735777731
 10
-1.511545326578185
 20
0.8082818371173552
 10
-1.522949818905222
 20
0.7839007875900547
 10
-1.547070705266322
 20
0.7517660994071064
  0
LINE
  5
CF
330
9B
100
AcDbEntity
  8
AM_4
100
AcDbLine
 10
-1.896666666666667
 20
-2.03125
 30
0.0
 11
-1.405
 21
-2.03125
 31
0.0
  0
LINE
  5
D0
330
9B
100
AcDbEntity
  8
AM_4
100
AcDbLine
 10
-1.405
 20
2.03125
 30
0.0
 11
-1.5025
 21
2.03125
 31
0.0
  0
LINE
  5
D1
330
9B
100
AcDbEntity
  8
AM_4
100
AcDbLine
 10
-1.8775
 20
2.03125
 30
0.0
 11
-1.896666666666667
 21
2.03125
 31
0.0
  0
LWPOLYLINE
  5
D2
330
9B
100
AcDbEntity
  8
AM_4
100
AcDbPolyline
 90
       20
 70
     0
 43
0.0
 10
-1.502500000000011
 20
2.031249999999999
 10
-1.50486929297898
 20
2.03105102523948
 10
-1.511866795369222
 20
2.030477942861427
 10
-1.523636036420325
 20
2.029563245768623
 10
-1.539425463588468
 20
2.028433227628702
 10
-1.559434434832376
 20
2.027161591354826
 10
-1.582978565855643
 20
2.025895633551818
 10
-1.609915778195619
 20
2.024753736269771
 10
-1.639325310202632
 20
2.023881682247449
 10
-1.670911222254348
 20
2.023381675578007
 10
-1.702998300078744
 20
2.023337320520983
 10
-1.73562690986095
 20
2.023771398522443
 10
-1.766276361523808
 20
2.024618763205512
 10
-1.795590139331721
 20
2.025826721945777
 10
-1.820618678455015
 20
2.027164729078158
 10
-1.842509445242505
 20
2.028565711567188
 10
-1.858673086421113
 20
2.029737839284003
 10
-1.870374684485277
 20
2.030659144469329
 10
-1.876298446041334
 20
2.031148780959285
 10
-1.877499999999953
 20
2.031249999999996
  0
LINE
  5
D3
330
9B
100
AcDbEntity
  8
AM_4
100
AcDbLine
 10
-2.0
 20
1.927916666666667
 30
0.0
 11
-2.0
 21
-1.927916666666667
 31
0.0
  0
ARC
  5
D4
330
9B
100
AcDbEntity
  8
AM_4
100
AcDbCircle
 10
-1.896666666666666
 20
-1.927916666666666
 30
0.0
 40
0.1033333333333342
100
AcDbArc
 50
180.0
 51
270.0
  0
ARC
  5
D5
330
9B
100
AcDbEntity
  8
AM_4
100
AcDbCircle
 10
-1.896666666666666
 20
1.927916666666666
 30
0.0
 40
0.1033333333333342
100
AcDbArc
 50
90.0
 51
180.0
  0
LINE
  5
D6
330
9B
100
AcDbEntity
  8
AM_4
100
AcDbLine
 10
-1.896666666666667
 20
2.03125
 30
0.0
 11
-1.896666666666667
 21
-2.03125
 31
0.0
  0
ELLIPSE
  5
D7
330
9B
100
AcDbEntity
  8
AM_4
100
AcDbEllipse
 10
-1.69
 20
0.8441377160008725
 30
0.0
 11
0.1536500000000005
 21
0.0
 31
0.0
210
0.0
220
0.0
230
1.0
 40
0.9063077870366515
 41
0.0
 42
6.283185307179586
  0
ENDBLK
  5
9E
330
9B
100
AcDbEntity
  8
0
100
AcDbBlockEnd
  0
BLOCK
  5
DA
330
D8
100
AcDbEntity
  8
0
100
AcDbBlockBegin
  2
3_405020c_Inch_0_in_023200_2
 70
     2
 10
0.0
 20
0.0
 30
0.0
  3
3_405020c_Inch_0_in_023200_2
  1

  0
ATTDEF
  5
DC
330
D8
100
AcDbEntity
  8
AM_6
100
AcDbText
 10
5.162408630723042
 20
3.6005
 30
0.0
 40
0.5
  1
405020C -Inch
100
AcDbAttributeDefinition
  3

  2
NN
 70
     8
280
     0
  0
ATTDEF
  5
DD
330
D8
100
AcDbEntity
  8
AM_6
100
AcDbText
 10
5.162408630723042
 20
3.1005
 30
0.0
 40
0.5
  1
Grease fitting
100
AcDbAttributeDefinition
  3

  2
NT
 70
     8
280
     0
  0
ATTDEF
  5
DE
330
D8
100
AcDbEntity
  8
AM_6
100
AcDbText
 10
5.162408630723042
 20
2.6005
 30
0.0
 40
0.5
  1
405020c-Inch
100
AcDbAttributeDefinition
  3

  2
NB
 70
     8
280
     0
  0
ATTDEF
  5
DF
330
D8
100
AcDbEntity
  8
AM_6
100
AcDbText
 10
5.162408630723042
 20
2.1005
 30
0.0
 40
0.5
  1
$MN.-Inch
100
AcDbAttributeDefinition
  3

  2
NBSYN
 70
     8
280
     0
  0
ATTDEF
  5
E0
330
D8
100
AcDbEntity
  8
AM_6
100
AcDbText
 10
5.162408630723042
 20
1.6005
 30
0.0
 40
0.5
  1
405020c
100
AcDbAttributeDefinition
  3

  2
LINA
 70
     8
280
     0
  0
ATTDEF
  5
E1
330
D8
100
AcDbEntity
  8
AM_6
100
AcDbText
 10
5.162408630723042
 20
1.1005
 30
0.0
 40
0.5
  1
405020c
100
AcDbAttributeDefinition
  3

  2
MN
 70
     8
280
     0
  0
ATTDEF
  5
E2
330
D8
100
AcDbEntity
  8
AM_6
100
AcDbText
 10
5.162408630723042
 20
0.6004999999999998
 30
0.0
 40
0.5
  1
0.230
100
AcDbAttributeDefinition
  3

  2
NDR
 70
     8
280
     0
  0
ATTDEF
  5
E3
330
D8
100
AcDbEntity
  8
AM_6
100
AcDbText
 10
5.162408630723042
 20
0.1004999999999998
 30
0.0
 40
0.5
  1
0.210
100
AcDbAttributeDefinition
  3

  2
KDR
 70
     8
280
     0
  0
ATTDEF
  5
E4
330
D8
100
AcDbEntity
  8
AM_6
100
AcDbText
 10
5.162408630723042
 20
-0.3995000000000002
 30
0.0
 40
0.5
  1
0.157
100
AcDbAttributeDefinition
  3

  2
BZE
 70
     8
280
     0
  0
ATTDEF
  5
E5
330
D8
100
AcDbEntity
  8
AM_6
100
AcDbText
 10
5.162408630723042
 20
-0.8995000000000002
 30
0.0
 40
0.5
  1
9/32
100
AcDbAttributeDefinition
  3

  2
WAF
 70
     8
280
     0
  0
ATTDEF
  5
E6
330
D8
100
AcDbEntity
  8
AM_6
100
AcDbText
 10
5.162408630723042
 20
-1.3995
 30
0.0
 40
0.5
  1
0.2813
100
AcDbAttributeDefinition
  3

  2
WAF1
 70
     8
280
     0
  0
ATTDEF
  5
E7
330
D8
100
AcDbEntity
  8
AM_6
100
AcDbText
 10
5.162408630723042
 20
-1.8995
 30
0.0
 40
0.5
  1
0.545
100
AcDbAttributeDefinition
  3

  2
BL
 70
     8
280
     0
  0
ATTDEF
  5
E8
330
D8
100
AcDbEntity
  8
AM_6
100
AcDbText
 10
5.162408630723042
 20
-2.3995
 30
0.0
 40
0.5
  1
0.200
100
AcDbAttributeDefinition
  3

  2
TL
 70
     8
280
     0
  0
ATTDEF
  5
E9
330
D8
100
AcDbEntity
  8
AM_6
100
AcDbText
 10
5.162408630723042
 20
-2.8995
 30
0.0
 40
0.5
  1
baldor
100
AcDbAttributeDefinition
  3

  2
COMPANY
 70
     8
280
     0
  0
LINE
  5
EA
330
D8
100
AcDbEntity
  8
AM_9
100
AcDbLine
 10
0.1406499999999998
 20
3.255500000000001
 30
0.0
 11
0.1624086307230417
 21
3.261330207530646
 31
0.0
  0
LINE
  5
EB
330
D8
100
AcDbEntity
  8
AM_9
100
AcDbLine
 10
-0.1624086307230417
 20
3.261330207530646
 30
0.0
 11
-0.1406499999999998
 21
3.255500000000001
 31
0.0
  0
LINE
  5
EC
330
D8
100
AcDbEntity
  8
AM_9
100
AcDbLine
 10
0.1624086307230417
 20
3.31633645913602
 30
0.0
 11
0.14065
 21
3.322166666666667
 31
0.0
  0
LINE
  5
ED
330
D8
100
AcDbEntity
  8
AM_9
100
AcDbLine
 10
-0.14065
 20
3.322166666666667
 30
0.0
 11
-0.1624086307230417
 21
3.31633645913602
 31
0.0
  0
LINE
  5
EE
330
D8
100
AcDbEntity
  8
AM_9
100
AcDbLine
 10
0.080806429716728
 20
3.6005
 30
0.0
 11
-0.0808064285639435
 21
3.6005
 31
0.0
  0
ARC
  5
EF
330
D8
100
AcDbEntity
  8
AM_9
100
AcDbCircle
 10
-0.0808064297167289
 20
3.575500000000001
 30
0.0
 40
0.024999999999999
100
AcDbArc
 50
90.0
 51
157.0000000000005
  0
ARC
  5
F0
330
D8
100
AcDbEntity
  8
AM_9
100
AcDbCircle
 10
0.0808064297167289
 20
3.575500000000001
 30
0.0
 40
0.024999999999999
100
AcDbArc
 50
22.99999999999947
 51
90.0
  0
ARC
  5
F1
330
D8
100
AcDbEntity
  8
AM_9
100
AcDbCircle
 10
-0.1446847896390993
 20
3.388842555146223
 30
0.0
 40
0.0500000000000006
100
AcDbArc
 50
315.0000000000001
 51
24.99999999999955
  0
ARC
  5
F2
330
D8
100
AcDbEntity
  8
AM_9
100
AcDbCircle
 10
0.1446847896390993
 20
3.388842555146223
 30
0.0
 40
0.0500000000000003
100
AcDbArc
 50
155.0000000000005
 51
224.9999999999999
  0
LINE
  5
F3
330
D8
100
AcDbEntity
  8
AM_9
100
AcDbLine
 10
0.1000886227036577
 20
3.0555
 30
0.0
 11
-0.1000886227036577
 21
3.0555
 31
0.0
  0
LINE
  5
F4
330
D8
100
AcDbEntity
  8
AM_9
100
AcDbLine
 10
0.1000886227036577
 20
3.0555
 30
0.0
 11
0.1104162595939891
 21
3.065827636890332
 31
0.0
  0
LINE
  5
F5
330
D8
100
AcDbEntity
  8
AM_9
100
AcDbLine
 10
-0.1104162595939891
 20
3.065827636890332
 30
0.0
 11
-0.1000886227036577
 21
3.0555
 31
0.0
  0
LINE
  5
F6
330
D8
100
AcDbEntity
  8
AM_9
100
AcDbLine
 10
0.1104162595939891
 20
3.065827636890332
 30
0.0
 11
-0.1104162595939891
 21
3.065827636890332
 31
0.0
  0
LINE
  5
F7
330
D8
100
AcDbEntity
  8
AM_9
100
AcDbLine
 10
0.1104162595939891
 20
3.065827636890332
 30
0.0
 11
0.1163438171532771
 21
3.255500000000001
 31
0.0
  0
LINE
  5
F8
330
D8
100
AcDbEntity
  8
AM_9
100
AcDbLine
 10
-0.1163438171532771
 20
3.255500000000001
 30
0.0
 11
-0.1104162595939891
 21
3.065827636890332
 31
0.0
  0
LINE
  5
F9
330
D8
100
AcDbEntity
  8
AM_9
100
AcDbLine
 10
0.0993694002872663
 20
3.409973468233258
 30
0.0
 11
-0.0993694002872663
 21
3.409973468233258
 31
0.0
  0
LINE
  5
FA
330
D8
100
AcDbEntity
  8
AM_9
100
AcDbLine
 10
0.0993694002872663
 20
3.409973468233258
 30
0.0
 11
0.1312419113468905
 21
3.47832428877464
 31
0.0
  0
LINE
  5
FB
330
D8
100
AcDbEntity
  8
AM_9
100
AcDbLine
 10
-0.1312419113468905
 20
3.47832428877464
 30
0.0
 11
-0.0993694002872663
 21
3.409973468233258
 31
0.0
  0
LINE
  5
FC
330
D8
100
AcDbEntity
  8
AM_9
100
AcDbLine
 10
0.1038190510530391
 20
3.585268278212232
 30
0.0
 11
-0.1038190510530391
 21
3.585268278212232
 31
0.0
  0
LINE
  5
FD
330
D8
100
AcDbEntity
  8
AM_9
100
AcDbLine
 10
-0.1038190510530391
 20
3.585268278212232
 30
0.0
 11
-0.13195176466768
 21
3.518991758286138
 31
0.0
  0
LINE
  5
FE
330
D8
100
AcDbEntity
  8
AM_9
100
AcDbLine
 10
0.13195176466768
 20
3.518991758286138
 30
0.0
 11
0.1038190510530391
 21
3.585268278212232
 31
0.0
  0
LINE
  5
FF
330
D8
100
AcDbEntity
  8
AM_9
100
AcDbLine
 10
0.13195176466768
 20
3.518991758286138
 30
0.0
 11
-0.13195176466768
 21
3.518991758286138
 31
0.0
  0
LINE
  5
100
330
D8
100
AcDbEntity
  8
AM_9
100
AcDbLine
 10
0.1312419113468905
 20
3.47832428877464
 30
0.0
 11
-0.1312419113468905
 21
3.47832428877464
 31
0.0
  0
ARC
  5
101
330
D8
100
AcDbEntity
  8
AM_9
100
AcDbCircle
 10
-0.0859265219950588
 20
3.499455201861674
 30
0.0
 40
0.0499999999999993
100
AcDbArc
 50
156.9999999999995
 51
204.9999999999997
  0
ARC
  5
102
330
D8
100
AcDbEntity
  8
AM_9
100
AcDbCircle
 10
0.0859265219950588
 20
3.499455201861674
 30
0.0
 40
0.049999999999999
100
AcDbArc
 50
335.0000000000003
 51
23.00000000000055
  0
LWPOLYLINE
  5
103
330
D8
100
AcDbEntity
  8
AM_9
100
AcDbPolyline
 90
        3
 70
     0
 43
0.0
 10
0.0
 20
3.255500000000001
 10
-0.0406021576807604
 20
3.257038875462469
 10
-0.0812043153615208
 20
3.261330207530646
  0
LWPOLYLINE
  5
104
330
D8
100
AcDbEntity
  8
AM_9
100
AcDbPolyline
 90
        3
 70
     0
 43
0.0
 10
-0.0812043153615208
 20
3.31633645913602
 10
-0.0407847159147455
 20
3.320614196110489
 10
0.0
 20
3.322166666666667
  0
LWPOLYLINE
  5
105
330
D8
100
AcDbEntity
  8
AM_9
100
AcDbPolyline
 90
        4
 70
     0
 43
0.0
 10
0.0812043153615209
 20
3.261330207530646
 10
0.0623017518439031
 20
3.259031798436252
 10
0.0312428256208204
 20
3.256418591732273
 10
0.0
 20
3.255500000000001
  0
LWPOLYLINE
  5
106
330
D8
100
AcDbEntity
  8
AM_9
100
AcDbPolyline
 90
        4
 70
     0
 43
0.0
 10
0.0
 20
3.322166666666667
 10
0.0311508759219516
 20
3.321253410066301
 10
0.0623017518439031
 20
3.318634868230415
 10
0.0812043153615209
 20
3.31633645913602
  0
LINE
  5
107
330
D8
100
AcDbEntity
  8
AM_9
100
AcDbLine
 10
0.0812043153615209
 20
3.31633645913602
 30
0.0
 11
0.0812043153615209
 21
3.261330207530646
 31
0.0
  0
LWPOLYLINE
  5
108
330
D8
100
AcDbEntity
  8
AM_9
100
AcDbPolyline
 90
        3
 70
     0
 43
0.0
 10
0.1218064730422813
 20
3.255500000000001
 10
0.1015053942019011
 20
3.257038875462469
 10
0.0812043153615209
 20
3.261330207530646
  0
LWPOLYLINE
  5
109
330
D8
100
AcDbEntity
  8
AM_9
100
AcDbPolyline
 90
        3
 70
     0
 43
0.0
 10
0.1624086307230417
 20
3.261330207530646
 10
0.1421988309996541
 20
3.257052470556179
 10
0.1218064730422813
 20
3.255500000000001
  0
LINE
  5
10A
330
D8
100
AcDbEntity
  8
AM_9
100
AcDbLine
 10
0.1624086307230417
 20
3.31633645913602
 30
0.0
 11
0.1624086307230417
 21
3.261330207530646
 31
0.0
  0
LWPOLYLINE
  5
10B
330
D8
100
AcDbEntity
  8
AM_9
100
AcDbPolyline
 90
        3
 70
     0
 43
0.0
 10
0.1218064730422813
 20
3.322166666666667
 10
0.1421075518826615
 20
3.320627791204198
 10
0.1624086307230417
 20
3.31633645913602
  0
LWPOLYLINE
  5
10C
330
D8
100
AcDbEntity
  8
AM_9
100
AcDbPolyline
 90
        3
 70
     0
 43
0.0
 10
0.0812043153615209
 20
3.31633645913602
 10
0.1014141150849086
 20
3.320614196110489
 10
0.1218064730422813
 20
3.322166666666667
  0
LINE
  5
10D
330
D8
100
AcDbEntity
  8
AM_9
100
AcDbLine
 10
0.14065
 20
3.322166666666667
 30
0.0
 11
-0.14065
 21
3.322166666666667
 31
0.0
  0
LINE
  5
10E
330
D8
100
AcDbEntity
  8
AM_9
100
AcDbLine
 10
0.1093294505797714
 20
3.353487216086895
 30
0.0
 11
-0.1093294505797714
 21
3.353487216086895
 31
0.0
  0
LINE
  5
10F
330
D8
100
AcDbEntity
  8
AM_9
100
AcDbLine
 10
-0.1093294505797714
 20
3.353487216086895
 30
0.0
 11
-0.14065
 21
3.322166666666667
 31
0.0
  0
LINE
  5
110
330
D8
100
AcDbEntity
  8
AM_9
100
AcDbLine
 10
0.14065
 20
3.322166666666667
 30
0.0
 11
0.1093294505797714
 21
3.353487216086895
 31
0.0
  0
LINE
  5
111
330
D8
100
AcDbEntity
  8
AM_9
100
AcDbLine
 10
-0.1624086307230417
 20
3.31633645913602
 30
0.0
 11
-0.1624086307230417
 21
3.261330207530646
 31
0.0
  0
LWPOLYLINE
  5
112
330
D8
100
AcDbEntity
  8
AM_9
100
AcDbPolyline
 90
        3
 70
     0
 43
0.0
 10
-0.1218064730422813
 20
3.255500000000001
 10
-0.1421075518826615
 20
3.257038875462469
 10
-0.1624086307230417
 20
3.261330207530646
  0
LWPOLYLINE
  5
113
330
D8
100
AcDbEntity
  8
AM_9
100
AcDbPolyline
 90
        3
 70
     0
 43
0.0
 10
-0.0812043153615208
 20
3.261330207530646
 10
-0.1014141150849086
 20
3.257052470556179
 10
-0.1218064730422813
 20
3.255500000000001
  0
LINE
  5
114
330
D8
100
AcDbEntity
  8
AM_9
100
AcDbLine
 10
-0.0812043153615208
 20
3.31633645913602
 30
0.0
 11
-0.0812043153615208
 21
3.261330207530646
 31
0.0
  0
LWPOLYLINE
  5
115
330
D8
100
AcDbEntity
  8
AM_9
100
AcDbPolyline
 90
        3
 70
     0
 43
0.0
 10
-0.1218064730422813
 20
3.322166666666667
 10
-0.1015053942019011
 20
3.320627791204198
 10
-0.0812043153615208
 20
3.31633645913602
  0
LWPOLYLINE
  5
116
330
D8
100
AcDbEntity
  8
AM_9
100
AcDbPolyline
 90
        3
 70
     0
 43
0.0
 10
-0.1624086307230417
 20
3.31633645913602
 10
-0.142198830999654
 20
3.320614196110489
 10
-0.1218064730422813
 20
3.322166666666667
  0
LINE
  5
117
330
D8
100
AcDbEntity
  8
AM_5
100
AcDbLine
 10
-0.1057663861878746
 20
3.237179352154371
 30
0.0
 11
-0.1000886227036577
 21
3.0555
 31
0.0
  0
LINE
  5
118
330
D8
100
AcDbEntity
  8
AM_5
100
AcDbLine
 10
-0.1163438171532771
 20
3.255500000000001
 30
0.0
 11
-0.1057663861878746
 21
3.237179352154371
 31
0.0
  0
LINE
  5
119
330
D8
100
AcDbEntity
  8
AM_5
100
AcDbLine
 10
0.11577126829667
 20
3.237179352154371
 30
0.0
 11
-0.11577126829667
 21
3.237179352154371
 31
0.0
  0
LINE
  5
11A
330
D8
100
AcDbEntity
  8
AM_5
100
AcDbLine
 10
0.1057663861878746
 20
3.237179352154371
 30
0.0
 11
0.1000886227036577
 21
3.0555
 31
0.0
  0
LINE
  5
11B
330
D8
100
AcDbEntity
  8
AM_5
100
AcDbLine
 10
0.1163438171532771
 20
3.255500000000001
 30
0.0
 11
0.1057663861878746
 21
3.237179352154371
 31
0.0
  0
ENDBLK
  5
DB
330
D8
100
AcDbEntity
  8
0
100
AcDbBlockEnd
  0
BLOCK
  5
11E
330
11C
100
AcDbEntity
  8
0
100
AcDbBlockBegin
  2
4_S1U_K_204R_0_in_023200_2
 70
     2
 10
0.0
 20
0.0
 30
0.0
  3
4_S1U_K_204R_0_in_023200_2
  1

  0
ATTDEF
  5
120
330
11C
100
AcDbEntity
  8
AM_6
100
AcDbText
 10
6.375
 20
3.255500000000001
 30
0.0
 40
0.5
  1
Type K Units - Inch
100
AcDbAttributeDefinition
  3

  2
NN
 70
     8
280
     0
  0
ATTDEF
  5
121
330
11C
100
AcDbEntity
  8
AM_6
100
AcDbText
 10
6.375
 20
2.755500000000001
 30
0.0
 40
0.5
  1
Type K
100
AcDbAttributeDefinition
  3

  2
NT
 70
     8
280
     0
  0
ATTDEF
  5
122
330
11C
100
AcDbEntity
  8
AM_6
100
AcDbText
 10
6.375
 20
2.255500000000001
 30
0.0
 40
0.5
  1
S1U-K-204R
100
AcDbAttributeDefinition
  3

  2
NB
 70
     8
280
     0
  0
ATTDEF
  5
123
330
11C
100
AcDbEntity
  8
AM_6
100
AcDbText
 10
6.375
 20
1.755500000000001
 30
0.0
 40
0.5
  1
$PN.
100
AcDbAttributeDefinition
  3

  2
NBSYN
 70
     8
280
     0
  0
ATTDEF
  5
124
330
11C
100
AcDbEntity
  8
AM_6
100
AcDbText
 10
6.375
 20
1.255500000000001
 30
0.0
 40
0.5
  1
S1U-K-204R
100
AcDbAttributeDefinition
  3

  2
LINA
 70
     8
280
     0
  0
ATTDEF
  5
125
330
11C
100
AcDbEntity
  8
AM_6
100
AcDbText
 10
6.375
 20
0.7555000000000005
 30
0.0
 40
0.5
  1
2-1/4
100
AcDbAttributeDefinition
  3

  2
SS
 70
     8
280
     0
  0
ATTDEF
  5
126
330
11C
100
AcDbEntity
  8
AM_6
100
AcDbText
 10
6.375
 20
0.2555000000000005
 30
0.0
 40
0.5
  1
2.250000
100
AcDbAttributeDefinition
  3

  2
SS1
 70
     8
280
     0
  0
ATTDEF
  5
127
330
11C
100
AcDbEntity
  8
AM_6
100
AcDbText
 10
6.375
 20
-0.2444999999999995
 30
0.0
 40
0.5
  1
S1U-K-204R
100
AcDbAttributeDefinition
  3

  2
PN
 70
     8
280
     0
  0
ATTDEF
  5
128
330
11C
100
AcDbEntity
  8
AM_6
100
AcDbText
 10
6.375
 20
-0.7444999999999995
 30
0.0
 40
0.5
  1
S1U-K-204R
100
AcDbAttributeDefinition
  3

  2
PNA
 70
     8
280
     0
  0
ATTDEF
  5
129
330
11C
100
AcDbEntity
  8
AM_6
100
AcDbText
 10
6.375
 20
-1.244499999999999
 30
0.0
 40
0.5
  1
11
100
AcDbAttributeDefinition
  3

  2
WEIGHT
 70
     8
280
     0
  0
ATTDEF
  5
12A
330
11C
100
AcDbEntity
  8
AM_6
100
AcDbText
 10
6.375
 20
-1.744499999999999
 30
0.0
 40
0.5
  1
3-3/8
100
AcDbAttributeDefinition
  3

  2
A
 70
     8
280
     0
  0
ATTDEF
  5
12B
330
11C
100
AcDbEntity
  8
AM_6
100
AcDbText
 10
6.375
 20
-2.244499999999999
 30
0.0
 40
0.5
  1
3.375000
100
AcDbAttributeDefinition
  3

  2
A1
 70
     8
280
     0
  0
ATTDEF
  5
12C
330
11C
100
AcDbEntity
  8
AM_6
100
AcDbText
 10
6.375
 20
-2.744499999999999
 30
0.0
 40
0.5
  1
2-3/4
100
AcDbAttributeDefinition
  3

  2
B
 70
     8
280
     0
  0
ATTDEF
  5
12D
330
11C
100
AcDbEntity
  8
AM_6
100
AcDbText
 10
6.375
 20
-3.244499999999999
 30
0.0
 40
0.5
  1
2.750000
100
AcDbAttributeDefinition
  3

  2
B1
 70
     8
280
     0
  0
ATTDEF
  5
12E
330
11C
100
AcDbEntity
  8
AM_6
100
AcDbText
 10
6.375
 20
-3.744499999999999
 30
0.0
 40
0.5
  1
1-7/16
100
AcDbAttributeDefinition
  3

  2
C
 70
     8
280
     0
  0
ATTDEF
  5
12F
330
11C
100
AcDbEntity
  8
AM_6
100
AcDbText
 10
6.375
 20
-4.244499999999999
 30
0.0
 40
0.5
  1
1.437500
100
AcDbAttributeDefinition
  3

  2
C1
 70
     8
280
     0
  0
ATTDEF
  5
130
330
11C
100
AcDbEntity
  8
AM_6
100
AcDbText
 10
6.375
 20
-4.744499999999999
 30
0.0
 40
0.5
  1
5
100
AcDbAttributeDefinition
  3

  2
D
 70
     8
280
     0
  0
ATTDEF
  5
131
330
11C
100
AcDbEntity
  8
AM_6
100
AcDbText
 10
6.375
 20
-5.244499999999999
 30
0.0
 40
0.5
  1
5.000000
100
AcDbAttributeDefinition
  3

  2
D1
 70
     8
280
     0
  0
ATTDEF
  5
132
330
11C
100
AcDbEntity
  8
AM_6
100
AcDbText
 10
6.375
 20
-5.744499999999999
 30
0.0
 40
0.5
  1
0.450
100
AcDbAttributeDefinition
  3

  2
E
 70
     8
280
     0
  0
ATTDEF
  5
133
330
11C
100
AcDbEntity
  8
AM_6
100
AcDbText
 10
6.375
 20
-6.244499999999999
 30
0.0
 40
0.5
  1
4.812
100
AcDbAttributeDefinition
  3

  2
EM
 70
     8
280
     0
  0
ATTDEF
  5
134
330
11C
100
AcDbEntity
  8
AM_6
100
AcDbText
 10
6.375
 20
-6.744499999999999
 30
0.0
 40
0.5
  1
4.870
100
AcDbAttributeDefinition
  3

  2
EC
 70
     8
280
     0
  0
ATTDEF
  5
135
330
11C
100
AcDbEntity
  8
AM_6
100
AcDbText
 10
6.375
 20
-7.244499999999999
 30
0.0
 40
0.5
  1
11/16
100
AcDbAttributeDefinition
  3

  2
H
 70
     8
280
     0
  0
ATTDEF
  5
136
330
11C
100
AcDbEntity
  8
AM_6
100
AcDbText
 10
6.375
 20
-7.744499999999999
 30
0.0
 40
0.5
  1
0.687500
100
AcDbAttributeDefinition
  3

  2
H1
 70
     8
280
     0
  0
ATTDEF
  5
137
330
11C
100
AcDbEntity
  8
AM_6
100
AcDbText
 10
6.375
 20
-8.244499999999999
 30
0.0
 40
0.5
  1
3-7/16
100
AcDbAttributeDefinition
  3

  2
J
 70
     8
280
     0
  0
ATTDEF
  5
138
330
11C
100
AcDbEntity
  8
AM_6
100
AcDbText
 10
6.375
 20
-8.744499999999999
 30
0.0
 40
0.5
  1
3.437500
100
AcDbAttributeDefinition
  3

  2
J1
 70
     8
280
     0
  0
ATTDEF
  5
139
330
11C
100
AcDbEntity
  8
AM_6
100
AcDbText
 10
6.375
 20
-9.244499999999999
 30
0.0
 40
0.5
  1
5.186
100
AcDbAttributeDefinition
  3

  2
K
 70
     8
280
     0
  0
ATTDEF
  5
13A
330
11C
100
AcDbEntity
  8
AM_6
100
AcDbText
 10
6.375
 20
-9.744499999999999
 30
0.0
 40
0.5
  1
4-1/16
100
AcDbAttributeDefinition
  3

  2
L
 70
     8
280
     0
  0
ATTDEF
  5
13B
330
11C
100
AcDbEntity
  8
AM_6
100
AcDbText
 10
6.375
 20
-10.2445
 30
0.0
 40
0.5
  1
4.062500
100
AcDbAttributeDefinition
  3

  2
L1
 70
     8
280
     0
  0
ATTDEF
  5
13C
330
11C
100
AcDbEntity
  8
AM_6
100
AcDbText
 10
6.375
 20
-10.7445
 30
0.0
 40
0.5
  1
3-3/8
100
AcDbAttributeDefinition
  3

  2
M
 70
     8
280
     0
  0
ATTDEF
  5
13D
330
11C
100
AcDbEntity
  8
AM_6
100
AcDbText
 10
6.375
 20
-11.2445
 30
0.0
 40
0.5
  1
3.375000
100
AcDbAttributeDefinition
  3

  2
M1
 70
     8
280
     0
  0
ATTDEF
  5
13E
330
11C
100
AcDbEntity
  8
AM_6
100
AcDbText
 10
6.375
 20
-11.7445
 30
0.0
 40
0.5
  1
1-5/16
100
AcDbAttributeDefinition
  3

  2
R
 70
     8
280
     0
  0
ATTDEF
  5
13F
330
11C
100
AcDbEntity
  8
AM_6
100
AcDbText
 10
6.375
 20
-12.2445
 30
0.0
 40
0.5
  1
1.312500
100
AcDbAttributeDefinition
  3

  2
R1
 70
     8
280
     0
  0
ATTDEF
  5
140
330
11C
100
AcDbEntity
  8
AM_6
100
AcDbText
 10
6.375
 20
-12.7445
 30
0.0
 40
0.5
  1
2
100
AcDbAttributeDefinition
  3

  2
S
 70
     8
280
     0
  0
ATTDEF
  5
141
330
11C
100
AcDbEntity
  8
AM_6
100
AcDbText
 10
6.375
 20
-13.2445
 30
0.0
 40
0.5
  1
2.000000
100
AcDbAttributeDefinition
  3

  2
S1
 70
     8
280
     0
  0
ATTDEF
  5
142
330
11C
100
AcDbEntity
  8
AM_6
100
AcDbText
 10
6.375
 20
-13.7445
 30
0.0
 40
0.5
  1
2.9400
100
AcDbAttributeDefinition
  3

  2
CC
 70
     8
280
     0
  0
ATTDEF
  5
143
330
11C
100
AcDbEntity
  8
AM_6
100
AcDbText
 10
6.375
 20
-14.2445
 30
0.0
 40
0.5
  1
baldor
100
AcDbAttributeDefinition
  3

  2
COMPANY
 70
     8
280
     0
  0
LINE
  5
144
330
11C
100
AcDbEntity
  8
AM_9
100
AcDbLine
 10
-1.865625
 20
1.47
 30
0.0
 11
-1.865625
 21
1.125
 31
0.0
  0
LINE
  5
145
330
11C
100
AcDbEntity
  8
AM_9
100
AcDbLine
 10
-1.415625
 20
1.125
 30
0.0
 11
-1.415625
 21
1.47
 31
0.0
  0
LINE
  5
146
330
11C
100
AcDbEntity
  8
AM_9
100
AcDbLine
 10
0.3053163691541441
 20
3.255500000000001
 30
0.0
 11
-0.305316368996962
 21
3.255500000000001
 31
0.0
  0
ARC
  5
147
330
11C
100
AcDbEntity
  8
AM_9
100
AcDbCircle
 10
-0.3053163691541428
 20
3.210499999999998
 30
0.0
 40
0.0450000000000021
100
AcDbArc
 50
90.0
 51
170.9999999999984
  0
ARC
  5
148
330
11C
100
AcDbEntity
  8
AM_9
100
AcDbCircle
 10
0.3053163691541428
 20
3.210499999999998
 30
0.0
 40
0.0450000000000019
100
AcDbArc
 50
9.000000000001691
 51
90.0
  0
LINE
  5
149
330
11C
100
AcDbEntity
  8
AM_9
100
AcDbLine
 10
0.3497623444809257
 20
3.21753955092681
 30
0.0
 11
-0.3497623444809257
 21
3.21753955092681
 31
0.0
  0
LINE
  5
14A
330
11C
100
AcDbEntity
  8
AM_9
100
AcDbLine
 10
-0.3497623444809257
 20
3.21753955092681
 30
0.0
 11
-0.4492500133695137
 21
2.589399130789997
 31
0.0
  0
LINE
  5
14B
330
11C
100
AcDbEntity
  8
AM_9
100
AcDbLine
 10
0.4676947488497836
 20
2.472943654213661
 30
0.0
 11
0.3497623444809257
 21
3.21753955092681
 31
0.0
  0
LINE
  5
14C
330
11C
100
AcDbEntity
  8
AM_9
100
AcDbLine
 10
-2.0
 20
-1.125
 30
0.0
 11
1.375
 21
-1.125
 31
0.0
  0
LINE
  5
14D
330
11C
100
AcDbEntity
  8
AM_9
100
AcDbLine
 10
1.375
 20
1.125
 30
0.0
 11
-1.415625
 21
1.125
 31
0.0
  0
LINE
  5
14E
330
11C
100
AcDbEntity
  8
AM_9
100
AcDbLine
 10
-1.865625
 20
1.125
 30
0.0
 11
-2.0
 21
1.125
 31
0.0
  0
LWPOLYLINE
  5
14F
330
11C
100
AcDbEntity
  8
AM_9
100
AcDbPolyline
 90
       21
 70
     0
 43
0.0
 10
-1.865624999998011
 20
1.124999999999602
 10
-1.865446246952551
 20
1.124964263024075
 10
-1.860714837208873
 20
1.124028263186753
 10
-1.850212800168011
 20
1.122019182536228
 10
-1.833653899099271
 20
1.119044304702668
 10
-1.81211401896158
 20
1.115530583903644
 10
-1.785160426866456
 20
1.111706116570143
 10
-1.754498171759776
 20
1.10813676919712
 10
-1.719587479165466
 20
1.105095051620428
 10
-1.683578635659376
 20
1.103106982489168
 10
-1.6452076629179
 20
1.102279910367335
 10
-1.608475397174993
 20
1.102739133685663
 10
-1.571610180348274
 20
1.104428832171435
 10
-1.537764820053192
 20
1.10705926517901
 10
-1.505866490611714
 20
1.110477309922429
 10
-1.478037553618246
 20
1.114196875655707
 10
-1.454048679100881
 20
1.117949338530262
 10
-1.435720917838212
 20
1.121153728480874
 10
-1.422809373227499
 20
1.123585175795007
 10
-1.417459591240435
 20
1.124634518262188
 10
-1.415625
 20
1.125
  0
LWPOLYLINE
  5
150
330
11C
100
AcDbEntity
  8
AM_9
100
AcDbPolyline
 90
       11
 70
     0
 43
0.0
 10
-1.640625
 20
0.2619203416777687
 10
-1.603811161513712
 20
0.2649281079693297
 10
-1.566997323027425
 20
0.2741855387062594
 10
-1.533292246106789
 20
0.2888213812222727
 10
-1.501683959838233
 20
0.3091313451741479
 10
-1.474410713775326
 20
0.3336642135870082
 10
-1.451102869480463
 20
0.362767416863695
 10
-1.433562443873471
 20
0.3942011257787296
 10
-1.421525302887516
 20
0.4285600443209777
 10
-1.416086204105259
 20
0.462356739256411
 10
-1.415625000591413
 20
0.4754307592032334
  0
LINE
  5
151
330
11C
100
AcDbEntity
  8
AM_9
100
AcDbLine
 10
-1.865625
 20
0.6212399534633566
 30
0.0
 11
-1.865625
 21
0.475417770790397
 31
0.0
  0
LINE
  5
152
330
11C
100
AcDbEntity
  8
AM_9
100
AcDbLine
 10
-1.415625
 20
0.4753809071752998
 30
0.0
 11
-1.415625
 21
0.6212006036533958
 31
0.0
  0
LWPOLYLINE
  5
153
330
11C
100
AcDbEntity
  8
AM_9
100
AcDbPolyline
 90
        5
 70
     0
 43
0.0
 10
-1.850468044471783
 20
0.5477839556089745
 10
-1.851309449395398
 20
0.5458483152053017
 10
-1.861482519661585
 20
0.5140481917910996
 10
-1.865577591163029
 20
0.4796274366526593
 10
-1.865624999083065
 20
0.4754639542731145
  0
LWPOLYLINE
  5
154
330
11C
100
AcDbEntity
  8
AM_9
100
AcDbPolyline
 90
       12
 70
     0
 43
0.0
 10
-1.53926651731094
 20
0.6498610609531956
 10
-1.53994213811023
 20
0.6501426772244997
 10
-1.574796914542557
 20
0.6616661994281243
 10
-1.612665099439205
 20
0.6683280912836426
 10
-1.64962075849912
 20
0.6696113120828394
 10
-1.687397614308636
 20
0.6657233656186547
 10
-1.722462719833898
 20
0.6570739733668887
 10
-1.756201774668035
 20
0.6433530501848992
 10
-1.786257742278783
 20
0.6253297936799577
 10
-1.813041290035342
 20
0.6025199443743593
 10
-1.834669363759447
 20
0.576225561377596
 10
-1.850468044471783
 20
0.5477839556089745
  0
LWPOLYLINE
  5
155
330
11C
100
AcDbEntity
  8
AM_9
100
AcDbPolyline
 90
        6
 70
     0
 43
0.0
 10
-1.430489035275256
 20
0.547117214163658
 10
-1.436791851958734
 20
0.5600846843276772
 10
-1.455051260553278
 20
0.5877045119989928
 10
-1.478965311337472
 20
0.6126568611003829
 10
-1.507111296045712
 20
0.6333814869820885
 10
-1.53926651731094
 20
0.6498610609531956
  0
LWPOLYLINE
  5
156
330
11C
100
AcDbEntity
  8
AM_9
100
AcDbPolyline
 90
        4
 70
     0
 43
0.0
 10
-1.415625000591413
 20
0.4754307592032334
 10
-1.416898821286927
 20
0.4970062608435012
 10
-1.423753952572612
 20
0.5290880140066704
 10
-1.430489035275256
 20
0.547117214163658
  0
LWPOLYLINE
  5
157
330
11C
100
AcDbEntity
  8
AM_9
100
AcDbPolyline
 90
       11
 70
     0
 43
0.0
 10
-1.865624999083065
 20
0.4754639542731145
 10
-1.863319078798721
 20
0.4461317833391032
 10
-1.854779670223174
 20
0.4120031991564197
 10
-1.840727334363648
 20
0.3802134698373156
 10
-1.820778125125844
 20
0.3498540629946337
 10
-1.796130209385489
 20
0.3230746803188475
 10
-1.766358566576394
 20
0.299751868861617
 10
-1.733550626485862
 20
0.2817767239169777
 10
-1.697005832305144
 20
0.2690352694883832
 10
-1.669287739661144
 20
0.2637391987632169
 10
-1.640625
 20
0.2619203416777687
  0
LWPOLYLINE
  5
158
330
11C
100
AcDbEntity
  8
AM_9
100
AcDbPolyline
 90
        7
 70
     0
 43
0.0
 10
-1.806790186610393
 20
0.7554223582237268
 10
-1.815046150606233
 20
0.7471557477391942
 10
-1.836464684746083
 20
0.7198393228317395
 10
-1.852342527642626
 20
0.6894408899748787
 10
-1.862105324572955
 20
0.6568278273721408
 10
-1.865618454045467
 20
0.6228039044475696
 10
-1.865624999752897
 20
0.6212584017392172
  0
LWPOLYLINE
  5
159
330
11C
100
AcDbEntity
  8
AM_9
100
AcDbPolyline
 90
        9
 70
     0
 43
0.0
 10
-1.545265490009307
 20
0.7999489448091154
 10
-1.577169480671373
 20
0.8101360090916195
 10
-1.614443265077936
 20
0.8165621632369411
 10
-1.652102170258956
 20
0.8175834175537315
 10
-1.689434708218234
 20
0.8133382002147701
 10
-1.725179113837281
 20
0.8039210163658163
 10
-1.758568794387064
 20
0.7896059703264039
 10
-1.788874878747083
 20
0.7704886885255383
 10
-1.806790186610393
 20
0.7554223582237268
  0
LWPOLYLINE
  5
15A
330
11C
100
AcDbEntity
  8
AM_9
100
AcDbPolyline
 90
        9
 70
     0
 43
0.0
 10
-1.415625000792101
 20
0.6212317338365648
 10
-1.416994938334051
 20
0.6436288017291653
 10
-1.424235322076849
 20
0.6765002752125397
 10
-1.437426614334786
 20
0.7074728668881373
 10
-1.456351501083844
 20
0.7358239674445284
 10
-1.480363310085881
 20
0.7607843974070155
 10
-1.509180528869704
 20
0.7819164290299828
 10
-1.541725723227606
 20
0.7985133484873144
 10
-1.545265490009307
 20
0.7999489448091154
  0
LWPOLYLINE
  5
15B
330
11C
100
AcDbEntity
  8
AM_9
100
AcDbPolyline
 90
       11
 70
     0
 43
0.0
 10
-1.865624999752897
 20
0.6212584017392172
 10
-1.86274530050055
 20
0.5886706282757359
 10
-1.85373003936377
 20
0.5550738953971104
 10
-1.838769763277078
 20
0.5230409199217347
 10
-1.818366624851177
 20
0.4934727871970772
 10
-1.792746103718791
 20
0.4670620345780457
 10
-1.762855751056134
 20
0.4448929253730409
 10
-1.729273009570275
 20
0.4276704999214934
 10
-1.693140091462116
 20
0.4160423688676345
 10
-1.667069106773435
 20
0.4115300777905766
 10
-1.640625
 20
0.4100092360034111
  0
LWPOLYLINE
  5
15C
330
11C
100
AcDbEntity
  8
AM_9
100
AcDbPolyline
 90
       20
 70
     0
 43
0.0
 10
-1.415625
 20
1.47
 10
-1.418686945468336
 20
1.469534450106325
 10
-1.428137352836221
 20
1.468136914663342
 10
-1.443165245176697
 20
1.466037296515637
 10
-1.464188199604867
 20
1.463354005199586
 10
-1.489663442761554
 20
1.460501417926
 10
-1.520193928503206
 20
1.457662046903144
 10
-1.553424109972617
 20
1.455293439558348
 10
-1.590190880906567
 20
1.453553783101516
 10
-1.627070249215207
 20
1.452741797866653
 10
-1.66542717045908
 20
1.452890273785147
 10
-1.701688031050312
 20
1.45396137973505
 10
-1.737237740915503
 20
1.45588770916826
 10
-1.769264065340273
 20
1.45836312663603
 10
-1.798542023386872
 20
1.461236731770513
 10
-1.822903626164027
 20
1.464069840395684
 10
-1.842721219387979
 20
1.466668974885237
 10
-1.856329361631637
 20
1.468605927955798
 10
-1.864095115645898
 20
1.469766611604302
 10
-1.865624999999429
 20
1.469999999999912
  0
LWPOLYLINE
  5
15D
330
11C
100
AcDbEntity
  8
AM_9
100
AcDbPolyline
 90
       11
 70
     0
 43
0.0
 10
-1.640625
 20
0.4100092360034111
 10
-1.603102930393002
 20
0.4130933677951071
 10
-1.566644544348154
 20
0.4221429887441838
 10
-1.532315324805055
 20
0.436918592139254
 10
-1.501011895014007
 20
0.4568429265069739
 10
-1.473448769908365
 20
0.4815301519415863
 10
-1.450572421236693
 20
0.5100074819484561
 10
-1.433019458579426
 20
0.5416009118700138
 10
-1.421351990123347
 20
0.5751674488041595
 10
-1.416024992847263
 20
0.6094292035451614
 10
-1.415625000792101
 20
0.6212317338365648
  0
LINE
  5
15E
330
11C
100
AcDbEntity
  8
AM_9
100
AcDbLine
 10
-2.0
 20
-1.47
 30
0.0
 11
-1.28125
 21
-1.47
 31
0.0
  0
LINE
  5
15F
330
11C
100
AcDbEntity
  8
AM_9
100
AcDbLine
 10
-1.28125
 20
1.47
 30
0.0
 11
-1.415625
 21
1.47
 31
0.0
  0
LINE
  5
160
330
11C
100
AcDbEntity
  8
AM_9
100
AcDbLine
 10
-1.865625
 20
1.47
 30
0.0
 11
-2.0
 21
1.47
 31
0.0
  0
LINE
  5
161
330
11C
100
AcDbEntity
  8
AM_9
100
AcDbLine
 10
1.375
 20
1.692708333333333
 30
0.0
 11
0.9687500000000003
 21
1.692708333333333
 31
0.0
  0
LINE
  5
162
330
11C
100
AcDbEntity
  8
AM_9
100
AcDbLine
 10
0.9687499999999998
 20
-1.692708333333333
 30
0.0
 11
1.375
 21
-1.692708333333334
 31
0.0
  0
LINE
  5
163
330
11C
100
AcDbEntity
  8
AM_9
100
AcDbLine
 10
-1.28125
 20
2.083333333333333
 30
0.0
 11
-1.375
 21
2.099863987774752
 31
0.0
  0
LINE
  5
164
330
11C
100
AcDbEntity
  8
AM_9
100
AcDbLine
 10
-1.375
 20
-2.099863987774752
 30
0.0
 11
-1.28125
 21
-2.083333333333333
 31
0.0
  0
LINE
  5
165
330
11C
100
AcDbEntity
  8
AM_9
100
AcDbLine
 10
-1.28125
 20
2.083333333333333
 30
0.0
 11
-1.28125
 21
-2.083333333333333
 31
0.0
  0
LINE
  5
166
330
11C
100
AcDbEntity
  8
AM_9
100
AcDbLine
 10
0.9687499999999998
 20
-2.083333333333333
 30
0.0
 11
0.9687500000000003
 21
2.083333333333333
 31
0.0
  0
LINE
  5
167
330
11C
100
AcDbEntity
  8
AM_9
100
AcDbLine
 10
0.9687499999999998
 20
-2.083333333333333
 30
0.0
 11
1.375
 21
-2.154966169246147
 31
0.0
  0
LINE
  5
168
330
11C
100
AcDbEntity
  8
AM_9
100
AcDbLine
 10
1.375
 20
2.154966169246147
 30
0.0
 11
0.9687500000000003
 21
2.083333333333333
 31
0.0
  0
LINE
  5
169
330
11C
100
AcDbEntity
  8
AM_9
100
AcDbLine
 10
-1.31875
 20
-2.406
 30
0.0
 11
-0.7187500000000001
 21
-2.406
 31
0.0
  0
LINE
  5
16A
330
11C
100
AcDbEntity
  8
AM_9
100
AcDbLine
 10
-0.7187500000000001
 20
2.406
 30
0.0
 11
-1.31875
 21
2.406
 31
0.0
  0
LINE
  5
16B
330
11C
100
AcDbEntity
  8
AM_9
100
AcDbLine
 10
-1.375
 20
2.349750000000001
 30
0.0
 11
-1.375
 21
-2.349750000000001
 31
0.0
  0
ARC
  5
16C
330
11C
100
AcDbEntity
  8
AM_9
100
AcDbCircle
 10
-1.318750000000001
 20
-2.349750000000001
 30
0.0
 40
0.056249999999999
100
AcDbArc
 50
180.0
 51
270.0
  0
ARC
  5
16D
330
11C
100
AcDbEntity
  8
AM_9
100
AcDbCircle
 10
-1.318750000000001
 20
2.349750000000001
 30
0.0
 40
0.056249999999999
100
AcDbArc
 50
90.0
 51
180.0
  0
LINE
  5
16E
330
11C
100
AcDbEntity
  8
AM_9
100
AcDbLine
 10
-1.31875
 20
2.406
 30
0.0
 11
-1.31875
 21
-2.406
 31
0.0
  0
LINE
  5
16F
330
11C
100
AcDbEntity
  8
AM_9
100
AcDbLine
 10
1.375
 20
2.378750000000001
 30
0.0
 11
1.375
 21
-2.378750000000001
 31
0.0
  0
ARC
  5
170
330
11C
100
AcDbEntity
  8
AM_9
100
AcDbCircle
 10
1.318750000000001
 20
-2.378750000000001
 30
0.0
 40
0.056249999999999
100
AcDbArc
 50
270.0
 51
0.0
  0
ARC
  5
171
330
11C
100
AcDbEntity
  8
AM_9
100
AcDbCircle
 10
1.318750000000001
 20
2.378750000000001
 30
0.0
 40
0.056249999999999
100
AcDbArc
 50
0.0
 51
90.0
  0
LINE
  5
172
330
11C
100
AcDbEntity
  8
AM_9
100
AcDbLine
 10
0.71875
 20
-2.435
 30
0.0
 11
1.318750000000001
 21
-2.435
 31
0.0
  0
LINE
  5
173
330
11C
100
AcDbEntity
  8
AM_9
100
AcDbLine
 10
1.318750000000001
 20
2.435
 30
0.0
 11
0.71875
 21
2.435
 31
0.0
  0
LINE
  5
174
330
11C
100
AcDbEntity
  8
AM_9
100
AcDbLine
 10
0.71875
 20
2.435
 30
0.0
 11
0.71875
 21
-2.435
 31
0.0
  0
LINE
  5
175
330
11C
100
AcDbEntity
  8
AM_9
100
AcDbLine
 10
1.318750000000001
 20
2.435
 30
0.0
 11
1.318750000000001
 21
-2.435
 31
0.0
  0
ARC
  5
176
330
11C
100
AcDbEntity
  8
AM_9
100
AcDbCircle
 10
-0.3124999999999906
 20
0.0000000000000018
 30
0.0
 40
2.592999999999995
100
AcDbArc
 50
66.56519235586377
 51
72.49711420829105
  0
ARC
  5
177
330
11C
100
AcDbEntity
  8
AM_9
100
AcDbCircle
 10
-0.3124999999999479
 20
-0.0000000000005209
 30
0.0
 40
2.593000000000523
100
AcDbArc
 50
93.01816073175807
 51
99.01376856369536
  0
ARC
  5
178
330
11C
100
AcDbEntity
  8
AM_9
100
AcDbCircle
 10
-0.3124999999999987
 20
-0.0000000000000111
 30
0.0
 40
2.59299999999999
100
AcDbArc
 50
260.9862314363039
 51
293.4348076441365
  0
LINE
  5
179
330
11C
100
AcDbEntity
  8
AM_9
100
AcDbLine
 10
-0.7187499999999998
 20
2.560978316483761
 30
0.0
 11
-0.7187499999999998
 21
-2.560978316483762
 31
0.0
  0
LINE
  5
17A
330
11C
100
AcDbEntity
  8
AM_9
100
AcDbLine
 10
0.4677117771886309
 20
2.472836141505327
 30
0.0
 11
-0.4492512292441476
 21
2.589391453849793
 31
0.0
  0
LINE
  5
17B
330
11C
100
AcDbEntity
  8
AM_7
100
AcDbLine
 10
-1.640625
 20
-0.1015625
 30
0.0
 11
-1.640625
 21
2.1328125
 31
0.0
  0
ENDBLK
  5
11F
330
11C
100
AcDbEntity
  8
0
100
AcDbBlockEnd
  0
BLOCK
  5
17E
330
17C
100
AcDbEntity
  8
0
100
AcDbBlockBegin
  2
5_P2B_K_204RE_0_in_023200_2
 70
     2
 10
0.0
 20
0.0
 30
0.0
  3
5_P2B_K_204RE_0_in_023200_2
  1

  0
ATTDEF
  5
180
330
17C
100
AcDbEntity
  8
AM_6
100
AcDbText
 10
6.766285714285714
 20
5.426000022888184
 30
0.0
 40
0.5
  1
2 & 4 Bolt Base - Body - Inch - EXP
100
AcDbAttributeDefinition
  3

  2
NN
 70
     8
280
     0
  0
ATTDEF
  5
181
330
17C
100
AcDbEntity
  8
AM_6
100
AcDbText
 10
6.766285714285714
 20
4.926000022888184
 30
0.0
 40
0.5
  1
Type K
100
AcDbAttributeDefinition
  3

  2
NT
 70
     8
280
     0
  0
ATTDEF
  5
182
330
17C
100
AcDbEntity
  8
AM_6
100
AcDbText
 10
6.766285714285714
 20
4.426000022888184
 30
0.0
 40
0.5
  1
P2B-K-204RE
100
AcDbAttributeDefinition
  3

  2
NB
 70
     8
280
     0
  0
ATTDEF
  5
183
330
17C
100
AcDbEntity
  8
AM_6
100
AcDbText
 10
6.766285714285714
 20
3.926000022888184
 30
0.0
 40
0.5
  1
$PN.
100
AcDbAttributeDefinition
  3

  2
NBSYN
 70
     8
280
     0
  0
ATTDEF
  5
184
330
17C
100
AcDbEntity
  8
AM_6
100
AcDbText
 10
6.766285714285714
 20
3.426000022888184
 30
0.0
 40
0.5
  1
P2B-K-204RE
100
AcDbAttributeDefinition
  3

  2
LINA
 70
     8
280
     0
  0
ATTDEF
  5
185
330
17C
100
AcDbEntity
  8
AM_6
100
AcDbText
 10
6.766285714285714
 20
2.926000022888184
 30
0.0
 40
0.5
  1
2-1/4
100
AcDbAttributeDefinition
  3

  2
SS
 70
     8
280
     0
  0
ATTDEF
  5
186
330
17C
100
AcDbEntity
  8
AM_6
100
AcDbText
 10
6.766285714285714
 20
2.426000022888184
 30
0.0
 40
0.5
  1
2.250000
100
AcDbAttributeDefinition
  3

  2
SS1
 70
     8
280
     0
  0
ATTDEF
  5
187
330
17C
100
AcDbEntity
  8
AM_6
100
AcDbText
 10
6.766285714285714
 20
1.926000022888184
 30
0.0
 40
0.5
  1
5.000000
100
AcDbAttributeDefinition
  3

  2
BORE
 70
     8
280
     0
  0
ATTDEF
  5
188
330
17C
100
AcDbEntity
  8
AM_6
100
AcDbText
 10
6.766285714285714
 20
1.426000022888184
 30
0.0
 40
0.5
  1
P2B-K-204RE
100
AcDbAttributeDefinition
  3

  2
PN
 70
     8
280
     0
  0
ATTDEF
  5
189
330
17C
100
AcDbEntity
  8
AM_6
100
AcDbText
 10
6.766285714285714
 20
0.926000022888184
 30
0.0
 40
0.5
  1
P2B-K-204RE
100
AcDbAttributeDefinition
  3

  2
PNA
 70
     8
280
     0
  0
ATTDEF
  5
18A
330
17C
100
AcDbEntity
  8
AM_6
100
AcDbText
 10
6.766285714285714
 20
0.4260000228881839
 30
0.0
 40
0.5
  1
28
100
AcDbAttributeDefinition
  3

  2
WEIGHT
 70
     8
280
     0
  0
ATTDEF
  5
18B
330
17C
100
AcDbEntity
  8
AM_6
100
AcDbText
 10
6.766285714285714
 20
-0.0739999771118161
 30
0.0
 40
0.5
  1
3.34
100
AcDbAttributeDefinition
  3

  2
A
 70
     8
280
     0
  0
ATTDEF
  5
18C
330
17C
100
AcDbEntity
  8
AM_6
100
AcDbText
 10
6.766285714285714
 20
-0.573999977111816
 30
0.0
 40
0.5
  1
3.340000
100
AcDbAttributeDefinition
  3

  2
A1
 70
     8
280
     0
  0
ATTDEF
  5
18D
330
17C
100
AcDbEntity
  8
AM_6
100
AcDbText
 10
6.766285714285714
 20
-1.073999977111816
 30
0.0
 40
0.5
  1
12.00
100
AcDbAttributeDefinition
  3

  2
B
 70
     8
280
     0
  0
ATTDEF
  5
18E
330
17C
100
AcDbEntity
  8
AM_6
100
AcDbText
 10
6.766285714285714
 20
-1.573999977111816
 30
0.0
 40
0.5
  1
12.000000
100
AcDbAttributeDefinition
  3

  2
B1
 70
     8
280
     0
  0
ATTDEF
  5
18F
330
17C
100
AcDbEntity
  8
AM_6
100
AcDbText
 10
6.766285714285714
 20
-2.073999977111816
 30
0.0
 40
0.5
  1
2.81
100
AcDbAttributeDefinition
  3

  2
C
 70
     8
280
     0
  0
ATTDEF
  5
190
330
17C
100
AcDbEntity
  8
AM_6
100
AcDbText
 10
6.766285714285714
 20
-2.573999977111816
 30
0.0
 40
0.5
  1
2.810000
100
AcDbAttributeDefinition
  3

  2
C1
 70
     8
280
     0
  0
ATTDEF
  5
191
330
17C
100
AcDbEntity
  8
AM_6
100
AcDbText
 10
6.766285714285714
 20
-3.073999977111816
 30
0.0
 40
0.5
  1
9.26
100
AcDbAttributeDefinition
  3

  2
DMIN
 70
     8
280
     0
  0
ATTDEF
  5
192
330
17C
100
AcDbEntity
  8
AM_6
100
AcDbText
 10
6.766285714285714
 20
-3.573999977111816
 30
0.0
 40
0.5
  1
9.260000
100
AcDbAttributeDefinition
  3

  2
DMIN1
 70
     8
280
     0
  0
ATTDEF
  5
193
330
17C
100
AcDbEntity
  8
AM_6
100
AcDbText
 10
6.766285714285714
 20
-4.073999977111816
 30
0.0
 40
0.5
  1
10.25
100
AcDbAttributeDefinition
  3

  2
DMAX
 70
     8
280
     0
  0
ATTDEF
  5
194
330
17C
100
AcDbEntity
  8
AM_6
100
AcDbText
 10
6.766285714285714
 20
-4.573999977111816
 30
0.0
 40
0.5
  1
10.250000
100
AcDbAttributeDefinition
  3

  2
DMAX1
 70
     8
280
     0
  0
ATTDEF
  5
195
330
17C
100
AcDbEntity
  8
AM_6
100
AcDbText
 10
6.766285714285714
 20
-5.073999977111816
 30
0.0
 40
0.5
  1
5/8
100
AcDbAttributeDefinition
  3

  2
F
 70
     8
280
     0
  0
ATTDEF
  5
196
330
17C
100
AcDbEntity
  8
AM_6
100
AcDbText
 10
6.766285714285714
 20
-5.573999977111816
 30
0.0
 40
0.5
  1
0.625000
100
AcDbAttributeDefinition
  3

  2
F1
 70
     8
280
     0
  0
ATTDEF
  5
197
330
17C
100
AcDbEntity
  8
AM_6
100
AcDbText
 10
6.766285714285714
 20
-6.073999977111816
 30
0.0
 40
0.5
  1
1.26
100
AcDbAttributeDefinition
  3

  2
G
 70
     8
280
     0
  0
ATTDEF
  5
198
330
17C
100
AcDbEntity
  8
AM_6
100
AcDbText
 10
6.766285714285714
 20
-6.573999977111816
 30
0.0
 40
0.5
  1
1.260000
100
AcDbAttributeDefinition
  3

  2
G1
 70
     8
280
     0
  0
ATTDEF
  5
199
330
17C
100
AcDbEntity
  8
AM_6
100
AcDbText
 10
6.766285714285714
 20
-7.073999977111816
 30
0.0
 40
0.5
  1
1.75
100
AcDbAttributeDefinition
  3

  2
H
 70
     8
280
     0
  0
ATTDEF
  5
19A
330
17C
100
AcDbEntity
  8
AM_6
100
AcDbText
 10
6.766285714285714
 20
-7.573999977111816
 30
0.0
 40
0.5
  1
1.750000
100
AcDbAttributeDefinition
  3

  2
H1
 70
     8
280
     0
  0
ATTDEF
  5
19B
330
17C
100
AcDbEntity
  8
AM_6
100
AcDbText
 10
6.766285714285714
 20
-8.073999977111816
 30
0.0
 40
0.5
  1
7.03
100
AcDbAttributeDefinition
  3

  2
J
 70
     8
280
     0
  0
ATTDEF
  5
19C
330
17C
100
AcDbEntity
  8
AM_6
100
AcDbText
 10
6.766285714285714
 20
-8.573999977111816
 30
0.0
 40
0.5
  1
7.030000
100
AcDbAttributeDefinition
  3

  2
J1
 70
     8
280
     0
  0
ATTDEF
  5
19D
330
17C
100
AcDbEntity
  8
AM_6
100
AcDbText
 10
6.766285714285714
 20
-9.073999977111816
 30
0.0
 40
0.5
  1
4.06
100
AcDbAttributeDefinition
  3

  2
L
 70
     8
280
     0
  0
ATTDEF
  5
19E
330
17C
100
AcDbEntity
  8
AM_6
100
AcDbText
 10
6.766285714285714
 20
-9.573999977111816
 30
0.0
 40
0.5
  1
4.060000
100
AcDbAttributeDefinition
  3

  2
L1
 70
     8
280
     0
  0
ATTDEF
  5
19F
330
17C
100
AcDbEntity
  8
AM_6
100
AcDbText
 10
6.766285714285714
 20
-10.07399997711182
 30
0.0
 40
0.5
  1
3.25
100
AcDbAttributeDefinition
  3

  2
M
 70
     8
280
     0
  0
ATTDEF
  5
1A0
330
17C
100
AcDbEntity
  8
AM_6
100
AcDbText
 10
6.766285714285714
 20
-10.57399997711182
 30
0.0
 40
0.5
  1
3.250000
100
AcDbAttributeDefinition
  3

  2
M1
 70
     8
280
     0
  0
ATTDEF
  5
1A1
330
17C
100
AcDbEntity
  8
AM_6
100
AcDbText
 10
6.766285714285714
 20
-11.07399997711182
 30
0.0
 40
0.5
  1
7.37
100
AcDbAttributeDefinition
  3

  2
P
 70
     8
280
     0
  0
ATTDEF
  5
1A2
330
17C
100
AcDbEntity
  8
AM_6
100
AcDbText
 10
6.766285714285714
 20
-11.57399997711182
 30
0.0
 40
0.5
  1
7.370000
100
AcDbAttributeDefinition
  3

  2
P1
 70
     8
280
     0
  0
ATTDEF
  5
1A3
330
17C
100
AcDbEntity
  8
AM_6
100
AcDbText
 10
6.766285714285714
 20
-12.07399997711182
 30
0.0
 40
0.5
  1
1.31
100
AcDbAttributeDefinition
  3

  2
R
 70
     8
280
     0
  0
ATTDEF
  5
1A4
330
17C
100
AcDbEntity
  8
AM_6
100
AcDbText
 10
6.766285714285714
 20
-12.57399997711182
 30
0.0
 40
0.5
  1
1.310000
100
AcDbAttributeDefinition
  3

  2
R1
 70
     8
280
     0
  0
ATTDEF
  5
1A5
330
17C
100
AcDbEntity
  8
AM_6
100
AcDbText
 10
6.766285714285714
 20
-13.07399997711182
 30
0.0
 40
0.5
  1
2
100
AcDbAttributeDefinition
  3

  2
S
 70
     8
280
     0
  0
ATTDEF
  5
1A6
330
17C
100
AcDbEntity
  8
AM_6
100
AcDbText
 10
6.766285714285714
 20
-13.57399997711182
 30
0.0
 40
0.5
  1
2.000000
100
AcDbAttributeDefinition
  3

  2
S1
 70
     8
280
     0
  0
ATTDEF
  5
1A7
330
17C
100
AcDbEntity
  8
AM_6
100
AcDbText
 10
6.766285714285714
 20
-14.07399997711182
 30
0.0
 40
0.5
  1
0.281250
100
AcDbAttributeDefinition
  3

  2
EXP1
 70
     8
280
     0
  0
ATTDEF
  5
1A8
330
17C
100
AcDbEntity
  8
AM_6
100
AcDbText
 10
6.766285714285714
 20
-14.57399997711182
 30
0.0
 40
0.5
  1
1
100
AcDbAttributeDefinition
  3

  2
HF
 70
     8
280
     0
  0
ATTDEF
  5
1A9
330
17C
100
AcDbEntity
  8
AM_6
100
AcDbText
 10
6.766285714285714
 20
-15.07399997711182
 30
0.0
 40
0.5
  1
.28
100
AcDbAttributeDefinition
  3

  2
T
 70
     8
280
     0
  0
ATTDEF
  5
1AA
330
17C
100
AcDbEntity
  8
AM_6
100
AcDbText
 10
6.766285714285714
 20
-15.57399997711182
 30
0.0
 40
0.5
  1
baldor
100
AcDbAttributeDefinition
  3

  2
COMPANY
 70
     8
280
     0
  0
LINE
  5
1AB
330
17C
100
AcDbEntity
  8
AM_9
100
AcDbLine
 10
1.405
 20
2.5200000126
 30
0.0
 11
1.169171045285838
 21
2.52
 31
0.0
  0
LINE
  5
1AC
330
17C
100
AcDbEntity
  8
AM_9
100
AcDbLine
 10
-0.77385
 20
3.88
 30
0.0
 11
-0.77385
 21
3.78
 31
0.0
  0
LINE
  5
1AD
330
17C
100
AcDbEntity
  8
AM_9
100
AcDbLine
 10
0.18425
 20
3.88
 30
0.0
 11
0.18425
 21
3.78
 31
0.0
  0
LINE
  5
1AE
330
17C
100
AcDbEntity
  8
AM_9
100
AcDbLine
 10
-0.7024999999999999
 20
3.78
 30
0.0
 11
-0.7024999999999999
 21
2.5200000126
 31
0.0
  0
LINE
  5
1AF
330
17C
100
AcDbEntity
  8
AM_9
100
AcDbLine
 10
0.7024999999999999
 20
2.5200000126
 30
0.0
 11
0.7024999999999999
 21
3.78
 31
0.0
  0
LINE
  5
1B0
330
17C
100
AcDbEntity
  8
AM_9
100
AcDbLine
 10
-1.338095238095238
 20
-2.5
 30
0.0
 11
1.338095238095238
 21
-2.5
 31
0.0
  0
LINE
  5
1B1
330
17C
100
AcDbEntity
  8
AM_9
100
AcDbLine
 10
1.338095238095238
 20
2.5
 30
0.0
 11
0.7024999999999999
 21
2.5
 31
0.0
  0
LINE
  5
1B2
330
17C
100
AcDbEntity
  8
AM_9
100
AcDbLine
 10
-0.7024999999999999
 20
2.5
 30
0.0
 11
-1.338095238095238
 21
2.5
 31
0.0
  0
LWPOLYLINE
  5
1B3
330
17C
100
AcDbEntity
  8
AM_9
100
AcDbPolyline
 90
       40
 70
     0
 43
0.0
 10
-0.7024999999996271
 20
2.499999999999895
 10
-0.7023642448863967
 20
2.499961856207978
 10
-0.6987134163341167
 20
2.498937516396362
 10
-0.6901353559437896
 20
2.496553736558391
 10
-0.6774311159298702
 20
2.493070997412222
 10
-0.660423452453094
 20
2.488504146379922
 10
-0.6385785124035231
 20
2.482795536612753
 10
-0.6124917138159699
 20
2.47621482296937
 10
-0.5825377874391979
 20
2.468976163924735
 10
-0.5487851544276207
 20
2.461231174782277
 10
-0.5103743740973645
 20
2.452952760788111
 10
-0.468437823989676
 20
2.444571075862632
 10
-0.4230780053024655
 20
2.436286727230184
 10
-0.3747261177889477
 20
2.428356113372414
 10
-0.3221444110134359
 20
2.42080135734671
 10
-0.2670817138876709
 20
2.41408914331952
 10
-0.2119462051285009
 20
2.408614854653293
 10
-0.1552438625400389
 20
2.404286673185282
 10
-0.0955471982449572
 20
2.401174243736242
 10
-0.0350828848440036
 20
2.399525902925197
 10
0.0217061335589689
 20
2.399370069726816
 10
0.0783417903076433
 20
2.400548101186187
 10
0.1360746353688414
 20
2.403127554032061
 10
0.1928003230719211
 20
2.407003472074072
 10
0.246092605985839
 20
2.411858901444207
 10
0.2977361963884069
 20
2.41767255695221
 10
0.3487305378079506
 20
2.424481959592264
 10
0.3973299318706035
 20
2.431946715033102
 10
0.4434503373265801
 20
2.439906821563643
 10
0.4865700844653338
 20
2.448110331887965
 10
0.5274692884047524
 20
2.456566425973266
 10
0.5646518349090732
 20
2.464817527661264
 10
0.5977170325037573
 20
2.472601472778118
 10
0.6266119894616021
 20
2.479745215810896
 10
0.6517752547662761
 20
2.486222208928393
 10
0.6720728151743475
 20
2.491621082527673
 10
0.6851784731806477
 20
2.495187478852858
 10
0.6946596123134406
 20
2.49780818458493
 10
0.7005331765399936
 20
2.499447339576833
 10
0.7024999999999999
 20
2.5
  0
LINE
  5
1B4
330
17C
100
AcDbEntity
  8
AM_9
100
AcDbLine
 10
-1.408095238095237
 20
0.4375
 30
0.0
 11
-1.408095238095237
 21
0.0
 31
0.0
  0
LINE
  5
1B5
330
17C
100
AcDbEntity
  8
AM_9
100
AcDbLine
 10
-1.338095238095238
 20
2.632702702702702
 30
0.0
 11
-1.338095238095238
 21
-2.632702702702702
 31
0.0
  0
ARC
  5
1B6
330
17C
100
AcDbEntity
  8
AM_9
100
AcDbCircle
 10
-1.408095238095237
 20
-2.632702702702703
 30
0.0
 40
0.0699999999999993
100
AcDbArc
 50
272.5343131569846
 51
0.0
  0
ARC
  5
1B7
330
17C
100
AcDbEntity
  8
AM_9
100
AcDbCircle
 10
-1.408095238095237
 20
2.632702702702703
 30
0.0
 40
0.0699999999999996
100
AcDbArc
 50
0.0000008537736463
 51
87.46568684301558
  0
LINE
  5
1B8
330
17C
100
AcDbEntity
  8
AM_9
100
AcDbLine
 10
1.408095238095239
 20
0.4374999999999999
 30
0.0
 11
1.408095238095239
 21
0.0
 31
0.0
  0
LINE
  5
1B9
330
17C
100
AcDbEntity
  8
AM_9
100
AcDbLine
 10
1.338095238095238
 20
2.632702702702703
 30
0.0
 11
1.338095238095238
 21
-2.632702702702703
 31
0.0
  0
ARC
  5
1BA
330
17C
100
AcDbEntity
  8
AM_9
100
AcDbCircle
 10
1.408095238095238
 20
-2.632702702702702
 30
0.0
 40
0.0700000000000003
100
AcDbArc
 50
180.0
 51
267.4656868430147
  0
ARC
  5
1BB
330
17C
100
AcDbEntity
  8
AM_9
100
AcDbCircle
 10
1.408095238095239
 20
2.632702702702701
 30
0.0
 40
0.0700000000000012
100
AcDbArc
 50
92.53431315698563
 51
180.0
  0
LINE
  5
1BC
330
17C
100
AcDbEntity
  8
AM_9
100
AcDbLine
 10
0.5886138858443082
 20
2.8325
 30
0.0
 11
0.5886138858443083
 21
2.739785894338191
 31
0.0
  0
LINE
  5
1BD
330
17C
100
AcDbEntity
  8
AM_9
100
AcDbLine
 10
-0.5886138858443081
 20
2.8325
 30
0.0
 11
-0.5886138858443082
 21
2.739785894338191
 31
0.0
  0
LINE
  5
1BE
330
17C
100
AcDbEntity
  8
AM_9
100
AcDbLine
 10
0.5886138858443083
 20
2.739785894338191
 30
0.0
 11
0.5651836233587763
 21
2.727473796030039
 31
0.0
  0
LWPOLYLINE
  5
1BF
330
17C
100
AcDbEntity
  8
AM_9
100
AcDbPolyline
 90
       13
 70
     0
 43
0.0
 10
1.093956993133065
 20
2.582647529863325
 10
1.086735846512779
 20
2.587967693966601
 10
1.040494386352198
 20
2.619498159802416
 10
0.9917006780573312
 20
2.648392597047872
 10
0.9524467178618209
 20
2.668646050218273
 10
0.9119521558251803
 20
2.686923318167464
 10
0.8692870642071723
 20
2.703413529625297
 10
0.8257812393076587
 20
2.717380760547671
 10
0.7827959273373015
 20
2.728352955339091
 10
0.7396667859551026
 20
2.736496176068647
 10
0.6950800645385475
 20
2.741751166504774
 10
0.6512463531198993
 20
2.743588337309641
 10
0.5886138858443083
 20
2.739785894338191
  0
LWPOLYLINE
  5
1C0
330
17C
100
AcDbEntity
  8
AM_9
100
AcDbPolyline
 90
        3
 70
     0
 43
0.0
 10
1.16917104528584
 20
2.52
 10
1.129269848463509
 20
2.554954006657252
 10
1.093956993133065
 20
2.582647529863325
  0
LINE
  5
1C1
330
17C
100
AcDbEntity
  8
AM_9
100
AcDbLine
 10
-0.5650259406938073
 20
2.727386244518443
 30
0.0
 11
-0.5886138858443082
 21
2.739785894338191
 31
0.0
  0
LWPOLYLINE
  5
1C2
330
17C
100
AcDbEntity
  8
AM_9
100
AcDbPolyline
 90
        3
 70
     0
 43
0.0
 10
-1.093812312097718
 20
2.582755224610257
 10
-1.126383971653546
 20
2.557315943849265
 10
-1.169171040755981
 20
2.520000012600001
  0
LWPOLYLINE
  5
1C3
330
17C
100
AcDbEntity
  8
AM_9
100
AcDbPolyline
 90
       12
 70
     0
 43
0.0
 10
-0.5886138858443082
 20
2.739785894338191
 10
-0.6360421176677046
 20
2.743352377705978
 10
-0.6854448321800688
 20
2.742412552620909
 10
-0.7357706373341623
 20
2.737086212046881
 10
-0.7863125651070904
 20
2.72754166803999
 10
-0.8367702921690946
 20
2.71410072628602
 10
-0.8863040280067285
 20
2.697172496826978
 10
-0.9366199872386018
 20
2.67608691945814
 10
-0.985294531237692
 20
2.651860217752168
 10
-1.031826549496393
 20
2.62494893367866
 10
-1.080523357984917
 20
2.592445597339756
 10
-1.093812312097718
 20
2.582755224610257
  0
LINE
  5
1C4
330
17C
100
AcDbEntity
  8
AM_9
100
AcDbLine
 10
0.3825000000000003
 20
-1.5
 30
0.0
 11
0.3825000000000003
 21
-3.25
 31
0.0
  0
LINE
  5
1C5
330
17C
100
AcDbEntity
  8
AM_9
100
AcDbLine
 10
-0.3824999999999996
 20
-1.5
 30
0.0
 11
-0.3824999999999996
 21
-3.25
 31
0.0
  0
LINE
  5
1C6
330
17C
100
AcDbEntity
  8
AM_7
100
AcDbLine
 10
0.8781250000000003
 20
2.45125
 30
0.0
 11
0.8781250000000003
 21
2.588750000000001
 31
0.0
  0
LINE
  5
1C7
330
17C
100
AcDbEntity
  8
AM_7
100
AcDbLine
 10
-0.8781250000000003
 20
2.45125
 30
0.0
 11
-0.8781250000000003
 21
2.588750000000001
 31
0.0
  0
LINE
  5
1C8
330
17C
100
AcDbEntity
  8
AM_7
100
AcDbLine
 10
-2.16875
 20
0.0
 30
0.0
 11
1.766285714285714
 21
0.0
 31
0.0
  0
LINE
  5
1C9
330
17C
100
AcDbEntity
  8
AM_7
100
AcDbLine
 10
0.0
 20
-0.27025
 30
0.0
 11
0.0
 21
5.426000022888184
 31
0.0
  0
LINE
  5
1CA
330
17C
100
AcDbEntity
  8
AM_4
100
AcDbLine
 10
-0.8367200538379251
 20
3.98
 30
0.0
 11
-0.8367200538379251
 21
3.88
 31
0.0
  0
LINE
  5
1CB
330
17C
100
AcDbEntity
  8
AM_4
100
AcDbLine
 10
-0.6057799461620748
 20
3.98
 30
0.0
 11
-0.6057799461620749
 21
3.88
 31
0.0
  0
LINE
  5
1CC
330
17C
100
AcDbEntity
  8
AM_4
100
AcDbLine
 10
-0.8367200538379251
 20
3.98
 30
0.0
 11
-0.6057799461620748
 21
3.98
 31
0.0
  0
LINE
  5
1CD
330
17C
100
AcDbEntity
  8
AM_4
100
AcDbLine
 10
-0.6635149730810374
 20
3.98
 30
0.0
 11
-0.6635149730810374
 21
3.88
 31
0.0
  0
LINE
  5
1CE
330
17C
100
AcDbEntity
  8
AM_4
100
AcDbLine
 10
-0.7789850269189625
 20
3.98
 30
0.0
 11
-0.7789850269189625
 21
3.88
 31
0.0
  0
LINE
  5
1CF
330
17C
100
AcDbEntity
  8
AM_4
100
AcDbLine
 10
0.6057799461620748
 20
3.98
 30
0.0
 11
0.6057799461620748
 21
3.88
 31
0.0
  0
LINE
  5
1D0
330
17C
100
AcDbEntity
  8
AM_4
100
AcDbLine
 10
0.6057799461620748
 20
3.98
 30
0.0
 11
0.8367200538379251
 21
3.98
 31
0.0
  0
LINE
  5
1D1
330
17C
100
AcDbEntity
  8
AM_4
100
AcDbLine
 10
0.8367200538379251
 20
3.98
 30
0.0
 11
0.8367200538379251
 21
3.88
 31
0.0
  0
LINE
  5
1D2
330
17C
100
AcDbEntity
  8
AM_4
100
AcDbLine
 10
0.7789850269189625
 20
3.98
 30
0.0
 11
0.7789850269189625
 21
3.88
 31
0.0
  0
LINE
  5
1D3
330
17C
100
AcDbEntity
  8
AM_4
100
AcDbLine
 10
0.6635149730810374
 20
3.98
 30
0.0
 11
0.6635149730810374
 21
3.88
 31
0.0
  0
LINE
  5
1D4
330
17C
100
AcDbEntity
  8
AM_4
100
AcDbLine
 10
0.92125
 20
3.88
 30
0.0
 11
0.9212499999999999
 21
3.78
 31
0.0
  0
LINE
  5
1D5
330
17C
100
AcDbEntity
  8
AM_4
100
AcDbLine
 10
-0.92125
 20
3.88
 30
0.0
 11
0.92125
 21
3.88
 31
0.0
  0
LINE
  5
1D6
330
17C
100
AcDbEntity
  8
AM_4
100
AcDbLine
 10
-0.92125
 20
3.88
 30
0.0
 11
-0.92125
 21
3.78
 31
0.0
  0
LINE
  5
1D7
330
17C
100
AcDbEntity
  8
AM_4
100
AcDbLine
 10
0.77385
 20
3.88
 30
0.0
 11
0.77385
 21
3.78
 31
0.0
  0
LINE
  5
1D8
330
17C
100
AcDbEntity
  8
AM_4
100
AcDbLine
 10
-0.1842499999999997
 20
3.88
 30
0.0
 11
-0.1842499999999997
 21
3.78
 31
0.0
  0
LINE
  5
1D9
330
17C
100
AcDbEntity
  8
AM_4
100
AcDbLine
 10
1.405
 20
0.4374999999999999
 30
0.0
 11
1.405
 21
3.56125
 31
0.0
  0
LINE
  5
1DA
330
17C
100
AcDbEntity
  8
AM_4
100
AcDbLine
 10
-1.18625
 20
3.780000000000001
 30
0.0
 11
1.18625
 21
3.779999999999999
 31
0.0
  0
LWPOLYLINE
  5
1DB
330
17C
100
AcDbEntity
  8
AM_4
100
AcDbPolyline
 90
       19
 70
     0
 43
0.0
 10
-1.18625
 20
3.780000000000001
 10
-1.20531531872605
 20
3.77916759020757
 10
-1.224235538864641
 20
3.776676695971421
 10
-1.242866666116176
 20
3.772546274500734
 10
-1.26106690635249
 20
3.766807760796918
 10
-1.278697744755778
 20
3.759504828414268
 10
-1.295625
 20
3.750693057077847
 10
-1.311719845451791
 20
3.740439509688218
 10
-1.32685978961893
 20
3.728822221932277
 10
-1.340929608384557
 20
3.715929608384558
 10
-1.353822221932276
 20
3.701859789618931
 10
-1.365439509688216
 20
3.686719845451793
 10
-1.375693057077846
 20
3.670625000000001
 10
-1.384504828414267
 20
3.653697744755779
 10
-1.391807760796917
 20
3.636066906352492
 10
-1.397546274500733
 20
3.617866666116178
 10
-1.40167669597142
 20
3.599235538864642
 10
-1.404167590207569
 20
3.580315318726052
 10
-1.405
 20
3.561250000000002
  0
LINE
  5
1DC
330
17C
100
AcDbEntity
  8
AM_4
100
AcDbLine
 10
0.6366275952246702
 20
3.56125
 30
0.0
 11
1.405
 21
3.56125
 31
0.0
  0
LWPOLYLINE
  5
1DD
330
17C
100
AcDbEntity
  8
AM_4
100
AcDbPolyline
 90
       19
 70
     0
 43
0.0
 10
1.405
 20
3.56125
 10
1.404167590207569
 20
3.580315318726051
 10
1.40167669597142
 20
3.599235538864641
 10
1.397546274500734
 20
3.617866666116176
 10
1.391807760796917
 20
3.63606690635249
 10
1.384504828414267
 20
3.653697744755778
 10
1.375693057077846
 20
3.670625
 10
1.365439509688217
 20
3.686719845451791
 10
1.353822221932277
 20
3.70185978961893
 10
1.340929608384558
 20
3.715929608384557
 10
1.326859789618931
 20
3.728822221932276
 10
1.311719845451792
 20
3.740439509688217
 10
1.295625
 20
3.750693057077846
 10
1.278697744755779
 20
3.759504828414267
 10
1.261066906352491
 20
3.766807760796917
 10
1.242866666116177
 20
3.772546274500733
 10
1.224235538864642
 20
3.77667669597142
 10
1.205315318726051
 20
3.779167590207569
 10
1.186250000000001
 20
3.779999999999999
  0
LINE
  5
1DE
330
17C
100
AcDbEntity
  8
AM_4
100
AcDbLine
 10
-1.404999999999999
 20
3.561250000000001
 30
0.0
 11
-0.636627595224671
 21
3.56125
 31
0.0
  0
LINE
  5
1DF
330
17C
100
AcDbEntity
  8
AM_4
100
AcDbLine
 10
-0.588613885844308
 20
3.575004962865564
 30
0.0
 11
-1.405
 21
3.342708300872546
 31
0.0
  0
LINE
  5
1E0
330
17C
100
AcDbEntity
  8
AM_4
100
AcDbLine
 10
1.405
 20
3.342708300872546
 30
0.0
 11
0.5886138858443082
 21
3.575004962865564
 31
0.0
  0
LINE
  5
1E1
330
17C
100
AcDbEntity
  8
AM_4
100
AcDbLine
 10
0.5886138858443082
 20
3.575004962865564
 30
0.0
 11
0.5886138858443082
 21
2.8325
 31
0.0
  0
LINE
  5
1E2
330
17C
100
AcDbEntity
  8
AM_4
100
AcDbLine
 10
0.5886138858443082
 20
3.575004962865564
 30
0.0
 11
-0.588613885844308
 21
3.575004962865564
 31
0.0
  0
LINE
  5
1E3
330
17C
100
AcDbEntity
  8
AM_4
100
AcDbLine
 10
-0.588613885844308
 20
3.575004962865564
 30
0.0
 11
-0.5886138858443081
 21
2.8325
 31
0.0
  0
LWPOLYLINE
  5
1E4
330
17C
100
AcDbEntity
  8
AM_4
100
AcDbPolyline
 90
        7
 70
     0
 43
0.0
 10
0.5651836233587763
 20
2.727473796030039
 10
0.5437335855112702
 20
2.714944713122951
 10
0.5024196014265015
 20
2.686997303613171
 10
0.4635544863913962
 20
2.655195305926011
 10
0.4285617418278816
 20
2.620793543570445
 10
0.3884021727377922
 20
2.572277146923225
 10
0.354137803965938
 20
2.52
  0
LWPOLYLINE
  5
1E5
330
17C
100
AcDbEntity
  8
AM_4
100
AcDbPolyline
 90
        7
 70
     0
 43
0.0
 10
-0.3541378039659377
 20
2.52
 10
-0.3811698516700198
 20
2.562223893823563
 10
-0.4121907234514188
 20
2.602359335126854
 10
-0.4483550031593382
 20
2.641008056876341
 10
-0.4890685826629073
 20
2.676738851748926
 10
-0.5360777795012538
 20
2.710169461616682
 10
-0.5650259406938073
 20
2.727386244518443
  0
LINE
  5
1E6
330
17C
100
AcDbEntity
  8
AM_4
100
AcDbLine
 10
1.190625
 20
2.8325
 30
0.0
 11
1.190625
 21
2.5825
 31
0.0
  0
LINE
  5
1E7
330
17C
100
AcDbEntity
  8
AM_4
100
AcDbLine
 10
0.5656249999999998
 20
2.8325
 30
0.0
 11
1.190625
 21
2.8325
 31
0.0
  0
LINE
  5
1E8
330
17C
100
AcDbEntity
  8
AM_4
100
AcDbLine
 10
0.5656249999999998
 20
2.8325
 30
0.0
 11
0.5656249999999998
 21
2.5825
 31
0.0
  0
LINE
  5
1E9
330
17C
100
AcDbEntity
  8
AM_4
100
AcDbLine
 10
0.8781250000000004
 20
2.8325
 30
0.0
 11
0.8781250000000004
 21
2.5825
 31
0.0
  0
LINE
  5
1EA
330
17C
100
AcDbEntity
  8
AM_4
100
AcDbLine
 10
-1.190625
 20
2.8325
 30
0.0
 11
-1.190625
 21
2.5825
 31
0.0
  0
LINE
  5
1EB
330
17C
100
AcDbEntity
  8
AM_4
100
AcDbLine
 10
-1.190625
 20
2.8325
 30
0.0
 11
-0.5656249999999998
 21
2.8325
 31
0.0
  0
LINE
  5
1EC
330
17C
100
AcDbEntity
  8
AM_4
100
AcDbLine
 10
-0.8781249999999998
 20
2.8325
 30
0.0
 11
-0.8781249999999998
 21
2.5825
 31
0.0
  0
LINE
  5
1ED
330
17C
100
AcDbEntity
  8
AM_4
100
AcDbLine
 10
-0.5656249999999998
 20
2.8325
 30
0.0
 11
-0.5656249999999998
 21
2.5825
 31
0.0
  0
LINE
  5
1EE
330
17C
100
AcDbEntity
  8
AM_4
100
AcDbLine
 10
0.4875000000000003
 20
2.5825
 30
0.0
 11
1.26875
 21
2.5825
 31
0.0
  0
LINE
  5
1EF
330
17C
100
AcDbEntity
  8
AM_4
100
AcDbLine
 10
0.4875000000000003
 20
2.5825
 30
0.0
 11
0.4875000000000003
 21
2.520000012600001
 31
0.0
  0
LINE
  5
1F0
330
17C
100
AcDbEntity
  8
AM_4
100
AcDbLine
 10
1.26875
 20
2.520000012600001
 30
0.0
 11
1.26875
 21
2.5825
 31
0.0
  0
LINE
  5
1F1
330
17C
100
AcDbEntity
  8
AM_4
100
AcDbLine
 10
-1.26875
 20
2.5825
 30
0.0
 11
-0.4874999999999999
 21
2.5825
 31
0.0
  0
LINE
  5
1F2
330
17C
100
AcDbEntity
  8
AM_4
100
AcDbLine
 10
-1.26875
 20
2.5825
 30
0.0
 11
-1.26875
 21
2.520000012600001
 31
0.0
  0
LINE
  5
1F3
330
17C
100
AcDbEntity
  8
AM_4
100
AcDbLine
 10
-0.4874999999999999
 20
2.520000012600001
 30
0.0
 11
-0.4874999999999999
 21
2.5825
 31
0.0
  0
LINE
  5
1F4
330
17C
100
AcDbEntity
  8
AM_4
100
AcDbLine
 10
0.259737199156141
 20
0.4375
 30
0.0
 11
0.259737199156141
 21
0.0
 31
0.0
  0
LINE
  5
1F5
330
17C
100
AcDbEntity
  8
AM_4
100
AcDbLine
 10
-0.2597372092365074
 20
0.4375
 30
0.0
 11
-0.2597372092365074
 21
0.0
 31
0.0
  0
LINE
  5
1F6
330
17C
100
AcDbEntity
  8
AM_4
100
AcDbLine
 10
-1.404999999999999
 20
3.561250000000001
 30
0.0
 11
-1.405
 21
0.4374999999999999
 31
0.0
  0
LINE
  5
1F7
330
17C
100
AcDbEntity
  8
AM_4
100
AcDbLine
 10
-1.053749999999999
 20
2.5200000126
 30
0.0
 11
-1.053749999999999
 21
0.4374999999999999
 31
0.0
  0
LINE
  5
1F8
330
17C
100
AcDbEntity
  8
AM_4
100
AcDbLine
 10
-0.3983085769207116
 20
2.520000012600001
 30
0.0
 11
-0.3983085769207116
 21
0.4374999999999999
 31
0.0
  0
LINE
  5
1F9
330
17C
100
AcDbEntity
  8
AM_4
100
AcDbLine
 10
0.3983085769207144
 20
2.520000012600001
 30
0.0
 11
0.3983085769207144
 21
0.4374999999999999
 31
0.0
  0
LINE
  5
1FA
330
17C
100
AcDbEntity
  8
AM_4
100
AcDbLine
 10
-0.7024999999999973
 20
-1.5
 30
0.0
 11
-0.7024999999999986
 21
2.5200000126
 31
0.0
  0
LINE
  5
1FB
330
17C
100
AcDbEntity
  8
AM_4
100
AcDbLine
 10
-0.3983085769207116
 20
0.0
 30
0.0
 11
-0.3983085769207116
 21
-1.5
 31
0.0
  0
LINE
  5
1FC
330
17C
100
AcDbEntity
  8
AM_4
100
AcDbLine
 10
-1.053749999999999
 20
0.0
 30
0.0
 11
-1.053749999999999
 21
-1.5
 31
0.0
  0
LINE
  5
1FD
330
17C
100
AcDbEntity
  8
AM_4
100
AcDbLine
 10
1.05375
 20
0.0
 30
0.0
 11
1.05375
 21
-1.5
 31
0.0
  0
LINE
  5
1FE
330
17C
100
AcDbEntity
  8
AM_4
100
AcDbLine
 10
0.3983085769207144
 20
0.0
 30
0.0
 11
0.3983085769207144
 21
-1.5
 31
0.0
  0
LINE
  5
1FF
330
17C
100
AcDbEntity
  8
AM_4
100
AcDbLine
 10
0.7025000000000008
 20
-1.5
 30
0.0
 11
0.7025000000000008
 21
2.5200000126
 31
0.0
  0
LINE
  5
200
330
17C
100
AcDbEntity
  8
AM_4
100
AcDbLine
 10
1.05375
 20
2.5200000126
 30
0.0
 11
1.053750000000001
 21
0.4374999999999999
 31
0.0
  0
LINE
  5
201
330
17C
100
AcDbEntity
  8
AM_4
100
AcDbLine
 10
-1.405
 20
2.5200000126
 30
0.0
 11
1.405
 21
2.5200000126
 31
0.0
  0
LINE
  5
202
330
17C
100
AcDbEntity
  8
AM_4
100
AcDbLine
 10
-1.505
 20
0.4375
 30
0.0
 11
-1.505
 21
0.0
 31
0.0
  0
LINE
  5
203
330
17C
100
AcDbEntity
  8
AM_4
100
AcDbLine
 10
-0.3832785983247283
 20
0.4375
 30
0.0
 11
-0.3832785983247283
 21
0.0
 31
0.0
  0
LINE
  5
204
330
17C
100
AcDbEntity
  8
AM_4
100
AcDbLine
 10
-1.153749999999999
 20
0.4375
 30
0.0
 11
-1.153749999999999
 21
0.0
 31
0.0
  0
LINE
  5
205
330
17C
100
AcDbEntity
  8
AM_4
100
AcDbLine
 10
-1.505
 20
0.0
 30
0.0
 11
1.505
 21
0.0
 31
0.0
  0
LINE
  5
206
330
17C
100
AcDbEntity
  8
AM_4
100
AcDbLine
 10
-1.505
 20
0.4375
 30
0.0
 11
1.505
 21
0.4375
 31
0.0
  0
LINE
  5
207
330
17C
100
AcDbEntity
  8
AM_4
100
AcDbLine
 10
1.505
 20
0.4375
 30
0.0
 11
1.505
 21
0.0
 31
0.0
  0
LINE
  5
208
330
17C
100
AcDbEntity
  8
AM_4
100
AcDbLine
 10
1.15375
 20
0.4375
 30
0.0
 11
1.15375
 21
0.0
 31
0.0
  0
LINE
  5
209
330
17C
100
AcDbEntity
  8
AM_4
100
AcDbLine
 10
0.3832785900332584
 20
0.4375
 30
0.0
 11
0.3832785900332584
 21
0.0
 31
0.0
  0
LINE
  5
20A
330
17C
100
AcDbEntity
  8
AM_4
100
AcDbLine
 10
-1.405
 20
0.0
 30
0.0
 11
-1.405
 21
-3.25
 31
0.0
  0
LINE
  5
20B
330
17C
100
AcDbEntity
  8
AM_4
100
AcDbLine
 10
-1.405
 20
-1.5
 30
0.0
 11
1.405
 21
-1.5
 31
0.0
  0
LWPOLYLINE
  5
20C
330
17C
100
AcDbEntity
  8
AM_4
100
AcDbPolyline
 90
       17
 70
     0
 43
0.0
 10
-1.404999999999999
 20
-1.506868829745825
 10
-1.375356713828293
 20
-1.514188293692363
 10
-1.346464162626798
 20
-1.524063487492554
 10
-1.318542236155958
 20
-1.536419254958774
 10
-1.291803437135934
 20
-1.551161561239989
 10
-1.266451263972599
 20
-1.56817820848375
 10
-1.242678662011786
 20
-1.5873396897296
 10
-1.220666555108705
 20
-1.608500174535239
 10
-1.200582468688164
 20
-1.631498618834247
 10
-1.182579254774925
 20
-1.656159990578667
 10
-1.166793928697506
 20
-1.682296601838582
 10
-1.153346626318796
 20
-1.709709537220585
 10
-1.142339689729601
 20
-1.738190167734037
 10
-1.133856888363534
 20
-1.767521738583655
 10
-1.127962781461047
 20
-1.797481018804388
 10
-1.124702226734626
 20
-1.827840000183847
 10
-1.124
 20
-1.850000007375697
  0
LINE
  5
20D
330
17C
100
AcDbEntity
  8
AM_4
100
AcDbLine
 10
-1.405
 20
-3.25
 30
0.0
 11
1.405
 21
-3.25
 31
0.0
  0
LINE
  5
20E
330
17C
100
AcDbEntity
  8
AM_4
100
AcDbLine
 10
1.405
 20
0.0
 30
0.0
 11
1.405
 21
-3.25
 31
0.0
  0
LWPOLYLINE
  5
20F
330
17C
100
AcDbEntity
  8
AM_4
100
AcDbPolyline
 90
       17
 70
     0
 43
0.0
 10
1.124
 20
-1.850000011662002
 10
1.125331854651479
 20
-1.819495501655944
 10
1.129317284420642
 20
-1.789223149301405
 10
1.135925957780478
 20
-1.759413345478747
 10
1.145107578736292
 20
-1.730292960794714
 10
1.156792269608597
 20
-1.702083618960119
 10
1.170891102844445
 20
-1.675000010099591
 10
1.187296777809802
 20
-1.649248256830087
 10
1.205884437412166
 20
-1.625024345543324
 10
1.226512618338427
 20
-1.60251263483099
 10
1.249024327676098
 20
-1.581884452404549
 10
1.273248237724179
 20
-1.563296791187903
 10
1.298999989900408
 20
-1.546891114506449
 10
1.32608359782139
 20
-1.532792279465749
 10
1.354292938877316
 20
-1.521107586713573
 10
1.383413322949486
 20
-1.511925963817175
 10
1.405
 20
-1.506868829745825
  0
LINE
  5
210
330
17C
100
AcDbEntity
  8
AM_4
100
AcDbLine
 10
1.124000000000001
 20
-1.849999999999999
 30
0.0
 11
1.124000000000001
 21
-3.25
 31
0.0
  0
LINE
  5
211
330
17C
100
AcDbEntity
  8
AM_4
100
AcDbLine
 10
-1.124
 20
-1.849999999999999
 30
0.0
 11
1.124000000000001
 21
-1.849999999999999
 31
0.0
  0
LINE
  5
212
330
17C
100
AcDbEntity
  8
AM_4
100
AcDbLine
 10
-1.124
 20
-1.849999999999999
 30
0.0
 11
-1.124
 21
-3.25
 31
0.0
  0
ENDBLK
  5
17F
330
17C
100
AcDbEntity
  8
0
100
AcDbBlockEnd
  0
ENDSEC
  0
SECTION
  2
ENTITIES
  0
INSERT
  5
6F
330
1F
100
AcDbEntity
  8
0
100
AcDbBlockReference
  2
1_023200_2
 10
0.0
 20
0.0
 30
0.0
  0
POINT
  5
214
330
1F
100
AcDbEntity
  8
ConnectionPoints
100
AcDbPoint
 10
0.0
 20
3.2555
 30
0.0
  0
POINT
  5
215
330
1F
100
AcDbEntity
  8
ConnectionPoints
100
AcDbPoint
 10
0.0
 20
3.2555
 30
0.0
  0
POINT
  5
216
330
1F
100
AcDbEntity
  8
ConnectionPoints
100
AcDbPoint
 10
0.0
 20
0.0
 30
0.0
  0
POINT
  5
217
330
1F
100
AcDbEntity
  8
ConnectionPoints
100
AcDbPoint
 10
-2.0
 20
0.0
 30
0.0000000000000001
  0
POINT
  5
218
330
1F
100
AcDbEntity
  8
ConnectionPoints
100
AcDbPoint
 10
1.6885
 20
0.0
 30
-0.0000000000000001
  0
POINT
  5
219
330
1F
100
AcDbEntity
  8
ConnectionPoints
100
AcDbPoint
 10
0.0
 20
0.0
 30
0.0
  0
POINT
  5
21A
330
1F
100
AcDbEntity
  8
ConnectionPoints
100
AcDbPoint
 10
-2.0
 20
0.0
 30
0.0000000000000001
  0
ENDSEC
  0
SECTION
  2
OBJECTS
  0
DICTIONARY
  5
C
330
0
100
AcDbDictionary
281
     1
  3
ACAD_DETAILVIEWSTYLE
350
222
  3
ACAD_GROUP
350
D
  3
ACAD_LAYOUT
350
1A
  3
ACAD_MATERIAL
350
43
  3
ACAD_MLEADERSTYLE
350
6B
  3
ACAD_MLINESTYLE
350
17
  3
ACAD_PLOTSETTINGS
350
19
  3
ACAD_PLOTSTYLENAME
350
E
  3
ACAD_SCALELIST
350
47
  3
ACAD_SECTIONVIEWSTYLE
350
223
  3
ACAD_TABLESTYLE
350
69
  3
ACAD_VISUALSTYLE
350
2A
  3
ACDB_RECOMPOSE_DATA
350
21F
  3
AcDbVariableDictionary
350
21B
  0
SUN
  5
6D
330
29
100
AcDbSun
 90
        1
290
     0
 63
     7
421
 16777215
 40
1.0
291
     1
 91
  2455826
 92
 54000000
292
     0
 70
     2
 71
   256
280
     1
  0
DICTIONARY
  5
222
102
{ACAD_REACTORS
330
C
102
}
330
C
100
AcDbDictionary
281
     1
  0
DICTIONARY
  5
D
102
{ACAD_REACTORS
330
C
102
}
330
C
100
AcDbDictionary
281
     1
  0
DICTIONARY
  5
1A
102
{ACAD_REACTORS
330
C
102
}
330
C
100
AcDbDictionary
281
     1
  3
Layout1
350
1E
  3
Layout2
350
26
  3
Model
350
22
  0
DICTIONARY
  5
43
102
{ACAD_REACTORS
330
C
102
}
330
C
100
AcDbDictionary
281
     1
  3
ByBlock
350
45
  3
ByLayer
350
44
  3
Global
350
46
  0
DICTIONARY
  5
6B
102
{ACAD_REACTORS
330
C
102
}
330
C
100
AcDbDictionary
281
     1
  3
Standard
350
6C
  0
DICTIONARY
  5
17
102
{ACAD_REACTORS
330
C
102
}
330
C
100
AcDbDictionary
281
     1
  3
Standard
350
18
  0
DICTIONARY
  5
19
102
{ACAD_REACTORS
330
C
102
}
330
C
100
AcDbDictionary
281
     1
  0
ACDBDICTIONARYWDFLT
  5
E
102
{ACAD_REACTORS
330
C
102
}
330
C
100
AcDbDictionary
281
     1
  3
Normal
350
F
100
AcDbDictionaryWithDefault
340
F
  0
DICTIONARY
  5
47
102
{ACAD_REACTORS
330
C
102
}
330
C
100
AcDbDictionary
281
     1
  3
A0
350
48
  3
A1
350
49
  3
A2
350
4A
  3
A3
350
4B
  3
A4
350
4C
  3
A5
350
4D
  3
A6
350
4E
  3
A7
350
4F
  3
A8
350
50
  3
A9
350
51
  3
B0
350
52
  3
B1
350
53
  3
B2
350
54
  3
B3
350
55
  3
B4
350
56
  3
B5
350
57
  3
B6
350
58
  3
B7
350
59
  3
B8
350
5A
  3
B9
350
5B
  3
C0
350
5C
  3
C1
350
5D
  3
C2
350
5E
  3
C3
350
5F
  3
C4
350
60
  3
C5
350
61
  3
C6
350
62
  3
C7
350
63
  3
C8
350
64
  3
C9
350
65
  3
D0
350
66
  3
D1
350
67
  3
D2
350
68
  0
DICTIONARY
  5
223
102
{ACAD_REACTORS
330
C
102
}
330
C
100
AcDbDictionary
281
     1
  0
DICTIONARY
  5
69
102
{ACAD_REACTORS
330
C
102
}
330
C
100
AcDbDictionary
281
     1
  3
Standard
350
6A
  0
DICTIONARY
  5
2A
102
{ACAD_REACTORS
330
C
102
}
330
C
100
AcDbDictionary
281
     1
  3
2dWireframe
350
2F
  3
Basic
350
32
  3
Brighten
350
36
  3
ColorChange
350
3A
  3
Conceptual
350
34
  3
Dim
350
35
  3
EdgeColorOff
350
3D
  3
Facepattern
350
39
  3
Flat
350
2B
  3
FlatWithEdges
350
2C
  3
Gouraud
350
2D
  3
GouraudWithEdges
350
2E
  3
Hidden
350
31
  3
JitterOff
350
3B
  3
Linepattern
350
38
  3
OverhangOff
350
3C
  3
Realistic
350
33
  3
Shaded
350
42
  3
Shaded with edges
350
41
  3
Shades of Gray
350
3E
  3
Sketchy
350
3F
  3
Thicken
350
37
  3
Wireframe
350
30
  3
X-Ray
350
40
  0
XRECORD
  5
21F
102
{ACAD_REACTORS
330
C
102
}
330
C
100
AcDbXrecord
280
     1
 90
        1
330
6A
  0
DICTIONARY
  5
21B
102
{ACAD_REACTORS
330
C
102
}
330
C
100
AcDbDictionary
281
     1
  3
CANNOSCALE
350
21C
  3
CMLEADERSTYLE
350
221
  3
CTABLESTYLE
350
220
  0
LAYOUT
  5
1E
102
{ACAD_REACTORS
330
1A
102
}
330
1A
100
AcDbPlotSettings
  1

  2
none_device
  4

  6

 40
0.0
 41
0.0
 42
0.0
 43
0.0
 44
0.0
 45
0.0
 46
0.0
 47
0.0
 48
0.0
 49
0.0
140
0.0
141
0.0
142
1.0
143
1.0
 70
   688
 72
     0
 73
     0
 74
     5
  7

 75
    16
 76
     0
 77
     2
 78
   300
147
1.0
148
0.0
149
0.0
100
AcDbLayout
  1
Layout1
 70
     1
 71
     1
 10
0.0
 20
0.0
 11
12.0
 21
9.0
 12
0.0
 22
0.0
 32
0.0
 14
1.000000000000000E+20
 24
1.000000000000000E+20
 34
1.000000000000000E+20
 15
-1.000000000000000E+20
 25
-1.000000000000000E+20
 35
-1.000000000000000E+20
146
0.0
 13
0.0
 23
0.0
 33
0.0
 16
1.0
 26
0.0
 36
0.0
 17
0.0
 27
1.0
 37
0.0
 76
     0
330
1B
  0
LAYOUT
  5
26
102
{ACAD_REACTORS
330
1A
102
}
330
1A
100
AcDbPlotSettings
  1

  2
none_device
  4

  6

 40
0.0
 41
0.0
 42
0.0
 43
0.0
 44
0.0
 45
0.0
 46
0.0
 47
0.0
 48
0.0
 49
0.0
140
0.0
141
0.0
142
1.0
143
1.0
 70
   688
 72
     0
 73
     0
 74
     5
  7

 75
    16
 76
     0
 77
     2
 78
   300
147
1.0
148
0.0
149
0.0
100
AcDbLayout
  1
Layout2
 70
     1
 71
     2
 10
0.0
 20
0.0
 11
0.0
 21
0.0
 12
0.0
 22
0.0
 32
0.0
 14
0.0
 24
0.0
 34
0.0
 15
0.0
 25
0.0
 35
0.0
146
0.0
 13
0.0
 23
0.0
 33
0.0
 16
1.0
 26
0.0
 36
0.0
 17
0.0
 27
1.0
 37
0.0
 76
     0
330
23
  0
LAYOUT
  5
22
102
{ACAD_REACTORS
330
1A
102
}
330
1A
100
AcDbPlotSettings
  1

  2
none_device
  4
Letter_(8.50_x_11.00_Inches)
  6

 40
6.35
 41
6.35
 42
6.35000508
 43
6.35000508
 44
215.9
 45
279.4
 46
0.0
 47
0.0
 48
0.0
 49
0.0
140
0.0
141
0.0
142
1.0
143
1.0
 70
  1712
 72
     0
 73
     0
 74
     0
  7

 75
     0
 76
     0
 77
     2
 78
   300
147
1.0
148
0.0
149
0.0
100
AcDbLayout
  1
Model
 70
     1
 71
     0
 10
0.0
 20
0.0
 11
12.0
 21
9.0
 12
0.0
 22
0.0
 32
0.0
 14
1.000000000000000E+20
 24
1.000000000000000E+20
 34
1.000000000000000E+20
 15
-1.000000000000000E+20
 25
-1.000000000000000E+20
 35
-1.000000000000000E+20
146
0.0
 13
0.0
 23
0.0
 33
0.0
 16
1.0
 26
0.0
 36
0.0
 17
0.0
 27
1.0
 37
0.0
 76
     0
330
1F
331
29
  0
MATERIAL
  5
45
102
{ACAD_REACTORS
330
43
102
}
330
43
100
AcDbMaterial
  1
ByBlock
 72
     1
 94
      127
  0
MATERIAL
  5
44
102
{ACAD_REACTORS
330
43
102
}
330
43
100
AcDbMaterial
  1
ByLayer
 72
     1
 94
      127
  0
MATERIAL
  5
46
102
{ACAD_REACTORS
330
43
102
}
330
43
100
AcDbMaterial
  1
Global
 72
     1
 94
      127
  0
MLEADERSTYLE
  5
6C
102
{ACAD_REACTORS
330
6B
102
}
330
6B
100
AcDbMLeaderStyle
179
     2
170
     2
171
     1
172
     0
 90
        2
 40
0.0
 41
0.0
173
     1
 91
-1056964608
340
14
 92
       -2
290
     1
 42
0.09
291
     1
 43
0.36
  3
Standard
341
0
 44
0.18
300

342
11
174
     1
178
     6
175
     1
176
     0
 93
-1056964608
 45
0.18
292
     0
297
     0
 46
0.18
343
0
 94
-1056964608
 47
1.0
 49
1.0
140
1.0
293
     1
141
0.0
294
     1
177
     0
142
1.0
295
     0
296
     0
143
0.125
271
     0
272
     9
273
     9
298
     0
  0
MLINESTYLE
  5
18
102
{ACAD_REACTORS
330
17
102
}
330
17
100
AcDbMlineStyle
  2
Standard
 70
     0
  3

 62
   256
 51
90.0
 52
90.0
 71
     2
 49
0.5
 62
   256
  6
BYLAYER
 49
-0.5
 62
   256
  6
BYLAYER
  0
ACDBPLACEHOLDER
  5
F
102
{ACAD_REACTORS
330
E
102
}
330
E
  0
SCALE
  5
48
102
{ACAD_REACTORS
330
47
102
}
330
47
100
AcDbScale
 70
     0
300
1:1
140
1.0
141
1.0
290
     1
  0
SCALE
  5
49
102
{ACAD_REACTORS
330
47
102
}
330
47
100
AcDbScale
 70
     0
300
1:2
140
1.0
141
2.0
290
     0
  0
SCALE
  5
4A
102
{ACAD_REACTORS
330
47
102
}
330
47
100
AcDbScale
 70
     0
300
1:4
140
1.0
141
4.0
290
     0
  0
SCALE
  5
4B
102
{ACAD_REACTORS
330
47
102
}
330
47
100
AcDbScale
 70
     0
300
1:5
140
1.0
141
5.0
290
     0
  0
SCALE
  5
4C
102
{ACAD_REACTORS
330
47
102
}
330
47
100
AcDbScale
 70
     0
300
1:8
140
1.0
141
8.0
290
     0
  0
SCALE
  5
4D
102
{ACAD_REACTORS
330
47
102
}
330
47
100
AcDbScale
 70
     0
300
1:10
140
1.0
141
10.0
290
     0
  0
SCALE
  5
4E
102
{ACAD_REACTORS
330
47
102
}
330
47
100
AcDbScale
 70
     0
300
1:16
140
1.0
141
16.0
290
     0
  0
SCALE
  5
4F
102
{ACAD_REACTORS
330
47
102
}
330
47
100
AcDbScale
 70
     0
300
1:20
140
1.0
141
20.0
290
     0
  0
SCALE
  5
50
102
{ACAD_REACTORS
330
47
102
}
330
47
100
AcDbScale
 70
     0
300
1:30
140
1.0
141
30.0
290
     0
  0
SCALE
  5
51
102
{ACAD_REACTORS
330
47
102
}
330
47
100
AcDbScale
 70
     0
300
1:40
140
1.0
141
40.0
290
     0
  0
SCALE
  5
52
102
{ACAD_REACTORS
330
47
102
}
330
47
100
AcDbScale
 70
     0
300
1:50
140
1.0
141
50.0
290
     0
  0
SCALE
  5
53
102
{ACAD_REACTORS
330
47
102
}
330
47
100
AcDbScale
 70
     0
300
1:100
140
1.0
141
100.0
290
     0
  0
SCALE
  5
54
102
{ACAD_REACTORS
330
47
102
}
330
47
100
AcDbScale
 70
     0
300
2:1
140
2.0
141
1.0
290
     0
  0
SCALE
  5
55
102
{ACAD_REACTORS
330
47
102
}
330
47
100
AcDbScale
 70
     0
300
4:1
140
4.0
141
1.0
290
     0
  0
SCALE
  5
56
102
{ACAD_REACTORS
330
47
102
}
330
47
100
AcDbScale
 70
     0
300
8:1
140
8.0
141
1.0
290
     0
  0
SCALE
  5
57
102
{ACAD_REACTORS
330
47
102
}
330
47
100
AcDbScale
 70
     0
300
10:1
140
10.0
141
1.0
290
     0
  0
SCALE
  5
58
102
{ACAD_REACTORS
330
47
102
}
330
47
100
AcDbScale
 70
     0
300
100:1
140
100.0
141
1.0
290
     0
  0
SCALE
  5
59
102
{ACAD_REACTORS
330
47
102
}
330
47
100
AcDbScale
 70
     0
300
1/128" = 1'-0"
140
0.0078125
141
12.0
290
     0
  0
SCALE
  5
5A
102
{ACAD_REACTORS
330
47
102
}
330
47
100
AcDbScale
 70
     0
300
1/64" = 1'-0"
140
0.015625
141
12.0
290
     0
  0
SCALE
  5
5B
102
{ACAD_REACTORS
330
47
102
}
330
47
100
AcDbScale
 70
     0
300
1/32" = 1'-0"
140
0.03125
141
12.0
290
     0
  0
SCALE
  5
5C
102
{ACAD_REACTORS
330
47
102
}
330
47
100
AcDbScale
 70
     0
300
1/16" = 1'-0"
140
0.0625
141
12.0
290
     0
  0
SCALE
  5
5D
102
{ACAD_REACTORS
330
47
102
}
330
47
100
AcDbScale
 70
     0
300
3/32" = 1'-0"
140
0.09375
141
12.0
290
     0
  0
SCALE
  5
5E
102
{ACAD_REACTORS
330
47
102
}
330
47
100
AcDbScale
 70
     0
300
1/8" = 1'-0"
140
0.125
141
12.0
290
     0
  0
SCALE
  5
5F
102
{ACAD_REACTORS
330
47
102
}
330
47
100
AcDbScale
 70
     0
300
3/16" = 1'-0"
140
0.1875
141
12.0
290
     0
  0
SCALE
  5
60
102
{ACAD_REACTORS
330
47
102
}
330
47
100
AcDbScale
 70
     0
300
1/4" = 1'-0"
140
0.25
141
12.0
290
     0
  0
SCALE
  5
61
102
{ACAD_REACTORS
330
47
102
}
330
47
100
AcDbScale
 70
     0
300
3/8" = 1'-0"
140
0.375
141
12.0
290
     0
  0
SCALE
  5
62
102
{ACAD_REACTORS
330
47
102
}
330
47
100
AcDbScale
 70
     0
300
1/2" = 1'-0"
140
0.5
141
12.0
290
     0
  0
SCALE
  5
63
102
{ACAD_REACTORS
330
47
102
}
330
47
100
AcDbScale
 70
     0
300
3/4" = 1'-0"
140
0.75
141
12.0
290
     0
  0
SCALE
  5
64
102
{ACAD_REACTORS
330
47
102
}
330
47
100
AcDbScale
 70
     0
300
1" = 1'-0"
140
1.0
141
12.0
290
     0
  0
SCALE
  5
65
102
{ACAD_REACTORS
330
47
102
}
330
47
100
AcDbScale
 70
     0
300
1-1/2" = 1'-0"
140
1.5
141
12.0
290
     0
  0
SCALE
  5
66
102
{ACAD_REACTORS
330
47
102
}
330
47
100
AcDbScale
 70
     0
300
3" = 1'-0"
140
3.0
141
12.0
290
     0
  0
SCALE
  5
67
102
{ACAD_REACTORS
330
47
102
}
330
47
100
AcDbScale
 70
     0
300
6" = 1'-0"
140
6.0
141
12.0
290
     0
  0
SCALE
  5
68
102
{ACAD_REACTORS
330
47
102
}
330
47
100
AcDbScale
 70
     0
300
1'-0" = 1'-0"
140
12.0
141
12.0
290
     0
  0
TABLESTYLE
  5
6A
102
{ACAD_REACTORS
330
69
102
}
102
{ACAD_XDICTIONARY
360
21D
102
}
330
69
100
AcDbTableStyle
  3
Standard
 70
     0
 71
     0
 40
0.06
 41
0.06
280
     0
281
     0
  7
Standard
140
0.18
170
     2
 62
     0
 63
   257
283
     0
 90
        4
 91
        0
  1

274
    -2
284
     1
 64
     0
275
    -2
285
     1
 65
     0
276
    -2
286
     1
 66
     0
277
    -2
287
     1
 67
     0
278
    -2
288
     1
 68
     0
279
    -2
289
     1
 69
     0
  7
Standard
140
0.25
170
     5
 62
     0
 63
   257
283
     0
 90
        4
 91
        0
  1

274
    -2
284
     1
 64
     0
275
    -2
285
     1
 65
     0
276
    -2
286
     1
 66
     0
277
    -2
287
     1
 67
     0
278
    -2
288
     1
 68
     0
279
    -2
289
     1
 69
     0
  7
Standard
140
0.18
170
     5
 62
     0
 63
   257
283
     0
 90
        4
 91
        0
  1

274
    -2
284
     1
 64
     0
275
    -2
285
     1
 65
     0
276
    -2
286
     1
 66
     0
277
    -2
287
     1
 67
     0
278
    -2
288
     1
 68
     0
279
    -2
289
     1
 69
     0
  0
VISUALSTYLE
  5
2F
102
{ACAD_REACTORS
330
2A
102
}
330
2A
100
AcDbVisualStyle
  2
2dWireframe
 70
     4
177
     3
291
     0
 70
    58
 90
        0
176
     1
 90
        2
176
     1
 90
        0
176
     1
 90
        0
176
     1
 40
0.6
176
     1
 40
30.0
176
     1
 62
     7
420
 16777215
176
     1
 90
        1
176
     1
 90
        4
176
     1
 62
     7
176
     1
 62
   257
176
     1
 90
        1
176
     1
 90
        1
176
     1
 40
1.0
176
     1
 90
        0
176
     1
 62
   257
176
     1
 40
1.0
176
     1
 90
        1
176
     1
 90
        6
176
     1
 90
        2
176
     1
 62
     7
176
     1
 90
        5
176
     1
 90
        0
176
     1
 90
        0
176
     1
290
     0
176
     1
 90
        1
176
     1
 40
0.0
176
     1
 90
        0
176
     1
290
     1
176
     1
290
     1
176
     1
290
     0
176
     1
290
     0
176
     1
290
     0
176
     1
290
     0
176
     1
290
     0
176
     1
290
     0
176
     1
290
     0
176
     1
 90
       50
176
     1
 40
0.0
176
     1
 40
1.0
176
     1
 90
        0
176
     1
 62
    18
420
        0
176
     1
 90
       50
176
     1
 90
        3
176
     1
 62
     5
420
      255
176
     1
290
     0
176
     1
 90
       50
176
     1
 90
       50
176
     1
 90
       50
176
     1
290
     0
176
     1
 90
       50
176
     1
 62
   256
176
     0
 40
1.0
176
     0
 90
        2
176
     1
  1
strokes_ogs.tif
176
     1
290
     0
176
     1
 40
1.0
176
     1
 40
1.0
176
     1
  0
VISUALSTYLE
  5
32
102
{ACAD_REACTORS
330
2A
102
}
330
2A
100
AcDbVisualStyle
  2
Basic
 70
     7
177
     3
291
     1
 70
    58
 90
        1
176
     1
 90
        0
176
     1
 90
        1
176
     1
 90
        0
176
     1
 40
0.6
176
     1
 40
30.0
176
     1
 62
     7
420
 16777215
176
     1
 90
        0
176
     1
 90
        4
176
     1
 62
     7
176
     1
 62
   257
176
     1
 90
        1
176
     1
 90
        1
176
     1
 40
1.0
176
     1
 90
        8
176
     1
 62
     7
176
     1
 40
1.0
176
     1
 90
        1
176
     1
 90
        6
176
     1
 90
        2
176
     1
 62
     7
176
     1
 90
        5
176
     1
 90
        0
176
     1
 90
        0
176
     1
290
     0
176
     1
 90
        1
176
     1
 40
0.0
176
     1
 90
        0
176
     1
290
     0
176
     1
290
     1
176
     1
290
     1
176
     1
290
     0
176
     1
290
     0
176
     1
290
     0
176
     1
290
     0
176
     1
290
     0
176
     1
290
     0
176
     1
 90
       50
176
     1
 40
0.0
176
     1
 40
1.0
176
     1
 90
        0
176
     1
 62
    18
420
        0
176
     1
 90
       50
176
     1
 90
        3
176
     1
 62
     5
420
      255
176
     1
290
     0
176
     1
 90
       50
176
     1
 90
       50
176
     1
 90
       50
176
     1
290
     0
176
     1
 90
       50
176
     1
 62
   256
176
     0
 40
1.0
176
     0
 90
        2
176
     1
  1
strokes_ogs.tif
176
     1
290
     0
176
     1
 40
1.0
176
     1
 40
1.0
176
     1
  0
VISUALSTYLE
  5
36
102
{ACAD_REACTORS
330
2A
102
}
330
2A
100
AcDbVisualStyle
  2
Brighten
 70
    12
177
     3
291
     1
 70
    58
 90
        2
176
     1
 90
        2
176
     1
 90
        0
176
     1
 90
        0
176
     1
 40
0.6
176
     1
 40
30.0
176
     1
 62
     7
420
 16777215
176
     1
 90
        1
176
     1
 90
        4
176
     1
 62
     7
176
     1
 62
   257
176
     1
 90
        1
176
     1
 90
        1
176
     1
 40
1.0
176
     1
 90
        8
176
     1
 62
     7
176
     1
 40
1.0
176
     1
 90
        1
176
     1
 90
        6
176
     1
 90
        2
176
     1
 62
     7
176
     1
 90
        5
176
     1
 90
        0
176
     1
 90
        0
176
     1
290
     0
176
     1
 90
        1
176
     1
 40
50.0
176
     1
 90
        0
176
     1
290
     0
176
     1
290
     1
176
     1
290
     1
176
     1
290
     0
176
     1
290
     0
176
     1
290
     0
176
     1
290
     0
176
     1
290
     0
176
     1
290
     0
176
     1
 90
       50
176
     1
 40
0.0
176
     1
 40
1.0
176
     1
 90
        0
176
     1
 62
    18
420
        0
176
     1
 90
       50
176
     1
 90
        3
176
     1
 62
     5
420
      255
176
     1
290
     0
176
     1
 90
       50
176
     1
 90
       50
176
     1
 90
       50
176
     1
290
     0
176
     1
 90
       50
176
     1
 62
   256
176
     0
 40
1.0
176
     0
 90
        2
176
     1
  1
strokes_ogs.tif
176
     1
290
     0
176
     1
 40
1.0
176
     1
 40
1.0
176
     1
  0
VISUALSTYLE
  5
3A
102
{ACAD_REACTORS
330
2A
102
}
330
2A
100
AcDbVisualStyle
  2
ColorChange
 70
    16
177
     3
291
     1
 70
    58
 90
        2
176
     1
 90
        2
176
     1
 90
        3
176
     1
 90
        0
176
     1
 40
0.6
176
     1
 40
30.0
176
     1
 62
     8
420
  8421504
176
     1
 90
        1
176
     1
 90
        4
176
     1
 62
     7
176
     1
 62
   257
176
     1
 90
        1
176
     1
 90
        1
176
     1
 40
1.0
176
     1
 90
        8
176
     1
 62
     8
420
  8421504
176
     1
 40
1.0
176
     1
 90
        1
176
     1
 90
        6
176
     1
 90
        2
176
     1
 62
     7
176
     1
 90
        5
176
     1
 90
        0
176
     1
 90
        0
176
     1
290
     0
176
     1
 90
        1
176
     1
 40
0.0
176
     1
 90
        0
176
     1
290
     0
176
     1
290
     1
176
     1
290
     1
176
     1
290
     0
176
     1
290
     0
176
     1
290
     0
176
     1
290
     0
176
     1
290
     0
176
     1
290
     0
176
     1
 90
       50
176
     1
 40
0.0
176
     1
 40
1.0
176
     1
 90
        0
176
     1
 62
    18
420
        0
176
     1
 90
       50
176
     1
 90
        3
176
     1
 62
     5
420
      255
176
     1
290
     0
176
     1
 90
       50
176
     1
 90
       50
176
     1
 90
       50
176
     1
290
     0
176
     1
 90
       50
176
     1
 62
   256
176
     0
 40
1.0
176
     0
 90
        2
176
     1
  1
strokes_ogs.tif
176
     1
290
     0
176
     1
 40
1.0
176
     1
 40
1.0
176
     1
  0
VISUALSTYLE
  5
34
102
{ACAD_REACTORS
330
2A
102
}
330
2A
100
AcDbVisualStyle
  2
Conceptual
 70
     9
177
     3
291
     0
 70
    58
 90
        3
176
     1
 90
        2
176
     1
 90
        0
176
     1
 90
        0
176
     1
 40
0.6
176
     1
 40
30.0
176
     1
 62
     7
420
 16777215
176
     1
 90
        2
176
     1
 90
        2
176
     1
 62
     7
176
     1
 62
   257
176
     1
 90
        1
176
     1
 90
        1
176
     1
 40
179.0
176
     1
 90
        8
176
     1
 62
     7
176
     1
 40
1.0
176
     1
 90
        1
176
     1
 90
        6
176
     1
 90
        2
176
     1
 62
     7
176
     1
 90
        3
176
     1
 90
        0
176
     1
 90
        0
176
     1
290
     0
176
     1
 90
        1
176
     1
 40
0.0
176
     1
 90
        0
176
     1
290
     0
176
     1
290
     1
176
     1
290
     1
176
     1
290
     0
176
     1
290
     0
176
     1
290
     0
176
     1
290
     0
176
     1
290
     0
176
     1
290
     0
176
     1
 90
       50
176
     1
 40
0.0
176
     1
 40
1.0
176
     1
 90
        0
176
     1
 62
    18
420
        0
176
     1
 90
       50
176
     1
 90
        3
176
     1
 62
     5
420
      255
176
     1
290
     0
176
     1
 90
       50
176
     1
 90
       50
176
     1
 90
       50
176
     1
290
     0
176
     1
 90
       50
176
     1
 62
   256
176
     0
 40
1.0
176
     0
 90
        2
176
     1
  1
strokes_ogs.tif
176
     1
290
     0
176
     1
 40
1.0
176
     1
 40
1.0
176
     1
  0
VISUALSTYLE
  5
35
102
{ACAD_REACTORS
330
2A
102
}
330
2A
100
AcDbVisualStyle
  2
Dim
 70
    11
177
     3
291
     1
 70
    58
 90
        2
176
     1
 90
        2
176
     1
 90
        0
176
     1
 90
        0
176
     1
 40
0.6
176
     1
 40
30.0
176
     1
 62
     7
420
 16777215
176
     1
 90
        1
176
     1
 90
        4
176
     1
 62
     7
176
     1
 62
   257
176
     1
 90
        1
176
     1
 90
        1
176
     1
 40
1.0
176
     1
 90
        8
176
     1
 62
     7
176
     1
 40
1.0
176
     1
 90
        1
176
     1
 90
        6
176
     1
 90
        2
176
     1
 62
     7
176
     1
 90
        5
176
     1
 90
        0
176
     1
 90
        0
176
     1
290
     0
176
     1
 90
        1
176
     1
 40
-50.0
176
     1
 90
        0
176
     1
290
     0
176
     1
290
     1
176
     1
290
     1
176
     1
290
     0
176
     1
290
     0
176
     1
290
     0
176
     1
290
     0
176
     1
290
     0
176
     1
290
     0
176
     1
 90
       50
176
     1
 40
0.0
176
     1
 40
1.0
176
     1
 90
        0
176
     1
 62
    18
420
        0
176
     1
 90
       50
176
     1
 90
        3
176
     1
 62
     5
420
      255
176
     1
290
     0
176
     1
 90
       50
176
     1
 90
       50
176
     1
 90
       50
176
     1
290
     0
176
     1
 90
       50
176
     1
 62
   256
176
     0
 40
1.0
176
     0
 90
        2
176
     1
  1
strokes_ogs.tif
176
     1
290
     0
176
     1
 40
1.0
176
     1
 40
1.0
176
     1
  0
VISUALSTYLE
  5
3D
102
{ACAD_REACTORS
330
2A
102
}
330
2A
100
AcDbVisualStyle
  2
EdgeColorOff
 70
    22
177
     3
291
     1
 70
    58
 90
        2
176
     0
 90
        2
176
     0
 90
        0
176
     0
 90
        0
176
     0
 40
0.6
176
     0
 40
30.0
176
     0
 62
     7
420
 16777215
176
     0
 90
        1
176
     0
 90
        4
176
     0
 62
     7
176
     0
 62
   257
176
     0
 90
        1
176
     0
 90
        1
176
     0
 40
1.0
176
     0
 90
        8
176
     2
 62
     7
176
     0
 40
1.0
176
     0
 90
        1
176
     0
 90
        6
176
     0
 90
        2
176
     0
 62
     7
176
     0
 90
        5
176
     0
 90
        0
176
     0
 90
        0
176
     0
290
     0
176
     0
 90
        1
176
     0
 40
0.0
176
     0
 90
        0
176
     0
290
     0
176
     0
290
     1
176
     0
290
     1
176
     0
290
     0
176
     0
290
     0
176
     0
290
     0
176
     0
290
     0
176
     0
290
     0
176
     0
290
     0
176
     0
 90
       50
176
     0
 40
0.0
176
     0
 40
1.0
176
     0
 90
        0
176
     0
 62
    18
420
        0
176
     0
 90
       50
176
     0
 90
        3
176
     0
 62
     5
420
      255
176
     0
290
     0
176
     0
 90
       50
176
     0
 90
       50
176
     0
 90
       50
176
     0
290
     0
176
     0
 90
       50
176
     0
 62
   256
176
     0
 40
1.0
176
     0
 90
        2
176
     0
  1
strokes_ogs.tif
176
     0
290
     0
176
     0
 40
1.0
176
     0
 40
1.0
176
     0
  0
VISUALSTYLE
  5
39
102
{ACAD_REACTORS
330
2A
102
}
330
2A
100
AcDbVisualStyle
  2
Facepattern
 70
    15
177
     3
291
     1
 70
    58
 90
        2
176
     1
 90
        2
176
     1
 90
        0
176
     1
 90
        0
176
     1
 40
0.6
176
     1
 40
30.0
176
     1
 62
     7
420
 16777215
176
     1
 90
        1
176
     1
 90
        4
176
     1
 62
     7
176
     1
 62
   257
176
     1
 90
        1
176
     1
 90
        1
176
     1
 40
1.0
176
     1
 90
        8
176
     1
 62
     7
176
     1
 40
1.0
176
     1
 90
        1
176
     1
 90
        6
176
     1
 90
        2
176
     1
 62
     7
176
     1
 90
        5
176
     1
 90
        0
176
     1
 90
        0
176
     1
290
     0
176
     1
 90
        1
176
     1
 40
0.0
176
     1
 90
        0
176
     1
290
     0
176
     1
290
     1
176
     1
290
     1
176
     1
290
     0
176
     1
290
     0
176
     1
290
     0
176
     1
290
     0
176
     1
290
     0
176
     1
290
     0
176
     1
 90
       50
176
     1
 40
0.0
176
     1
 40
1.0
176
     1
 90
        0
176
     1
 62
    18
420
        0
176
     1
 90
       50
176
     1
 90
        3
176
     1
 62
     5
420
      255
176
     1
290
     0
176
     1
 90
       50
176
     1
 90
       50
176
     1
 90
       50
176
     1
290
     0
176
     1
 90
       50
176
     1
 62
   256
176
     0
 40
1.0
176
     0
 90
        2
176
     1
  1
strokes_ogs.tif
176
     1
290
     0
176
     1
 40
1.0
176
     1
 40
1.0
176
     1
  0
VISUALSTYLE
  5
2B
102
{ACAD_REACTORS
330
2A
102
}
330
2A
100
AcDbVisualStyle
  2
Flat
 70
     0
177
     3
291
     1
 70
    58
 90
        2
176
     1
 90
        1
176
     1
 90
        1
176
     1
 90
        2
176
     1
 40
0.6
176
     1
 40
30.0
176
     1
 62
     7
420
 16777215
176
     1
 90
        0
176
     1
 90
        0
176
     1
 62
     7
176
     1
 62
   257
176
     1
 90
        1
176
     1
 90
        1
176
     1
 40
1.0
176
     1
 90
        8
176
     1
 62
     7
176
     1
 40
1.0
176
     1
 90
        1
176
     1
 90
        6
176
     1
 90
        2
176
     1
 62
     7
176
     1
 90
        5
176
     1
 90
        0
176
     1
 90
        0
176
     1
290
     0
176
     1
 90
       13
176
     1
 40
0.0
176
     1
 90
        0
176
     1
290
     0
176
     1
290
     1
176
     1
290
     1
176
     1
290
     0
176
     1
290
     0
176
     1
290
     0
176
     1
290
     0
176
     1
290
     0
176
     1
290
     0
176
     1
 90
       50
176
     1
 40
0.0
176
     1
 40
1.0
176
     1
 90
        0
176
     1
 62
    18
420
        0
176
     1
 90
       50
176
     1
 90
        3
176
     1
 62
     5
420
      255
176
     1
290
     0
176
     1
 90
       50
176
     1
 90
       50
176
     1
 90
       50
176
     1
290
     0
176
     1
 90
       50
176
     1
 62
   256
176
     0
 40
1.0
176
     0
 90
        2
176
     1
  1
strokes_ogs.tif
176
     1
290
     0
176
     1
 40
1.0
176
     1
 40
1.0
176
     1
  0
VISUALSTYLE
  5
2C
102
{ACAD_REACTORS
330
2A
102
}
330
2A
100
AcDbVisualStyle
  2
FlatWithEdges
 70
     1
177
     3
291
     1
 70
    58
 90
        2
176
     1
 90
        1
176
     1
 90
        1
176
     1
 90
        2
176
     1
 40
0.6
176
     1
 40
30.0
176
     1
 62
     7
420
 16777215
176
     1
 90
        1
176
     1
 90
        0
176
     1
 62
     7
176
     1
 62
   257
176
     1
 90
        1
176
     1
 90
        1
176
     1
 40
1.0
176
     1
 90
        0
176
     1
 62
   257
176
     1
 40
1.0
176
     1
 90
        1
176
     1
 90
        6
176
     1
 90
        2
176
     1
 62
     7
176
     1
 90
        5
176
     1
 90
        0
176
     1
 90
        0
176
     1
290
     0
176
     1
 90
       13
176
     1
 40
0.0
176
     1
 90
        0
176
     1
290
     0
176
     1
290
     1
176
     1
290
     1
176
     1
290
     0
176
     1
290
     0
176
     1
290
     0
176
     1
290
     0
176
     1
290
     0
176
     1
290
     0
176
     1
 90
       50
176
     1
 40
0.0
176
     1
 40
1.0
176
     1
 90
        0
176
     1
 62
    18
420
        0
176
     1
 90
       50
176
     1
 90
        3
176
     1
 62
     5
420
      255
176
     1
290
     0
176
     1
 90
       50
176
     1
 90
       50
176
     1
 90
       50
176
     1
290
     0
176
     1
 90
       50
176
     1
 62
   256
176
     0
 40
1.0
176
     0
 90
        2
176
     1
  1
strokes_ogs.tif
176
     1
290
     0
176
     1
 40
1.0
176
     1
 40
1.0
176
     1
  0
VISUALSTYLE
  5
2D
102
{ACAD_REACTORS
330
2A
102
}
330
2A
100
AcDbVisualStyle
  2
Gouraud
 70
     2
177
     3
291
     1
 70
    58
 90
        2
176
     1
 90
        2
176
     1
 90
        1
176
     1
 90
        2
176
     1
 40
0.6
176
     1
 40
30.0
176
     1
 62
     7
420
 16777215
176
     1
 90
        0
176
     1
 90
        0
176
     1
 62
     7
176
     1
 62
   257
176
     1
 90
        1
176
     1
 90
        1
176
     1
 40
1.0
176
     1
 90
        0
176
     1
 62
     7
176
     1
 40
1.0
176
     1
 90
        1
176
     1
 90
        6
176
     1
 90
        2
176
     1
 62
     7
176
     1
 90
        5
176
     1
 90
        0
176
     1
 90
        0
176
     1
290
     0
176
     1
 90
       13
176
     1
 40
0.0
176
     1
 90
        0
176
     1
290
     0
176
     1
290
     1
176
     1
290
     1
176
     1
290
     0
176
     1
290
     0
176
     1
290
     0
176
     1
290
     0
176
     1
290
     0
176
     1
290
     0
176
     1
 90
       50
176
     1
 40
0.0
176
     1
 40
1.0
176
     1
 90
        0
176
     1
 62
    18
420
        0
176
     1
 90
       50
176
     1
 90
        3
176
     1
 62
     5
420
      255
176
     1
290
     0
176
     1
 90
       50
176
     1
 90
       50
176
     1
 90
       50
176
     1
290
     0
176
     1
 90
       50
176
     1
 62
   256
176
     0
 40
1.0
176
     0
 90
        2
176
     1
  1
strokes_ogs.tif
176
     1
290
     0
176
     1
 40
1.0
176
     1
 40
1.0
176
     1
  0
VISUALSTYLE
  5
2E
102
{ACAD_REACTORS
330
2A
102
}
330
2A
100
AcDbVisualStyle
  2
GouraudWithEdges
 70
     3
177
     3
291
     1
 70
    58
 90
        2
176
     1
 90
        2
176
     1
 90
        1
176
     1
 90
        2
176
     1
 40
0.6
176
     1
 40
30.0
176
     1
 62
     7
420
 16777215
176
     1
 90
        1
176
     1
 90
        0
176
     1
 62
     7
176
     1
 62
   257
176
     1
 90
        1
176
     1
 90
        1
176
     1
 40
1.0
176
     1
 90
        0
176
     1
 62
   257
176
     1
 40
1.0
176
     1
 90
        1
176
     1
 90
        6
176
     1
 90
        2
176
     1
 62
     7
176
     1
 90
        5
176
     1
 90
        0
176
     1
 90
        0
176
     1
290
     0
176
     1
 90
       13
176
     1
 40
0.0
176
     1
 90
        0
176
     1
290
     0
176
     1
290
     1
176
     1
290
     1
176
     1
290
     0
176
     1
290
     0
176
     1
290
     0
176
     1
290
     0
176
     1
290
     0
176
     1
290
     0
176
     1
 90
       50
176
     1
 40
0.0
176
     1
 40
1.0
176
     1
 90
        0
176
     1
 62
    18
420
        0
176
     1
 90
       50
176
     1
 90
        3
176
     1
 62
     5
420
      255
176
     1
290
     0
176
     1
 90
       50
176
     1
 90
       50
176
     1
 90
       50
176
     1
290
     0
176
     1
 90
       50
176
     1
 62
   256
176
     0
 40
1.0
176
     0
 90
        2
176
     1
  1
strokes_ogs.tif
176
     1
290
     0
176
     1
 40
1.0
176
     1
 40
1.0
176
     1
  0
VISUALSTYLE
  5
31
102
{ACAD_REACTORS
330
2A
102
}
330
2A
100
AcDbVisualStyle
  2
Hidden
 70
     6
177
     3
291
     0
 70
    58
 90
        1
176
     1
 90
        2
176
     1
 90
        2
176
     1
 90
        0
176
     1
 40
0.6
176
     1
 40
30.0
176
     1
 62
     7
420
 16777215
176
     1
 90
        2
176
     1
 90
        2
176
     1
 62
     7
176
     1
 62
   257
176
     1
 90
        2
176
     1
 90
        1
176
     1
 40
40.0
176
     1
 90
        0
176
     1
 62
   257
176
     1
 40
1.0
176
     1
 90
        1
176
     1
 90
        6
176
     1
 90
        2
176
     1
 62
     7
176
     1
 90
        3
176
     1
 90
        0
176
     1
 90
        0
176
     1
290
     0
176
     1
 90
        1
176
     1
 40
0.0
176
     1
 90
        0
176
     1
290
     0
176
     1
290
     1
176
     1
290
     1
176
     1
290
     0
176
     1
290
     0
176
     1
290
     0
176
     1
290
     0
176
     1
290
     0
176
     1
290
     0
176
     1
 90
       50
176
     1
 40
0.0
176
     1
 40
1.0
176
     1
 90
        0
176
     1
 62
    18
420
        0
176
     1
 90
       50
176
     1
 90
        3
176
     1
 62
     5
420
      255
176
     1
290
     0
176
     1
 90
       50
176
     1
 90
       50
176
     1
 90
       50
176
     1
290
     0
176
     1
 90
       50
176
     1
 62
   256
176
     0
 40
1.0
176
     0
 90
        2
176
     1
  1
strokes_ogs.tif
176
     1
290
     0
176
     1
 40
1.0
176
     1
 40
1.0
176
     1
  0
VISUALSTYLE
  5
3B
102
{ACAD_REACTORS
330
2A
102
}
330
2A
100
AcDbVisualStyle
  2
JitterOff
 70
    20
177
     3
291
     1
 70
    58
 90
        2
176
     0
 90
        2
176
     0
 90
        0
176
     0
 90
        0
176
     0
 40
0.6
176
     0
 40
30.0
176
     0
 62
     7
420
 16777215
176
     0
 90
        1
176
     0
 90
        4
176
     0
 62
     7
176
     0
 62
   257
176
     0
 90
        1
176
     0
 90
        1
176
     0
 40
1.0
176
     0
 90
       10
176
     2
 62
     7
176
     0
 40
1.0
176
     0
 90
        1
176
     0
 90
        6
176
     0
 90
        2
176
     0
 62
     7
176
     0
 90
        5
176
     0
 90
        0
176
     0
 90
        0
176
     0
290
     0
176
     0
 90
        1
176
     0
 40
0.0
176
     0
 90
        0
176
     0
290
     0
176
     0
290
     1
176
     0
290
     1
176
     0
290
     0
176
     0
290
     0
176
     0
290
     0
176
     0
290
     0
176
     0
290
     0
176
     0
290
     0
176
     0
 90
       50
176
     0
 40
0.0
176
     0
 40
1.0
176
     0
 90
        0
176
     0
 62
    18
420
        0
176
     0
 90
       50
176
     0
 90
        3
176
     0
 62
     5
420
      255
176
     0
290
     0
176
     0
 90
       50
176
     0
 90
       50
176
     0
 90
       50
176
     0
290
     0
176
     0
 90
       50
176
     0
 62
   256
176
     0
 40
1.0
176
     0
 90
        2
176
     0
  1
strokes_ogs.tif
176
     0
290
     0
176
     0
 40
1.0
176
     0
 40
1.0
176
     0
  0
VISUALSTYLE
  5
38
102
{ACAD_REACTORS
330
2A
102
}
330
2A
100
AcDbVisualStyle
  2
Linepattern
 70
    14
177
     3
291
     1
 70
    58
 90
        2
176
     1
 90
        2
176
     1
 90
        0
176
     1
 90
        0
176
     1
 40
0.6
176
     1
 40
30.0
176
     1
 62
     7
420
 16777215
176
     1
 90
        1
176
     1
 90
        4
176
     1
 62
     7
176
     1
 62
   257
176
     1
 90
        7
176
     1
 90
        7
176
     1
 40
1.0
176
     1
 90
        8
176
     1
 62
     7
176
     1
 40
1.0
176
     1
 90
        1
176
     1
 90
        6
176
     1
 90
        2
176
     1
 62
     7
176
     1
 90
        5
176
     1
 90
        0
176
     1
 90
        0
176
     1
290
     0
176
     1
 90
        1
176
     1
 40
0.0
176
     1
 90
        0
176
     1
290
     0
176
     1
290
     1
176
     1
290
     1
176
     1
290
     0
176
     1
290
     0
176
     1
290
     0
176
     1
290
     0
176
     1
290
     0
176
     1
290
     0
176
     1
 90
       50
176
     1
 40
0.0
176
     1
 40
1.0
176
     1
 90
        0
176
     1
 62
    18
420
        0
176
     1
 90
       50
176
     1
 90
        3
176
     1
 62
     5
420
      255
176
     1
290
     0
176
     1
 90
       50
176
     1
 90
       50
176
     1
 90
       50
176
     1
290
     0
176
     1
 90
       50
176
     1
 62
   256
176
     0
 40
1.0
176
     0
 90
        2
176
     1
  1
strokes_ogs.tif
176
     1
290
     0
176
     1
 40
1.0
176
     1
 40
1.0
176
     1
  0
VISUALSTYLE
  5
3C
102
{ACAD_REACTORS
330
2A
102
}
330
2A
100
AcDbVisualStyle
  2
OverhangOff
 70
    21
177
     3
291
     1
 70
    58
 90
        2
176
     0
 90
        2
176
     0
 90
        0
176
     0
 90
        0
176
     0
 40
0.6
176
     0
 40
30.0
176
     0
 62
     7
420
 16777215
176
     0
 90
        1
176
     0
 90
        4
176
     0
 62
     7
176
     0
 62
   257
176
     0
 90
        1
176
     0
 90
        1
176
     0
 40
1.0
176
     0
 90
        9
176
     2
 62
     7
176
     0
 40
1.0
176
     0
 90
        1
176
     0
 90
        6
176
     0
 90
        2
176
     0
 62
     7
176
     0
 90
        5
176
     0
 90
        0
176
     0
 90
        0
176
     0
290
     0
176
     0
 90
        1
176
     0
 40
0.0
176
     0
 90
        0
176
     0
290
     0
176
     0
290
     1
176
     0
290
     1
176
     0
290
     0
176
     0
290
     0
176
     0
290
     0
176
     0
290
     0
176
     0
290
     0
176
     0
290
     0
176
     0
 90
       50
176
     0
 40
0.0
176
     0
 40
1.0
176
     0
 90
        0
176
     0
 62
    18
420
        0
176
     0
 90
       50
176
     0
 90
        3
176
     0
 62
     5
420
      255
176
     0
290
     0
176
     0
 90
       50
176
     0
 90
       50
176
     0
 90
       50
176
     0
290
     0
176
     0
 90
       50
176
     0
 62
   256
176
     0
 40
1.0
176
     0
 90
        2
176
     0
  1
strokes_ogs.tif
176
     0
290
     0
176
     0
 40
1.0
176
     0
 40
1.0
176
     0
  0
VISUALSTYLE
  5
33
102
{ACAD_REACTORS
330
2A
102
}
330
2A
100
AcDbVisualStyle
  2
Realistic
 70
     8
177
     3
291
     0
 70
    58
 90
        2
176
     1
 90
        3
176
     1
 90
        0
176
     1
 90
        2
176
     1
 40
0.6
176
     1
 40
30.0
176
     1
 62
     7
420
 16777215
176
     1
 90
        0
176
     1
 90
        0
176
     1
 62
     7
176
     1
 62
   257
176
     1
 90
        1
176
     1
 90
        1
176
     1
 40
1.0
176
     1
 90
        8
176
     1
 62
   257
176
     1
 40
1.0
176
     1
 90
        1
176
     1
 90
        6
176
     1
 90
        2
176
     1
 62
     7
176
     1
 90
        3
176
     1
 90
        0
176
     1
 90
        0
176
     1
290
     0
176
     1
 90
       13
176
     1
 40
0.0
176
     1
 90
        0
176
     1
290
     0
176
     1
290
     1
176
     1
290
     1
176
     1
290
     0
176
     1
290
     0
176
     1
290
     0
176
     1
290
     0
176
     1
290
     0
176
     1
290
     0
176
     1
 90
       50
176
     1
 40
0.0
176
     1
 40
1.0
176
     1
 90
        0
176
     1
 62
    18
420
        0
176
     1
 90
       50
176
     1
 90
        3
176
     1
 62
     5
420
      255
176
     1
290
     0
176
     1
 90
       50
176
     1
 90
       50
176
     1
 90
       50
176
     1
290
     0
176
     1
 90
       50
176
     1
 62
   256
176
     0
 40
1.0
176
     0
 90
        2
176
     1
  1
strokes_ogs.tif
176
     1
290
     0
176
     1
 40
1.0
176
     1
 40
1.0
176
     1
  0
VISUALSTYLE
  5
42
102
{ACAD_REACTORS
330
2A
102
}
330
2A
100
AcDbVisualStyle
  2
Shaded
 70
    27
177
     3
291
     0
 70
    58
 90
        2
176
     1
 90
        2
176
     1
 90
        1
176
     1
 90
        2
176
     1
 40
0.6
176
     1
 40
30.0
176
     1
 62
     7
420
 16777215
176
     1
 90
        0
176
     1
 90
        4
176
     1
 62
     7
176
     1
 62
   257
176
     1
 90
        1
176
     1
 90
        1
176
     1
 40
1.0
176
     1
 90
        8
176
     1
 62
   257
176
     1
 40
1.0
176
     1
 90
        1
176
     1
 90
        6
176
     1
 90
        2
176
     1
 62
     8
420
  7895160
176
     1
 90
        3
176
     1
 90
        0
176
     1
 90
        0
176
     1
290
     0
176
     1
 90
        5
176
     1
 40
0.0
176
     1
 90
        0
176
     1
290
     0
176
     1
290
     1
176
     1
290
     1
176
     1
290
     0
176
     1
290
     0
176
     1
290
     0
176
     1
290
     0
176
     1
290
     0
176
     1
290
     0
176
     1
 90
       50
176
     1
 40
0.0
176
     1
 40
1.0
176
     1
 90
        0
176
     1
 62
    18
420
        0
176
     1
 90
       50
176
     1
 90
        3
176
     1
 62
     5
420
      255
176
     1
290
     0
176
     1
 90
       50
176
     1
 90
       50
176
     1
 90
       50
176
     1
290
     0
176
     1
 90
       50
176
     1
 62
   256
176
     0
 40
1.0
176
     0
 90
        2
176
     1
  1
strokes_ogs.tif
176
     1
290
     0
176
     1
 40
1.0
176
     1
 40
1.0
176
     1
  0
VISUALSTYLE
  5
41
102
{ACAD_REACTORS
330
2A
102
}
330
2A
100
AcDbVisualStyle
  2
Shaded with edges
 70
    26
177
     3
291
     0
 70
    58
 90
        2
176
     1
 90
        2
176
     1
 90
        1
176
     1
 90
        2
176
     1
 40
0.6
176
     1
 40
30.0
176
     1
 62
     7
420
 16777215
176
     1
 90
        1
176
     1
 90
       10
176
     1
 62
     7
176
     1
 62
   257
176
     1
 90
        2
176
     1
 90
        1
176
     1
 40
1.0
176
     1
 90
        8
176
     1
 62
   257
176
     1
 40
1.0
176
     1
 90
        1
176
     1
 90
        6
176
     1
 90
        2
176
     1
 62
     7
176
     1
 90
        3
176
     1
 90
        0
176
     1
 90
        0
176
     1
290
     0
176
     1
 90
        5
176
     1
 40
0.0
176
     1
 90
        0
176
     1
290
     0
176
     1
290
     1
176
     1
290
     1
176
     1
290
     0
176
     1
290
     0
176
     1
290
     0
176
     1
290
     0
176
     1
290
     0
176
     1
290
     0
176
     1
 90
       50
176
     1
 40
0.0
176
     1
 40
1.0
176
     1
 90
        0
176
     1
 62
    18
420
        0
176
     1
 90
       50
176
     1
 90
        3
176
     1
 62
     5
420
      255
176
     1
290
     0
176
     1
 90
       50
176
     1
 90
       50
176
     1
 90
       50
176
     1
290
     0
176
     1
 90
       50
176
     1
 62
   256
176
     0
 40
1.0
176
     0
 90
        2
176
     1
  1
strokes_ogs.tif
176
     1
290
     0
176
     1
 40
1.0
176
     1
 40
1.0
176
     1
  0
VISUALSTYLE
  5
3E
102
{ACAD_REACTORS
330
2A
102
}
330
2A
100
AcDbVisualStyle
  2
Shades of Gray
 70
    23
177
     3
291
     0
 70
    58
 90
        2
176
     1
 90
        2
176
     1
 90
        3
176
     1
 90
        0
176
     1
 40
0.6
176
     1
 40
30.0
176
     1
 62
     7
420
 16777215
176
     1
 90
        2
176
     1
 90
        2
176
     1
 62
     7
176
     1
 62
     7
176
     1
 90
        1
176
     1
 90
        1
176
     1
 40
40.0
176
     1
 90
        8
176
     1
 62
     7
176
     1
 40
1.0
176
     1
 90
        1
176
     1
 90
        6
176
     1
 90
        2
176
     1
 62
     7
176
     1
 90
        3
176
     1
 90
        0
176
     1
 90
        0
176
     1
290
     0
176
     1
 90
        1
176
     1
 40
0.0
176
     1
 90
        0
176
     1
290
     0
176
     1
290
     1
176
     1
290
     1
176
     1
290
     0
176
     1
290
     0
176
     1
290
     0
176
     1
290
     0
176
     1
290
     0
176
     1
290
     0
176
     1
 90
       50
176
     1
 40
0.0
176
     1
 40
1.0
176
     1
 90
        0
176
     1
 62
    18
420
        0
176
     1
 90
       50
176
     1
 90
        3
176
     1
 62
     5
420
      255
176
     1
290
     0
176
     1
 90
       50
176
     1
 90
       50
176
     1
 90
       50
176
     1
290
     0
176
     1
 90
       50
176
     1
 62
   256
176
     0
 40
1.0
176
     0
 90
        2
176
     1
  1
strokes_ogs.tif
176
     1
290
     0
176
     1
 40
1.0
176
     1
 40
1.0
176
     1
  0
VISUALSTYLE
  5
3F
102
{ACAD_REACTORS
330
2A
102
}
330
2A
100
AcDbVisualStyle
  2
Sketchy
 70
    24
177
     3
291
     0
 70
    58
 90
        1
176
     1
 90
        2
176
     1
 90
        2
176
     1
 90
        0
176
     1
 40
0.6
176
     1
 40
30.0
176
     1
 62
     7
420
 16777215
176
     1
 90
        2
176
     1
 90
        2
176
     1
 62
     7
176
     1
 62
     7
176
     1
 90
        1
176
     1
 90
        1
176
     1
 40
40.0
176
     1
 90
       11
176
     1
 62
     7
176
     1
 40
1.0
176
     1
 90
        1
176
     1
 90
        6
176
     1
 90
        2
176
     1
 62
     7
176
     1
 90
        6
176
     1
 90
        0
176
     1
 90
        0
176
     1
290
     0
176
     1
 90
        1
176
     1
 40
0.0
176
     1
 90
        0
176
     1
290
     0
176
     1
290
     1
176
     1
290
     1
176
     1
290
     0
176
     1
290
     0
176
     1
290
     0
176
     1
290
     0
176
     1
290
     0
176
     1
290
     0
176
     1
 90
       50
176
     1
 40
0.0
176
     1
 40
1.0
176
     1
 90
        0
176
     1
 62
    18
420
        0
176
     1
 90
       50
176
     1
 90
        3
176
     1
 62
     5
420
      255
176
     1
290
     0
176
     1
 90
       50
176
     1
 90
       50
176
     1
 90
       50
176
     1
290
     0
176
     1
 90
       50
176
     1
 62
   256
176
     0
 40
1.0
176
     0
 90
        2
176
     1
  1
strokes_ogs.tif
176
     1
290
     0
176
     1
 40
1.0
176
     1
 40
1.0
176
     1
  0
VISUALSTYLE
  5
37
102
{ACAD_REACTORS
330
2A
102
}
330
2A
100
AcDbVisualStyle
  2
Thicken
 70
    13
177
     3
291
     1
 70
    58
 90
        2
176
     1
 90
        2
176
     1
 90
        0
176
     1
 90
        0
176
     1
 40
0.6
176
     1
 40
30.0
176
     1
 62
     7
420
 16777215
176
     1
 90
        1
176
     1
 90
        4
176
     1
 62
     7
176
     1
 62
   257
176
     1
 90
        1
176
     1
 90
        1
176
     1
 40
1.0
176
     1
 90
       12
176
     1
 62
     7
176
     1
 40
1.0
176
     1
 90
        1
176
     1
 90
        6
176
     1
 90
        2
176
     1
 62
     7
176
     1
 90
        5
176
     1
 90
        0
176
     1
 90
        0
176
     1
290
     0
176
     1
 90
        1
176
     1
 40
0.0
176
     1
 90
        0
176
     1
290
     0
176
     1
290
     1
176
     1
290
     1
176
     1
290
     0
176
     1
290
     0
176
     1
290
     0
176
     1
290
     0
176
     1
290
     0
176
     1
290
     0
176
     1
 90
       50
176
     1
 40
0.0
176
     1
 40
1.0
176
     1
 90
        0
176
     1
 62
    18
420
        0
176
     1
 90
       50
176
     1
 90
        3
176
     1
 62
     5
420
      255
176
     1
290
     0
176
     1
 90
       50
176
     1
 90
       50
176
     1
 90
       50
176
     1
290
     0
176
     1
 90
       50
176
     1
 62
   256
176
     0
 40
1.0
176
     0
 90
        2
176
     1
  1
strokes_ogs.tif
176
     1
290
     0
176
     1
 40
1.0
176
     1
 40
1.0
176
     1
  0
VISUALSTYLE
  5
30
102
{ACAD_REACTORS
330
2A
102
}
330
2A
100
AcDbVisualStyle
  2
Wireframe
 70
     5
177
     3
291
     0
 70
    58
 90
        0
176
     1
 90
        2
176
     1
 90
        0
176
     1
 90
        0
176
     1
 40
0.6
176
     1
 40
30.0
176
     1
 62
     7
420
 16777215
176
     1
 90
        1
176
     1
 90
        4
176
     1
 62
     7
176
     1
 62
   257
176
     1
 90
        1
176
     1
 90
        1
176
     1
 40
1.0
176
     1
 90
        0
176
     1
 62
   257
176
     1
 40
1.0
176
     1
 90
        1
176
     1
 90
        6
176
     1
 90
        2
176
     1
 62
     7
176
     1
 90
        3
176
     1
 90
        0
176
     1
 90
        0
176
     1
290
     0
176
     1
 90
        1
176
     1
 40
0.0
176
     1
 90
        0
176
     1
290
     0
176
     1
290
     1
176
     1
290
     1
176
     1
290
     0
176
     1
290
     0
176
     1
290
     0
176
     1
290
     0
176
     1
290
     0
176
     1
290
     0
176
     1
 90
       50
176
     1
 40
0.0
176
     1
 40
1.0
176
     1
 90
        0
176
     1
 62
    18
420
        0
176
     1
 90
       50
176
     1
 90
        3
176
     1
 62
     5
420
      255
176
     1
290
     0
176
     1
 90
       50
176
     1
 90
       50
176
     1
 90
       50
176
     1
290
     0
176
     1
 90
       50
176
     1
 62
   256
176
     0
 40
1.0
176
     0
 90
        2
176
     1
  1
strokes_ogs.tif
176
     1
290
     0
176
     1
 40
1.0
176
     1
 40
1.0
176
     1
  0
VISUALSTYLE
  5
40
102
{ACAD_REACTORS
330
2A
102
}
330
2A
100
AcDbVisualStyle
  2
X-Ray
 70
    25
177
     3
291
     0
 70
    58
 90
        2
176
     1
 90
        2
176
     1
 90
        1
176
     1
 90
        1
176
     1
 40
0.5
176
     1
 40
30.0
176
     1
 62
     7
420
 16777215
176
     1
 90
        1
176
     1
 90
        0
176
     1
 62
     7
176
     1
 62
   257
176
     1
 90
        1
176
     1
 90
        1
176
     1
 40
1.0
176
     1
 90
        8
176
     1
 62
     7
176
     1
 40
1.0
176
     1
 90
        1
176
     1
 90
        6
176
     1
 90
        2
176
     1
 62
     7
176
     1
 90
        3
176
     1
 90
        0
176
     1
 90
        0
176
     1
290
     0
176
     1
 90
       13
176
     1
 40
0.0
176
     1
 90
        0
176
     1
290
     0
176
     1
290
     1
176
     1
290
     1
176
     1
290
     0
176
     1
290
     0
176
     1
290
     0
176
     1
290
     0
176
     1
290
     0
176
     1
290
     0
176
     1
 90
       50
176
     1
 40
0.0
176
     1
 40
1.0
176
     1
 90
        0
176
     1
 62
    18
420
        0
176
     1
 90
       50
176
     1
 90
        3
176
     1
 62
     5
420
      255
176
     1
290
     0
176
     1
 90
       50
176
     1
 90
       50
176
     1
 90
       50
176
     1
290
     0
176
     1
 90
       50
176
     1
 62
   256
176
     0
 40
1.0
176
     0
 90
        2
176
     1
  1
strokes_ogs.tif
176
     1
290
     0
176
     1
 40
1.0
176
     1
 40
1.0
176
     1
  0
DICTIONARYVAR
  5
21C
102
{ACAD_REACTORS
330
21B
102
}
330
21B
100
DictionaryVariables
280
     0
  1
1:1
  0
DICTIONARYVAR
  5
221
102
{ACAD_REACTORS
330
21B
102
}
330
21B
100
DictionaryVariables
280
     0
  1
Standard
  0
DICTIONARYVAR
  5
220
102
{ACAD_REACTORS
330
21B
102
}
330
21B
100
DictionaryVariables
280
     0
  1
Standard
  0
DICTIONARY
  5
21D
330
6A
100
AcDbDictionary
280
     1
281
     1
  3
ACAD_ROUNDTRIP_2008_TABLESTYLE_CELLSTYLEMAP
360
21E
  0
CELLSTYLEMAP
  5
21E
102
{ACAD_REACTORS
330
21D
102
}
330
21D
100
AcDbCellStyleMap
 90
        3
300
CELLSTYLE
  1
TABLEFORMAT_BEGIN
 90
        5
170
     1
 91
        0
 92
    32768
 62
   257
 93
        1
300
CONTENTFORMAT
  1
CONTENTFORMAT_BEGIN
 90
        0
 91
        0
 92
        4
 93
        0
300

 40
0.0
140
1.0
 94
        5
 62
     0
340
11
144
0.25
309
CONTENTFORMAT_END
171
     1
301
MARGIN
  1
CELLMARGIN_BEGIN
 40
0.06
 40
0.06
 40
0.06
 40
0.06
 40
0.06
 40
0.06
309
CELLMARGIN_END
 94
        6
 95
        1
302
GRIDFORMAT
  1
GRIDFORMAT_BEGIN
 90
        0
 91
        1
 62
     0
 92
       -2
340
14
 93
        0
 40
0.045
309
GRIDFORMAT_END
 95
        2
302
GRIDFORMAT
  1
GRIDFORMAT_BEGIN
 90
        0
 91
        1
 62
     0
 92
       -2
340
14
 93
        0
 40
0.045
309
GRIDFORMAT_END
 95
        4
302
GRIDFORMAT
  1
GRIDFORMAT_BEGIN
 90
        0
 91
        1
 62
     0
 92
       -2
340
14
 93
        0
 40
0.045
309
GRIDFORMAT_END
 95
        8
302
GRIDFORMAT
  1
GRIDFORMAT_BEGIN
 90
        0
 91
        1
 62
     0
 92
       -2
340
14
 93
        0
 40
0.045
309
GRIDFORMAT_END
 95
       16
302
GRIDFORMAT
  1
GRIDFORMAT_BEGIN
 90
        0
 91
        1
 62
     0
 92
       -2
340
14
 93
        0
 40
0.045
309
GRIDFORMAT_END
 95
       32
302
GRIDFORMAT
  1
GRIDFORMAT_BEGIN
 90
        0
 91
        1
 62
     0
 92
       -2
340
14
 93
        0
 40
0.045
309
GRIDFORMAT_END
309
TABLEFORMAT_END
  1
CELLSTYLE_BEGIN
 90
        1
 91
        1
300
_TITLE
309
CELLSTYLE_END
300
CELLSTYLE
  1
TABLEFORMAT_BEGIN
 90
        5
170
     1
 91
        0
 92
        0
 62
   257
 93
        1
300
CONTENTFORMAT
  1
CONTENTFORMAT_BEGIN
 90
        0
 91
        0
 92
        4
 93
        0
300

 40
0.0
140
1.0
 94
        5
 62
     0
340
11
144
0.18
309
CONTENTFORMAT_END
171
     1
301
MARGIN
  1
CELLMARGIN_BEGIN
 40
0.06
 40
0.06
 40
0.06
 40
0.06
 40
0.06
 40
0.06
309
CELLMARGIN_END
 94
        6
 95
        1
302
GRIDFORMAT
  1
GRIDFORMAT_BEGIN
 90
        0
 91
        1
 62
     0
 92
       -2
340
14
 93
        0
 40
0.045
309
GRIDFORMAT_END
 95
        2
302
GRIDFORMAT
  1
GRIDFORMAT_BEGIN
 90
        0
 91
        1
 62
     0
 92
       -2
340
14
 93
        0
 40
0.045
309
GRIDFORMAT_END
 95
        4
302
GRIDFORMAT
  1
GRIDFORMAT_BEGIN
 90
        0
 91
        1
 62
     0
 92
       -2
340
14
 93
        0
 40
0.045
309
GRIDFORMAT_END
 95
        8
302
GRIDFORMAT
  1
GRIDFORMAT_BEGIN
 90
        0
 91
        1
 62
     0
 92
       -2
340
14
 93
        0
 40
0.045
309
GRIDFORMAT_END
 95
       16
302
GRIDFORMAT
  1
GRIDFORMAT_BEGIN
 90
        0
 91
        1
 62
     0
 92
       -2
340
14
 93
        0
 40
0.045
309
GRIDFORMAT_END
 95
       32
302
GRIDFORMAT
  1
GRIDFORMAT_BEGIN
 90
        0
 91
        1
 62
     0
 92
       -2
340
14
 93
        0
 40
0.045
309
GRIDFORMAT_END
309
TABLEFORMAT_END
  1
CELLSTYLE_BEGIN
 90
        2
 91
        1
300
_HEADER
309
CELLSTYLE_END
300
CELLSTYLE
  1
TABLEFORMAT_BEGIN
 90
        5
170
     1
 91
        0
 92
        0
 62
   257
 93
        1
300
CONTENTFORMAT
  1
CONTENTFORMAT_BEGIN
 90
        0
 91
        0
 92
        4
 93
        0
300

 40
0.0
140
1.0
 94
        2
 62
     0
340
11
144
0.18
309
CONTENTFORMAT_END
171
     1
301
MARGIN
  1
CELLMARGIN_BEGIN
 40
0.06
 40
0.06
 40
0.06
 40
0.06
 40
0.06
 40
0.06
309
CELLMARGIN_END
 94
        6
 95
        1
302
GRIDFORMAT
  1
GRIDFORMAT_BEGIN
 90
        0
 91
        1
 62
     0
 92
       -2
340
14
 93
        0
 40
0.045
309
GRIDFORMAT_END
 95
        2
302
GRIDFORMAT
  1
GRIDFORMAT_BEGIN
 90
        0
 91
        1
 62
     0
 92
       -2
340
14
 93
        0
 40
0.045
309
GRIDFORMAT_END
 95
        4
302
GRIDFORMAT
  1
GRIDFORMAT_BEGIN
 90
        0
 91
        1
 62
     0
 92
       -2
340
14
 93
        0
 40
0.045
309
GRIDFORMAT_END
 95
        8
302
GRIDFORMAT
  1
GRIDFORMAT_BEGIN
 90
        0
 91
        1
 62
     0
 92
       -2
340
14
 93
        0
 40
0.045
309
GRIDFORMAT_END
 95
       16
302
GRIDFORMAT
  1
GRIDFORMAT_BEGIN
 90
        0
 91
        1
 62
     0
 92
       -2
340
14
 93
        0
 40
0.045
309
GRIDFORMAT_END
 95
       32
302
GRIDFORMAT
  1
GRIDFORMAT_BEGIN
 90
        0
 91
        1
 62
     0
 92
       -2
340
14
 93
        0
 40
0.045
309
GRIDFORMAT_END
309
TABLEFORMAT_END
  1
CELLSTYLE_BEGIN
 90
        3
 91
        2
300
_DATA
309
CELLSTYLE_END
  0
ENDSEC
  0
EOF