0
SECTION
  2
HEADER
  9
$ACADVER
  1
AC1027
  9
$ACADMAINTVER
 70
     8
  9
$DWGCODEPAGE
  3
ANSI_1252
  9
$REQUIREDVERSIONS
160
                 0
  9
$COMMENTS
  1
File was created by Cadenas
  9
$CUSTOMPROPERTYTAG
  1
NN
  9
$CUSTOMPROPERTY
  1
Type K Pillow Block 2&4-Bolt Base Expansion Inch Bore
  9
$CUSTOMPROPERTYTAG
  1
NT
  9
$CUSTOMPROPERTY
  1
Type K
  9
$CUSTOMPROPERTYTAG
  1
NB
  9
$CUSTOMPROPERTY
  1
023195
  9
$CUSTOMPROPERTYTAG
  1
NBSYN
  9
$CUSTOMPROPERTY
  1
$PN.
  9
$CUSTOMPROPERTYTAG
  1
LINA
  9
$CUSTOMPROPERTY
  1
023195
  9
$CUSTOMPROPERTYTAG
  1
SS
  9
$CUSTOMPROPERTY
  1
1-11/16
  9
$CUSTOMPROPERTYTAG
  1
PN
  9
$CUSTOMPROPERTY
  1
023195
  9
$CUSTOMPROPERTYTAG
  1
PNA
  9
$CUSTOMPROPERTY
  1
P2B-K-111RE
  9
$CUSTOMPROPERTYTAG
  1
WEIGHT
  9
$CUSTOMPROPERTY
  1
14
  9
$CUSTOMPROPERTYTAG
  1
A
  9
$CUSTOMPROPERTY
  1
2.83
  9
$CUSTOMPROPERTYTAG
  1
B
  9
$CUSTOMPROPERTY
  1
9.00
  9
$CUSTOMPROPERTYTAG
  1
C
  9
$CUSTOMPROPERTY
  1
2.37
  9
$CUSTOMPROPERTYTAG
  1
DMIN
  9
$CUSTOMPROPERTY
  1
6.88
  9
$CUSTOMPROPERTYTAG
  1
DMAX
  9
$CUSTOMPROPERTY
  1
7.63
  9
$CUSTOMPROPERTYTAG
  1
E
  9
$CUSTOMPROPERTY
  1
N/A
  9
$CUSTOMPROPERTYTAG
  1
F
  9
$CUSTOMPROPERTY
  1
1/2
  9
$CUSTOMPROPERTYTAG
  1
G
  9
$CUSTOMPROPERTY
  1
1.00
  9
$CUSTOMPROPERTYTAG
  1
H
  9
$CUSTOMPROPERTY
  1
1.38
  9
$CUSTOMPROPERTYTAG
  1
J
  9
$CUSTOMPROPERTY
  1
5.75
  9
$CUSTOMPROPERTYTAG
  1
L
  9
$CUSTOMPROPERTY
  1
3.19
  9
$CUSTOMPROPERTYTAG
  1
M
  9
$CUSTOMPROPERTY
  1
2.63
  9
$CUSTOMPROPERTYTAG
  1
P
  9
$CUSTOMPROPERTY
  1
5.81
  9
$CUSTOMPROPERTYTAG
  1
R
  9
$CUSTOMPROPERTY
  1
1.56
  9
$CUSTOMPROPERTYTAG
  1
S
  9
$CUSTOMPROPERTY
  1
1.68
  9
$CUSTOMPROPERTYTAG
  1
T
  9
$CUSTOMPROPERTY
  1
.09
  9
$CUSTOMPROPERTYTAG
  1
CS
  9
$CUSTOMPROPERTY
  1
33000
  9
$CUSTOMPROPERTYTAG
  1
CD
  9
$CUSTOMPROPERTY
  1
6140
  9
$CUSTOMPROPERTYTAG
  1
RN
  9
$CUSTOMPROPERTY
  1
18
  9
$CUSTOMPROPERTYTAG
  1
RM
  9
$CUSTOMPROPERTY
  1
.35
  9
$CUSTOMPROPERTYTAG
  1
PDI
  9
$CUSTOMPROPERTY
  1
2.411
  9
$CUSTOMPROPERTYTAG
  1
EP
  9
$CUSTOMPROPERTY
  1
.004-.012
  9
$CUSTOMPROPERTYTAG
  1
SC
  9
$CUSTOMPROPERTY
  1
5/16-18*5/8
  9
$CUSTOMPROPERTYTAG
  1
TC
  9
$CUSTOMPROPERTY
  1
165
  9
$CUSTOMPROPERTYTAG
  1
MH
  9
$CUSTOMPROPERTY
  1
C.I. ASTM A48 CLASS 30
  9
$CUSTOMPROPERTYTAG
  1
MC
  9
$CUSTOMPROPERTY
  1
4118 CASE CARB.
  9
$CUSTOMPROPERTYTAG
  1
MCU
  9
$CUSTOMPROPERTY
  1
4118 CASE CARB.
  9
$CUSTOMPROPERTYTAG
  1
MR
  9
$CUSTOMPROPERTY
  1
STEEL
  9
$CUSTOMPROPERTYTAG
  1
MRO
  9
$CUSTOMPROPERTY
  1
4118 CASE CARB.
  9
$CUSTOMPROPERTYTAG
  1
SM
  9
$CUSTOMPROPERTY
  1
2.59*
  9
$CUSTOMPROPERTYTAG
  1
COMPANY
  9
$CUSTOMPROPERTY
  1
baldor
  9
$INSBASE
 10
0.0
 20
0.0
 30
0.0
  9
$EXTMIN
 10
1.000000000000000E+20
 20
1.000000000000000E+20
 30
1.000000000000000E+20
  9
$EXTMAX
 10
-1.000000000000000E+20
 20
-1.000000000000000E+20
 30
-1.000000000000000E+20
  9
$LIMMIN
 10
0.0
 20
0.0
  9
$LIMMAX
 10
12.0
 20
9.0
  9
$ORTHOMODE
 70
     0
  9
$REGENMODE
 70
     1
  9
$FILLMODE
 70
     1
  9
$QTEXTMODE
 70
     0
  9
$MIRRTEXT
 70
     1
  9
$LTSCALE
 40
1.0
  9
$ATTMODE
 70
     1
  9
$TEXTSIZE
 40
0.2
  9
$TRACEWID
 40
0.05
  9
$TEXTSTYLE
  7
Standard
  9
$CLAYER
  8
0
  9
$CELTYPE
  6
ByLayer
  9
$CECOLOR
 62
   256
  9
$CELTSCALE
 40
1.0
  9
$DISPSILH
 70
     0
  9
$DIMSCALE
 40
1.0
  9
$DIMASZ
 40
0.18
  9
$DIMEXO
 40
0.0625
  9
$DIMDLI
 40
0.38
  9
$DIMRND
 40
0.0
  9
$DIMDLE
 40
0.0
  9
$DIMEXE
 40
0.18
  9
$DIMTP
 40
0.0
  9
$DIMTM
 40
0.0
  9
$DIMTXT
 40
0.18
  9
$DIMCEN
 40
0.09
  9
$DIMTSZ
 40
0.0
  9
$DIMTOL
 70
     0
  9
$DIMLIM
 70
     0
  9
$DIMTIH
 70
     1
  9
$DIMTOH
 70
     1
  9
$DIMSE1
 70
     0
  9
$DIMSE2
 70
     0
  9
$DIMTAD
 70
     0
  9
$DIMZIN
 70
     0
  9
$DIMBLK
  1

  9
$DIMASO
 70
     1
  9
$DIMSHO
 70
     1
  9
$DIMPOST
  1

  9
$DIMAPOST
  1

  9
$DIMALT
 70
     0
  9
$DIMALTD
 70
     2
  9
$DIMALTF
 40
25.4
  9
$DIMLFAC
 40
1.0
  9
$DIMTOFL
 70
     0
  9
$DIMTVP
 40
0.0
  9
$DIMTIX
 70
     0
  9
$DIMSOXD
 70
     0
  9
$DIMSAH
 70
     0
  9
$DIMBLK1
  1

  9
$DIMBLK2
  1

  9
$DIMSTYLE
  2
Standard
  9
$DIMCLRD
 70
     0
  9
$DIMCLRE
 70
     0
  9
$DIMCLRT
 70
     0
  9
$DIMTFAC
 40
1.0
  9
$DIMGAP
 40
0.09
  9
$DIMJUST
 70
     0
  9
$DIMSD1
 70
     0
  9
$DIMSD2
 70
     0
  9
$DIMTOLJ
 70
     1
  9
$DIMTZIN
 70
     0
  9
$DIMALTZ
 70
     0
  9
$DIMALTTZ
 70
     0
  9
$DIMUPT
 70
     0
  9
$DIMDEC
 70
     4
  9
$DIMTDEC
 70
     4
  9
$DIMALTU
 70
     2
  9
$DIMALTTD
 70
     2
  9
$DIMTXSTY
  7
Standard
  9
$DIMAUNIT
 70
     0
  9
$DIMADEC
 70
     0
  9
$DIMALTRND
 40
0.0
  9
$DIMAZIN
 70
     0
  9
$DIMDSEP
 70
    46
  9
$DIMATFIT
 70
     3
  9
$DIMFRAC
 70
     0
  9
$DIMLDRBLK
  1

  9
$DIMLUNIT
 70
     2
  9
$DIMLWD
 70
    -2
  9
$DIMLWE
 70
    -2
  9
$DIMTMOVE
 70
     0
  9
$DIMFXL
 40
1.0
  9
$DIMFXLON
 70
     0
  9
$DIMJOGANG
 40
0.7853981633974483
  9
$DIMTFILL
 70
     0
  9
$DIMTFILLCLR
 70
     0
  9
$DIMARCSYM
 70
     0
  9
$DIMLTYPE
  6

  9
$DIMLTEX1
  6

  9
$DIMLTEX2
  6

  9
$DIMTXTDIRECTION
 70
     0
  9
$LUNITS
 70
     2
  9
$LUPREC
 70
     4
  9
$SKETCHINC
 40
0.1
  9
$FILLETRAD
 40
0.5
  9
$AUNITS
 70
     0
  9
$AUPREC
 70
     0
  9
$MENU
  1
.
  9
$ELEVATION
 40
0.0
  9
$PELEVATION
 40
0.0
  9
$THICKNESS
 40
0.0
  9
$LIMCHECK
 70
     0
  9
$CHAMFERA
 40
0.0
  9
$CHAMFERB
 40
0.0
  9
$CHAMFERC
 40
0.0
  9
$CHAMFERD
 40
0.0
  9
$SKPOLY
 70
     0
  9
$TDCREATE
 40
2458169.00513978
  9
$TDUCREATE
 40
2458168.963473113
  9
$TDUPDATE
 40
2458169.005139965
  9
$TDUUPDATE
 40
2458168.963473299
  9
$TDINDWG
 40
0.0000000116
  9
$TDUSRTIMER
 40
0.0000000116
  9
$USRTIMER
 70
     1
  9
$ANGBASE
 50
0.0
  9
$ANGDIR
 70
     0
  9
$PDMODE
 70
     0
  9
$PDSIZE
 40
0.0
  9
$PLINEWID
 40
0.0
  9
$SPLFRAME
 70
     0
  9
$SPLINETYPE
 70
     6
  9
$SPLINESEGS
 70
     8
  9
$HANDSEED
  5
247
  9
$SURFTAB1
 70
     6
  9
$SURFTAB2
 70
     6
  9
$SURFTYPE
 70
     6
  9
$SURFU
 70
     6
  9
$SURFV
 70
     6
  9
$UCSBASE
  2

  9
$UCSNAME
  2

  9
$UCSORG
 10
0.0
 20
0.0
 30
0.0
  9
$UCSXDIR
 10
1.0
 20
0.0
 30
0.0
  9
$UCSYDIR
 10
0.0
 20
1.0
 30
0.0
  9
$UCSORTHOREF
  2

  9
$UCSORTHOVIEW
 70
     0
  9
$UCSORGTOP
 10
0.0
 20
0.0
 30
0.0
  9
$UCSORGBOTTOM
 10
0.0
 20
0.0
 30
0.0
  9
$UCSORGLEFT
 10
0.0
 20
0.0
 30
0.0
  9
$UCSORGRIGHT
 10
0.0
 20
0.0
 30
0.0
  9
$UCSORGFRONT
 10
0.0
 20
0.0
 30
0.0
  9
$UCSORGBACK
 10
0.0
 20
0.0
 30
0.0
  9
$PUCSBASE
  2

  9
$PUCSNAME
  2

  9
$PUCSORG
 10
0.0
 20
0.0
 30
0.0
  9
$PUCSXDIR
 10
1.0
 20
0.0
 30
0.0
  9
$PUCSYDIR
 10
0.0
 20
1.0
 30
0.0
  9
$PUCSORTHOREF
  2

  9
$PUCSORTHOVIEW
 70
     0
  9
$PUCSORGTOP
 10
0.0
 20
0.0
 30
0.0
  9
$PUCSORGBOTTOM
 10
0.0
 20
0.0
 30
0.0
  9
$PUCSORGLEFT
 10
0.0
 20
0.0
 30
0.0
  9
$PUCSORGRIGHT
 10
0.0
 20
0.0
 30
0.0
  9
$PUCSORGFRONT
 10
0.0
 20
0.0
 30
0.0
  9
$PUCSORGBACK
 10
0.0
 20
0.0
 30
0.0
  9
$USERI1
 70
     0
  9
$USERI2
 70
     0
  9
$USERI3
 70
     0
  9
$USERI4
 70
     0
  9
$USERI5
 70
     0
  9
$USERR1
 40
0.0
  9
$USERR2
 40
0.0
  9
$USERR3
 40
0.0
  9
$USERR4
 40
0.0
  9
$USERR5
 40
0.0
  9
$WORLDVIEW
 70
     1
  9
$SHADEDGE
 70
     3
  9
$SHADEDIF
 70
    70
  9
$TILEMODE
 70
     1
  9
$MAXACTVP
 70
    64
  9
$PINSBASE
 10
0.0
 20
0.0
 30
0.0
  9
$PLIMCHECK
 70
     0
  9
$PEXTMIN
 10
1.000000000000000E+20
 20
1.000000000000000E+20
 30
1.000000000000000E+20
  9
$PEXTMAX
 10
-1.000000000000000E+20
 20
-1.000000000000000E+20
 30
-1.000000000000000E+20
  9
$PLIMMIN
 10
0.0
 20
0.0
  9
$PLIMMAX
 10
12.0
 20
9.0
  9
$UNITMODE
 70
     0
  9
$VISRETAIN
 70
     1
  9
$PLINEGEN
 70
     0
  9
$PSLTSCALE
 70
     1
  9
$TREEDEPTH
 70
  3020
  9
$CMLSTYLE
  2
Standard
  9
$CMLJUST
 70
     0
  9
$CMLSCALE
 40
1.0
  9
$PROXYGRAPHICS
 70
     1
  9
$MEASUREMENT
 70
     0
  9
$CELWEIGHT
370
    -1
  9
$ENDCAPS
280
     0
  9
$JOINSTYLE
280
     0
  9
$LWDISPLAY
290
     0
  9
$INSUNITS
 70
     1
  9
$HYPERLINKBASE
  1

  9
$STYLESHEET
  1

  9
$XEDIT
290
     1
  9
$CEPSNTYPE
380
     0
  9
$PSTYLEMODE
290
     1
  9
$FINGERPRINTGUID
  2
{8FD6DD8D-D7AF-4311-B1E0-21997B742242}
  9
$VERSIONGUID
  2
{FAEB1C32-E019-11D5-929B-00C0DF256EC4}
  9
$EXTNAMES
290
     1
  9
$PSVPSCALE
 40
0.0
  9
$OLESTARTUP
290
     0
  9
$SORTENTS
280
   127
  9
$INDEXCTL
280
     0
  9
$HIDETEXT
280
     1
  9
$XCLIPFRAME
280
     2
  9
$HALOGAP
280
     0
  9
$OBSCOLOR
 70
   257
  9
$OBSLTYPE
280
     0
  9
$INTERSECTIONDISPLAY
280
     0
  9
$INTERSECTIONCOLOR
 70
   257
  9
$DIMASSOC
280
     2
  9
$PROJECTNAME
  1

  9
$CAMERADISPLAY
290
     0
  9
$LENSLENGTH
 40
50.0
  9
$CAMERAHEIGHT
 40
0.0
  9
$STEPSPERSEC
 40
2.0
  9
$STEPSIZE
 40
6.0
  9
$3DDWFPREC
 40
2.0
  9
$PSOLWIDTH
 40
0.25
  9
$PSOLHEIGHT
 40
4.0
  9
$LOFTANG1
 40
1.570796326794897
  9
$LOFTANG2
 40
1.570796326794897
  9
$LOFTMAG1
 40
0.0
  9
$LOFTMAG2
 40
0.0
  9
$LOFTPARAM
 70
     7
  9
$LOFTNORMALS
280
     1
  9
$LATITUDE
 40
37.795
  9
$LONGITUDE
 40
-122.394
  9
$NORTHDIRECTION
 40
0.0
  9
$TIMEZONE
 70
 -8000
  9
$LIGHTGLYPHDISPLAY
280
     1
  9
$TILEMODELIGHTSYNCH
280
     1
  9
$CMATERIAL
347
44
  9
$SOLIDHIST
280
     0
  9
$SHOWHIST
280
     1
  9
$DWFFRAME
280
     2
  9
$DGNFRAME
280
     2
  9
$REALWORLDSCALE
290
     1
  9
$INTERFERECOLOR
 62
   256
  9
$CSHADOW
280
     0
  9
$SHADOWPLANELOCATION
 40
0.0
  0
ENDSEC
  0
SECTION
  2
CLASSES
  0
CLASS
  1
ACDBDICTIONARYWDFLT
  2
AcDbDictionaryWithDefault
  3
ObjectDBX Classes
 90
        0
 91
        4
280
     0
281
     0
  0
CLASS
  1
VISUALSTYLE
  2
AcDbVisualStyle
  3
ObjectDBX Classes
 90
     4095
 91
        4
280
     0
281
     0
  0
CLASS
  1
MATERIAL
  2
AcDbMaterial
  3
ObjectDBX Classes
 90
     1153
 91
        4
280
     0
281
     0
  0
CLASS
  1
SCALE
  2
AcDbScale
  3
ObjectDBX Classes
 90
     1153
 91
        4
280
     0
281
     0
  0
CLASS
  1
TABLESTYLE
  2
AcDbTableStyle
  3
ObjectDBX Classes
 90
     4095
 91
        4
280
     0
281
     0
  0
CLASS
  1
MLEADERSTYLE
  2
AcDbMLeaderStyle
  3
ACDB_MLEADERSTYLE_CLASS
 90
     4095
 91
        4
280
     0
281
     0
  0
CLASS
  1
SUN
  2
AcDbSun
  3
SCENEOE
 90
     1153
 91
        4
280
     0
281
     0
  0
CLASS
  1
DICTIONARYVAR
  2
AcDbDictionaryVar
  3
ObjectDBX Classes
 90
        0
 91
        4
280
     0
281
     0
  0
CLASS
  1
CELLSTYLEMAP
  2
AcDbCellStyleMap
  3
ObjectDBX Classes
 90
     1152
 91
        4
280
     0
281
     0
  0
ENDSEC
  0
SECTION
  2
TABLES
  0
TABLE
  2
VPORT
  5
8
330
0
100
AcDbSymbolTable
 70
     1
  0
VPORT
  5
29
330
8
100
AcDbSymbolTableRecord
100
AcDbViewportTableRecord
  2
*Active
 70
     0
 10
0.0
 20
0.0
 11
1.0
 21
1.0
 12
0.0
 22
-0.1662366071428574
 13
0.0
 23
0.0
 14
0.5
 24
0.5
 15
0.5
 25
0.5
 16
0.0
 26
0.0
 36
1.0
 17
0.0
 27
0.0
 37
0.0
 40
3.378139821428571
 41
2.717471888454249
 42
50.0
 43
0.0
 44
0.0
 50
0.0
 51
0.0
 71
     0
 72
   100
 73
     1
 74
     3
 75
     0
 76
     0
 77
     0
 78
     0
281
     0
 65
     1
110
0.0
120
0.0
130
0.0
111
1.0
121
0.0
131
0.0
112
0.0
122
1.0
132
0.0
 79
     0
146
0.0
348
2F
 60
     3
 61
     5
292
     1
282
     1
141
0.0
142
0.0
 63
   250
361
6D
  0
ENDTAB
  0
TABLE
  2
LTYPE
  5
5
330
0
100
AcDbSymbolTable
 70
     3
  0
LTYPE
  5
14
330
5
100
AcDbSymbolTableRecord
100
AcDbLinetypeTableRecord
  2
ByBlock
 70
     0
  3

 72
    65
 73
     0
 40
0.0
  0
LTYPE
  5
15
330
5
100
AcDbSymbolTableRecord
100
AcDbLinetypeTableRecord
  2
ByLayer
 70
     0
  3

 72
    65
 73
     0
 40
0.0
  0
LTYPE
  5
16
330
5
100
AcDbSymbolTableRecord
100
AcDbLinetypeTableRecord
  2
Continuous
 70
     0
  3
Solid line
 72
    65
 73
     0
 40
0.0
  0
LTYPE
  5
B0
330
5
100
AcDbSymbolTableRecord
100
AcDbLinetypeTableRecord
  2
Dashed
 70
     0
  3

 72
    65
 73
     2
 40
2.0
 49
1.0
 74
     0
 49
-1.0
 74
     0
  0
LTYPE
  5
C5
330
5
100
AcDbSymbolTableRecord
100
AcDbLinetypeTableRecord
  2
Center
 70
     0
  3

 72
    65
 73
     4
 40
1.5
 49
0.45
 74
     0
 49
-0.5
 74
     0
 49
0.05
 74
     0
 49
-0.5
 74
     0
  0
ENDTAB
  0
TABLE
  2
LAYER
  5
2
330
0
100
AcDbSymbolTable
 70
     7
  0
LAYER
  5
10
330
2
100
AcDbSymbolTableRecord
100
AcDbLayerTableRecord
  2
0
 70
     0
 62
     7
  6
Continuous
370
    -3
390
F
347
46
348
0
  0
LAYER
  5
72
330
2
100
AcDbSymbolTableRecord
100
AcDbLayerTableRecord
  2
AM_6
 70
     0
 62
    -2
  6
Continuous
370
    35
390
F
347
46
348
0
  0
LAYER
  5
B1
330
2
100
AcDbSymbolTableRecord
100
AcDbLayerTableRecord
  2
AM_9
 70
     0
 62
     6
  6
Dashed
370
    25
390
F
347
46
348
0
  0
LAYER
  5
C6
330
2
100
AcDbSymbolTableRecord
100
AcDbLayerTableRecord
  2
AM_7
 70
     0
 62
     7
  6
Center
370
    25
390
F
347
46
348
0
  0
LAYER
  5
C8
330
2
100
AcDbSymbolTableRecord
100
AcDbLayerTableRecord
  2
AM_4
 70
     0
 62
     7
  6
Continuous
370
    50
390
F
347
46
348
0
  0
LAYER
  5
D5
330
2
100
AcDbSymbolTableRecord
100
AcDbLayerTableRecord
  2
AM_5
 70
     0
 62
     3
  6
Continuous
370
    25
390
F
347
46
348
0
  0
LAYER
  5
236
330
2
100
AcDbSymbolTableRecord
100
AcDbLayerTableRecord
  2
ConnectionPoints
 70
     0
 62
     7
  6
Continuous
370
    50
390
F
347
46
348
0
  0
ENDTAB
  0
TABLE
  2
STYLE
  5
3
330
0
100
AcDbSymbolTable
 70
     1
  0
STYLE
  5
11
330
3
100
AcDbSymbolTableRecord
100
AcDbTextStyleTableRecord
  2
Standard
 70
     0
 40
0.0
 41
1.0
 50
0.0
 71
     0
 42
0.2
  3
txt
  4

  0
ENDTAB
  0
TABLE
  2
VIEW
  5
6
330
0
100
AcDbSymbolTable
 70
     0
  0
ENDTAB
  0
TABLE
  2
UCS
  5
7
330
0
100
AcDbSymbolTable
 70
     0
  0
ENDTAB
  0
TABLE
  2
APPID
  5
9
330
0
100
AcDbSymbolTable
 70
     1
  0
APPID
  5
12
330
9
100
AcDbSymbolTableRecord
100
AcDbRegAppTableRecord
  2
ACAD
 70
     0
  0
ENDTAB
  0
TABLE
  2
DIMSTYLE
  5
A
330
0
100
AcDbSymbolTable
 70
     1
100
AcDbDimStyleTable
  0
DIMSTYLE
105
27
330
A
100
AcDbSymbolTableRecord
100
AcDbDimStyleTableRecord
  2
Standard
 70
     0
178
     0
340
11
  0
ENDTAB
  0
TABLE
  2
BLOCK_RECORD
  5
1
330
0
100
AcDbSymbolTable
 70
     6
  0
BLOCK_RECORD
  5
1F
330
1
100
AcDbSymbolTableRecord
100
AcDbBlockTableRecord
  2
*Model_Space
340
22
 70
     0
280
     1
281
     0
  0
BLOCK_RECORD
  5
1B
330
1
100
AcDbSymbolTableRecord
100
AcDbBlockTableRecord
  2
*Paper_Space
340
1E
 70
     0
280
     1
281
     0
  0
BLOCK_RECORD
  5
23
330
1
100
AcDbSymbolTableRecord
100
AcDbBlockTableRecord
  2
*Paper_Space0
340
26
 70
     0
280
     1
281
     0
  0
BLOCK_RECORD
  5
6E
330
1
100
AcDbSymbolTableRecord
100
AcDbBlockTableRecord
  2
1_023195_4
340
0
102
{BLKREFS
331
6F
102
}
 70
     0
280
     1
281
     0
  0
BLOCK_RECORD
  5
9B
330
1
100
AcDbSymbolTableRecord
100
AcDbBlockTableRecord
  2
2_1_11_16C_0_in_023195_4
340
0
102
{BLKREFS
331
9C
102
}
 70
     0
280
     1
281
     0
  0
BLOCK_RECORD
  5
D7
330
1
100
AcDbSymbolTableRecord
100
AcDbBlockTableRecord
  2
3_405020c_Inch_0_in_023195_4
340
0
102
{BLKREFS
331
D8
102
}
 70
     0
280
     1
281
     0
  0
BLOCK_RECORD
  5
F9
330
1
100
AcDbSymbolTableRecord
100
AcDbBlockTableRecord
  2
4_S1U_K_111R_0_in_023195_4
340
0
102
{BLKREFS
331
FA
102
}
 70
     0
280
     1
281
     0
  0
BLOCK_RECORD
  5
152
330
1
100
AcDbSymbolTableRecord
100
AcDbBlockTableRecord
  2
5_P2B_K_111RE_0_in_023195_4
340
0
102
{BLKREFS
331
153
102
}
 70
     0
280
     1
281
     0
  0
ENDTAB
  0
ENDSEC
  0
SECTION
  2
BLOCKS
  0
BLOCK
  5
20
330
1F
100
AcDbEntity
  8
0
100
AcDbBlockBegin
  2
*Model_Space
 70
     0
 10
0.0
 20
0.0
 30
0.0
  3
*Model_Space
  1

  0
ENDBLK
  5
21
330
1F
100
AcDbEntity
  8
0
100
AcDbBlockEnd
  0
BLOCK
  5
1C
330
1B
100
AcDbEntity
 67
     1
  8
0
100
AcDbBlockBegin
  2
*Paper_Space
 70
     0
 10
0.0
 20
0.0
 30
0.0
  3
*Paper_Space
  1

  0
ENDBLK
  5
1D
330
1B
100
AcDbEntity
 67
     1
  8
0
100
AcDbBlockEnd
  0
BLOCK
  5
24
330
23
100
AcDbEntity
  8
0
100
AcDbBlockBegin
  2
*Paper_Space0
 70
     0
 10
0.0
 20
0.0
 30
0.0
  3
*Paper_Space0
  1

  0
ENDBLK
  5
25
330
23
100
AcDbEntity
  8
0
100
AcDbBlockEnd
  0
BLOCK
  5
70
330
6E
100
AcDbEntity
  8
0
100
AcDbBlockBegin
  2
1_023195_4
 70
     2
 10
0.0
 20
0.0
 30
0.0
  3
1_023195_4
  1

  0
ATTDEF
  5
73
330
6E
100
AcDbEntity
  8
AM_6
100
AcDbText
 10
9.5
 20
1.489714285714286
 30
0.0
 40
0.5
  1
Type K Pillow Block 2&4-Bolt Base Expansion Inch Bore
100
AcDbAttributeDefinition
  3

  2
NN
 70
     8
280
     0
  0
ATTDEF
  5
74
330
6E
100
AcDbEntity
  8
AM_6
100
AcDbText
 10
9.5
 20
0.9897142857142858
 30
0.0
 40
0.5
  1
Type K
100
AcDbAttributeDefinition
  3

  2
NT
 70
     8
280
     0
  0
ATTDEF
  5
75
330
6E
100
AcDbEntity
  8
AM_6
100
AcDbText
 10
9.5
 20
0.4897142857142858
 30
0.0
 40
0.5
  1
023195
100
AcDbAttributeDefinition
  3

  2
NB
 70
     8
280
     0
  0
ATTDEF
  5
76
330
6E
100
AcDbEntity
  8
AM_6
100
AcDbText
 10
9.5
 20
-0.0102857142857142
 30
0.0
 40
0.5
  1
$PN.
100
AcDbAttributeDefinition
  3

  2
NBSYN
 70
     8
280
     0
  0
ATTDEF
  5
77
330
6E
100
AcDbEntity
  8
AM_6
100
AcDbText
 10
9.5
 20
-0.5102857142857142
 30
0.0
 40
0.5
  1
023195
100
AcDbAttributeDefinition
  3

  2
LINA
 70
     8
280
     0
  0
ATTDEF
  5
78
330
6E
100
AcDbEntity
  8
AM_6
100
AcDbText
 10
9.5
 20
-1.010285714285714
 30
0.0
 40
0.5
  1
1-11/16
100
AcDbAttributeDefinition
  3

  2
SS
 70
     8
280
     0
  0
ATTDEF
  5
79
330
6E
100
AcDbEntity
  8
AM_6
100
AcDbText
 10
9.5
 20
-1.510285714285714
 30
0.0
 40
0.5
  1
023195
100
AcDbAttributeDefinition
  3

  2
PN
 70
     8
280
     0
  0
ATTDEF
  5
7A
330
6E
100
AcDbEntity
  8
AM_6
100
AcDbText
 10
9.5
 20
-2.010285714285714
 30
0.0
 40
0.5
  1
P2B-K-111RE
100
AcDbAttributeDefinition
  3

  2
PNA
 70
     8
280
     0
  0
ATTDEF
  5
7B
330
6E
100
AcDbEntity
  8
AM_6
100
AcDbText
 10
9.5
 20
-2.510285714285714
 30
0.0
 40
0.5
  1
14
100
AcDbAttributeDefinition
  3

  2
WEIGHT
 70
     8
280
     0
  0
ATTDEF
  5
7C
330
6E
100
AcDbEntity
  8
AM_6
100
AcDbText
 10
9.5
 20
-3.010285714285714
 30
0.0
 40
0.5
  1
2.83
100
AcDbAttributeDefinition
  3

  2
A
 70
     8
280
     0
  0
ATTDEF
  5
7D
330
6E
100
AcDbEntity
  8
AM_6
100
AcDbText
 10
9.5
 20
-3.510285714285714
 30
0.0
 40
0.5
  1
9.00
100
AcDbAttributeDefinition
  3

  2
B
 70
     8
280
     0
  0
ATTDEF
  5
7E
330
6E
100
AcDbEntity
  8
AM_6
100
AcDbText
 10
9.5
 20
-4.010285714285715
 30
0.0
 40
0.5
  1
2.37
100
AcDbAttributeDefinition
  3

  2
C
 70
     8
280
     0
  0
ATTDEF
  5
7F
330
6E
100
AcDbEntity
  8
AM_6
100
AcDbText
 10
9.5
 20
-4.510285714285715
 30
0.0
 40
0.5
  1
6.88
100
AcDbAttributeDefinition
  3

  2
DMIN
 70
     8
280
     0
  0
ATTDEF
  5
80
330
6E
100
AcDbEntity
  8
AM_6
100
AcDbText
 10
9.5
 20
-5.010285714285715
 30
0.0
 40
0.5
  1
7.63
100
AcDbAttributeDefinition
  3

  2
DMAX
 70
     8
280
     0
  0
ATTDEF
  5
81
330
6E
100
AcDbEntity
  8
AM_6
100
AcDbText
 10
9.5
 20
-5.510285714285715
 30
0.0
 40
0.5
  1
N/A
100
AcDbAttributeDefinition
  3

  2
E
 70
     8
280
     0
  0
ATTDEF
  5
82
330
6E
100
AcDbEntity
  8
AM_6
100
AcDbText
 10
9.5
 20
-6.010285714285715
 30
0.0
 40
0.5
  1
1/2
100
AcDbAttributeDefinition
  3

  2
F
 70
     8
280
     0
  0
ATTDEF
  5
83
330
6E
100
AcDbEntity
  8
AM_6
100
AcDbText
 10
9.5
 20
-6.510285714285715
 30
0.0
 40
0.5
  1
1.00
100
AcDbAttributeDefinition
  3

  2
G
 70
     8
280
     0
  0
ATTDEF
  5
84
330
6E
100
AcDbEntity
  8
AM_6
100
AcDbText
 10
9.5
 20
-7.010285714285715
 30
0.0
 40
0.5
  1
1.38
100
AcDbAttributeDefinition
  3

  2
H
 70
     8
280
     0
  0
ATTDEF
  5
85
330
6E
100
AcDbEntity
  8
AM_6
100
AcDbText
 10
9.5
 20
-7.510285714285715
 30
0.0
 40
0.5
  1
5.75
100
AcDbAttributeDefinition
  3

  2
J
 70
     8
280
     0
  0
ATTDEF
  5
86
330
6E
100
AcDbEntity
  8
AM_6
100
AcDbText
 10
9.5
 20
-8.010285714285715
 30
0.0
 40
0.5
  1
3.19
100
AcDbAttributeDefinition
  3

  2
L
 70
     8
280
     0
  0
ATTDEF
  5
87
330
6E
100
AcDbEntity
  8
AM_6
100
AcDbText
 10
9.5
 20
-8.510285714285715
 30
0.0
 40
0.5
  1
2.63
100
AcDbAttributeDefinition
  3

  2
M
 70
     8
280
     0
  0
ATTDEF
  5
88
330
6E
100
AcDbEntity
  8
AM_6
100
AcDbText
 10
9.5
 20
-9.010285714285715
 30
0.0
 40
0.5
  1
5.81
100
AcDbAttributeDefinition
  3

  2
P
 70
     8
280
     0
  0
ATTDEF
  5
89
330
6E
100
AcDbEntity
  8
AM_6
100
AcDbText
 10
9.5
 20
-9.510285714285715
 30
0.0
 40
0.5
  1
1.56
100
AcDbAttributeDefinition
  3

  2
R
 70
     8
280
     0
  0
ATTDEF
  5
8A
330
6E
100
AcDbEntity
  8
AM_6
100
AcDbText
 10
9.5
 20
-10.01028571428571
 30
0.0
 40
0.5
  1
1.68
100
AcDbAttributeDefinition
  3

  2
S
 70
     8
280
     0
  0
ATTDEF
  5
8B
330
6E
100
AcDbEntity
  8
AM_6
100
AcDbText
 10
9.5
 20
-10.51028571428571
 30
0.0
 40
0.5
  1
.09
100
AcDbAttributeDefinition
  3

  2
T
 70
     8
280
     0
  0
ATTDEF
  5
8C
330
6E
100
AcDbEntity
  8
AM_6
100
AcDbText
 10
9.5
 20
-11.01028571428571
 30
0.0
 40
0.5
  1
33000
100
AcDbAttributeDefinition
  3

  2
CS
 70
     8
280
     0
  0
ATTDEF
  5
8D
330
6E
100
AcDbEntity
  8
AM_6
100
AcDbText
 10
9.5
 20
-11.51028571428571
 30
0.0
 40
0.5
  1
6140
100
AcDbAttributeDefinition
  3

  2
CD
 70
     8
280
     0
  0
ATTDEF
  5
8E
330
6E
100
AcDbEntity
  8
AM_6
100
AcDbText
 10
9.5
 20
-12.01028571428571
 30
0.0
 40
0.5
  1
18
100
AcDbAttributeDefinition
  3

  2
RN
 70
     8
280
     0
  0
ATTDEF
  5
8F
330
6E
100
AcDbEntity
  8
AM_6
100
AcDbText
 10
9.5
 20
-12.51028571428571
 30
0.0
 40
0.5
  1
.35
100
AcDbAttributeDefinition
  3

  2
RM
 70
     8
280
     0
  0
ATTDEF
  5
90
330
6E
100
AcDbEntity
  8
AM_6
100
AcDbText
 10
9.5
 20
-13.01028571428571
 30
0.0
 40
0.5
  1
2.411
100
AcDbAttributeDefinition
  3

  2
PDI
 70
     8
280
     0
  0
ATTDEF
  5
91
330
6E
100
AcDbEntity
  8
AM_6
100
AcDbText
 10
9.5
 20
-13.51028571428571
 30
0.0
 40
0.5
  1
.004-.012
100
AcDbAttributeDefinition
  3

  2
EP
 70
     8
280
     0
  0
ATTDEF
  5
92
330
6E
100
AcDbEntity
  8
AM_6
100
AcDbText
 10
9.5
 20
-14.01028571428571
 30
0.0
 40
0.5
  1
5/16-18*5/8
100
AcDbAttributeDefinition
  3

  2
SC
 70
     8
280
     0
  0
ATTDEF
  5
93
330
6E
100
AcDbEntity
  8
AM_6
100
AcDbText
 10
9.5
 20
-14.51028571428571
 30
0.0
 40
0.5
  1
165
100
AcDbAttributeDefinition
  3

  2
TC
 70
     8
280
     0
  0
ATTDEF
  5
94
330
6E
100
AcDbEntity
  8
AM_6
100
AcDbText
 10
9.5
 20
-15.01028571428571
 30
0.0
 40
0.5
  1
C.I. ASTM A48 CLASS 30
100
AcDbAttributeDefinition
  3

  2
MH
 70
     8
280
     0
  0
ATTDEF
  5
95
330
6E
100
AcDbEntity
  8
AM_6
100
AcDbText
 10
9.5
 20
-15.51028571428571
 30
0.0
 40
0.5
  1
4118 CASE CARB.
100
AcDbAttributeDefinition
  3

  2
MC
 70
     8
280
     0
  0
ATTDEF
  5
96
330
6E
100
AcDbEntity
  8
AM_6
100
AcDbText
 10
9.5
 20
-16.01028571428571
 30
0.0
 40
0.5
  1
4118 CASE CARB.
100
AcDbAttributeDefinition
  3

  2
MCU
 70
     8
280
     0
  0
ATTDEF
  5
97
330
6E
100
AcDbEntity
  8
AM_6
100
AcDbText
 10
9.5
 20
-16.51028571428571
 30
0.0
 40
0.5
  1
STEEL
100
AcDbAttributeDefinition
  3

  2
MR
 70
     8
280
     0
  0
ATTDEF
  5
98
330
6E
100
AcDbEntity
  8
AM_6
100
AcDbText
 10
9.5
 20
-17.01028571428571
 30
0.0
 40
0.5
  1
4118 CASE CARB.
100
AcDbAttributeDefinition
  3

  2
MRO
 70
     8
280
     0
  0
ATTDEF
  5
99
330
6E
100
AcDbEntity
  8
AM_6
100
AcDbText
 10
9.5
 20
-17.51028571428571
 30
0.0
 40
0.5
  1
2.59*
100
AcDbAttributeDefinition
  3

  2
SM
 70
     8
280
     0
  0
ATTDEF
  5
9A
330
6E
100
AcDbEntity
  8
AM_6
100
AcDbText
 10
9.5
 20
-18.01028571428571
 30
0.0
 40
0.5
  1
baldor
100
AcDbAttributeDefinition
  3

  2
COMPANY
 70
     8
280
     0
  0
INSERT
  5
9C
330
6E
100
AcDbEntity
  8
0
100
AcDbBlockReference
  2
2_1_11_16C_0_in_023195_4
 10
0.0
 20
0.0
 30
0.0
  0
INSERT
  5
D8
330
6E
100
AcDbEntity
  8
0
100
AcDbBlockReference
  2
3_405020c_Inch_0_in_023195_4
 10
0.0
 20
0.0
 30
0.0
  0
INSERT
  5
FA
330
6E
100
AcDbEntity
  8
0
100
AcDbBlockReference
  2
4_S1U_K_111R_0_in_023195_4
 10
0.0
 20
0.0
 30
0.0
  0
INSERT
  5
153
330
6E
100
AcDbEntity
  8
0
100
AcDbBlockReference
  2
5_P2B_K_111RE_0_in_023195_4
 10
0.0
 20
0.0
 30
0.0
  0
ENDBLK
  5
71
330
6E
100
AcDbEntity
  8
0
100
AcDbBlockEnd
  0
BLOCK
  5
9D
330
9B
100
AcDbEntity
  8
0
100
AcDbBlockBegin
  2
2_1_11_16C_0_in_023195_4
 70
     2
 10
0.0
 20
0.0
 30
0.0
  3
2_1_11_16C_0_in_023195_4
  1

  0
ATTDEF
  5
9F
330
9B
100
AcDbEntity
  8
AM_6
100
AcDbText
 10
6.59375
 20
-1.12
 30
0.0
 40
0.5
  1
E-Type Collar -Inch
100
AcDbAttributeDefinition
  3

  2
NN
 70
     8
280
     0
  0
ATTDEF
  5
A0
330
9B
100
AcDbEntity
  8
AM_6
100
AcDbText
 10
6.59375
 20
-1.62
 30
0.0
 40
0.5
  1
E-Type Bearings
100
AcDbAttributeDefinition
  3

  2
NT
 70
     8
280
     0
  0
ATTDEF
  5
A1
330
9B
100
AcDbEntity
  8
AM_6
100
AcDbText
 10
6.59375
 20
-2.12
 30
0.0
 40
0.5
  1
1-11/16C
100
AcDbAttributeDefinition
  3

  2
NB
 70
     8
280
     0
  0
ATTDEF
  5
A2
330
9B
100
AcDbEntity
  8
AM_6
100
AcDbText
 10
6.59375
 20
-2.62
 30
0.0
 40
0.5
  1
$BORE.C
100
AcDbAttributeDefinition
  3

  2
NBSYN
 70
     8
280
     0
  0
ATTDEF
  5
A3
330
9B
100
AcDbEntity
  8
AM_6
100
AcDbText
 10
6.59375
 20
-3.12
 30
0.0
 40
0.5
  1
1-11/16C
100
AcDbAttributeDefinition
  3

  2
LINA
 70
     8
280
     0
  0
ATTDEF
  5
A4
330
9B
100
AcDbEntity
  8
AM_6
100
AcDbText
 10
6.59375
 20
-3.62
 30
0.0
 40
0.5
  1
1-11/16
100
AcDbAttributeDefinition
  3

  2
BORE
 70
     8
280
     0
  0
ATTDEF
  5
A5
330
9B
100
AcDbEntity
  8
AM_6
100
AcDbText
 10
6.59375
 20
-4.12
 30
0.0
 40
0.5
  1
3.18750
100
AcDbAttributeDefinition
  3

  2
L
 70
     8
280
     0
  0
ATTDEF
  5
A6
330
9B
100
AcDbEntity
  8
AM_6
100
AcDbText
 10
6.59375
 20
-4.62
 30
0.0
 40
0.5
  1
3.38
100
AcDbAttributeDefinition
  3

  2
A
 70
     8
280
     0
  0
ATTDEF
  5
A7
330
9B
100
AcDbEntity
  8
AM_6
100
AcDbText
 10
6.59375
 20
-5.12
 30
0.0
 40
0.5
  1
1.50
100
AcDbAttributeDefinition
  3

  2
B
 70
     8
280
     0
  0
ATTDEF
  5
A8
330
9B
100
AcDbEntity
  8
AM_6
100
AcDbText
 10
6.59375
 20
-5.62
 30
0.0
 40
0.5
  1
2.06
100
AcDbAttributeDefinition
  3

  2
C
 70
     8
280
     0
  0
ATTDEF
  5
A9
330
9B
100
AcDbEntity
  8
AM_6
100
AcDbText
 10
6.59375
 20
-6.12
 30
0.0
 40
0.5
  1
3.25
100
AcDbAttributeDefinition
  3

  2
D
 70
     8
280
     0
  0
ATTDEF
  5
AA
330
9B
100
AcDbEntity
  8
AM_6
100
AcDbText
 10
6.59375
 20
-6.62
 30
0.0
 40
0.5
  1
0.35
100
AcDbAttributeDefinition
  3

  2
E
 70
     8
280
     0
  0
ATTDEF
  5
AB
330
9B
100
AcDbEntity
  8
AM_6
100
AcDbText
 10
6.59375
 20
-7.12
 30
0.0
 40
0.5
  1
0.28
100
AcDbAttributeDefinition
  3

  2
F
 70
     8
280
     0
  0
ATTDEF
  5
AC
330
9B
100
AcDbEntity
  8
AM_6
100
AcDbText
 10
6.59375
 20
-7.62
 30
0.0
 40
0.5
  1
5/16-18
100
AcDbAttributeDefinition
  3

  2
CS
 70
     8
280
     0
  0
ATTDEF
  5
AD
330
9B
100
AcDbEntity
  8
AM_6
100
AcDbText
 10
6.59375
 20
-8.120000000000001
 30
0.0
 40
0.5
  1
0.3125
100
AcDbAttributeDefinition
  3

  2
NDM
 70
     8
280
     0
  0
ATTDEF
  5
AE
330
9B
100
AcDbEntity
  8
AM_6
100
AcDbText
 10
6.59375
 20
-8.620000000000001
 30
0.0
 40
0.5
  1
0.2520
100
AcDbAttributeDefinition
  3

  2
KDM
 70
     8
280
     0
  0
ATTDEF
  5
AF
330
9B
100
AcDbEntity
  8
AM_6
100
AcDbText
 10
6.59375
 20
-9.120000000000001
 30
0.0
 40
0.5
  1
baldor
100
AcDbAttributeDefinition
  3

  2
COMPANY
 70
     8
280
     0
  0
LINE
  5
B2
330
9B
100
AcDbEntity
  8
AM_9
100
AcDbLine
 10
0.9667204080673119
 20
-1.288360626202661
 30
0.0
 11
0.9588186057002646
 21
-1.278504814107412
 31
0.0
  0
LINE
  5
B3
330
9B
100
AcDbEntity
  8
AM_9
100
AcDbLine
 10
0.9588039485709549
 20
-1.521513467533361
 30
0.0
 11
0.9667204080673119
 21
-1.511639373797338
 31
0.0
  0
LWPOLYLINE
  5
B4
330
9B
100
AcDbEntity
  8
AM_9
100
AcDbPolyline
 90
       25
 70
     0
 43
0.0
 10
0.9587681927256397
 20
-1.278441934688553
 10
0.9507830359024683
 20
-1.270605260310256
 10
0.9411861948580283
 20
-1.265691538561013
 10
0.9304615446755484
 20
-1.264759337983454
 10
0.9192537850760364
 20
-1.268033471004588
 10
0.9077846982770169
 20
-1.275600752480753
 10
0.8966001711739581
 20
-1.28724012113757
 10
0.8863394900795762
 20
-1.30247660116828
 10
0.8773099536379885
 20
-1.321069779287331
 10
0.8703783002532647
 20
-1.341401886865825
 10
0.8654291956609248
 20
-1.3637605724102
 10
0.8629620940377312
 20
-1.385539899785714
 10
0.8626208703802716
 20
-1.40777526370562
 10
0.8643096398213262
 20
-1.428528298899274
 10
0.8678149661738616
 20
-1.448490383472098
 10
0.8730221968277878
 20
-1.467283698131492
 10
0.8796242678615747
 20
-1.484326636269272
 10
0.8878597638570163
 20
-1.500118201389452
 10
0.8969912772847339
 20
-1.513246269160133
 10
0.9074231362706907
 20
-1.524094504743316
 10
0.9181139245863295
 20
-1.53140434658858
 10
0.9292472675127308
 20
-1.535086372368504
 10
0.9399411462321278
 20
-1.5346442526852
 10
0.9500774323464596
 20
-1.529904798856063
 10
0.9587685337061687
 20
-1.521557640018554
  0
LWPOLYLINE
  5
B5
330
9B
100
AcDbEntity
  8
AM_9
100
AcDbPolyline
 90
       12
 70
     0
 43
0.0
 10
0.962802907151603
 20
-1.515882329164672
 10
0.9671228985571823
 20
-1.508116433877428
 10
0.9737403141308678
 20
-1.491582906120251
 10
0.9787827345822123
 20
-1.472562102812569
 10
0.9824922755808618
 20
-1.451011188780093
 10
0.9846796929994062
 20
-1.429339595658369
 10
0.985658209908501
 20
-1.406704484274783
 10
0.98545879621318
 20
-1.385458653744419
 10
0.9842069558582295
 20
-1.364632304702638
 10
0.9819465546978772
 20
-1.345104663110747
 10
0.9786999673425223
 20
-1.327020782964523
 10
0.971538072778752
 20
-1.302116833062567
  0
LWPOLYLINE
  5
B6
330
9B
100
AcDbEntity
  8
AM_9
100
AcDbPolyline
 90
        3
 70
     0
 43
0.0
 10
0.9587685337061687
 20
-1.521557640018554
 10
0.9592213460049213
 20
-1.52098522440442
 10
0.962802907151603
 20
-1.515882329164672
  0
LINE
  5
B7
330
9B
100
AcDbEntity
  8
AM_9
100
AcDbLine
 10
0.9418501574182705
 20
-1.5262
 30
0.0
 11
1.41719348658921
 21
-1.5262
 31
0.0
  0
LINE
  5
B8
330
9B
100
AcDbEntity
  8
AM_9
100
AcDbLine
 10
1.41719348658921
 20
-1.2738
 30
0.0
 11
0.9418501574182705
 21
-1.2738
 31
0.0
  0
ELLIPSE
  5
B9
330
9B
100
AcDbEntity
  8
AM_9
100
AcDbEllipse
 10
1.417193486589209
 20
-1.4
 30
0.0
 11
-2.318256390785941E-17
 21
-0.1262000000000001
 31
0.0
210
0.0
220
0.0
230
1.0
 40
0.4226182617406956
 41
3.449268762450593
 42
5.977833157948719
  0
LINE
  5
BA
330
9B
100
AcDbEntity
  8
AM_9
100
AcDbLine
 10
1.392323235940168
 20
-1.511639373797338
 30
0.0
 11
1.412298093225979
 21
-1.536553745341148
 31
0.0
  0
LINE
  5
BB
330
9B
100
AcDbEntity
  8
AM_9
100
AcDbLine
 10
1.412423210362353
 20
-1.263290197733011
 30
0.0
 11
1.392323235940168
 21
-1.288360626202661
 31
0.0
  0
LWPOLYLINE
  5
BC
330
9B
100
AcDbEntity
  8
AM_9
100
AcDbPolyline
 90
       39
 70
     0
 43
0.0
 10
-0.1011837417154408
 20
-1.302667359787583
 10
-0.1154451229961465
 20
-1.317477477419786
 10
-0.1275895126737132
 20
-1.334654393636443
 10
-0.1375725029473159
 20
-1.355322012062167
 10
-0.1438745639902258
 20
-1.378214106283163
 10
-0.1457850944573374
 20
-1.399487530474031
 10
-0.1439354379935644
 20
-1.421438395267772
 10
-0.1387727767224051
 20
-1.441369843428373
 10
-0.130229636918921
 20
-1.460703936932307
 10
-0.1186768172277754
 20
-1.478475561672248
 10
-0.1041315660981357
 20
-1.494611883531862
 10
-0.0864699337885847
 20
-1.508897243092783
 10
-0.0662765237808752
 20
-1.520531134445214
 10
-0.0435455198347378
 20
-1.529196442012869
 10
-0.0190623504813151
 20
-1.534246449480167
 10
0.006242112885366
 20
-1.535291658032939
 10
0.0320838252594817
 20
-1.532075427349383
 10
0.0565610929496598
 20
-1.524747146372806
 10
0.0800977413472436
 20
-1.513033245786088
 10
0.1002674196002241
 20
-1.498147654098444
 10
0.1180164255137941
 20
-1.479328395851474
 10
0.1309257165826895
 20
-1.459403331636061
 10
0.1402989398493221
 20
-1.436688340667502
 10
0.1448503976764756
 20
-1.415267540522129
 10
0.1455701751135889
 20
-1.392656395295419
 10
0.1426543100415953
 20
-1.37217173964392
 10
0.1362208359348283
 20
-1.351898058575515
 10
0.126773481698521
 20
-1.333302805808237
 10
0.1142060426877189
 20
-1.316005404729402
 10
0.0985328443793694
 20
-1.30034745347145
 10
0.0801509260258044
 20
-1.286999373010244
 10
0.0589090895114281
 20
-1.276198321888069
 10
0.0356057842945722
 20
-1.268710214943634
 10
0.0108061051736483
 20
-1.264958311504049
 10
-0.0149793067815122
 20
-1.265304761947525
 10
-0.0401264711674594
 20
-1.269846552164755
 10
-0.0648396314262634
 20
-1.278793764097206
 10
-0.0837044041666546
 20
-1.289250141863335
 10
-0.1011837417154407
 20
-1.302667359787583
  0
LWPOLYLINE
  5
BD
330
9B
100
AcDbEntity
  8
AM_9
100
AcDbPolyline
 90
        3
 70
     0
 43
0.0
 10
0.9640151440293337
 20
-1.286098494923162
 10
0.9594602770504526
 20
-1.279323037174168
 10
0.9587681927256397
 20
-1.278441934688553
  0
LWPOLYLINE
  5
BE
330
9B
100
AcDbEntity
  8
AM_9
100
AcDbPolyline
 90
        3
 70
     0
 43
0.0
 10
0.971538072778752
 20
-1.302116833062567
 10
0.9659135475690981
 20
-1.289502989187923
 10
0.9640151440293337
 20
-1.286098494923162
  0
LINE
  5
BF
330
9B
100
AcDbEntity
  8
AM_9
100
AcDbLine
 10
1.03
 20
-1.68
 30
0.0
 11
1.03
 21
-1.12
 31
0.0
  0
LINE
  5
C0
330
9B
100
AcDbEntity
  8
AM_9
100
AcDbLine
 10
-1.03
 20
-1.12
 30
0.0
 11
-1.03
 21
-1.68
 31
0.0
  0
LINE
  5
C1
330
9B
100
AcDbEntity
  8
AM_9
100
AcDbLine
 10
-1.59375
 20
-1.12
 30
0.0
 11
1.59375
 21
-1.12
 31
0.0
  0
LINE
  5
C2
330
9B
100
AcDbEntity
  8
AM_9
100
AcDbLine
 10
1.59375
 20
-1.185
 30
0.0
 11
1.59375
 21
-1.12
 31
0.0
  0
LINE
  5
C3
330
9B
100
AcDbEntity
  8
AM_9
100
AcDbLine
 10
-1.59375
 20
-1.12
 30
0.0
 11
-1.59375
 21
-1.185
 31
0.0
  0
ELLIPSE
  5
C4
330
9B
100
AcDbEntity
  8
AM_9
100
AcDbEllipse
 10
0.9418501574182704
 20
-1.4
 30
0.0
 11
-2.318256390785937E-17
 21
-0.1261999999999999
 31
0.0
210
0.0
220
0.0
230
1.0
 40
0.4226182617406998
 41
0.0
 42
6.283185307179586
  0
LINE
  5
C7
330
9B
100
AcDbEntity
  8
AM_7
100
AcDbLine
 10
-0.13251
 20
-1.4
 30
0.0
 11
0.13251
 21
-1.4
 31
0.0
  0
ELLIPSE
  5
C9
330
9B
100
AcDbEntity
  8
AM_4
100
AcDbEllipse
 10
1.41719348658921
 20
-1.4
 30
0.0
 11
-2.318256390785941E-17
 21
-0.1262000000000001
 31
0.0
210
0.0
220
0.0
230
1.0
 40
0.4226182617406991
 41
5.977833157948707
 42
9.73245406963019
  0
LWPOLYLINE
  5
CA
330
9B
100
AcDbEntity
  8
AM_4
100
AcDbPolyline
 90
       15
 70
     0
 43
0.0
 10
1.412469598125106
 20
-1.536767659278356
 10
1.408344249386117
 20
-1.531222479355882
 10
1.399283240159242
 20
-1.515853208639565
 10
1.391335558933705
 20
-1.497627433708658
 10
1.38451502484477
 20
-1.476071226220943
 10
1.379410316808001
 20
-1.452567664558427
 10
1.376129964065041
 20
-1.426697724623304
 10
1.375006443257807
 20
-1.400108152414684
 10
1.376163287507714
 20
-1.372917962225475
 10
1.379573665205638
 20
-1.346491165259019
 10
1.385149757490721
 20
-1.321587030362224
 10
1.392646066615423
 20
-1.298963648093419
 10
1.401585776636542
 20
-1.279785863312418
 10
1.411753716344935
 20
-1.264137214481603
 10
1.412474108674615
 20
-1.263226713401366
  0
LWPOLYLINE
  5
CB
330
9B
100
AcDbEntity
  8
AM_4
100
AcDbPolyline
 90
        8
 70
     0
 43
0.0
 10
1.412474108674615
 20
-1.263226713401366
 10
1.422297646823276
 20
-1.253052410748301
 10
1.433237198584817
 20
-1.246147953907422
 10
1.443697960952229
 20
-1.243777463179808
 10
1.453848385772074
 20
-1.245560676893019
 10
1.463197458824012
 20
-1.251327242269759
 10
1.471760328143888
 20
-1.260810563615015
 10
1.482560010928953
 20
-1.280849510248891
  0
LWPOLYLINE
  5
CC
330
9B
100
AcDbEntity
  8
AM_4
100
AcDbPolyline
 90
       19
 70
     0
 43
0.0
 10
1.482560010928953
 20
-1.280849510248891
 10
1.488305712360381
 20
-1.297178609735321
 10
1.49301497603373
 20
-1.315647004987601
 10
1.497092622412375
 20
-1.338887287332711
 10
1.49977200700529
 20
-1.36372381104208
 10
1.50105607980982
 20
-1.390387277666545
 10
1.500844154857959
 20
-1.417313924642639
 10
1.499082651914847
 20
-1.444171625897947
 10
1.495777183424114
 20
-1.46976960305444
 10
1.490951543836946
 20
-1.493179726787317
 10
1.484630869172296
 20
-1.513862607660419
 10
1.477098626506997
 20
-1.530622498636584
 10
1.468316551018665
 20
-1.543566828964733
 10
1.458907386571153
 20
-1.551841925913577
 10
1.448733148524026
 20
-1.555879859576699
 10
1.438495084868227
 20
-1.555553023449874
 10
1.428106434541907
 20
-1.551183521067353
 10
1.417984585061841
 20
-1.542969767863824
 10
1.412469598125106
 20
-1.536767659278356
  0
LINE
  5
CD
330
9B
100
AcDbEntity
  8
AM_4
100
AcDbLine
 10
1.59375
 20
-1.586666666666666
 30
0.0
 11
1.59375
 21
-1.185
 31
0.0
  0
LINE
  5
CE
330
9B
100
AcDbEntity
  8
AM_4
100
AcDbLine
 10
-1.59375
 20
-1.185
 30
0.0
 11
-1.59375
 21
-1.586666666666666
 31
0.0
  0
LWPOLYLINE
  5
CF
330
9B
100
AcDbEntity
  8
AM_4
100
AcDbPolyline
 90
       39
 70
     0
 43
0.0
 10
-0.1078408707958413
 20
-1.292035741360839
 10
-0.0915725948497263
 20
-1.276660374216307
 10
-0.0727605875675605
 20
-1.263605643806728
 10
-0.0501514217363862
 20
-1.252850842838766
 10
-0.0252416424697722
 20
-1.246004892053767
 10
-0.0013060493819306
 20
-1.24375599370405
 10
0.0233870515485721
 20
-1.245683727619191
 10
0.0462411705893544
 20
-1.25145172248989
 10
0.0684335563721543
 20
-1.261170150415563
 10
0.0885060115918031
 20
-1.274229446524596
 10
0.1066833832645648
 20
-1.290782669028554
 10
0.1221760824480097
 20
-1.310314577097021
 10
0.134655414533221
 20
-1.332667852795879
 10
0.143513142731111
 20
-1.35714403571168
 10
0.148404859236843
 20
-1.383444257258941
 10
0.1489264538258834
 20
-1.41021832858838
 10
0.1448859546051897
 20
-1.437461597008439
 10
0.1365215069072493
 20
-1.463084275756936
 10
0.1235432962336687
 20
-1.487609886466756
 10
0.1072941926797266
 20
-1.508559562986879
 10
0.0870216489086261
 20
-1.526901400593611
 10
0.0653826807023177
 20
-1.540433912963624
 10
0.0409349908565591
 20
-1.55024765109706
 10
0.0170963338170844
 20
-1.55521961892295
 10
-0.0079977517940663
 20
-1.556025087232003
 10
-0.0313992976286342
 20
-1.55274676590925
 10
-0.0545708938468402
 20
-1.545412890510342
 10
-0.0757157562579924
 20
-1.534618204764219
 10
-0.0953464980001579
 20
-1.520163171163253
 10
-0.1125268499456319
 20
-1.502589660610772
 10
-0.1270406324693655
 20
-1.481949076791517
 10
-0.1382476566515119
 20
-1.458825438722636
 10
-0.1457662842297963
 20
-1.433516886619148
 10
-0.1490907977091018
 20
-1.407129486913697
 10
-0.1479924054864416
 20
-1.379804746460741
 10
-0.1424479029791917
 20
-1.353416711546491
 10
-0.1322393461045042
 20
-1.32761475662862
 10
-0.1213875750378428
 20
-1.309149312092224
 10
-0.107840870875632
 20
-1.292035741310885
  0
CIRCLE
  5
D0
330
9B
100
AcDbEntity
  8
AM_4
100
AcDbCircle
 10
0.0
 20
-1.4
 30
0.0
 40
0.1262
  0
LINE
  5
D1
330
9B
100
AcDbEntity
  8
AM_4
100
AcDbLine
 10
-1.500416666666667
 20
-1.68
 30
0.0
 11
1.500416666666662
 21
-1.68
 31
0.0
  0
LINE
  5
D2
330
9B
100
AcDbEntity
  8
AM_4
100
AcDbLine
 10
-1.59375
 20
-1.586666666666666
 30
0.0
 11
1.59375
 21
-1.586666666666666
 31
0.0
  0
ARC
  5
D3
330
9B
100
AcDbEntity
  8
AM_4
100
AcDbCircle
 10
1.500416666666666
 20
-1.586666666666666
 30
0.0
 40
0.0933333333333339
100
AcDbArc
 50
270.0
 51
0.0
  0
ARC
  5
D4
330
9B
100
AcDbEntity
  8
AM_4
100
AcDbCircle
 10
-1.500416666666666
 20
-1.586666666666666
 30
0.0
 40
0.0933333333333337
100
AcDbArc
 50
180.0
 51
270.0
  0
CIRCLE
  5
D6
330
9B
100
AcDbEntity
  8
AM_5
100
AcDbCircle
 10
0.0
 20
-1.4
 30
0.0
 40
0.15625
  0
ENDBLK
  5
9E
330
9B
100
AcDbEntity
  8
0
100
AcDbBlockEnd
  0
BLOCK
  5
D9
330
D7
100
AcDbEntity
  8
0
100
AcDbBlockBegin
  2
3_405020c_Inch_0_in_023195_4
 70
     2
 10
0.0
 20
0.0
 30
0.0
  3
3_405020c_Inch_0_in_023195_4
  1

  0
ATTDEF
  5
DB
330
D7
100
AcDbEntity
  8
AM_6
100
AcDbText
 10
5.14065
 20
0.1699086307230419
 30
0.0
 40
0.5
  1
405020C -Inch
100
AcDbAttributeDefinition
  3

  2
NN
 70
     8
280
     0
  0
ATTDEF
  5
DC
330
D7
100
AcDbEntity
  8
AM_6
100
AcDbText
 10
5.14065
 20
-0.330091369276958
 30
0.0
 40
0.5
  1
Grease fitting
100
AcDbAttributeDefinition
  3

  2
NT
 70
     8
280
     0
  0
ATTDEF
  5
DD
330
D7
100
AcDbEntity
  8
AM_6
100
AcDbText
 10
5.14065
 20
-0.830091369276958
 30
0.0
 40
0.5
  1
405020c-Inch
100
AcDbAttributeDefinition
  3

  2
NB
 70
     8
280
     0
  0
ATTDEF
  5
DE
330
D7
100
AcDbEntity
  8
AM_6
100
AcDbText
 10
5.14065
 20
-1.330091369276958
 30
0.0
 40
0.5
  1
$MN.-Inch
100
AcDbAttributeDefinition
  3

  2
NBSYN
 70
     8
280
     0
  0
ATTDEF
  5
DF
330
D7
100
AcDbEntity
  8
AM_6
100
AcDbText
 10
5.14065
 20
-1.830091369276958
 30
0.0
 40
0.5
  1
405020c
100
AcDbAttributeDefinition
  3

  2
LINA
 70
     8
280
     0
  0
ATTDEF
  5
E0
330
D7
100
AcDbEntity
  8
AM_6
100
AcDbText
 10
5.14065
 20
-2.330091369276958
 30
0.0
 40
0.5
  1
405020c
100
AcDbAttributeDefinition
  3

  2
MN
 70
     8
280
     0
  0
ATTDEF
  5
E1
330
D7
100
AcDbEntity
  8
AM_6
100
AcDbText
 10
5.14065
 20
-2.830091369276958
 30
0.0
 40
0.5
  1
0.230
100
AcDbAttributeDefinition
  3

  2
NDR
 70
     8
280
     0
  0
ATTDEF
  5
E2
330
D7
100
AcDbEntity
  8
AM_6
100
AcDbText
 10
5.14065
 20
-3.330091369276958
 30
0.0
 40
0.5
  1
0.210
100
AcDbAttributeDefinition
  3

  2
KDR
 70
     8
280
     0
  0
ATTDEF
  5
E3
330
D7
100
AcDbEntity
  8
AM_6
100
AcDbText
 10
5.14065
 20
-3.830091369276958
 30
0.0
 40
0.5
  1
0.157
100
AcDbAttributeDefinition
  3

  2
BZE
 70
     8
280
     0
  0
ATTDEF
  5
E4
330
D7
100
AcDbEntity
  8
AM_6
100
AcDbText
 10
5.14065
 20
-4.330091369276958
 30
0.0
 40
0.5
  1
9/32
100
AcDbAttributeDefinition
  3

  2
WAF
 70
     8
280
     0
  0
ATTDEF
  5
E5
330
D7
100
AcDbEntity
  8
AM_6
100
AcDbText
 10
5.14065
 20
-4.830091369276958
 30
0.0
 40
0.5
  1
0.2813
100
AcDbAttributeDefinition
  3

  2
WAF1
 70
     8
280
     0
  0
ATTDEF
  5
E6
330
D7
100
AcDbEntity
  8
AM_6
100
AcDbText
 10
5.14065
 20
-5.330091369276958
 30
0.0
 40
0.5
  1
0.545
100
AcDbAttributeDefinition
  3

  2
BL
 70
     8
280
     0
  0
ATTDEF
  5
E7
330
D7
100
AcDbEntity
  8
AM_6
100
AcDbText
 10
5.14065
 20
-5.830091369276958
 30
0.0
 40
0.5
  1
0.200
100
AcDbAttributeDefinition
  3

  2
TL
 70
     8
280
     0
  0
ATTDEF
  5
E8
330
D7
100
AcDbEntity
  8
AM_6
100
AcDbText
 10
5.14065
 20
-6.330091369276958
 30
0.0
 40
0.5
  1
baldor
100
AcDbAttributeDefinition
  3

  2
COMPANY
 70
     8
280
     0
  0
CIRCLE
  5
E9
330
D7
100
AcDbEntity
  8
AM_9
100
AcDbCircle
 10
0.0
 20
0.0075000000000002
 30
0.0
 40
0.1000886227036577
  0
CIRCLE
  5
EA
330
D7
100
AcDbEntity
  8
AM_9
100
AcDbCircle
 10
0.0
 20
0.0075000000000002
 30
0.0
 40
0.1104162595939891
  0
CIRCLE
  5
EB
330
D7
100
AcDbEntity
  8
AM_9
100
AcDbCircle
 10
0.0
 20
0.0075000000000002
 30
0.0
 40
0.1163438171532771
  0
LINE
  5
EC
330
D7
100
AcDbEntity
  8
AM_9
100
AcDbLine
 10
-0.14065
 20
0.0887043153615211
 30
0.0
 11
-0.14065
 21
-0.0737043153615206
 31
0.0
  0
LINE
  5
ED
330
D7
100
AcDbEntity
  8
AM_9
100
AcDbLine
 10
-0.14065
 20
-0.0737043153615206
 30
0.0
 11
0.0
 21
-0.1549086307230415
 31
0.0
  0
LINE
  5
EE
330
D7
100
AcDbEntity
  8
AM_9
100
AcDbLine
 10
0.0
 20
-0.1549086307230415
 30
0.0
 11
0.14065
 21
-0.0737043153615206
 31
0.0
  0
LINE
  5
EF
330
D7
100
AcDbEntity
  8
AM_9
100
AcDbLine
 10
0.14065
 20
-0.0737043153615206
 30
0.0
 11
0.14065
 21
0.0887043153615211
 31
0.0
  0
LINE
  5
F0
330
D7
100
AcDbEntity
  8
AM_9
100
AcDbLine
 10
0.14065
 20
0.0887043153615211
 30
0.0
 11
0.0
 21
0.1699086307230419
 31
0.0
  0
LINE
  5
F1
330
D7
100
AcDbEntity
  8
AM_9
100
AcDbLine
 10
0.0
 20
0.1699086307230419
 30
0.0
 11
-0.14065
 21
0.0887043153615211
 31
0.0
  0
CIRCLE
  5
F2
330
D7
100
AcDbEntity
  8
AM_9
100
AcDbCircle
 10
0.0
 20
0.0075000000000002
 30
0.0
 40
0.1093294505797714
  0
CIRCLE
  5
F3
330
D7
100
AcDbEntity
  8
AM_9
100
AcDbCircle
 10
0.0
 20
0.0075000000000002
 30
0.0
 40
0.0946847896390988
  0
CIRCLE
  5
F4
330
D7
100
AcDbEntity
  8
AM_9
100
AcDbCircle
 10
0.0
 20
0.0075000000000002
 30
0.0
 40
0.135926521995058
  0
CIRCLE
  5
F5
330
D7
100
AcDbEntity
  8
AM_9
100
AcDbCircle
 10
0.0
 20
0.0075000000000002
 30
0.0
 40
0.13195176466768
  0
CIRCLE
  5
F6
330
D7
100
AcDbEntity
  8
AM_9
100
AcDbCircle
 10
0.0
 20
0.0075000000000002
 30
0.0
 40
0.080806429716728
  0
CIRCLE
  5
F7
330
D7
100
AcDbEntity
  8
AM_9
100
AcDbCircle
 10
0.0
 20
0.0075000000000002
 30
0.0
 40
0.1038190510530391
  0
CIRCLE
  5
F8
330
D7
100
AcDbEntity
  8
AM_9
100
AcDbCircle
 10
0.0
 20
0.0075000000000003
 30
0.0
 40
0.1406499999999999
  0
ENDBLK
  5
DA
330
D7
100
AcDbEntity
  8
0
100
AcDbBlockEnd
  0
BLOCK
  5
FB
330
F9
100
AcDbEntity
  8
0
100
AcDbBlockBegin
  2
4_S1U_K_111R_0_in_023195_4
 70
     2
 10
0.0
 20
0.0
 30
0.0
  3
4_S1U_K_111R_0_in_023195_4
  1

  0
ATTDEF
  5
FD
330
F9
100
AcDbEntity
  8
AM_6
100
AcDbText
 10
7.062422451816682
 20
1.16375
 30
0.0
 40
0.5
  1
Type K Units - Inch
100
AcDbAttributeDefinition
  3

  2
NN
 70
     8
280
     0
  0
ATTDEF
  5
FE
330
F9
100
AcDbEntity
  8
AM_6
100
AcDbText
 10
7.062422451816682
 20
0.6637500000000001
 30
0.0
 40
0.5
  1
Type K
100
AcDbAttributeDefinition
  3

  2
NT
 70
     8
280
     0
  0
ATTDEF
  5
FF
330
F9
100
AcDbEntity
  8
AM_6
100
AcDbText
 10
7.062422451816682
 20
0.1637500000000001
 30
0.0
 40
0.5
  1
S1U-K-111R
100
AcDbAttributeDefinition
  3

  2
NB
 70
     8
280
     0
  0
ATTDEF
  5
100
330
F9
100
AcDbEntity
  8
AM_6
100
AcDbText
 10
7.062422451816682
 20
-0.3362499999999999
 30
0.0
 40
0.5
  1
$PN.
100
AcDbAttributeDefinition
  3

  2
NBSYN
 70
     8
280
     0
  0
ATTDEF
  5
101
330
F9
100
AcDbEntity
  8
AM_6
100
AcDbText
 10
7.062422451816682
 20
-0.8362499999999999
 30
0.0
 40
0.5
  1
S1U-K-111R
100
AcDbAttributeDefinition
  3

  2
LINA
 70
     8
280
     0
  0
ATTDEF
  5
102
330
F9
100
AcDbEntity
  8
AM_6
100
AcDbText
 10
7.062422451816682
 20
-1.33625
 30
0.0
 40
0.5
  1
1-11/16
100
AcDbAttributeDefinition
  3

  2
SS
 70
     8
280
     0
  0
ATTDEF
  5
103
330
F9
100
AcDbEntity
  8
AM_6
100
AcDbText
 10
7.062422451816682
 20
-1.83625
 30
0.0
 40
0.5
  1
1.687500
100
AcDbAttributeDefinition
  3

  2
SS1
 70
     8
280
     0
  0
ATTDEF
  5
104
330
F9
100
AcDbEntity
  8
AM_6
100
AcDbText
 10
7.062422451816682
 20
-2.33625
 30
0.0
 40
0.5
  1
S1U-K-111R
100
AcDbAttributeDefinition
  3

  2
PN
 70
     8
280
     0
  0
ATTDEF
  5
105
330
F9
100
AcDbEntity
  8
AM_6
100
AcDbText
 10
7.062422451816682
 20
-2.83625
 30
0.0
 40
0.5
  1
S1U-K-111R
100
AcDbAttributeDefinition
  3

  2
PNA
 70
     8
280
     0
  0
ATTDEF
  5
106
330
F9
100
AcDbEntity
  8
AM_6
100
AcDbText
 10
7.062422451816682
 20
-3.33625
 30
0.0
 40
0.5
  1
5
100
AcDbAttributeDefinition
  3

  2
WEIGHT
 70
     8
280
     0
  0
ATTDEF
  5
107
330
F9
100
AcDbEntity
  8
AM_6
100
AcDbText
 10
7.062422451816682
 20
-3.83625
 30
0.0
 40
0.5
  1
2-27/32
100
AcDbAttributeDefinition
  3

  2
A
 70
     8
280
     0
  0
ATTDEF
  5
108
330
F9
100
AcDbEntity
  8
AM_6
100
AcDbText
 10
7.062422451816682
 20
-4.33625
 30
0.0
 40
0.5
  1
2.843750
100
AcDbAttributeDefinition
  3

  2
A1
 70
     8
280
     0
  0
ATTDEF
  5
109
330
F9
100
AcDbEntity
  8
AM_6
100
AcDbText
 10
7.062422451816682
 20
-4.83625
 30
0.0
 40
0.5
  1
2-5/16
100
AcDbAttributeDefinition
  3

  2
B
 70
     8
280
     0
  0
ATTDEF
  5
10A
330
F9
100
AcDbEntity
  8
AM_6
100
AcDbText
 10
7.062422451816682
 20
-5.33625
 30
0.0
 40
0.5
  1
2.312500
100
AcDbAttributeDefinition
  3

  2
B1
 70
     8
280
     0
  0
ATTDEF
  5
10B
330
F9
100
AcDbEntity
  8
AM_6
100
AcDbText
 10
7.062422451816682
 20
-5.83625
 30
0.0
 40
0.5
  1
1-3/16
100
AcDbAttributeDefinition
  3

  2
C
 70
     8
280
     0
  0
ATTDEF
  5
10C
330
F9
100
AcDbEntity
  8
AM_6
100
AcDbText
 10
7.062422451816682
 20
-6.33625
 30
0.0
 40
0.5
  1
1.187500
100
AcDbAttributeDefinition
  3

  2
C1
 70
     8
280
     0
  0
ATTDEF
  5
10D
330
F9
100
AcDbEntity
  8
AM_6
100
AcDbText
 10
7.062422451816682
 20
-6.83625
 30
0.0
 40
0.5
  1
3-15/16
100
AcDbAttributeDefinition
  3

  2
D
 70
     8
280
     0
  0
ATTDEF
  5
10E
330
F9
100
AcDbEntity
  8
AM_6
100
AcDbText
 10
7.062422451816682
 20
-7.33625
 30
0.0
 40
0.5
  1
3.937500
100
AcDbAttributeDefinition
  3

  2
D1
 70
     8
280
     0
  0
ATTDEF
  5
10F
330
F9
100
AcDbEntity
  8
AM_6
100
AcDbText
 10
7.062422451816682
 20
-7.83625
 30
0.0
 40
0.5
  1
0.450
100
AcDbAttributeDefinition
  3

  2
E
 70
     8
280
     0
  0
ATTDEF
  5
110
330
F9
100
AcDbEntity
  8
AM_6
100
AcDbText
 10
7.062422451816682
 20
-8.33625
 30
0.0
 40
0.5
  1
3.750
100
AcDbAttributeDefinition
  3

  2
EM
 70
     8
280
     0
  0
ATTDEF
  5
111
330
F9
100
AcDbEntity
  8
AM_6
100
AcDbText
 10
7.062422451816682
 20
-8.83625
 30
0.0
 40
0.5
  1
3.820
100
AcDbAttributeDefinition
  3

  2
EC
 70
     8
280
     0
  0
ATTDEF
  5
112
330
F9
100
AcDbEntity
  8
AM_6
100
AcDbText
 10
7.062422451816682
 20
-9.33625
 30
0.0
 40
0.5
  1
11/16
100
AcDbAttributeDefinition
  3

  2
H
 70
     8
280
     0
  0
ATTDEF
  5
113
330
F9
100
AcDbEntity
  8
AM_6
100
AcDbText
 10
7.062422451816682
 20
-9.83625
 30
0.0
 40
0.5
  1
0.687500
100
AcDbAttributeDefinition
  3

  2
H1
 70
     8
280
     0
  0
ATTDEF
  5
114
330
F9
100
AcDbEntity
  8
AM_6
100
AcDbText
 10
7.062422451816682
 20
-10.33625
 30
0.0
 40
0.5
  1
2-7/8
100
AcDbAttributeDefinition
  3

  2
J
 70
     8
280
     0
  0
ATTDEF
  5
115
330
F9
100
AcDbEntity
  8
AM_6
100
AcDbText
 10
7.062422451816682
 20
-10.83625
 30
0.0
 40
0.5
  1
2.875000
100
AcDbAttributeDefinition
  3

  2
J1
 70
     8
280
     0
  0
ATTDEF
  5
116
330
F9
100
AcDbEntity
  8
AM_6
100
AcDbText
 10
7.062422451816682
 20
-11.33625
 30
0.0
 40
0.5
  1
4.125
100
AcDbAttributeDefinition
  3

  2
K
 70
     8
280
     0
  0
ATTDEF
  5
117
330
F9
100
AcDbEntity
  8
AM_6
100
AcDbText
 10
7.062422451816682
 20
-11.83625
 30
0.0
 40
0.5
  1
3-3/16
100
AcDbAttributeDefinition
  3

  2
L
 70
     8
280
     0
  0
ATTDEF
  5
118
330
F9
100
AcDbEntity
  8
AM_6
100
AcDbText
 10
7.062422451816682
 20
-12.33625
 30
0.0
 40
0.5
  1
3.187500
100
AcDbAttributeDefinition
  3

  2
L1
 70
     8
280
     0
  0
ATTDEF
  5
119
330
F9
100
AcDbEntity
  8
AM_6
100
AcDbText
 10
7.062422451816682
 20
-12.83625
 30
0.0
 40
0.5
  1
2-13/16
100
AcDbAttributeDefinition
  3

  2
M
 70
     8
280
     0
  0
ATTDEF
  5
11A
330
F9
100
AcDbEntity
  8
AM_6
100
AcDbText
 10
7.062422451816682
 20
-13.33625
 30
0.0
 40
0.5
  1
2.812500
100
AcDbAttributeDefinition
  3

  2
M1
 70
     8
280
     0
  0
ATTDEF
  5
11B
330
F9
100
AcDbEntity
  8
AM_6
100
AcDbText
 10
7.062422451816682
 20
-13.83625
 30
0.0
 40
0.5
  1
1-5/32
100
AcDbAttributeDefinition
  3

  2
R
 70
     8
280
     0
  0
ATTDEF
  5
11C
330
F9
100
AcDbEntity
  8
AM_6
100
AcDbText
 10
7.062422451816682
 20
-14.33625
 30
0.0
 40
0.5
  1
1.156250
100
AcDbAttributeDefinition
  3

  2
R1
 70
     8
280
     0
  0
ATTDEF
  5
11D
330
F9
100
AcDbEntity
  8
AM_6
100
AcDbText
 10
7.062422451816682
 20
-14.83625
 30
0.0
 40
0.5
  1
1-11/16
100
AcDbAttributeDefinition
  3

  2
S
 70
     8
280
     0
  0
ATTDEF
  5
11E
330
F9
100
AcDbEntity
  8
AM_6
100
AcDbText
 10
7.062422451816682
 20
-15.33625
 30
0.0
 40
0.5
  1
1.687500
100
AcDbAttributeDefinition
  3

  2
S1
 70
     8
280
     0
  0
ATTDEF
  5
11F
330
F9
100
AcDbEntity
  8
AM_6
100
AcDbText
 10
7.062422451816682
 20
-15.83625
 30
0.0
 40
0.5
  1
2.0600
100
AcDbAttributeDefinition
  3

  2
CC
 70
     8
280
     0
  0
ATTDEF
  5
120
330
F9
100
AcDbEntity
  8
AM_6
100
AcDbText
 10
7.062422451816682
 20
-16.33625
 30
0.0
 40
0.5
  1
baldor
100
AcDbAttributeDefinition
  3

  2
COMPANY
 70
     8
280
     0
  0
LINE
  5
121
330
F9
100
AcDbEntity
  8
AM_9
100
AcDbLine
 10
0.9333444512080115
 20
-1.158125
 30
0.0
 11
0.764506267124005
 21
-1.158125
 31
0.0
  0
LINE
  5
122
330
F9
100
AcDbEntity
  8
AM_9
100
AcDbLine
 10
0.764555160741221
 20
-1.608125
 30
0.0
 11
0.9334140048879487
 21
-1.608125
 31
0.0
  0
LWPOLYLINE
  5
123
330
F9
100
AcDbEntity
  8
AM_9
100
AcDbPolyline
 90
       21
 70
     0
 43
0.0
 10
0.7647019179970989
 20
-1.158125000277511
 10
0.7550189337836251
 20
-1.159229862268921
 10
0.7384477628126601
 20
-1.165689892886269
 10
0.7208387266466902
 20
-1.178154096030181
 10
0.7036549952062481
 20
-1.195775351093655
 10
0.686876810136919
 20
-1.218914105407535
 10
0.6717247343722668
 20
-1.246626866357518
 10
0.6586958629941077
 20
-1.279100853376238
 10
0.6492006619692821
 20
-1.313875589538208
 10
0.6433844830883534
 20
-1.35186023193878
 10
0.6419615252470472
 20
-1.388548953321864
 10
0.6447061966451719
 20
-1.426174293577481
 10
0.651128571142388
 20
-1.460843879173579
 10
0.6611938419413863
 20
-1.494305320509857
 10
0.6741131158202601
 20
-1.524551834413515
 10
0.6896938015082691
 20
-1.551696054056434
 10
0.7068400245491068
 20
-1.574168612828249
 10
0.7252681428126123
 20
-1.591754728931704
 10
0.7429686163969039
 20
-1.602850834118987
 10
0.7604098063259612
 20
-1.607901897607434
 10
0.7646880518389441
 20
-1.608124998959869
  0
LWPOLYLINE
  5
124
330
F9
100
AcDbEntity
  8
AM_9
100
AcDbPolyline
 90
        4
 70
     0
 43
0.0
 10
0.8284790727406829
 20
-1.475192618077953
 10
0.8304679553050031
 20
-1.446733784005202
 10
0.8316866794710891
 20
-1.415632419916851
 10
0.8320957161538404
 20
-1.383125
  0
LWPOLYLINE
  5
125
330
F9
100
AcDbEntity
  8
AM_9
100
AcDbPolyline
 90
        9
 70
     0
 43
0.0
 10
0.7646880518389441
 20
-1.608124998959869
 10
0.7754920730637426
 20
-1.606567184544719
 10
0.7892486858741521
 20
-1.599074632781382
 10
0.8005924271691344
 20
-1.586185258922727
 10
0.810192126859243
 20
-1.567553139139114
 10
0.8177687858250824
 20
-1.544002283468772
 10
0.8236308356225313
 20
-1.515298974591804
 10
0.8277501454717522
 20
-1.483018778906724
 10
0.8284790727406829
 20
-1.475192618077953
  0
LWPOLYLINE
  5
126
330
F9
100
AcDbEntity
  8
AM_9
100
AcDbPolyline
 90
       18
 70
     0
 43
0.0
 10
0.8839933281763396
 20
-1.184400106443599
 10
0.8727056806947086
 20
-1.197407059586332
 10
0.8568947771324155
 20
-1.220823408779492
 10
0.8425591349465877
 20
-1.249312679875855
 10
0.830724881392247
 20
-1.281612258092197
 10
0.8220503276633607
 20
-1.316999993562775
 10
0.817017673933329
 20
-1.354341390302574
 10
0.8159863090564765
 20
-1.391775909584491
 10
0.8188037257260622
 20
-1.428961622680616
 10
0.8252730071777687
 20
-1.464401844091208
 10
0.8349808520141552
 20
-1.497605009966628
 10
0.8476730680348091
 20
-1.52809827058183
 10
0.8625463522454478
 20
-1.554596944425117
 10
0.8792408461573292
 20
-1.576701488569394
 10
0.8967270250792486
 20
-1.593313802885779
 10
0.9141479012838003
 20
-1.603801935472264
 10
0.9309609918399074
 20
-1.608045950390979
 10
0.93348692129898
 20
-1.608124998731016
  0
LWPOLYLINE
  5
127
330
F9
100
AcDbEntity
  8
AM_9
100
AcDbPolyline
 90
        5
 70
     0
 43
0.0
 10
0.9335034740648285
 20
-1.158125000518184
 10
0.9233227663879763
 20
-1.15935552304586
 10
0.9065900903399194
 20
-1.166270181374371
 10
0.8895447325697108
 20
-1.179003139198974
 10
0.8839933281763396
 20
-1.184400106443599
  0
LWPOLYLINE
  5
128
330
F9
100
AcDbEntity
  8
AM_9
100
AcDbPolyline
 90
       11
 70
     0
 43
0.0
 10
0.93348692129898
 20
-1.608124998731016
 10
0.9462599247911339
 20
-1.605923391034188
 10
0.9600349353318659
 20
-1.597745822659874
 10
0.9719545463990721
 20
-1.58373850539044
 10
0.9819890717159083
 20
-1.56436926395846
 10
0.9902443082861626
 20
-1.539597431262501
 10
0.996626917849614
 20
-1.510473674275005
 10
1.001300255062424
 20
-1.477268004971979
 10
1.004332174864347
 20
-1.441302189061549
 10
1.00561661501105
 20
-1.412474141741625
 10
1.006041152738113
 20
-1.383125
  0
LWPOLYLINE
  5
129
330
F9
100
AcDbEntity
  8
AM_9
100
AcDbPolyline
 90
        5
 70
     0
 43
0.0
 10
0.803234000929485
 20
-1.184309384343103
 10
0.7982400796851228
 20
-1.176735256565637
 10
0.7854408332907546
 20
-1.1643605991353
 10
0.7713069196850003
 20
-1.158692034189155
 10
0.7647019179970989
 20
-1.158125000277511
  0
LWPOLYLINE
  5
12A
330
F9
100
AcDbEntity
  8
AM_9
100
AcDbPolyline
 90
        6
 70
     0
 43
0.0
 10
0.8284827712898573
 20
-1.291099633324092
 10
0.8270796060156682
 20
-1.276780440007919
 10
0.822705775592268
 20
-1.245457474161522
 10
0.8166628090064644
 20
-1.218088449176525
 10
0.8084657102520589
 20
-1.194620691733076
 10
0.803234000929485
 20
-1.184309384343103
  0
LWPOLYLINE
  5
12B
330
F9
100
AcDbEntity
  8
AM_9
100
AcDbPolyline
 90
        4
 70
     0
 43
0.0
 10
0.8320957161538404
 20
-1.383125
 10
0.8315787789710881
 20
-1.346644652773822
 10
0.8299179855208072
 20
-1.310164305547644
 10
0.8284827712898573
 20
-1.291099633324092
  0
LINE
  5
12C
330
F9
100
AcDbEntity
  8
AM_9
100
AcDbLine
 10
0.84375
 20
-1.68
 30
0.0
 11
0.84375
 21
1.16375
 31
0.0
  0
LINE
  5
12D
330
F9
100
AcDbEntity
  8
AM_9
100
AcDbLine
 10
-0.84375
 20
1.16375
 30
0.0
 11
-0.84375
 21
-1.68
 31
0.0
  0
LWPOLYLINE
  5
12E
330
F9
100
AcDbEntity
  8
AM_9
100
AcDbPolyline
 90
        5
 70
     0
 43
0.0
 10
-0.1055097305431656
 20
-1.18439730499825
 10
-0.0946971094911647
 20
-1.179023413886569
 10
-0.0582082800571558
 20
-1.165784722709324
 10
-0.029627608338093
 20
-1.160084185743583
 10
0.0
 20
-1.158125
  0
LWPOLYLINE
  5
12F
330
F9
100
AcDbEntity
  8
AM_9
100
AcDbPolyline
 90
       34
 70
     0
 43
0.0
 10
0.106551640715495
 20
-1.184953993389961
 10
0.1071261709450653
 20
-1.185263979334866
 10
0.1386744979908973
 20
-1.205940396811764
 10
0.1659558994097531
 20
-1.231191990251954
 10
0.1892875025114756
 20
-1.261489308720803
 10
0.2069089324499285
 20
-1.294729900178624
 10
0.2190246522690124
 20
-1.33161576103806
 10
0.2245159347960085
 20
-1.368373897577656
 10
0.2237646105483439
 20
-1.406670680413782
 10
0.2170116979716196
 20
-1.442546569682015
 10
0.2041351404222549
 20
-1.477749755982704
 10
0.1860489288979155
 20
-1.509658774368499
 10
0.1623456057210524
 20
-1.538909801258225
 10
0.1342973466734364
 20
-1.563649853348437
 10
0.101534579269461
 20
-1.583912771571312
 10
0.0667118085588594
 20
-1.598007606552522
 10
0.0288312930366994
 20
-1.606270146803223
 10
-0.0080609145767575
 20
-1.607980557316661
 10
-0.045802224636357
 20
-1.603413801845125
 10
-0.0808103743540552
 20
-1.593112341039305
 10
-0.1145216551498759
 20
-1.576799444627403
 10
-0.1446283403891118
 20
-1.555484053015184
 10
-0.1715020779230936
 20
-1.528768528067886
 10
-0.1933297845799159
 20
-1.498227538609204
 10
-0.2101954476399716
 20
-1.463392513923329
 10
-0.2205957499139419
 20
-1.427425283519472
 10
-0.2249222923493011
 20
-1.389037901515798
 10
-0.2228910051142393
 20
-1.352390657007768
 10
-0.2146194724489443
 20
-1.315571450531916
 10
-0.2008748645424694
 20
-1.281762833512476
 10
-0.1812830676432413
 20
-1.249852912202682
 10
-0.1569026317279526
 20
-1.221859491732291
 10
-0.127379558224186
 20
-1.197654117793085
 10
-0.1055097305431656
 20
-1.18439730499825
  0
LWPOLYLINE
  5
130
330
F9
100
AcDbEntity
  8
AM_9
100
AcDbPolyline
 90
        4
 70
     0
 43
0.0
 10
0.0
 20
-1.158125
 10
0.0367438153968751
 20
-1.161145514393603
 10
0.0734876307937501
 20
-1.170464312235849
 10
0.106551640715495
 20
-1.184953993389961
  0
LWPOLYLINE
  5
131
330
F9
100
AcDbEntity
  8
AM_9
100
AcDbPolyline
 90
        5
 70
     0
 43
0.0
 10
0.9684294595430298
 20
-1.177509869390295
 10
0.9672292422197433
 20
-1.176026867222268
 10
0.9541088479540594
 20
-1.164107271816112
 10
0.9394115165094963
 20
-1.158599478220674
 10
0.9335034740648285
 20
-1.158125000518184
  0
LINE
  5
132
330
F9
100
AcDbEntity
  8
AM_9
100
AcDbLine
 10
0.9731018892620149
 20
-1.18427684215837
 30
0.0
 11
0.9684294595430298
 21
-1.177509869390295
 31
0.0
  0
LWPOLYLINE
  5
133
330
F9
100
AcDbEntity
  8
AM_9
100
AcDbPolyline
 90
        8
 70
     0
 43
0.0
 10
1.006041152738113
 20
-1.383125
 10
1.005352671952442
 20
-1.345862165738242
 10
1.003259826392646
 20
-1.309662229010746
 10
0.9996721574008862
 20
-1.275592043701411
 10
0.9944725448751167
 20
-1.244498474729581
 10
0.9873855200453747
 20
-1.216858621255568
 10
0.9783778328928885
 20
-1.193852697332672
 10
0.9731018892620149
 20
-1.18427684215837
  0
LINE
  5
134
330
F9
100
AcDbEntity
  8
AM_9
100
AcDbLine
 10
1.03
 20
-1.68
 30
0.0
 11
1.03
 21
-1.08625
 31
0.0
  0
LINE
  5
135
330
F9
100
AcDbEntity
  8
AM_9
100
AcDbLine
 10
-1.03
 20
-1.08625
 30
0.0
 11
-1.03
 21
-1.68
 31
0.0
  0
LINE
  5
136
330
F9
100
AcDbEntity
  8
AM_9
100
AcDbLine
 10
-1.328125
 20
1.16375
 30
0.0
 11
-1.328125
 21
0.8356250000000002
 31
0.0
  0
LINE
  5
137
330
F9
100
AcDbEntity
  8
AM_9
100
AcDbLine
 10
1.328125
 20
0.8356250000000002
 30
0.0
 11
1.328125
 21
1.16375
 31
0.0
  0
LINE
  5
138
330
F9
100
AcDbEntity
  8
AM_9
100
AcDbLine
 10
-1.634615384615385
 20
-1.08625
 30
0.0
 11
1.634615384615385
 21
-1.08625
 31
0.0
  0
LINE
  5
139
330
F9
100
AcDbEntity
  8
AM_9
100
AcDbLine
 10
-1.634615384615385
 20
-1.08625
 30
0.0
 11
-1.645635820909664
 21
-1.14875
 31
0.0
  0
LINE
  5
13A
330
F9
100
AcDbEntity
  8
AM_9
100
AcDbLine
 10
1.645635820909664
 20
-1.14875
 30
0.0
 11
1.634615384615385
 21
-1.08625
 31
0.0
  0
LINE
  5
13B
330
F9
100
AcDbEntity
  8
AM_9
100
AcDbLine
 10
1.634615384615385
 20
0.8356250000000001
 30
0.0
 11
1.692472675160349
 21
1.16375
 31
0.0
  0
LINE
  5
13C
330
F9
100
AcDbEntity
  8
AM_9
100
AcDbLine
 10
-1.692472675160349
 20
1.16375
 30
0.0
 11
-1.634615384615385
 21
0.8356250000000001
 31
0.0
  0
LINE
  5
13D
330
F9
100
AcDbEntity
  8
AM_9
100
AcDbLine
 10
1.634615384615385
 20
0.8356250000000001
 30
0.0
 11
-1.634615384615385
 21
0.8356250000000001
 31
0.0
  0
LINE
  5
13E
330
F9
100
AcDbEntity
  8
AM_9
100
AcDbLine
 10
-1.827604166666666
 20
-1.14875
 30
0.0
 11
1.827604166664644
 21
-1.14875
 31
0.0
  0
ARC
  5
13F
330
F9
100
AcDbEntity
  8
AM_9
100
AcDbCircle
 10
1.827604166666667
 20
-1.101354166666667
 30
0.0
 40
0.0473958333333333
100
AcDbArc
 50
270.0
 51
0.0
  0
ARC
  5
140
330
F9
100
AcDbEntity
  8
AM_9
100
AcDbCircle
 10
-1.827604166666666
 20
-1.101354166666666
 30
0.0
 40
0.0473958333333335
100
AcDbArc
 50
180.0
 51
270.0
  0
LINE
  5
141
330
F9
100
AcDbEntity
  8
AM_9
100
AcDbLine
 10
-1.875
 20
-1.101354166666666
 30
0.0
 11
1.875
 21
-1.101354166666666
 31
0.0
  0
LINE
  5
142
330
F9
100
AcDbEntity
  8
AM_9
100
AcDbLine
 10
1.875
 20
-1.101354166666666
 30
0.0
 11
1.875
 21
-0.5862499999999998
 31
0.0
  0
LINE
  5
143
330
F9
100
AcDbEntity
  8
AM_9
100
AcDbLine
 10
-1.875
 20
-0.5862499999999998
 30
0.0
 11
-1.875
 21
-1.101354166666666
 31
0.0
  0
LINE
  5
144
330
F9
100
AcDbEntity
  8
AM_9
100
AcDbLine
 10
-1.862604166666666
 20
1.16375
 30
0.0
 11
1.862603113405136
 21
1.16375
 31
0.0
  0
ARC
  5
145
330
F9
100
AcDbEntity
  8
AM_9
100
AcDbCircle
 10
1.862604166666666
 20
1.116354166666667
 30
0.0
 40
0.0473958333333331
100
AcDbArc
 50
0.0
 51
90.0
  0
ARC
  5
146
330
F9
100
AcDbEntity
  8
AM_9
100
AcDbCircle
 10
-1.862604166666666
 20
1.116354166666667
 30
0.0
 40
0.0473958333333331
100
AcDbArc
 50
90.0
 51
180.0
  0
LINE
  5
147
330
F9
100
AcDbEntity
  8
AM_9
100
AcDbLine
 10
-1.91
 20
0.6012500000000002
 30
0.0
 11
1.909999999999999
 21
0.6012500000000002
 31
0.0
  0
LINE
  5
148
330
F9
100
AcDbEntity
  8
AM_9
100
AcDbLine
 10
-1.909999999999999
 20
1.116354166666667
 30
0.0
 11
1.909999999999999
 21
1.116354166666667
 31
0.0
  0
LINE
  5
149
330
F9
100
AcDbEntity
  8
AM_9
100
AcDbLine
 10
1.909999999999999
 20
0.6012500000000002
 30
0.0
 11
1.909999999999999
 21
1.116354166666667
 31
0.0
  0
LINE
  5
14A
330
F9
100
AcDbEntity
  8
AM_9
100
AcDbLine
 10
-1.909999999999999
 20
1.116354166666667
 30
0.0
 11
-1.909999999999999
 21
0.6012500000000002
 31
0.0
  0
LINE
  5
14B
330
F9
100
AcDbEntity
  8
AM_9
100
AcDbLine
 10
-2.036231871466263
 20
-0.5862499999999993
 30
0.0
 11
2.036231871466261
 21
-0.5862499999999993
 31
0.0
  0
ARC
  5
14C
330
F9
100
AcDbEntity
  8
AM_9
100
AcDbCircle
 10
0.0000000000014411
 20
-0.2581249999998048
 30
0.0
 40
2.062499999998606
100
AcDbArc
 50
350.8458667153495
 51
24.62431835217585
  0
ARC
  5
14D
330
F9
100
AcDbEntity
  8
AM_9
100
AcDbCircle
 10
-0.0000000000001472
 20
-0.2581249999999804
 30
0.0
 40
2.062499999999856
100
AcDbArc
 50
155.3756816478347
 51
189.1541332846399
  0
LWPOLYLINE
  5
14E
330
F9
100
AcDbEntity
  8
AM_9
100
AcDbPolyline
 90
       75
 70
     0
 43
0.0
 10
-0.3113224837144317
 20
0.3152195849320121
 10
-0.2857306948141082
 20
0.3398436797064542
 10
-0.257980570734344
 20
0.3624414338938898
 10
-0.2277697535971458
 20
0.3830851321598421
 10
-0.195652022885771
 20
0.4012271894765555
 10
-0.1632732551341874
 20
0.4160779892129406
 10
-0.1291413181792597
 20
0.4284014839352761
 10
-0.0940779465179738
 20
0.4378183370086191
 10
-0.0576670588754078
 20
0.444339066797367
 10
-0.0223857724137202
 20
0.4476342215221775
 10
0.0136882824458688
 20
0.4479959606256505
 10
0.0496646090355368
 20
0.4453438355284795
 10
0.0859332776561841
 20
0.4395584507299701
 10
0.1202210445998787
 20
0.4311016163302717
 10
0.1542720842054979
 20
0.4196437321668153
 10
0.1872345417010325
 20
0.4054025642323547
 10
0.2194329399077697
 20
0.3881469716729843
 10
0.2491125747605312
 20
0.3688960488031384
 10
0.2775682737685837
 20
0.3468905856163282
 10
0.3040738865721857
 20
0.3226134235008734
 10
0.32885938513834
 20
0.2957445704567188
 10
0.3507176097700975
 20
0.2676631769144208
 10
0.3704909405868272
 20
0.2373591066226677
 10
0.3876489771870378
 20
0.2055287970729362
 10
0.4023026329153628
 20
0.1717917325193944
 10
0.413768123975821
 20
0.137828805894087
 10
0.4224959490085047
 20
0.1024229192586816
 10
0.4282075560835402
 20
0.0664167935441277
 10
0.4308764984869405
 20
0.0294071595055225
 10
0.4304158379845077
 20
-0.006630672973562
 10
0.4269145931829612
 20
-0.042756790846785
 10
0.420212624046813
 20
-0.079240230332667
 10
0.410313981373171
 20
-0.1152874365157392
 10
0.397832815482882
 20
-0.1491473409371824
 10
0.3822521440334174
 20
-0.1824425767524201
 10
0.3638851605079039
 20
-0.2143137081308906
 10
0.3424386669871122
 20
-0.2450640203991796
 10
0.3194258475795541
 20
-0.2727096578827636
 10
0.2936875431294991
 20
-0.2988049532105261
 10
0.2658073028228075
 20
-0.3226415464426929
 10
0.2354054607321287
 20
-0.3444078418629726
 10
0.204679560786051
 20
-0.3626793853260863
 10
0.1719269280577029
 20
-0.3786081793376815
 10
0.1379292740435358
 20
-0.3917261080123862
 10
0.1022706680548454
 20
-0.4020869208628101
 10
0.0674490937346484
 20
-0.4090888866145842
 10
0.0315209524278012
 20
-0.4132440550226278
 10
-0.0046328445048815
 20
-0.4143765798697021
 10
-0.0414151913407367
 20
-0.4124062410511389
 10
-0.0764583312116519
 20
-0.4075627094991682
 10
-0.111587063391517
 20
-0.3996970502762985
 10
-0.1459256764361048
 20
-0.3889361067373651
 10
-0.1798230327879617
 20
-0.3750803515799029
 10
-0.2113373702090913
 20
-0.3590090961547276
 10
-0.2419255036081278
 20
-0.3400668933291068
 10
-0.270811067956725
 20
-0.318659728393914
 10
-0.2982566087671781
 20
-0.2944910384796942
 10
-0.3228569015133054
 20
-0.2688753602038544
 10
-0.3456213872907162
 20
-0.2408411498699829
 10
-0.3659508826304088
 20
-0.2110263590274062
 10
-0.383995669368676
 20
-0.1790652331875898
 10
-0.3988944691650897
 20
-0.1465775250080811
 10
-0.4112337630913379
 20
-0.1123854613435624
 10
-0.4206525636282447
 20
-0.0772944041829047
 10
-0.4271690485109058
 20
-0.0409044393670824
 10
-0.430496924508344
 20
-0.0050954862309751
 10
-0.4308080191739516
 20
0.0315009265151482
 10
-0.428022603473785
 20
0.0679926456646593
 10
-0.422017322243636
 20
0.1047699868337173
 10
-0.4131990511634657
 20
0.1397614408492014
 10
-0.4013912381529072
 20
0.1741412031780162
 10
-0.3863710275475032
 20
0.2081358611507135
 10
-0.36832536861118
 20
0.2409676995471762
 10
-0.3420265579006446
 20
0.2794072272673742
 10
-0.3113224837144317
 20
0.3152195849320121
  0
CIRCLE
  5
14F
330
F9
100
AcDbEntity
  8
AM_9
100
AcDbCircle
 10
0.0
 20
0.0075000000000002
 30
0.0
 40
0.305316369154144
  0
CIRCLE
  5
150
330
F9
100
AcDbEntity
  8
AM_9
100
AcDbCircle
 10
0.0
 20
0.0075000000000002
 30
0.0
 40
0.349762344480925
  0
LINE
  5
151
330
F9
100
AcDbEntity
  8
AM_7
100
AcDbLine
 10
-0.3672504617049712
 20
0.0075000000000002
 30
0.0
 11
0.3672504617049712
 21
0.0075000000000002
 31
0.0
  0
ENDBLK
  5
FC
330
F9
100
AcDbEntity
  8
0
100
AcDbBlockEnd
  0
BLOCK
  5
154
330
152
100
AcDbEntity
  8
0
100
AcDbBlockBegin
  2
5_P2B_K_111RE_0_in_023195_4
 70
     2
 10
0.0
 20
0.0
 30
0.0
  3
5_P2B_K_111RE_0_in_023195_4
  1

  0
ATTDEF
  5
156
330
152
100
AcDbEntity
  8
AM_6
100
AcDbText
 10
9.5
 20
1.489714285714286
 30
0.0
 40
0.5
  1
2 & 4 Bolt Base - Body - Inch - EXP
100
AcDbAttributeDefinition
  3

  2
NN
 70
     8
280
     0
  0
ATTDEF
  5
157
330
152
100
AcDbEntity
  8
AM_6
100
AcDbText
 10
9.5
 20
0.9897142857142858
 30
0.0
 40
0.5
  1
Type K
100
AcDbAttributeDefinition
  3

  2
NT
 70
     8
280
     0
  0
ATTDEF
  5
158
330
152
100
AcDbEntity
  8
AM_6
100
AcDbText
 10
9.5
 20
0.4897142857142858
 30
0.0
 40
0.5
  1
P2B-K-111RE
100
AcDbAttributeDefinition
  3

  2
NB
 70
     8
280
     0
  0
ATTDEF
  5
159
330
152
100
AcDbEntity
  8
AM_6
100
AcDbText
 10
9.5
 20
-0.0102857142857142
 30
0.0
 40
0.5
  1
$PN.
100
AcDbAttributeDefinition
  3

  2
NBSYN
 70
     8
280
     0
  0
ATTDEF
  5
15A
330
152
100
AcDbEntity
  8
AM_6
100
AcDbText
 10
9.5
 20
-0.5102857142857142
 30
0.0
 40
0.5
  1
P2B-K-111RE
100
AcDbAttributeDefinition
  3

  2
LINA
 70
     8
280
     0
  0
ATTDEF
  5
15B
330
152
100
AcDbEntity
  8
AM_6
100
AcDbText
 10
9.5
 20
-1.010285714285714
 30
0.0
 40
0.5
  1
1-11/16
100
AcDbAttributeDefinition
  3

  2
SS
 70
     8
280
     0
  0
ATTDEF
  5
15C
330
152
100
AcDbEntity
  8
AM_6
100
AcDbText
 10
9.5
 20
-1.510285714285714
 30
0.0
 40
0.5
  1
1.687500
100
AcDbAttributeDefinition
  3

  2
SS1
 70
     8
280
     0
  0
ATTDEF
  5
15D
330
152
100
AcDbEntity
  8
AM_6
100
AcDbText
 10
9.5
 20
-2.010285714285714
 30
0.0
 40
0.5
  1
3.937500
100
AcDbAttributeDefinition
  3

  2
BORE
 70
     8
280
     0
  0
ATTDEF
  5
15E
330
152
100
AcDbEntity
  8
AM_6
100
AcDbText
 10
9.5
 20
-2.510285714285714
 30
0.0
 40
0.5
  1
P2B-K-111RE
100
AcDbAttributeDefinition
  3

  2
PN
 70
     8
280
     0
  0
ATTDEF
  5
15F
330
152
100
AcDbEntity
  8
AM_6
100
AcDbText
 10
9.5
 20
-3.010285714285714
 30
0.0
 40
0.5
  1
P2B-K-111RE
100
AcDbAttributeDefinition
  3

  2
PNA
 70
     8
280
     0
  0
ATTDEF
  5
160
330
152
100
AcDbEntity
  8
AM_6
100
AcDbText
 10
9.5
 20
-3.510285714285714
 30
0.0
 40
0.5
  1
14
100
AcDbAttributeDefinition
  3

  2
WEIGHT
 70
     8
280
     0
  0
ATTDEF
  5
161
330
152
100
AcDbEntity
  8
AM_6
100
AcDbText
 10
9.5
 20
-4.010285714285715
 30
0.0
 40
0.5
  1
2.83
100
AcDbAttributeDefinition
  3

  2
A
 70
     8
280
     0
  0
ATTDEF
  5
162
330
152
100
AcDbEntity
  8
AM_6
100
AcDbText
 10
9.5
 20
-4.510285714285715
 30
0.0
 40
0.5
  1
2.830000
100
AcDbAttributeDefinition
  3

  2
A1
 70
     8
280
     0
  0
ATTDEF
  5
163
330
152
100
AcDbEntity
  8
AM_6
100
AcDbText
 10
9.5
 20
-5.010285714285715
 30
0.0
 40
0.5
  1
9.00
100
AcDbAttributeDefinition
  3

  2
B
 70
     8
280
     0
  0
ATTDEF
  5
164
330
152
100
AcDbEntity
  8
AM_6
100
AcDbText
 10
9.5
 20
-5.510285714285715
 30
0.0
 40
0.5
  1
9.000000
100
AcDbAttributeDefinition
  3

  2
B1
 70
     8
280
     0
  0
ATTDEF
  5
165
330
152
100
AcDbEntity
  8
AM_6
100
AcDbText
 10
9.5
 20
-6.010285714285715
 30
0.0
 40
0.5
  1
2.37
100
AcDbAttributeDefinition
  3

  2
C
 70
     8
280
     0
  0
ATTDEF
  5
166
330
152
100
AcDbEntity
  8
AM_6
100
AcDbText
 10
9.5
 20
-6.510285714285715
 30
0.0
 40
0.5
  1
2.370000
100
AcDbAttributeDefinition
  3

  2
C1
 70
     8
280
     0
  0
ATTDEF
  5
167
330
152
100
AcDbEntity
  8
AM_6
100
AcDbText
 10
9.5
 20
-7.010285714285715
 30
0.0
 40
0.5
  1
6.88
100
AcDbAttributeDefinition
  3

  2
DMIN
 70
     8
280
     0
  0
ATTDEF
  5
168
330
152
100
AcDbEntity
  8
AM_6
100
AcDbText
 10
9.5
 20
-7.510285714285715
 30
0.0
 40
0.5
  1
6.880000
100
AcDbAttributeDefinition
  3

  2
DMIN1
 70
     8
280
     0
  0
ATTDEF
  5
169
330
152
100
AcDbEntity
  8
AM_6
100
AcDbText
 10
9.5
 20
-8.010285714285715
 30
0.0
 40
0.5
  1
7.63
100
AcDbAttributeDefinition
  3

  2
DMAX
 70
     8
280
     0
  0
ATTDEF
  5
16A
330
152
100
AcDbEntity
  8
AM_6
100
AcDbText
 10
9.5
 20
-8.510285714285715
 30
0.0
 40
0.5
  1
7.630000
100
AcDbAttributeDefinition
  3

  2
DMAX1
 70
     8
280
     0
  0
ATTDEF
  5
16B
330
152
100
AcDbEntity
  8
AM_6
100
AcDbText
 10
9.5
 20
-9.010285714285715
 30
0.0
 40
0.5
  1
1/2
100
AcDbAttributeDefinition
  3

  2
F
 70
     8
280
     0
  0
ATTDEF
  5
16C
330
152
100
AcDbEntity
  8
AM_6
100
AcDbText
 10
9.5
 20
-9.510285714285715
 30
0.0
 40
0.5
  1
0.500000
100
AcDbAttributeDefinition
  3

  2
F1
 70
     8
280
     0
  0
ATTDEF
  5
16D
330
152
100
AcDbEntity
  8
AM_6
100
AcDbText
 10
9.5
 20
-10.01028571428571
 30
0.0
 40
0.5
  1
1.00
100
AcDbAttributeDefinition
  3

  2
G
 70
     8
280
     0
  0
ATTDEF
  5
16E
330
152
100
AcDbEntity
  8
AM_6
100
AcDbText
 10
9.5
 20
-10.51028571428571
 30
0.0
 40
0.5
  1
1.000000
100
AcDbAttributeDefinition
  3

  2
G1
 70
     8
280
     0
  0
ATTDEF
  5
16F
330
152
100
AcDbEntity
  8
AM_6
100
AcDbText
 10
9.5
 20
-11.01028571428571
 30
0.0
 40
0.5
  1
1.38
100
AcDbAttributeDefinition
  3

  2
H
 70
     8
280
     0
  0
ATTDEF
  5
170
330
152
100
AcDbEntity
  8
AM_6
100
AcDbText
 10
9.5
 20
-11.51028571428571
 30
0.0
 40
0.5
  1
1.380000
100
AcDbAttributeDefinition
  3

  2
H1
 70
     8
280
     0
  0
ATTDEF
  5
171
330
152
100
AcDbEntity
  8
AM_6
100
AcDbText
 10
9.5
 20
-12.01028571428571
 30
0.0
 40
0.5
  1
5.75
100
AcDbAttributeDefinition
  3

  2
J
 70
     8
280
     0
  0
ATTDEF
  5
172
330
152
100
AcDbEntity
  8
AM_6
100
AcDbText
 10
9.5
 20
-12.51028571428571
 30
0.0
 40
0.5
  1
5.750000
100
AcDbAttributeDefinition
  3

  2
J1
 70
     8
280
     0
  0
ATTDEF
  5
173
330
152
100
AcDbEntity
  8
AM_6
100
AcDbText
 10
9.5
 20
-13.01028571428571
 30
0.0
 40
0.5
  1
3.19
100
AcDbAttributeDefinition
  3

  2
L
 70
     8
280
     0
  0
ATTDEF
  5
174
330
152
100
AcDbEntity
  8
AM_6
100
AcDbText
 10
9.5
 20
-13.51028571428571
 30
0.0
 40
0.5
  1
3.190000
100
AcDbAttributeDefinition
  3

  2
L1
 70
     8
280
     0
  0
ATTDEF
  5
175
330
152
100
AcDbEntity
  8
AM_6
100
AcDbText
 10
9.5
 20
-14.01028571428571
 30
0.0
 40
0.5
  1
2.63
100
AcDbAttributeDefinition
  3

  2
M
 70
     8
280
     0
  0
ATTDEF
  5
176
330
152
100
AcDbEntity
  8
AM_6
100
AcDbText
 10
9.5
 20
-14.51028571428571
 30
0.0
 40
0.5
  1
2.630000
100
AcDbAttributeDefinition
  3

  2
M1
 70
     8
280
     0
  0
ATTDEF
  5
177
330
152
100
AcDbEntity
  8
AM_6
100
AcDbText
 10
9.5
 20
-15.01028571428571
 30
0.0
 40
0.5
  1
5.81
100
AcDbAttributeDefinition
  3

  2
P
 70
     8
280
     0
  0
ATTDEF
  5
178
330
152
100
AcDbEntity
  8
AM_6
100
AcDbText
 10
9.5
 20
-15.51028571428571
 30
0.0
 40
0.5
  1
5.810000
100
AcDbAttributeDefinition
  3

  2
P1
 70
     8
280
     0
  0
ATTDEF
  5
179
330
152
100
AcDbEntity
  8
AM_6
100
AcDbText
 10
9.5
 20
-16.01028571428571
 30
0.0
 40
0.5
  1
1.56
100
AcDbAttributeDefinition
  3

  2
R
 70
     8
280
     0
  0
ATTDEF
  5
17A
330
152
100
AcDbEntity
  8
AM_6
100
AcDbText
 10
9.5
 20
-16.51028571428571
 30
0.0
 40
0.5
  1
1.560000
100
AcDbAttributeDefinition
  3

  2
R1
 70
     8
280
     0
  0
ATTDEF
  5
17B
330
152
100
AcDbEntity
  8
AM_6
100
AcDbText
 10
9.5
 20
-17.01028571428571
 30
0.0
 40
0.5
  1
1.68
100
AcDbAttributeDefinition
  3

  2
S
 70
     8
280
     0
  0
ATTDEF
  5
17C
330
152
100
AcDbEntity
  8
AM_6
100
AcDbText
 10
9.5
 20
-17.51028571428571
 30
0.0
 40
0.5
  1
1.680000
100
AcDbAttributeDefinition
  3

  2
S1
 70
     8
280
     0
  0
ATTDEF
  5
17D
330
152
100
AcDbEntity
  8
AM_6
100
AcDbText
 10
9.5
 20
-18.01028571428571
 30
0.0
 40
0.5
  1
0.093750
100
AcDbAttributeDefinition
  3

  2
EXP1
 70
     8
280
     0
  0
ATTDEF
  5
17E
330
152
100
AcDbEntity
  8
AM_6
100
AcDbText
 10
9.5
 20
-18.51028571428571
 30
0.0
 40
0.5
  1
1
100
AcDbAttributeDefinition
  3

  2
HF
 70
     8
280
     0
  0
ATTDEF
  5
17F
330
152
100
AcDbEntity
  8
AM_6
100
AcDbText
 10
9.5
 20
-19.01028571428571
 30
0.0
 40
0.5
  1
.09
100
AcDbAttributeDefinition
  3

  2
T
 70
     8
280
     0
  0
ATTDEF
  5
180
330
152
100
AcDbEntity
  8
AM_6
100
AcDbText
 10
9.5
 20
-19.51028571428571
 30
0.0
 40
0.5
  1
baldor
100
AcDbAttributeDefinition
  3

  2
COMPANY
 70
     8
280
     0
  0
LINE
  5
181
330
152
100
AcDbEntity
  8
AM_9
100
AcDbLine
 10
2.930673410211721
 20
-1.185
 30
0.0
 11
2.60875
 21
-1.185
 31
0.0
  0
LINE
  5
182
330
152
100
AcDbEntity
  8
AM_9
100
AcDbLine
 10
2.930673410211722
 20
1.185
 30
0.0
 11
2.608750000000001
 21
1.185
 31
0.0
  0
LINE
  5
183
330
152
100
AcDbEntity
  8
AM_9
100
AcDbLine
 10
-2.608750000000001
 20
-1.185
 30
0.0
 11
-2.930673410211722
 21
-1.185
 31
0.0
  0
LINE
  5
184
330
152
100
AcDbEntity
  8
AM_9
100
AcDbLine
 10
-2.608749999999999
 20
1.185
 30
0.0
 11
-2.930673410211722
 21
1.185
 31
0.0
  0
LINE
  5
185
330
152
100
AcDbEntity
  8
AM_9
100
AcDbLine
 10
1.96875
 20
-1.128571428571429
 30
0.0
 11
1.96875
 21
1.128571428571428
 31
0.0
  0
LINE
  5
186
330
152
100
AcDbEntity
  8
AM_9
100
AcDbLine
 10
-1.96875
 20
1.128571428571428
 30
0.0
 11
-1.96875
 21
-1.128571428571429
 31
0.0
  0
LINE
  5
187
330
152
100
AcDbEntity
  8
AM_9
100
AcDbLine
 10
-2.128378378378377
 20
-1.285
 30
0.0
 11
-2.128378378378377
 21
-1.183771428571429
 31
0.0
  0
LINE
  5
188
330
152
100
AcDbEntity
  8
AM_9
100
AcDbLine
 10
2.128378378378377
 20
-1.183771428571429
 30
0.0
 11
2.128378378378377
 21
-1.285
 31
0.0
  0
LINE
  5
189
330
152
100
AcDbEntity
  8
AM_9
100
AcDbLine
 10
-2.128378378378377
 20
-1.183771428571429
 30
0.0
 11
2.128378378378377
 21
-1.183771428571429
 31
0.0
  0
LINE
  5
18A
330
152
100
AcDbEntity
  8
AM_9
100
AcDbLine
 10
-2.073178378378377
 20
-1.128571428571428
 30
0.0
 11
2.073178378377705
 21
-1.128571428571428
 31
0.0
  0
ARC
  5
18B
330
152
100
AcDbEntity
  8
AM_9
100
AcDbCircle
 10
2.073178378378377
 20
-1.183771428571429
 30
0.0
 40
0.0552000000000006
100
AcDbArc
 50
0.0
 51
90.0
  0
ARC
  5
18C
330
152
100
AcDbEntity
  8
AM_9
100
AcDbCircle
 10
-2.073178378378377
 20
-1.183771428571429
 30
0.0
 40
0.0552000000000008
100
AcDbArc
 50
90.0
 51
180.0
  0
LINE
  5
18D
330
152
100
AcDbEntity
  8
AM_9
100
AcDbLine
 10
-2.073178378378378
 20
1.128571428571429
 30
0.0
 11
2.073178378377706
 21
1.128571428571429
 31
0.0
  0
ARC
  5
18E
330
152
100
AcDbEntity
  8
AM_9
100
AcDbCircle
 10
2.073178378378378
 20
1.183771428571428
 30
0.0
 40
0.0551999999999999
100
AcDbArc
 50
270.0
 51
0.0
  0
ARC
  5
18F
330
152
100
AcDbEntity
  8
AM_9
100
AcDbCircle
 10
-2.073178378378378
 20
1.183771428571428
 30
0.0
 40
0.0551999999999992
100
AcDbArc
 50
180.0
 51
270.0
  0
LINE
  5
190
330
152
100
AcDbEntity
  8
AM_9
100
AcDbLine
 10
2.128378378378378
 20
1.285
 30
0.0
 11
2.128378378378378
 21
1.183771428571428
 31
0.0
  0
LINE
  5
191
330
152
100
AcDbEntity
  8
AM_9
100
AcDbLine
 10
-2.128378378378378
 20
1.183771428571428
 30
0.0
 11
-2.128378378378378
 21
1.285
 31
0.0
  0
LINE
  5
192
330
152
100
AcDbEntity
  8
AM_9
100
AcDbLine
 10
-2.128378378378378
 20
1.183771428571428
 30
0.0
 11
2.128378378378378
 21
1.183771428571428
 31
0.0
  0
CIRCLE
  5
193
330
152
100
AcDbEntity
  8
AM_9
100
AcDbCircle
 10
0.0
 20
0.0000000000000002
 30
0.0
 40
0.5925
  0
LINE
  5
194
330
152
100
AcDbEntity
  8
AM_7
100
AcDbLine
 10
2.1325
 20
0.7406250000000002
 30
0.0
 11
2.78875
 21
0.7406250000000002
 31
0.0
  0
LINE
  5
195
330
152
100
AcDbEntity
  8
AM_7
100
AcDbLine
 10
2.460625
 20
0.4125000000000002
 30
0.0
 11
2.460625
 21
1.06875
 31
0.0
  0
LINE
  5
196
330
152
100
AcDbEntity
  8
AM_7
100
AcDbLine
 10
-2.78875
 20
-0.740625
 30
0.0
 11
-2.1325
 21
-0.740625
 31
0.0
  0
LINE
  5
197
330
152
100
AcDbEntity
  8
AM_7
100
AcDbLine
 10
-2.460625
 20
-1.06875
 30
0.0
 11
-2.460625
 21
-0.4125
 31
0.0
  0
LINE
  5
198
330
152
100
AcDbEntity
  8
AM_7
100
AcDbLine
 10
-2.78875
 20
0.7406250000000005
 30
0.0
 11
-2.1325
 21
0.7406250000000005
 31
0.0
  0
LINE
  5
199
330
152
100
AcDbEntity
  8
AM_7
100
AcDbLine
 10
-2.460625
 20
0.4125000000000005
 30
0.0
 11
-2.460625
 21
1.068750000000001
 31
0.0
  0
LINE
  5
19A
330
152
100
AcDbEntity
  8
AM_7
100
AcDbLine
 10
2.1325
 20
-0.740625
 30
0.0
 11
2.78875
 21
-0.740625
 31
0.0
  0
LINE
  5
19B
330
152
100
AcDbEntity
  8
AM_7
100
AcDbLine
 10
2.460625
 20
-1.06875
 30
0.0
 11
2.460625
 21
-0.4125
 31
0.0
  0
LINE
  5
19C
330
152
100
AcDbEntity
  8
AM_7
100
AcDbLine
 10
-0.622125
 20
0.0000000000000002
 30
0.0
 11
0.622125
 21
0.0000000000000002
 31
0.0
  0
LINE
  5
19D
330
152
100
AcDbEntity
  8
AM_7
100
AcDbLine
 10
0.0
 20
-1.8221875
 30
0.0
 11
0.0
 21
1.489714285714286
 31
0.0
  0
LINE
  5
19E
330
152
100
AcDbEntity
  8
AM_7
100
AcDbLine
 10
3.111875
 20
-0.0000000000000001
 30
0.0
 11
4.143125
 21
-0.0000000000000002
 31
0.0
  0
LINE
  5
19F
330
152
100
AcDbEntity
  8
AM_7
100
AcDbLine
 10
3.815
 20
-0.3281250000000002
 30
0.0
 11
3.815
 21
0.3281249999999998
 31
0.0
  0
LINE
  5
1A0
330
152
100
AcDbEntity
  8
AM_7
100
AcDbLine
 10
-4.143125
 20
0.0000000000000004
 30
0.0
 11
-3.111875
 21
0.0000000000000004
 31
0.0
  0
LINE
  5
1A1
330
152
100
AcDbEntity
  8
AM_7
100
AcDbLine
 10
-3.815
 20
-0.3281249999999996
 30
0.0
 11
-3.815
 21
0.3281250000000004
 31
0.0
  0
LINE
  5
1A2
330
152
100
AcDbEntity
  8
AM_7
100
AcDbLine
 10
-3.44
 20
-0.3281249999999996
 30
0.0
 11
-3.44
 21
0.3281250000000004
 31
0.0
  0
LINE
  5
1A3
330
152
100
AcDbEntity
  8
AM_7
100
AcDbLine
 10
3.44
 20
-0.3281250000000001
 30
0.0
 11
3.44
 21
0.3281249999999999
 31
0.0
  0
LINE
  5
1A4
330
152
100
AcDbEntity
  8
AM_4
100
AcDbLine
 10
4.263
 20
-1.185
 30
0.0
 11
2.930673410211721
 21
-1.185
 31
0.0
  0
LINE
  5
1A5
330
152
100
AcDbEntity
  8
AM_4
100
AcDbLine
 10
4.263
 20
1.185
 30
0.0
 11
2.930673410211722
 21
1.185
 31
0.0
  0
ARC
  5
1A6
330
152
100
AcDbEntity
  8
AM_4
100
AcDbCircle
 10
3.44
 20
0.0
 30
0.0
 40
0.3125
100
AcDbArc
 50
90.0
 51
270.0
  0
LINE
  5
1A7
330
152
100
AcDbEntity
  8
AM_4
100
AcDbLine
 10
3.44
 20
-0.3125000000000001
 30
0.0
 11
3.815
 21
-0.3125000000000001
 31
0.0
  0
LINE
  5
1A8
330
152
100
AcDbEntity
  8
AM_4
100
AcDbLine
 10
3.815
 20
0.3124999999999999
 30
0.0
 11
3.44
 21
0.3124999999999999
 31
0.0
  0
ARC
  5
1A9
330
152
100
AcDbEntity
  8
AM_4
100
AcDbCircle
 10
3.815
 20
-0.0000000000000001
 30
0.0
 40
0.3125
100
AcDbArc
 50
270.0
 51
90.0
  0
LINE
  5
1AA
330
152
100
AcDbEntity
  8
AM_4
100
AcDbLine
 10
4.5
 20
-0.9480000000000001
 30
0.0
 11
4.5
 21
0.948
 31
0.0
  0
LINE
  5
1AB
330
152
100
AcDbEntity
  8
AM_4
100
AcDbLine
 10
4.5
 20
0.9479999999999998
 30
0.0
 11
4.263
 21
1.185
 31
0.0
  0
LINE
  5
1AC
330
152
100
AcDbEntity
  8
AM_4
100
AcDbLine
 10
4.224
 20
-1.185
 30
0.0
 11
4.224
 21
1.185
 31
0.0
  0
LINE
  5
1AD
330
152
100
AcDbEntity
  8
AM_4
100
AcDbLine
 10
4.263
 20
-1.185
 30
0.0
 11
4.5
 21
-0.9480000000000001
 31
0.0
  0
LINE
  5
1AE
330
152
100
AcDbEntity
  8
AM_4
100
AcDbLine
 10
-2.930673410211722
 20
-1.185
 30
0.0
 11
-4.263
 21
-1.185
 31
0.0
  0
LINE
  5
1AF
330
152
100
AcDbEntity
  8
AM_4
100
AcDbLine
 10
-2.930673410211722
 20
1.185
 30
0.0
 11
-4.263
 21
1.185
 31
0.0
  0
LINE
  5
1B0
330
152
100
AcDbEntity
  8
AM_4
100
AcDbLine
 10
-4.263
 20
1.185
 30
0.0
 11
-4.5
 21
0.9480000000000001
 31
0.0
  0
LINE
  5
1B1
330
152
100
AcDbEntity
  8
AM_4
100
AcDbLine
 10
-4.5
 20
-0.9480000000000003
 30
0.0
 11
-4.5
 21
0.948
 31
0.0
  0
LINE
  5
1B2
330
152
100
AcDbEntity
  8
AM_4
100
AcDbLine
 10
-4.5
 20
-0.9480000000000004
 30
0.0
 11
-4.263
 21
-1.185
 31
0.0
  0
LINE
  5
1B3
330
152
100
AcDbEntity
  8
AM_4
100
AcDbLine
 10
-3.44
 20
0.3125000000000003
 30
0.0
 11
-3.815
 21
0.3125000000000003
 31
0.0
  0
ARC
  5
1B4
330
152
100
AcDbEntity
  8
AM_4
100
AcDbCircle
 10
-3.439999999999999
 20
0.0000000000000004
 30
0.0
 40
0.3125000000000001
100
AcDbArc
 50
270.0
 51
90.0
  0
LINE
  5
1B5
330
152
100
AcDbEntity
  8
AM_4
100
AcDbLine
 10
-3.815
 20
-0.3124999999999997
 30
0.0
 11
-3.44
 21
-0.3124999999999996
 31
0.0
  0
ARC
  5
1B6
330
152
100
AcDbEntity
  8
AM_4
100
AcDbCircle
 10
-3.815
 20
0.0000000000000004
 30
0.0
 40
0.3124999999999999
100
AcDbArc
 50
90.0
 51
270.0
  0
LINE
  5
1B7
330
152
100
AcDbEntity
  8
AM_4
100
AcDbLine
 10
-4.224
 20
-1.185
 30
0.0
 11
-4.224
 21
1.185
 31
0.0
  0
ARC
  5
1B8
330
152
100
AcDbEntity
  8
AM_4
100
AcDbCircle
 10
-2.708749999999999
 20
-0.98875
 30
0.0
 40
0.2962500000000006
100
AcDbArc
 50
180.0
 51
270.0
  0
LINE
  5
1B9
330
152
100
AcDbEntity
  8
AM_4
100
AcDbLine
 10
-2.70875
 20
-1.285
 30
0.0
 11
-2.100230825778103
 21
-1.285
 31
0.0
  0
LINE
  5
1BA
330
152
100
AcDbEntity
  8
AM_4
100
AcDbLine
 10
-3.005
 20
-0.5925000000000002
 30
0.0
 11
-3.005
 21
-0.9887500000000004
 31
0.0
  0
ARC
  5
1BB
330
152
100
AcDbEntity
  8
AM_4
100
AcDbCircle
 10
-2.70875
 20
-0.5925000000000002
 30
0.0
 40
0.2962500000000001
100
AcDbArc
 50
115.5331200050045
 51
180.0
  0
LINE
  5
1BC
330
152
100
AcDbEntity
  8
AM_4
100
AcDbLine
 10
-2.100230825778103
 20
1.285
 30
0.0
 11
-2.70875
 21
1.285
 31
0.0
  0
ARC
  5
1BD
330
152
100
AcDbEntity
  8
AM_4
100
AcDbCircle
 10
-2.708749999999999
 20
0.9887499999999996
 30
0.0
 40
0.2962500000000006
100
AcDbArc
 50
90.0
 51
180.0
  0
LINE
  5
1BE
330
152
100
AcDbEntity
  8
AM_4
100
AcDbLine
 10
-3.005
 20
0.9887499999999997
 30
0.0
 11
-3.005
 21
0.5925
 31
0.0
  0
ARC
  5
1BF
330
152
100
AcDbEntity
  8
AM_4
100
AcDbCircle
 10
-2.70875
 20
0.5925000000000005
 30
0.0
 40
0.2962500000000001
100
AcDbArc
 50
180.0
 51
244.4668810139139
  0
ARC
  5
1C0
330
152
100
AcDbEntity
  8
AM_4
100
AcDbCircle
 10
-2.92265000271336
 20
0.1447156195899409
 30
0.0
 40
0.199999999999996
100
AcDbArc
 50
10.97291210821591
 51
64.46688101391427
  0
ARC
  5
1C1
330
152
100
AcDbEntity
  8
AM_4
100
AcDbCircle
 10
-3.669031169168802
 20
0.0000000000000002
 30
0.0
 40
0.9602811691688028
100
AcDbArc
 50
349.0270874190561
 51
10.9729112632715
  0
ARC
  5
1C2
330
152
100
AcDbEntity
  8
AM_4
100
AcDbCircle
 10
-2.922650002713363
 20
-0.1447156195899366
 30
0.0
 40
0.2000000000000014
100
AcDbArc
 50
295.5331174768132
 51
349.0270815651033
  0
ARC
  5
1C3
330
152
100
AcDbEntity
  8
AM_4
100
AcDbCircle
 10
2.70875
 20
-0.9887500000000011
 30
0.0
 40
0.296249999999999
100
AcDbArc
 50
270.0
 51
0.0
  0
LINE
  5
1C4
330
152
100
AcDbEntity
  8
AM_4
100
AcDbLine
 10
2.100230825778103
 20
-1.285
 30
0.0
 11
2.70875
 21
-1.285
 31
0.0
  0
LINE
  5
1C5
330
152
100
AcDbEntity
  8
AM_4
100
AcDbLine
 10
3.004999999999999
 20
-0.9887499999999999
 30
0.0
 11
3.005
 21
-0.5924999999999996
 31
0.0
  0
ARC
  5
1C6
330
152
100
AcDbEntity
  8
AM_4
100
AcDbCircle
 10
2.70875
 20
-0.5924999999999999
 30
0.0
 40
0.2962500000000001
100
AcDbArc
 50
0.0
 51
64.46687910769224
  0
ARC
  5
1C7
330
152
100
AcDbEntity
  8
AM_4
100
AcDbCircle
 10
2.922650002713366
 20
-0.1447156195899357
 30
0.0
 40
0.2000000000000036
100
AcDbArc
 50
190.9729173996793
 51
244.4668838375042
  0
ARC
  5
1C8
330
152
100
AcDbEntity
  8
AM_4
100
AcDbCircle
 10
3.669031169168806
 20
0.0000000000000029
 30
0.0
 40
0.9602811691688063
100
AcDbArc
 50
169.0270889590005
 51
190.9729123653369
  0
ARC
  5
1C9
330
152
100
AcDbEntity
  8
AM_4
100
AcDbCircle
 10
2.922650002713364
 20
0.1447156195899366
 30
0.0
 40
0.2000000000000017
100
AcDbArc
 50
115.5331189860864
 51
169.0270889590003
  0
ARC
  5
1CA
330
152
100
AcDbEntity
  8
AM_4
100
AcDbCircle
 10
2.708750000000002
 20
0.5924999999999998
 30
0.0
 40
0.296249999999999
100
AcDbArc
 50
295.5331189860858
 51
0.0
  0
LINE
  5
1CB
330
152
100
AcDbEntity
  8
AM_4
100
AcDbLine
 10
3.005
 20
0.592499999999999
 30
0.0
 11
3.005
 21
0.9887500000000001
 31
0.0
  0
ARC
  5
1CC
330
152
100
AcDbEntity
  8
AM_4
100
AcDbCircle
 10
2.708749999999999
 20
0.98875
 30
0.0
 40
0.2962500000000006
100
AcDbArc
 50
0.0
 51
90.0
  0
LINE
  5
1CD
330
152
100
AcDbEntity
  8
AM_4
100
AcDbLine
 10
2.70875
 20
1.285
 30
0.0
 11
2.100230825778103
 21
1.285
 31
0.0
  0
LINE
  5
1CE
330
152
100
AcDbEntity
  8
AM_4
100
AcDbLine
 10
2.60875
 20
-1.185
 30
0.0
 11
-2.608750000000001
 21
-1.185
 31
0.0
  0
ARC
  5
1CF
330
152
100
AcDbEntity
  8
AM_4
100
AcDbCircle
 10
2.608750000000001
 20
-0.8887500000000013
 30
0.0
 40
0.2962499999999986
100
AcDbArc
 50
270.0
 51
0.0
  0
LINE
  5
1D0
330
152
100
AcDbEntity
  8
AM_4
100
AcDbLine
 10
2.905
 20
-0.8887500000000008
 30
0.0
 11
2.905
 21
-0.5924999999999999
 31
0.0
  0
ARC
  5
1D1
330
152
100
AcDbEntity
  8
AM_4
100
AcDbCircle
 10
2.608749999999998
 20
-0.5925000000000011
 30
0.0
 40
0.2962500000000015
100
AcDbArc
 50
0.0000008537736463
 51
59.99999999999952
  0
ARC
  5
1D2
330
152
100
AcDbEntity
  8
AM_4
100
AcDbCircle
 10
3.063759896515439
 20
-0.0000000000000001
 30
0.0
 40
0.4550098965154394
100
AcDbArc
 50
132.4120462260057
 51
227.5879537739941
  0
ARC
  5
1D3
330
152
100
AcDbEntity
  8
AM_4
100
AcDbCircle
 10
2.608749999999996
 20
0.5925000000000029
 30
0.0
 40
0.296250000000004
100
AcDbArc
 50
300.000000000001
 51
0.0
  0
LINE
  5
1D4
330
152
100
AcDbEntity
  8
AM_4
100
AcDbLine
 10
2.905
 20
0.5925000000000007
 30
0.0
 11
2.905
 21
0.8887500000000002
 31
0.0
  0
ARC
  5
1D5
330
152
100
AcDbEntity
  8
AM_4
100
AcDbCircle
 10
2.608749999999999
 20
0.8887499999999995
 30
0.0
 40
0.2962500000000006
100
AcDbArc
 50
0.0
 51
90.0
  0
LINE
  5
1D6
330
152
100
AcDbEntity
  8
AM_4
100
AcDbLine
 10
2.608750000000001
 20
1.185
 30
0.0
 11
-2.60875
 21
1.185
 31
0.0
  0
ARC
  5
1D7
330
152
100
AcDbEntity
  8
AM_4
100
AcDbCircle
 10
-2.608749999999998
 20
0.8887499999999992
 30
0.0
 40
0.2962500000000011
100
AcDbArc
 50
90.0
 51
179.9999991462263
  0
LINE
  5
1D8
330
152
100
AcDbEntity
  8
AM_4
100
AcDbLine
 10
-2.905
 20
0.5925000000000001
 30
0.0
 11
-2.905
 21
0.8887499999999998
 31
0.0
  0
ARC
  5
1D9
330
152
100
AcDbEntity
  8
AM_4
100
AcDbCircle
 10
-2.608749999999998
 20
0.5925000000000017
 30
0.0
 40
0.2962500000000015
100
AcDbArc
 50
179.9999991462263
 51
239.9999999999995
  0
ARC
  5
1DA
330
152
100
AcDbEntity
  8
AM_4
100
AcDbCircle
 10
-3.063759896515439
 20
0.0000000000000004
 30
0.0
 40
0.4550098965154397
100
AcDbArc
 50
312.4120462260057
 51
47.58795377399407
  0
ARC
  5
1DB
330
152
100
AcDbEntity
  8
AM_4
100
AcDbCircle
 10
-2.608750000000003
 20
-0.5924999999999984
 30
0.0
 40
0.2962499999999966
100
AcDbArc
 50
120.0000000000002
 51
180.0
  0
LINE
  5
1DC
330
152
100
AcDbEntity
  8
AM_4
100
AcDbLine
 10
-2.905
 20
-0.8887500000000007
 30
0.0
 11
-2.905
 21
-0.5925000000000005
 31
0.0
  0
ARC
  5
1DD
330
152
100
AcDbEntity
  8
AM_4
100
AcDbCircle
 10
-2.608750000000001
 20
-0.8887500000000006
 30
0.0
 40
0.2962499999999988
100
AcDbArc
 50
180.0
 51
270.0
  0
LINE
  5
1DE
330
152
100
AcDbEntity
  8
AM_4
100
AcDbLine
 10
-2.100230825778103
 20
-1.285
 30
0.0
 11
-2.100230825778103
 21
-1.185
 31
0.0
  0
LINE
  5
1DF
330
152
100
AcDbEntity
  8
AM_4
100
AcDbLine
 10
2.100230825778103
 20
-1.185
 30
0.0
 11
2.100230825778103
 21
-1.285
 31
0.0
  0
LINE
  5
1E0
330
152
100
AcDbEntity
  8
AM_4
100
AcDbLine
 10
-2.100230825778103
 20
1.185
 30
0.0
 11
-2.100230825778103
 21
1.285
 31
0.0
  0
LINE
  5
1E1
330
152
100
AcDbEntity
  8
AM_4
100
AcDbLine
 10
2.100230825778103
 20
1.285
 30
0.0
 11
2.100230825778103
 21
1.185
 31
0.0
  0
CIRCLE
  5
1E2
330
152
100
AcDbEntity
  8
AM_4
100
AcDbCircle
 10
2.460625
 20
0.7406250000000002
 30
0.0
 40
0.3125
  0
CIRCLE
  5
1E3
330
152
100
AcDbEntity
  8
AM_4
100
AcDbCircle
 10
-2.460625
 20
-0.740625
 30
0.0
 40
0.3125
  0
CIRCLE
  5
1E4
330
152
100
AcDbEntity
  8
AM_4
100
AcDbCircle
 10
-2.460625
 20
0.7406250000000005
 30
0.0
 40
0.3125
  0
CIRCLE
  5
1E5
330
152
100
AcDbEntity
  8
AM_4
100
AcDbCircle
 10
2.460625
 20
-0.740625
 30
0.0
 40
0.3125
  0
LINE
  5
1E6
330
152
100
AcDbEntity
  8
AM_4
100
AcDbLine
 10
-2.171949865405186
 20
-0.740625
 30
0.0
 11
-2.316287432702593
 21
-0.490625
 31
0.0
  0
LINE
  5
1E7
330
152
100
AcDbEntity
  8
AM_4
100
AcDbLine
 10
-2.316287432702593
 20
-0.9906250000000002
 30
0.0
 11
-2.171949865405186
 21
-0.740625
 31
0.0
  0
LINE
  5
1E8
330
152
100
AcDbEntity
  8
AM_4
100
AcDbLine
 10
-2.316287432702593
 20
-0.490625
 30
0.0
 11
-2.604962567297406
 21
-0.490625
 31
0.0
  0
LINE
  5
1E9
330
152
100
AcDbEntity
  8
AM_4
100
AcDbLine
 10
-2.604962567297406
 20
-0.9906249999999999
 30
0.0
 11
-2.316287432702593
 21
-0.9906250000000002
 31
0.0
  0
LINE
  5
1EA
330
152
100
AcDbEntity
  8
AM_4
100
AcDbLine
 10
-2.749300134594812
 20
-0.740625
 30
0.0
 11
-2.604962567297406
 21
-0.9906249999999999
 31
0.0
  0
LINE
  5
1EB
330
152
100
AcDbEntity
  8
AM_4
100
AcDbLine
 10
-2.604962567297406
 20
-0.490625
 30
0.0
 11
-2.749300134594812
 21
-0.740625
 31
0.0
  0
LINE
  5
1EC
330
152
100
AcDbEntity
  8
AM_4
100
AcDbLine
 10
2.316287432702594
 20
0.9906250000000002
 30
0.0
 11
2.171949865405187
 21
0.7406250000000002
 31
0.0
  0
LINE
  5
1ED
330
152
100
AcDbEntity
  8
AM_4
100
AcDbLine
 10
2.171949865405187
 20
0.7406250000000002
 30
0.0
 11
2.316287432702594
 21
0.4906250000000003
 31
0.0
  0
LINE
  5
1EE
330
152
100
AcDbEntity
  8
AM_4
100
AcDbLine
 10
2.316287432702594
 20
0.4906250000000003
 30
0.0
 11
2.604962567297406
 21
0.490625
 31
0.0
  0
LINE
  5
1EF
330
152
100
AcDbEntity
  8
AM_4
100
AcDbLine
 10
2.604962567297406
 20
0.490625
 30
0.0
 11
2.749300134594813
 21
0.7406250000000002
 31
0.0
  0
LINE
  5
1F0
330
152
100
AcDbEntity
  8
AM_4
100
AcDbLine
 10
2.749300134594813
 20
0.7406250000000002
 30
0.0
 11
2.604962567297407
 21
0.9906250000000002
 31
0.0
  0
LINE
  5
1F1
330
152
100
AcDbEntity
  8
AM_4
100
AcDbLine
 10
2.604962567297407
 20
0.9906250000000002
 30
0.0
 11
2.316287432702594
 21
0.9906250000000002
 31
0.0
  0
LINE
  5
1F2
330
152
100
AcDbEntity
  8
AM_4
100
AcDbLine
 10
2.316287432702594
 20
-0.490625
 30
0.0
 11
2.171949865405187
 21
-0.740625
 31
0.0
  0
LINE
  5
1F3
330
152
100
AcDbEntity
  8
AM_4
100
AcDbLine
 10
2.171949865405187
 20
-0.740625
 30
0.0
 11
2.316287432702594
 21
-0.9906249999999999
 31
0.0
  0
LINE
  5
1F4
330
152
100
AcDbEntity
  8
AM_4
100
AcDbLine
 10
2.316287432702594
 20
-0.9906249999999999
 30
0.0
 11
2.604962567297406
 21
-0.9906250000000002
 31
0.0
  0
LINE
  5
1F5
330
152
100
AcDbEntity
  8
AM_4
100
AcDbLine
 10
2.604962567297406
 20
-0.9906250000000002
 30
0.0
 11
2.749300134594813
 21
-0.740625
 31
0.0
  0
LINE
  5
1F6
330
152
100
AcDbEntity
  8
AM_4
100
AcDbLine
 10
2.749300134594813
 20
-0.740625
 30
0.0
 11
2.604962567297407
 21
-0.490625
 31
0.0
  0
LINE
  5
1F7
330
152
100
AcDbEntity
  8
AM_4
100
AcDbLine
 10
2.604962567297407
 20
-0.490625
 30
0.0
 11
2.316287432702594
 21
-0.490625
 31
0.0
  0
LINE
  5
1F8
330
152
100
AcDbEntity
  8
AM_4
100
AcDbLine
 10
-2.604962567297406
 20
0.4906250000000006
 30
0.0
 11
-2.316287432702593
 21
0.4906250000000003
 31
0.0
  0
LINE
  5
1F9
330
152
100
AcDbEntity
  8
AM_4
100
AcDbLine
 10
-2.604962567297406
 20
0.9906250000000004
 30
0.0
 11
-2.749300134594812
 21
0.7406250000000005
 31
0.0
  0
LINE
  5
1FA
330
152
100
AcDbEntity
  8
AM_4
100
AcDbLine
 10
-2.749300134594812
 20
0.7406250000000005
 30
0.0
 11
-2.604962567297406
 21
0.4906250000000006
 31
0.0
  0
LINE
  5
1FB
330
152
100
AcDbEntity
  8
AM_4
100
AcDbLine
 10
-2.316287432702593
 20
0.4906250000000003
 30
0.0
 11
-2.171949865405186
 21
0.7406250000000005
 31
0.0
  0
LINE
  5
1FC
330
152
100
AcDbEntity
  8
AM_4
100
AcDbLine
 10
-2.171949865405186
 20
0.7406250000000005
 30
0.0
 11
-2.316287432702593
 21
0.9906250000000004
 31
0.0
  0
LINE
  5
1FD
330
152
100
AcDbEntity
  8
AM_4
100
AcDbLine
 10
-2.316287432702593
 20
0.9906250000000004
 30
0.0
 11
-2.604962567297406
 21
0.9906250000000004
 31
0.0
  0
LWPOLYLINE
  5
1FE
330
152
100
AcDbEntity
  8
AM_4
100
AcDbPolyline
 90
       14
 70
     0
 43
0.0
 10
-2.118455071094019
 20
-1.10520659546592
 10
-2.086642647613227
 20
-1.072463776235308
 10
-2.056844299015852
 20
-1.035462211070122
 10
-2.029780566140713
 20
-0.9943125660613593
 10
-2.006171989826632
 20
-0.9491255073000178
 10
-1.988192634929483
 20
-0.9042841233590196
 10
-1.974170790734102
 20
-0.8561230719475855
 10
-1.964816508488111
 20
-0.8052310348938506
 10
-1.961065245049971
 20
-0.7608983525015225
 10
-1.961302591775738
 20
-0.7151624605092607
 10
-1.965810598857082
 20
-0.6688008507076084
 10
-1.974049916722425
 20
-0.6257050825634055
 10
-1.986200730445824
 20
-0.582879813756438
 10
-2.002107673412722
 20
-0.5412212356943685
  0
LINE
  5
1FF
330
152
100
AcDbEntity
  8
AM_4
100
AcDbLine
 10
-2.118455071094019
 20
-1.10520659546592
 30
0.0
 11
-2.088386029146909
 21
-1.185
 31
0.0
  0
LWPOLYLINE
  5
200
330
152
100
AcDbEntity
  8
AM_4
100
AcDbPolyline
 90
       13
 70
     0
 43
0.0
 10
2.002107673412722
 20
0.541221235694369
 10
2.019584608262488
 20
0.5050841160968476
 10
2.039415368524056
 20
0.4712137041122819
 10
2.06203488127759
 20
0.4387587036618475
 10
2.086445792934209
 20
0.4089777159773264
 10
2.111384132218137
 20
0.3828127900161073
 10
2.137394432220262
 20
0.3591515408278214
 10
2.164767581815074
 20
0.3375521171233666
 10
2.192760646576022
 20
0.3184299169344176
 10
2.225468094761886
 20
0.2993758220704299
 10
2.258464157487218
 20
0.2833165769914991
 10
2.292046341755057
 20
0.2699008605150557
 10
2.325510687297738
 20
0.2592269084967254
  0
LWPOLYLINE
  5
201
330
152
100
AcDbEntity
  8
AM_4
100
AcDbPolyline
 90
       11
 70
     0
 43
0.0
 10
2.325510687297738
 20
-0.259226908496725
 10
2.284250215439807
 20
-0.272766251614058
 10
2.242877312631684
 20
-0.2905295160793653
 10
2.200732328725455
 20
-0.3134785724726014
 10
2.159391761446506
 20
-0.3415529062743475
 10
2.131864306839301
 20
-0.3639084764167074
 10
2.105264045846838
 20
-0.3888884618590862
 10
2.079286660104109
 20
-0.4172386159091178
 10
2.054914763404668
 20
-0.448393578140953
 10
2.026648789737286
 20
-0.492301322260618
 10
2.002107673412722
 20
-0.5412212356943688
  0
LINE
  5
202
330
152
100
AcDbEntity
  8
AM_4
100
AcDbLine
 10
2.32551069659978
 20
-0.2592269058859149
 30
0.0
 11
2.32551069659978
 21
0.2592269058859152
 31
0.0
  0
LWPOLYLINE
  5
203
330
152
100
AcDbEntity
  8
AM_4
100
AcDbPolyline
 90
       17
 70
     0
 43
0.0
 10
2.118455071094021
 20
1.105206595465922
 10
2.087037381450071
 20
1.072936863494395
 10
2.057677837432242
 20
1.036654701514211
 10
2.03020018863746
 20
0.9950485108643161
 10
2.006171989826633
 20
0.9491255073000193
 10
1.992473295177996
 20
0.9162174501623791
 10
1.980884153265981
 20
0.8815104853238157
 10
1.971468072192486
 20
0.84417703149102
 10
1.964816508488111
 20
0.8052310348938518
 10
1.961647168411071
 20
0.772552500620081
 10
1.960627301756699
 20
0.7391078476012171
 10
1.961960762903557
 20
0.7041411697256944
 10
1.965810598857082
 20
0.6688008507076096
 10
1.971498261133683
 20
0.6369309262140264
 10
1.979313255961699
 20
0.6052034173375284
 10
1.989609070735205
 20
0.5728736941264015
 10
2.002107673412723
 20
0.5412212356943689
  0
LINE
  5
204
330
152
100
AcDbEntity
  8
AM_4
100
AcDbLine
 10
2.118455071094021
 20
1.105206595465922
 30
0.0
 11
2.08838602914691
 21
1.185
 31
0.0
  0
LINE
  5
205
330
152
100
AcDbEntity
  8
AM_4
100
AcDbLine
 10
0.9673099489472373
 20
0.5412212356943689
 30
0.0
 11
2.002107673412723
 21
0.5412212356943689
 31
0.0
  0
LWPOLYLINE
  5
206
330
152
100
AcDbEntity
  8
AM_4
100
AcDbPolyline
 90
       17
 70
     0
 43
0.0
 10
-2.002107673412722
 20
0.5412212356943691
 10
-1.989765886935357
 20
0.5724334815391973
 10
-1.979566037579456
 20
0.6043081827144212
 10
-1.971342151931848
 20
0.6376727892604105
 10
-1.965469796810685
 20
0.6711892400880605
 10
-1.962008745812133
 20
0.7034793987493168
 10
-1.960651670811785
 20
0.7354606897408102
 10
-1.961361823994226
 20
0.7677308339820967
 10
-1.964081348272866
 20
0.7993140273346158
 10
-1.970335966959197
 20
0.838676177491492
 10
-1.979423622367147
 20
0.8764382326551592
 10
-1.991431985866353
 20
0.9134146780142509
 10
-2.005831321154962
 20
0.9483813709795597
 10
-2.029141417929473
 20
0.9932492661747312
 10
-2.055754815522352
 20
1.034019161020691
 10
-2.085994291974965
 20
1.071760216779236
 10
-2.118455071094021
 20
1.105206595465922
  0
LINE
  5
207
330
152
100
AcDbEntity
  8
AM_4
100
AcDbLine
 10
-2.088386029146911
 20
1.185
 30
0.0
 11
-2.118455071094021
 21
1.105206595465922
 31
0.0
  0
LWPOLYLINE
  5
208
330
152
100
AcDbEntity
  8
AM_4
100
AcDbPolyline
 90
       13
 70
     0
 43
0.0
 10
-2.002107673412722
 20
-0.5412212356943685
 10
-2.019584608262488
 20
-0.5050841160968469
 10
-2.039415368524056
 20
-0.4712137041122813
 10
-2.06203488127759
 20
-0.438758703661847
 10
-2.086445792934209
 20
-0.4089777159773259
 10
-2.111384132218137
 20
-0.3828127900161067
 10
-2.137394432220261
 20
-0.3591515408278207
 10
-2.164767581815074
 20
-0.337552117123366
 10
-2.192760646576021
 20
-0.3184299169344171
 10
-2.225468094761885
 20
-0.2993758220704292
 10
-2.258464157487218
 20
-0.2833165769914984
 10
-2.292046341755057
 20
-0.2699008605150549
 10
-2.325510687297739
 20
-0.2592269084967245
  0
LINE
  5
209
330
152
100
AcDbEntity
  8
AM_4
100
AcDbLine
 10
-2.002107673412722
 20
-0.5412212356943685
 30
0.0
 11
-0.9673099489472373
 21
-0.5412212356943685
 31
0.0
  0
LINE
  5
20A
330
152
100
AcDbEntity
  8
AM_4
100
AcDbLine
 10
-2.002107673412722
 20
0.5412212356943691
 30
0.0
 11
-0.9673099489472373
 21
0.541221235694369
 31
0.0
  0
LWPOLYLINE
  5
20B
330
152
100
AcDbEntity
  8
AM_4
100
AcDbPolyline
 90
       11
 70
     0
 43
0.0
 10
-2.325510687297738
 20
0.2592269084967246
 10
-2.284250215439807
 20
0.2727662516140576
 10
-2.242877312631685
 20
0.2905295160793648
 10
-2.200732328725455
 20
0.3134785724726009
 10
-2.159391761446506
 20
0.3415529062743469
 10
-2.131864306839301
 20
0.3639084764167066
 10
-2.105264045846838
 20
0.3888884618590855
 10
-2.07928666010411
 20
0.417238615909117
 10
-2.054914763404668
 20
0.448393578140952
 10
-2.026648789737286
 20
0.4923013222606178
 10
-2.002107673412722
 20
0.5412212356943692
  0
LINE
  5
20C
330
152
100
AcDbEntity
  8
AM_4
100
AcDbLine
 10
-2.32551069659978
 20
0.2592269058859146
 30
0.0
 11
-2.32551069659978
 21
-0.2592269058859145
 31
0.0
  0
LWPOLYLINE
  5
20D
330
152
100
AcDbEntity
  8
AM_4
100
AcDbPolyline
 90
       14
 70
     0
 43
0.0
 10
2.002107673412722
 20
-0.5412212356943686
 10
1.98594561601974
 20
-0.5836578514199521
 10
1.973679837254435
 20
-0.6272955003219884
 10
1.965469796810685
 20
-0.6711892400880604
 10
1.96132176377558
 20
-0.7146681207646775
 10
1.960935675325647
 20
-0.7575920055985376
 10
1.964081348272866
 20
-0.7993140273346155
 10
1.973233717559072
 20
-0.8520860697020439
 10
1.987410240666173
 20
-0.9019960816921619
 10
2.005831321154962
 20
-0.9483813709795595
 10
2.029480476316784
 20
-0.9938016133548403
 10
2.056620623910482
 20
-1.035154558174158
 10
2.086522055412892
 20
-1.072327214573699
 10
2.118455062300848
 20
-1.105206591689646
  0
LINE
  5
20E
330
152
100
AcDbEntity
  8
AM_4
100
AcDbLine
 10
0.9673099489472373
 20
-0.5412212356943685
 30
0.0
 11
2.002107673412722
 21
-0.5412212356943686
 31
0.0
  0
LINE
  5
20F
330
152
100
AcDbEntity
  8
AM_4
100
AcDbLine
 10
2.088386029146909
 20
-1.185
 30
0.0
 11
2.118455062300848
 21
-1.105206591689646
 31
0.0
  0
LINE
  5
210
330
152
100
AcDbEntity
  8
AM_4
100
AcDbLine
 10
0.9683333333333333
 20
-1.185
 30
0.0
 11
0.9683333333333333
 21
-0.6065805757623851
 31
0.0
  0
LINE
  5
211
330
152
100
AcDbEntity
  8
AM_4
100
AcDbLine
 10
0.9673099489472373
 20
-0.5412212356943685
 30
0.0
 11
0.9683333333333333
 21
-0.6065805757623851
 31
0.0
  0
LINE
  5
212
330
152
100
AcDbEntity
  8
AM_4
100
AcDbLine
 10
0.9673099489472373
 20
0.5412212356943689
 30
0.0
 11
0.9673099489472373
 21
-0.5412212356943685
 31
0.0
  0
LINE
  5
213
330
152
100
AcDbEntity
  8
AM_4
100
AcDbLine
 10
0.9683333333333333
 20
0.6065805757623858
 30
0.0
 11
0.9673099489472373
 21
0.5412212356943689
 31
0.0
  0
LINE
  5
214
330
152
100
AcDbEntity
  8
AM_4
100
AcDbLine
 10
0.9683333333333333
 20
0.6065805757623858
 30
0.0
 11
0.9683333333333333
 21
1.185
 31
0.0
  0
LINE
  5
215
330
152
100
AcDbEntity
  8
AM_4
100
AcDbLine
 10
0.9683333333333333
 20
1.185
 30
0.0
 11
0.7958333333333332
 21
1.0125
 31
0.0
  0
LINE
  5
216
330
152
100
AcDbEntity
  8
AM_4
100
AcDbLine
 10
0.7958333333333331
 20
-1.0125
 30
0.0
 11
0.7958333333333331
 21
1.0125
 31
0.0
  0
LINE
  5
217
330
152
100
AcDbEntity
  8
AM_4
100
AcDbLine
 10
-0.7958333333333334
 20
1.012499999999999
 30
0.0
 11
0.7958333333333331
 21
1.0125
 31
0.0
  0
LINE
  5
218
330
152
100
AcDbEntity
  8
AM_4
100
AcDbLine
 10
-0.9683333333333333
 20
-1.185
 30
0.0
 11
-0.9683333333333334
 21
-0.6065805757623867
 31
0.0
  0
LINE
  5
219
330
152
100
AcDbEntity
  8
AM_4
100
AcDbLine
 10
-0.7958333333333334
 20
-1.0125
 30
0.0
 11
-0.7958333333333334
 21
1.012499999999999
 31
0.0
  0
LINE
  5
21A
330
152
100
AcDbEntity
  8
AM_4
100
AcDbLine
 10
-0.7958333333333331
 20
1.0125
 30
0.0
 11
-0.9683333333333334
 21
1.185
 31
0.0
  0
LINE
  5
21B
330
152
100
AcDbEntity
  8
AM_4
100
AcDbLine
 10
-0.9683333333333334
 20
0.6065805757623874
 30
0.0
 11
-0.9683333333333333
 21
1.185
 31
0.0
  0
LINE
  5
21C
330
152
100
AcDbEntity
  8
AM_4
100
AcDbLine
 10
-0.9673099489472373
 20
0.541221235694369
 30
0.0
 11
-0.9683333333333334
 21
0.6065805757623874
 31
0.0
  0
LINE
  5
21D
330
152
100
AcDbEntity
  8
AM_4
100
AcDbLine
 10
-0.9673099489472373
 20
-0.5412212356943685
 30
0.0
 11
-0.9673099489472373
 21
0.541221235694369
 31
0.0
  0
LINE
  5
21E
330
152
100
AcDbEntity
  8
AM_4
100
AcDbLine
 10
-0.9683333333333334
 20
-0.6065805757623867
 30
0.0
 11
-0.9673099489472373
 21
-0.5412212356943685
 31
0.0
  0
LINE
  5
21F
330
152
100
AcDbEntity
  8
AM_4
100
AcDbLine
 10
-0.7958333333333334
 20
-1.0125
 30
0.0
 11
0.7958333333333331
 21
-1.0125
 31
0.0
  0
LINE
  5
220
330
152
100
AcDbEntity
  8
AM_4
100
AcDbLine
 10
-0.9683333333333334
 20
-1.185
 30
0.0
 11
-0.795833338474234
 21
-1.012500005140901
 31
0.0
  0
LINE
  5
221
330
152
100
AcDbEntity
  8
AM_4
100
AcDbLine
 10
0.7958333333333331
 20
-1.0125
 30
0.0
 11
0.9683333333333334
 21
-1.185
 31
0.0
  0
LINE
  5
222
330
152
100
AcDbEntity
  8
AM_4
100
AcDbLine
 10
-0.72625
 20
0.1452500000000005
 30
0.0
 11
-0.72625
 21
-0.6100499999999999
 31
0.0
  0
ARC
  5
223
330
152
100
AcDbEntity
  8
AM_4
100
AcDbCircle
 10
-0.6100499999999999
 20
-0.6100499999999998
 30
0.0
 40
0.1162000000000001
100
AcDbArc
 50
180.0
 51
270.0
  0
LINE
  5
224
330
152
100
AcDbEntity
  8
AM_4
100
AcDbLine
 10
-0.6100500000000001
 20
-0.7262499999999998
 30
0.0
 11
0.1452499999999998
 21
-0.7262499999999998
 31
0.0
  0
ARC
  5
225
330
152
100
AcDbEntity
  8
AM_4
100
AcDbCircle
 10
0.1452499999999994
 20
-0.1452499999999993
 30
0.0
 40
0.5810000000000005
100
AcDbArc
 50
270.0
 51
0.0
  0
LINE
  5
226
330
152
100
AcDbEntity
  8
AM_4
100
AcDbLine
 10
0.72625
 20
-0.1452499999999998
 30
0.0
 11
0.72625
 21
0.6100500000000002
 31
0.0
  0
ARC
  5
227
330
152
100
AcDbEntity
  8
AM_4
100
AcDbCircle
 10
0.6100500000000002
 20
0.6100500000000002
 30
0.0
 40
0.1161999999999997
100
AcDbArc
 50
0.0
 51
90.0
  0
LINE
  5
228
330
152
100
AcDbEntity
  8
AM_4
100
AcDbLine
 10
0.6100500000000001
 20
0.7262500000000001
 30
0.0
 11
-0.1452499999999998
 21
0.7262500000000001
 31
0.0
  0
ARC
  5
229
330
152
100
AcDbEntity
  8
AM_4
100
AcDbCircle
 10
-0.1452500000000002
 20
0.1452500000000003
 30
0.0
 40
0.5809999999999997
100
AcDbArc
 50
90.0
 51
180.0
  0
LINE
  5
22A
330
152
100
AcDbEntity
  8
AM_4
100
AcDbLine
 10
-0.6262499999999999
 20
-0.4685149730810371
 30
0.0
 11
-0.6262499999999999
 21
-0.5839850269189623
 31
0.0
  0
LINE
  5
22B
330
152
100
AcDbEntity
  8
AM_4
100
AcDbLine
 10
-0.6262499999999999
 20
-0.5839850269189623
 30
0.0
 11
-0.5262499999999999
 21
-0.641720053837925
 31
0.0
  0
LINE
  5
22C
330
152
100
AcDbEntity
  8
AM_4
100
AcDbLine
 10
-0.5262499999999999
 20
-0.641720053837925
 30
0.0
 11
-0.4262499999999999
 21
-0.5839850269189623
 31
0.0
  0
LINE
  5
22D
330
152
100
AcDbEntity
  8
AM_4
100
AcDbLine
 10
-0.4262499999999999
 20
-0.5839850269189623
 30
0.0
 11
-0.4262499999999999
 21
-0.4685149730810371
 31
0.0
  0
LINE
  5
22E
330
152
100
AcDbEntity
  8
AM_4
100
AcDbLine
 10
-0.4262499999999999
 20
-0.4685149730810371
 30
0.0
 11
-0.5262499999999999
 21
-0.4107799461620746
 31
0.0
  0
LINE
  5
22F
330
152
100
AcDbEntity
  8
AM_4
100
AcDbLine
 10
-0.5262499999999999
 20
-0.4107799461620746
 30
0.0
 11
-0.6262499999999999
 21
-0.4685149730810371
 31
0.0
  0
LINE
  5
230
330
152
100
AcDbEntity
  8
AM_4
100
AcDbLine
 10
0.6262499999999999
 20
0.5839850269189627
 30
0.0
 11
0.5262499999999999
 21
0.6417200538379252
 31
0.0
  0
LINE
  5
231
330
152
100
AcDbEntity
  8
AM_4
100
AcDbLine
 10
0.5262499999999999
 20
0.6417200538379252
 30
0.0
 11
0.4262499999999999
 21
0.5839850269189627
 31
0.0
  0
LINE
  5
232
330
152
100
AcDbEntity
  8
AM_4
100
AcDbLine
 10
0.4262499999999999
 20
0.5839850269189627
 30
0.0
 11
0.4262499999999999
 21
0.4685149730810375
 31
0.0
  0
LINE
  5
233
330
152
100
AcDbEntity
  8
AM_4
100
AcDbLine
 10
0.4262499999999999
 20
0.4685149730810375
 30
0.0
 11
0.5262499999999999
 21
0.410779946162075
 31
0.0
  0
LINE
  5
234
330
152
100
AcDbEntity
  8
AM_4
100
AcDbLine
 10
0.5262499999999999
 20
0.410779946162075
 30
0.0
 11
0.6262499999999999
 21
0.4685149730810375
 31
0.0
  0
LINE
  5
235
330
152
100
AcDbEntity
  8
AM_4
100
AcDbLine
 10
0.6262499999999999
 20
0.4685149730810375
 30
0.0
 11
0.6262499999999999
 21
0.5839850269189627
 31
0.0
  0
ENDBLK
  5
155
330
152
100
AcDbEntity
  8
0
100
AcDbBlockEnd
  0
ENDSEC
  0
SECTION
  2
ENTITIES
  0
INSERT
  5
6F
330
1F
100
AcDbEntity
  8
0
100
AcDbBlockReference
  2
1_023195_4
 10
0.0
 20
0.0
 30
0.0
  0
POINT
  5
237
330
1F
100
AcDbEntity
  8
ConnectionPoints
100
AcDbPoint
 10
0.0
 20
0.0075000000000002
 30
2.55
  0
POINT
  5
238
330
1F
100
AcDbEntity
  8
ConnectionPoints
100
AcDbPoint
 10
0.0
 20
0.0075000000000002
 30
2.55
  0
POINT
  5
239
330
1F
100
AcDbEntity
  8
ConnectionPoints
100
AcDbPoint
 10
0.0
 20
0.0075000000000001
 30
0.0
  0
POINT
  5
23A
330
1F
100
AcDbEntity
  8
ConnectionPoints
100
AcDbPoint
 10
0.0
 20
-1.68
 30
0.0000000000000001
  0
POINT
  5
23B
330
1F
100
AcDbEntity
  8
ConnectionPoints
100
AcDbPoint
 10
0.0
 20
1.430375
 30
-0.0000000000000001
  0
POINT
  5
23C
330
1F
100
AcDbEntity
  8
ConnectionPoints
100
AcDbPoint
 10
0.0
 20
0.0
 30
0.0
  0
POINT
  5
23D
330
1F
100
AcDbEntity
  8
ConnectionPoints
100
AcDbPoint
 10
0.0
 20
-1.68
 30
0.0000000000000001
  0
ENDSEC
  0
SECTION
  2
OBJECTS
  0
DICTIONARY
  5
C
330
0
100
AcDbDictionary
281
     1
  3
ACAD_DETAILVIEWSTYLE
350
245
  3
ACAD_GROUP
350
D
  3
ACAD_LAYOUT
350
1A
  3
ACAD_MATERIAL
350
43
  3
ACAD_MLEADERSTYLE
350
6B
  3
ACAD_MLINESTYLE
350
17
  3
ACAD_PLOTSETTINGS
350
19
  3
ACAD_PLOTSTYLENAME
350
E
  3
ACAD_SCALELIST
350
47
  3
ACAD_SECTIONVIEWSTYLE
350
246
  3
ACAD_TABLESTYLE
350
69
  3
ACAD_VISUALSTYLE
350
2A
  3
ACDB_RECOMPOSE_DATA
350
242
  3
AcDbVariableDictionary
350
23E
  0
SUN
  5
6D
330
29
100
AcDbSun
 90
        1
290
     0
 63
     7
421
 16777215
 40
1.0
291
     1
 91
  2455826
 92
 54000000
292
     0
 70
     2
 71
   256
280
     1
  0
DICTIONARY
  5
245
102
{ACAD_REACTORS
330
C
102
}
330
C
100
AcDbDictionary
281
     1
  0
DICTIONARY
  5
D
102
{ACAD_REACTORS
330
C
102
}
330
C
100
AcDbDictionary
281
     1
  0
DICTIONARY
  5
1A
102
{ACAD_REACTORS
330
C
102
}
330
C
100
AcDbDictionary
281
     1
  3
Layout1
350
1E
  3
Layout2
350
26
  3
Model
350
22
  0
DICTIONARY
  5
43
102
{ACAD_REACTORS
330
C
102
}
330
C
100
AcDbDictionary
281
     1
  3
ByBlock
350
45
  3
ByLayer
350
44
  3
Global
350
46
  0
DICTIONARY
  5
6B
102
{ACAD_REACTORS
330
C
102
}
330
C
100
AcDbDictionary
281
     1
  3
Standard
350
6C
  0
DICTIONARY
  5
17
102
{ACAD_REACTORS
330
C
102
}
330
C
100
AcDbDictionary
281
     1
  3
Standard
350
18
  0
DICTIONARY
  5
19
102
{ACAD_REACTORS
330
C
102
}
330
C
100
AcDbDictionary
281
     1
  0
ACDBDICTIONARYWDFLT
  5
E
102
{ACAD_REACTORS
330
C
102
}
330
C
100
AcDbDictionary
281
     1
  3
Normal
350
F
100
AcDbDictionaryWithDefault
340
F
  0
DICTIONARY
  5
47
102
{ACAD_REACTORS
330
C
102
}
330
C
100
AcDbDictionary
281
     1
  3
A0
350
48
  3
A1
350
49
  3
A2
350
4A
  3
A3
350
4B
  3
A4
350
4C
  3
A5
350
4D
  3
A6
350
4E
  3
A7
350
4F
  3
A8
350
50
  3
A9
350
51
  3
B0
350
52
  3
B1
350
53
  3
B2
350
54
  3
B3
350
55
  3
B4
350
56
  3
B5
350
57
  3
B6
350
58
  3
B7
350
59
  3
B8
350
5A
  3
B9
350
5B
  3
C0
350
5C
  3
C1
350
5D
  3
C2
350
5E
  3
C3
350
5F
  3
C4
350
60
  3
C5
350
61
  3
C6
350
62
  3
C7
350
63
  3
C8
350
64
  3
C9
350
65
  3
D0
350
66
  3
D1
350
67
  3
D2
350
68
  0
DICTIONARY
  5
246
102
{ACAD_REACTORS
330
C
102
}
330
C
100
AcDbDictionary
281
     1
  0
DICTIONARY
  5
69
102
{ACAD_REACTORS
330
C
102
}
330
C
100
AcDbDictionary
281
     1
  3
Standard
350
6A
  0
DICTIONARY
  5
2A
102
{ACAD_REACTORS
330
C
102
}
330
C
100
AcDbDictionary
281
     1
  3
2dWireframe
350
2F
  3
Basic
350
32
  3
Brighten
350
36
  3
ColorChange
350
3A
  3
Conceptual
350
34
  3
Dim
350
35
  3
EdgeColorOff
350
3D
  3
Facepattern
350
39
  3
Flat
350
2B
  3
FlatWithEdges
350
2C
  3
Gouraud
350
2D
  3
GouraudWithEdges
350
2E
  3
Hidden
350
31
  3
JitterOff
350
3B
  3
Linepattern
350
38
  3
OverhangOff
350
3C
  3
Realistic
350
33
  3
Shaded
350
42
  3
Shaded with edges
350
41
  3
Shades of Gray
350
3E
  3
Sketchy
350
3F
  3
Thicken
350
37
  3
Wireframe
350
30
  3
X-Ray
350
40
  0
XRECORD
  5
242
102
{ACAD_REACTORS
330
C
102
}
330
C
100
AcDbXrecord
280
     1
 90
        1
330
6A
  0
DICTIONARY
  5
23E
102
{ACAD_REACTORS
330
C
102
}
330
C
100
AcDbDictionary
281
     1
  3
CANNOSCALE
350
23F
  3
CMLEADERSTYLE
350
244
  3
CTABLESTYLE
350
243
  0
LAYOUT
  5
1E
102
{ACAD_REACTORS
330
1A
102
}
330
1A
100
AcDbPlotSettings
  1

  2
none_device
  4

  6

 40
0.0
 41
0.0
 42
0.0
 43
0.0
 44
0.0
 45
0.0
 46
0.0
 47
0.0
 48
0.0
 49
0.0
140
0.0
141
0.0
142
1.0
143
1.0
 70
   688
 72
     0
 73
     0
 74
     5
  7

 75
    16
 76
     0
 77
     2
 78
   300
147
1.0
148
0.0
149
0.0
100
AcDbLayout
  1
Layout1
 70
     1
 71
     1
 10
0.0
 20
0.0
 11
12.0
 21
9.0
 12
0.0
 22
0.0
 32
0.0
 14
1.000000000000000E+20
 24
1.000000000000000E+20
 34
1.000000000000000E+20
 15
-1.000000000000000E+20
 25
-1.000000000000000E+20
 35
-1.000000000000000E+20
146
0.0
 13
0.0
 23
0.0
 33
0.0
 16
1.0
 26
0.0
 36
0.0
 17
0.0
 27
1.0
 37
0.0
 76
     0
330
1B
  0
LAYOUT
  5
26
102
{ACAD_REACTORS
330
1A
102
}
330
1A
100
AcDbPlotSettings
  1

  2
none_device
  4

  6

 40
0.0
 41
0.0
 42
0.0
 43
0.0
 44
0.0
 45
0.0
 46
0.0
 47
0.0
 48
0.0
 49
0.0
140
0.0
141
0.0
142
1.0
143
1.0
 70
   688
 72
     0
 73
     0
 74
     5
  7

 75
    16
 76
     0
 77
     2
 78
   300
147
1.0
148
0.0
149
0.0
100
AcDbLayout
  1
Layout2
 70
     1
 71
     2
 10
0.0
 20
0.0
 11
0.0
 21
0.0
 12
0.0
 22
0.0
 32
0.0
 14
0.0
 24
0.0
 34
0.0
 15
0.0
 25
0.0
 35
0.0
146
0.0
 13
0.0
 23
0.0
 33
0.0
 16
1.0
 26
0.0
 36
0.0
 17
0.0
 27
1.0
 37
0.0
 76
     0
330
23
  0
LAYOUT
  5
22
102
{ACAD_REACTORS
330
1A
102
}
330
1A
100
AcDbPlotSettings
  1

  2
none_device
  4
Letter_(8.50_x_11.00_Inches)
  6

 40
6.35
 41
6.35
 42
6.35000508
 43
6.35000508
 44
215.9
 45
279.4
 46
0.0
 47
0.0
 48
0.0
 49
0.0
140
0.0
141
0.0
142
1.0
143
1.0
 70
  1712
 72
     0
 73
     0
 74
     0
  7

 75
     0
 76
     0
 77
     2
 78
   300
147
1.0
148
0.0
149
0.0
100
AcDbLayout
  1
Model
 70
     1
 71
     0
 10
0.0
 20
0.0
 11
12.0
 21
9.0
 12
0.0
 22
0.0
 32
0.0
 14
1.000000000000000E+20
 24
1.000000000000000E+20
 34
1.000000000000000E+20
 15
-1.000000000000000E+20
 25
-1.000000000000000E+20
 35
-1.000000000000000E+20
146
0.0
 13
0.0
 23
0.0
 33
0.0
 16
1.0
 26
0.0
 36
0.0
 17
0.0
 27
1.0
 37
0.0
 76
     0
330
1F
331
29
  0
MATERIAL
  5
45
102
{ACAD_REACTORS
330
43
102
}
330
43
100
AcDbMaterial
  1
ByBlock
 72
     1
 94
      127
  0
MATERIAL
  5
44
102
{ACAD_REACTORS
330
43
102
}
330
43
100
AcDbMaterial
  1
ByLayer
 72
     1
 94
      127
  0
MATERIAL
  5
46
102
{ACAD_REACTORS
330
43
102
}
330
43
100
AcDbMaterial
  1
Global
 72
     1
 94
      127
  0
MLEADERSTYLE
  5
6C
102
{ACAD_REACTORS
330
6B
102
}
330
6B
100
AcDbMLeaderStyle
179
     2
170
     2
171
     1
172
     0
 90
        2
 40
0.0
 41
0.0
173
     1
 91
-1056964608
340
14
 92
       -2
290
     1
 42
0.09
291
     1
 43
0.36
  3
Standard
341
0
 44
0.18
300

342
11
174
     1
178
     6
175
     1
176
     0
 93
-1056964608
 45
0.18
292
     0
297
     0
 46
0.18
343
0
 94
-1056964608
 47
1.0
 49
1.0
140
1.0
293
     1
141
0.0
294
     1
177
     0
142
1.0
295
     0
296
     0
143
0.125
271
     0
272
     9
273
     9
298
     0
  0
MLINESTYLE
  5
18
102
{ACAD_REACTORS
330
17
102
}
330
17
100
AcDbMlineStyle
  2
Standard
 70
     0
  3

 62
   256
 51
90.0
 52
90.0
 71
     2
 49
0.5
 62
   256
  6
BYLAYER
 49
-0.5
 62
   256
  6
BYLAYER
  0
ACDBPLACEHOLDER
  5
F
102
{ACAD_REACTORS
330
E
102
}
330
E
  0
SCALE
  5
48
102
{ACAD_REACTORS
330
47
102
}
330
47
100
AcDbScale
 70
     0
300
1:1
140
1.0
141
1.0
290
     1
  0
SCALE
  5
49
102
{ACAD_REACTORS
330
47
102
}
330
47
100
AcDbScale
 70
     0
300
1:2
140
1.0
141
2.0
290
     0
  0
SCALE
  5
4A
102
{ACAD_REACTORS
330
47
102
}
330
47
100
AcDbScale
 70
     0
300
1:4
140
1.0
141
4.0
290
     0
  0
SCALE
  5
4B
102
{ACAD_REACTORS
330
47
102
}
330
47
100
AcDbScale
 70
     0
300
1:5
140
1.0
141
5.0
290
     0
  0
SCALE
  5
4C
102
{ACAD_REACTORS
330
47
102
}
330
47
100
AcDbScale
 70
     0
300
1:8
140
1.0
141
8.0
290
     0
  0
SCALE
  5
4D
102
{ACAD_REACTORS
330
47
102
}
330
47
100
AcDbScale
 70
     0
300
1:10
140
1.0
141
10.0
290
     0
  0
SCALE
  5
4E
102
{ACAD_REACTORS
330
47
102
}
330
47
100
AcDbScale
 70
     0
300
1:16
140
1.0
141
16.0
290
     0
  0
SCALE
  5
4F
102
{ACAD_REACTORS
330
47
102
}
330
47
100
AcDbScale
 70
     0
300
1:20
140
1.0
141
20.0
290
     0
  0
SCALE
  5
50
102
{ACAD_REACTORS
330
47
102
}
330
47
100
AcDbScale
 70
     0
300
1:30
140
1.0
141
30.0
290
     0
  0
SCALE
  5
51
102
{ACAD_REACTORS
330
47
102
}
330
47
100
AcDbScale
 70
     0
300
1:40
140
1.0
141
40.0
290
     0
  0
SCALE
  5
52
102
{ACAD_REACTORS
330
47
102
}
330
47
100
AcDbScale
 70
     0
300
1:50
140
1.0
141
50.0
290
     0
  0
SCALE
  5
53
102
{ACAD_REACTORS
330
47
102
}
330
47
100
AcDbScale
 70
     0
300
1:100
140
1.0
141
100.0
290
     0
  0
SCALE
  5
54
102
{ACAD_REACTORS
330
47
102
}
330
47
100
AcDbScale
 70
     0
300
2:1
140
2.0
141
1.0
290
     0
  0
SCALE
  5
55
102
{ACAD_REACTORS
330
47
102
}
330
47
100
AcDbScale
 70
     0
300
4:1
140
4.0
141
1.0
290
     0
  0
SCALE
  5
56
102
{ACAD_REACTORS
330
47
102
}
330
47
100
AcDbScale
 70
     0
300
8:1
140
8.0
141
1.0
290
     0
  0
SCALE
  5
57
102
{ACAD_REACTORS
330
47
102
}
330
47
100
AcDbScale
 70
     0
300
10:1
140
10.0
141
1.0
290
     0
  0
SCALE
  5
58
102
{ACAD_REACTORS
330
47
102
}
330
47
100
AcDbScale
 70
     0
300
100:1
140
100.0
141
1.0
290
     0
  0
SCALE
  5
59
102
{ACAD_REACTORS
330
47
102
}
330
47
100
AcDbScale
 70
     0
300
1/128" = 1'-0"
140
0.0078125
141
12.0
290
     0
  0
SCALE
  5
5A
102
{ACAD_REACTORS
330
47
102
}
330
47
100
AcDbScale
 70
     0
300
1/64" = 1'-0"
140
0.015625
141
12.0
290
     0
  0
SCALE
  5
5B
102
{ACAD_REACTORS
330
47
102
}
330
47
100
AcDbScale
 70
     0
300
1/32" = 1'-0"
140
0.03125
141
12.0
290
     0
  0
SCALE
  5
5C
102
{ACAD_REACTORS
330
47
102
}
330
47
100
AcDbScale
 70
     0
300
1/16" = 1'-0"
140
0.0625
141
12.0
290
     0
  0
SCALE
  5
5D
102
{ACAD_REACTORS
330
47
102
}
330
47
100
AcDbScale
 70
     0
300
3/32" = 1'-0"
140
0.09375
141
12.0
290
     0
  0
SCALE
  5
5E
102
{ACAD_REACTORS
330
47
102
}
330
47
100
AcDbScale
 70
     0
300
1/8" = 1'-0"
140
0.125
141
12.0
290
     0
  0
SCALE
  5
5F
102
{ACAD_REACTORS
330
47
102
}
330
47
100
AcDbScale
 70
     0
300
3/16" = 1'-0"
140
0.1875
141
12.0
290
     0
  0
SCALE
  5
60
102
{ACAD_REACTORS
330
47
102
}
330
47
100
AcDbScale
 70
     0
300
1/4" = 1'-0"
140
0.25
141
12.0
290
     0
  0
SCALE
  5
61
102
{ACAD_REACTORS
330
47
102
}
330
47
100
AcDbScale
 70
     0
300
3/8" = 1'-0"
140
0.375
141
12.0
290
     0
  0
SCALE
  5
62
102
{ACAD_REACTORS
330
47
102
}
330
47
100
AcDbScale
 70
     0
300
1/2" = 1'-0"
140
0.5
141
12.0
290
     0
  0
SCALE
  5
63
102
{ACAD_REACTORS
330
47
102
}
330
47
100
AcDbScale
 70
     0
300
3/4" = 1'-0"
140
0.75
141
12.0
290
     0
  0
SCALE
  5
64
102
{ACAD_REACTORS
330
47
102
}
330
47
100
AcDbScale
 70
     0
300
1" = 1'-0"
140
1.0
141
12.0
290
     0
  0
SCALE
  5
65
102
{ACAD_REACTORS
330
47
102
}
330
47
100
AcDbScale
 70
     0
300
1-1/2" = 1'-0"
140
1.5
141
12.0
290
     0
  0
SCALE
  5
66
102
{ACAD_REACTORS
330
47
102
}
330
47
100
AcDbScale
 70
     0
300
3" = 1'-0"
140
3.0
141
12.0
290
     0
  0
SCALE
  5
67
102
{ACAD_REACTORS
330
47
102
}
330
47
100
AcDbScale
 70
     0
300
6" = 1'-0"
140
6.0
141
12.0
290
     0
  0
SCALE
  5
68
102
{ACAD_REACTORS
330
47
102
}
330
47
100
AcDbScale
 70
     0
300
1'-0" = 1'-0"
140
12.0
141
12.0
290
     0
  0
TABLESTYLE
  5
6A
102
{ACAD_REACTORS
330
69
102
}
102
{ACAD_XDICTIONARY
360
240
102
}
330
69
100
AcDbTableStyle
  3
Standard
 70
     0
 71
     0
 40
0.06
 41
0.06
280
     0
281
     0
  7
Standard
140
0.18
170
     2
 62
     0
 63
   257
283
     0
 90
        4
 91
        0
  1

274
    -2
284
     1
 64
     0
275
    -2
285
     1
 65
     0
276
    -2
286
     1
 66
     0
277
    -2
287
     1
 67
     0
278
    -2
288
     1
 68
     0
279
    -2
289
     1
 69
     0
  7
Standard
140
0.25
170
     5
 62
     0
 63
   257
283
     0
 90
        4
 91
        0
  1

274
    -2
284
     1
 64
     0
275
    -2
285
     1
 65
     0
276
    -2
286
     1
 66
     0
277
    -2
287
     1
 67
     0
278
    -2
288
     1
 68
     0
279
    -2
289
     1
 69
     0
  7
Standard
140
0.18
170
     5
 62
     0
 63
   257
283
     0
 90
        4
 91
        0
  1

274
    -2
284
     1
 64
     0
275
    -2
285
     1
 65
     0
276
    -2
286
     1
 66
     0
277
    -2
287
     1
 67
     0
278
    -2
288
     1
 68
     0
279
    -2
289
     1
 69
     0
  0
VISUALSTYLE
  5
2F
102
{ACAD_REACTORS
330
2A
102
}
330
2A
100
AcDbVisualStyle
  2
2dWireframe
 70
     4
177
     3
291
     0
 70
    58
 90
        0
176
     1
 90
        2
176
     1
 90
        0
176
     1
 90
        0
176
     1
 40
0.6
176
     1
 40
30.0
176
     1
 62
     7
420
 16777215
176
     1
 90
        1
176
     1
 90
        4
176
     1
 62
     7
176
     1
 62
   257
176
     1
 90
        1
176
     1
 90
        1
176
     1
 40
1.0
176
     1
 90
        0
176
     1
 62
   257
176
     1
 40
1.0
176
     1
 90
        1
176
     1
 90
        6
176
     1
 90
        2
176
     1
 62
     7
176
     1
 90
        5
176
     1
 90
        0
176
     1
 90
        0
176
     1
290
     0
176
     1
 90
        1
176
     1
 40
0.0
176
     1
 90
        0
176
     1
290
     1
176
     1
290
     1
176
     1
290
     0
176
     1
290
     0
176
     1
290
     0
176
     1
290
     0
176
     1
290
     0
176
     1
290
     0
176
     1
290
     0
176
     1
 90
       50
176
     1
 40
0.0
176
     1
 40
1.0
176
     1
 90
        0
176
     1
 62
    18
420
        0
176
     1
 90
       50
176
     1
 90
        3
176
     1
 62
     5
420
      255
176
     1
290
     0
176
     1
 90
       50
176
     1
 90
       50
176
     1
 90
       50
176
     1
290
     0
176
     1
 90
       50
176
     1
 62
   256
176
     0
 40
1.0
176
     0
 90
        2
176
     1
  1
strokes_ogs.tif
176
     1
290
     0
176
     1
 40
1.0
176
     1
 40
1.0
176
     1
  0
VISUALSTYLE
  5
32
102
{ACAD_REACTORS
330
2A
102
}
330
2A
100
AcDbVisualStyle
  2
Basic
 70
     7
177
     3
291
     1
 70
    58
 90
        1
176
     1
 90
        0
176
     1
 90
        1
176
     1
 90
        0
176
     1
 40
0.6
176
     1
 40
30.0
176
     1
 62
     7
420
 16777215
176
     1
 90
        0
176
     1
 90
        4
176
     1
 62
     7
176
     1
 62
   257
176
     1
 90
        1
176
     1
 90
        1
176
     1
 40
1.0
176
     1
 90
        8
176
     1
 62
     7
176
     1
 40
1.0
176
     1
 90
        1
176
     1
 90
        6
176
     1
 90
        2
176
     1
 62
     7
176
     1
 90
        5
176
     1
 90
        0
176
     1
 90
        0
176
     1
290
     0
176
     1
 90
        1
176
     1
 40
0.0
176
     1
 90
        0
176
     1
290
     0
176
     1
290
     1
176
     1
290
     1
176
     1
290
     0
176
     1
290
     0
176
     1
290
     0
176
     1
290
     0
176
     1
290
     0
176
     1
290
     0
176
     1
 90
       50
176
     1
 40
0.0
176
     1
 40
1.0
176
     1
 90
        0
176
     1
 62
    18
420
        0
176
     1
 90
       50
176
     1
 90
        3
176
     1
 62
     5
420
      255
176
     1
290
     0
176
     1
 90
       50
176
     1
 90
       50
176
     1
 90
       50
176
     1
290
     0
176
     1
 90
       50
176
     1
 62
   256
176
     0
 40
1.0
176
     0
 90
        2
176
     1
  1
strokes_ogs.tif
176
     1
290
     0
176
     1
 40
1.0
176
     1
 40
1.0
176
     1
  0
VISUALSTYLE
  5
36
102
{ACAD_REACTORS
330
2A
102
}
330
2A
100
AcDbVisualStyle
  2
Brighten
 70
    12
177
     3
291
     1
 70
    58
 90
        2
176
     1
 90
        2
176
     1
 90
        0
176
     1
 90
        0
176
     1
 40
0.6
176
     1
 40
30.0
176
     1
 62
     7
420
 16777215
176
     1
 90
        1
176
     1
 90
        4
176
     1
 62
     7
176
     1
 62
   257
176
     1
 90
        1
176
     1
 90
        1
176
     1
 40
1.0
176
     1
 90
        8
176
     1
 62
     7
176
     1
 40
1.0
176
     1
 90
        1
176
     1
 90
        6
176
     1
 90
        2
176
     1
 62
     7
176
     1
 90
        5
176
     1
 90
        0
176
     1
 90
        0
176
     1
290
     0
176
     1
 90
        1
176
     1
 40
50.0
176
     1
 90
        0
176
     1
290
     0
176
     1
290
     1
176
     1
290
     1
176
     1
290
     0
176
     1
290
     0
176
     1
290
     0
176
     1
290
     0
176
     1
290
     0
176
     1
290
     0
176
     1
 90
       50
176
     1
 40
0.0
176
     1
 40
1.0
176
     1
 90
        0
176
     1
 62
    18
420
        0
176
     1
 90
       50
176
     1
 90
        3
176
     1
 62
     5
420
      255
176
     1
290
     0
176
     1
 90
       50
176
     1
 90
       50
176
     1
 90
       50
176
     1
290
     0
176
     1
 90
       50
176
     1
 62
   256
176
     0
 40
1.0
176
     0
 90
        2
176
     1
  1
strokes_ogs.tif
176
     1
290
     0
176
     1
 40
1.0
176
     1
 40
1.0
176
     1
  0
VISUALSTYLE
  5
3A
102
{ACAD_REACTORS
330
2A
102
}
330
2A
100
AcDbVisualStyle
  2
ColorChange
 70
    16
177
     3
291
     1
 70
    58
 90
        2
176
     1
 90
        2
176
     1
 90
        3
176
     1
 90
        0
176
     1
 40
0.6
176
     1
 40
30.0
176
     1
 62
     8
420
  8421504
176
     1
 90
        1
176
     1
 90
        4
176
     1
 62
     7
176
     1
 62
   257
176
     1
 90
        1
176
     1
 90
        1
176
     1
 40
1.0
176
     1
 90
        8
176
     1
 62
     8
420
  8421504
176
     1
 40
1.0
176
     1
 90
        1
176
     1
 90
        6
176
     1
 90
        2
176
     1
 62
     7
176
     1
 90
        5
176
     1
 90
        0
176
     1
 90
        0
176
     1
290
     0
176
     1
 90
        1
176
     1
 40
0.0
176
     1
 90
        0
176
     1
290
     0
176
     1
290
     1
176
     1
290
     1
176
     1
290
     0
176
     1
290
     0
176
     1
290
     0
176
     1
290
     0
176
     1
290
     0
176
     1
290
     0
176
     1
 90
       50
176
     1
 40
0.0
176
     1
 40
1.0
176
     1
 90
        0
176
     1
 62
    18
420
        0
176
     1
 90
       50
176
     1
 90
        3
176
     1
 62
     5
420
      255
176
     1
290
     0
176
     1
 90
       50
176
     1
 90
       50
176
     1
 90
       50
176
     1
290
     0
176
     1
 90
       50
176
     1
 62
   256
176
     0
 40
1.0
176
     0
 90
        2
176
     1
  1
strokes_ogs.tif
176
     1
290
     0
176
     1
 40
1.0
176
     1
 40
1.0
176
     1
  0
VISUALSTYLE
  5
34
102
{ACAD_REACTORS
330
2A
102
}
330
2A
100
AcDbVisualStyle
  2
Conceptual
 70
     9
177
     3
291
     0
 70
    58
 90
        3
176
     1
 90
        2
176
     1
 90
        0
176
     1
 90
        0
176
     1
 40
0.6
176
     1
 40
30.0
176
     1
 62
     7
420
 16777215
176
     1
 90
        2
176
     1
 90
        2
176
     1
 62
     7
176
     1
 62
   257
176
     1
 90
        1
176
     1
 90
        1
176
     1
 40
179.0
176
     1
 90
        8
176
     1
 62
     7
176
     1
 40
1.0
176
     1
 90
        1
176
     1
 90
        6
176
     1
 90
        2
176
     1
 62
     7
176
     1
 90
        3
176
     1
 90
        0
176
     1
 90
        0
176
     1
290
     0
176
     1
 90
        1
176
     1
 40
0.0
176
     1
 90
        0
176
     1
290
     0
176
     1
290
     1
176
     1
290
     1
176
     1
290
     0
176
     1
290
     0
176
     1
290
     0
176
     1
290
     0
176
     1
290
     0
176
     1
290
     0
176
     1
 90
       50
176
     1
 40
0.0
176
     1
 40
1.0
176
     1
 90
        0
176
     1
 62
    18
420
        0
176
     1
 90
       50
176
     1
 90
        3
176
     1
 62
     5
420
      255
176
     1
290
     0
176
     1
 90
       50
176
     1
 90
       50
176
     1
 90
       50
176
     1
290
     0
176
     1
 90
       50
176
     1
 62
   256
176
     0
 40
1.0
176
     0
 90
        2
176
     1
  1
strokes_ogs.tif
176
     1
290
     0
176
     1
 40
1.0
176
     1
 40
1.0
176
     1
  0
VISUALSTYLE
  5
35
102
{ACAD_REACTORS
330
2A
102
}
330
2A
100
AcDbVisualStyle
  2
Dim
 70
    11
177
     3
291
     1
 70
    58
 90
        2
176
     1
 90
        2
176
     1
 90
        0
176
     1
 90
        0
176
     1
 40
0.6
176
     1
 40
30.0
176
     1
 62
     7
420
 16777215
176
     1
 90
        1
176
     1
 90
        4
176
     1
 62
     7
176
     1
 62
   257
176
     1
 90
        1
176
     1
 90
        1
176
     1
 40
1.0
176
     1
 90
        8
176
     1
 62
     7
176
     1
 40
1.0
176
     1
 90
        1
176
     1
 90
        6
176
     1
 90
        2
176
     1
 62
     7
176
     1
 90
        5
176
     1
 90
        0
176
     1
 90
        0
176
     1
290
     0
176
     1
 90
        1
176
     1
 40
-50.0
176
     1
 90
        0
176
     1
290
     0
176
     1
290
     1
176
     1
290
     1
176
     1
290
     0
176
     1
290
     0
176
     1
290
     0
176
     1
290
     0
176
     1
290
     0
176
     1
290
     0
176
     1
 90
       50
176
     1
 40
0.0
176
     1
 40
1.0
176
     1
 90
        0
176
     1
 62
    18
420
        0
176
     1
 90
       50
176
     1
 90
        3
176
     1
 62
     5
420
      255
176
     1
290
     0
176
     1
 90
       50
176
     1
 90
       50
176
     1
 90
       50
176
     1
290
     0
176
     1
 90
       50
176
     1
 62
   256
176
     0
 40
1.0
176
     0
 90
        2
176
     1
  1
strokes_ogs.tif
176
     1
290
     0
176
     1
 40
1.0
176
     1
 40
1.0
176
     1
  0
VISUALSTYLE
  5
3D
102
{ACAD_REACTORS
330
2A
102
}
330
2A
100
AcDbVisualStyle
  2
EdgeColorOff
 70
    22
177
     3
291
     1
 70
    58
 90
        2
176
     0
 90
        2
176
     0
 90
        0
176
     0
 90
        0
176
     0
 40
0.6
176
     0
 40
30.0
176
     0
 62
     7
420
 16777215
176
     0
 90
        1
176
     0
 90
        4
176
     0
 62
     7
176
     0
 62
   257
176
     0
 90
        1
176
     0
 90
        1
176
     0
 40
1.0
176
     0
 90
        8
176
     2
 62
     7
176
     0
 40
1.0
176
     0
 90
        1
176
     0
 90
        6
176
     0
 90
        2
176
     0
 62
     7
176
     0
 90
        5
176
     0
 90
        0
176
     0
 90
        0
176
     0
290
     0
176
     0
 90
        1
176
     0
 40
0.0
176
     0
 90
        0
176
     0
290
     0
176
     0
290
     1
176
     0
290
     1
176
     0
290
     0
176
     0
290
     0
176
     0
290
     0
176
     0
290
     0
176
     0
290
     0
176
     0
290
     0
176
     0
 90
       50
176
     0
 40
0.0
176
     0
 40
1.0
176
     0
 90
        0
176
     0
 62
    18
420
        0
176
     0
 90
       50
176
     0
 90
        3
176
     0
 62
     5
420
      255
176
     0
290
     0
176
     0
 90
       50
176
     0
 90
       50
176
     0
 90
       50
176
     0
290
     0
176
     0
 90
       50
176
     0
 62
   256
176
     0
 40
1.0
176
     0
 90
        2
176
     0
  1
strokes_ogs.tif
176
     0
290
     0
176
     0
 40
1.0
176
     0
 40
1.0
176
     0
  0
VISUALSTYLE
  5
39
102
{ACAD_REACTORS
330
2A
102
}
330
2A
100
AcDbVisualStyle
  2
Facepattern
 70
    15
177
     3
291
     1
 70
    58
 90
        2
176
     1
 90
        2
176
     1
 90
        0
176
     1
 90
        0
176
     1
 40
0.6
176
     1
 40
30.0
176
     1
 62
     7
420
 16777215
176
     1
 90
        1
176
     1
 90
        4
176
     1
 62
     7
176
     1
 62
   257
176
     1
 90
        1
176
     1
 90
        1
176
     1
 40
1.0
176
     1
 90
        8
176
     1
 62
     7
176
     1
 40
1.0
176
     1
 90
        1
176
     1
 90
        6
176
     1
 90
        2
176
     1
 62
     7
176
     1
 90
        5
176
     1
 90
        0
176
     1
 90
        0
176
     1
290
     0
176
     1
 90
        1
176
     1
 40
0.0
176
     1
 90
        0
176
     1
290
     0
176
     1
290
     1
176
     1
290
     1
176
     1
290
     0
176
     1
290
     0
176
     1
290
     0
176
     1
290
     0
176
     1
290
     0
176
     1
290
     0
176
     1
 90
       50
176
     1
 40
0.0
176
     1
 40
1.0
176
     1
 90
        0
176
     1
 62
    18
420
        0
176
     1
 90
       50
176
     1
 90
        3
176
     1
 62
     5
420
      255
176
     1
290
     0
176
     1
 90
       50
176
     1
 90
       50
176
     1
 90
       50
176
     1
290
     0
176
     1
 90
       50
176
     1
 62
   256
176
     0
 40
1.0
176
     0
 90
        2
176
     1
  1
strokes_ogs.tif
176
     1
290
     0
176
     1
 40
1.0
176
     1
 40
1.0
176
     1
  0
VISUALSTYLE
  5
2B
102
{ACAD_REACTORS
330
2A
102
}
330
2A
100
AcDbVisualStyle
  2
Flat
 70
     0
177
     3
291
     1
 70
    58
 90
        2
176
     1
 90
        1
176
     1
 90
        1
176
     1
 90
        2
176
     1
 40
0.6
176
     1
 40
30.0
176
     1
 62
     7
420
 16777215
176
     1
 90
        0
176
     1
 90
        0
176
     1
 62
     7
176
     1
 62
   257
176
     1
 90
        1
176
     1
 90
        1
176
     1
 40
1.0
176
     1
 90
        8
176
     1
 62
     7
176
     1
 40
1.0
176
     1
 90
        1
176
     1
 90
        6
176
     1
 90
        2
176
     1
 62
     7
176
     1
 90
        5
176
     1
 90
        0
176
     1
 90
        0
176
     1
290
     0
176
     1
 90
       13
176
     1
 40
0.0
176
     1
 90
        0
176
     1
290
     0
176
     1
290
     1
176
     1
290
     1
176
     1
290
     0
176
     1
290
     0
176
     1
290
     0
176
     1
290
     0
176
     1
290
     0
176
     1
290
     0
176
     1
 90
       50
176
     1
 40
0.0
176
     1
 40
1.0
176
     1
 90
        0
176
     1
 62
    18
420
        0
176
     1
 90
       50
176
     1
 90
        3
176
     1
 62
     5
420
      255
176
     1
290
     0
176
     1
 90
       50
176
     1
 90
       50
176
     1
 90
       50
176
     1
290
     0
176
     1
 90
       50
176
     1
 62
   256
176
     0
 40
1.0
176
     0
 90
        2
176
     1
  1
strokes_ogs.tif
176
     1
290
     0
176
     1
 40
1.0
176
     1
 40
1.0
176
     1
  0
VISUALSTYLE
  5
2C
102
{ACAD_REACTORS
330
2A
102
}
330
2A
100
AcDbVisualStyle
  2
FlatWithEdges
 70
     1
177
     3
291
     1
 70
    58
 90
        2
176
     1
 90
        1
176
     1
 90
        1
176
     1
 90
        2
176
     1
 40
0.6
176
     1
 40
30.0
176
     1
 62
     7
420
 16777215
176
     1
 90
        1
176
     1
 90
        0
176
     1
 62
     7
176
     1
 62
   257
176
     1
 90
        1
176
     1
 90
        1
176
     1
 40
1.0
176
     1
 90
        0
176
     1
 62
   257
176
     1
 40
1.0
176
     1
 90
        1
176
     1
 90
        6
176
     1
 90
        2
176
     1
 62
     7
176
     1
 90
        5
176
     1
 90
        0
176
     1
 90
        0
176
     1
290
     0
176
     1
 90
       13
176
     1
 40
0.0
176
     1
 90
        0
176
     1
290
     0
176
     1
290
     1
176
     1
290
     1
176
     1
290
     0
176
     1
290
     0
176
     1
290
     0
176
     1
290
     0
176
     1
290
     0
176
     1
290
     0
176
     1
 90
       50
176
     1
 40
0.0
176
     1
 40
1.0
176
     1
 90
        0
176
     1
 62
    18
420
        0
176
     1
 90
       50
176
     1
 90
        3
176
     1
 62
     5
420
      255
176
     1
290
     0
176
     1
 90
       50
176
     1
 90
       50
176
     1
 90
       50
176
     1
290
     0
176
     1
 90
       50
176
     1
 62
   256
176
     0
 40
1.0
176
     0
 90
        2
176
     1
  1
strokes_ogs.tif
176
     1
290
     0
176
     1
 40
1.0
176
     1
 40
1.0
176
     1
  0
VISUALSTYLE
  5
2D
102
{ACAD_REACTORS
330
2A
102
}
330
2A
100
AcDbVisualStyle
  2
Gouraud
 70
     2
177
     3
291
     1
 70
    58
 90
        2
176
     1
 90
        2
176
     1
 90
        1
176
     1
 90
        2
176
     1
 40
0.6
176
     1
 40
30.0
176
     1
 62
     7
420
 16777215
176
     1
 90
        0
176
     1
 90
        0
176
     1
 62
     7
176
     1
 62
   257
176
     1
 90
        1
176
     1
 90
        1
176
     1
 40
1.0
176
     1
 90
        0
176
     1
 62
     7
176
     1
 40
1.0
176
     1
 90
        1
176
     1
 90
        6
176
     1
 90
        2
176
     1
 62
     7
176
     1
 90
        5
176
     1
 90
        0
176
     1
 90
        0
176
     1
290
     0
176
     1
 90
       13
176
     1
 40
0.0
176
     1
 90
        0
176
     1
290
     0
176
     1
290
     1
176
     1
290
     1
176
     1
290
     0
176
     1
290
     0
176
     1
290
     0
176
     1
290
     0
176
     1
290
     0
176
     1
290
     0
176
     1
 90
       50
176
     1
 40
0.0
176
     1
 40
1.0
176
     1
 90
        0
176
     1
 62
    18
420
        0
176
     1
 90
       50
176
     1
 90
        3
176
     1
 62
     5
420
      255
176
     1
290
     0
176
     1
 90
       50
176
     1
 90
       50
176
     1
 90
       50
176
     1
290
     0
176
     1
 90
       50
176
     1
 62
   256
176
     0
 40
1.0
176
     0
 90
        2
176
     1
  1
strokes_ogs.tif
176
     1
290
     0
176
     1
 40
1.0
176
     1
 40
1.0
176
     1
  0
VISUALSTYLE
  5
2E
102
{ACAD_REACTORS
330
2A
102
}
330
2A
100
AcDbVisualStyle
  2
GouraudWithEdges
 70
     3
177
     3
291
     1
 70
    58
 90
        2
176
     1
 90
        2
176
     1
 90
        1
176
     1
 90
        2
176
     1
 40
0.6
176
     1
 40
30.0
176
     1
 62
     7
420
 16777215
176
     1
 90
        1
176
     1
 90
        0
176
     1
 62
     7
176
     1
 62
   257
176
     1
 90
        1
176
     1
 90
        1
176
     1
 40
1.0
176
     1
 90
        0
176
     1
 62
   257
176
     1
 40
1.0
176
     1
 90
        1
176
     1
 90
        6
176
     1
 90
        2
176
     1
 62
     7
176
     1
 90
        5
176
     1
 90
        0
176
     1
 90
        0
176
     1
290
     0
176
     1
 90
       13
176
     1
 40
0.0
176
     1
 90
        0
176
     1
290
     0
176
     1
290
     1
176
     1
290
     1
176
     1
290
     0
176
     1
290
     0
176
     1
290
     0
176
     1
290
     0
176
     1
290
     0
176
     1
290
     0
176
     1
 90
       50
176
     1
 40
0.0
176
     1
 40
1.0
176
     1
 90
        0
176
     1
 62
    18
420
        0
176
     1
 90
       50
176
     1
 90
        3
176
     1
 62
     5
420
      255
176
     1
290
     0
176
     1
 90
       50
176
     1
 90
       50
176
     1
 90
       50
176
     1
290
     0
176
     1
 90
       50
176
     1
 62
   256
176
     0
 40
1.0
176
     0
 90
        2
176
     1
  1
strokes_ogs.tif
176
     1
290
     0
176
     1
 40
1.0
176
     1
 40
1.0
176
     1
  0
VISUALSTYLE
  5
31
102
{ACAD_REACTORS
330
2A
102
}
330
2A
100
AcDbVisualStyle
  2
Hidden
 70
     6
177
     3
291
     0
 70
    58
 90
        1
176
     1
 90
        2
176
     1
 90
        2
176
     1
 90
        0
176
     1
 40
0.6
176
     1
 40
30.0
176
     1
 62
     7
420
 16777215
176
     1
 90
        2
176
     1
 90
        2
176
     1
 62
     7
176
     1
 62
   257
176
     1
 90
        2
176
     1
 90
        1
176
     1
 40
40.0
176
     1
 90
        0
176
     1
 62
   257
176
     1
 40
1.0
176
     1
 90
        1
176
     1
 90
        6
176
     1
 90
        2
176
     1
 62
     7
176
     1
 90
        3
176
     1
 90
        0
176
     1
 90
        0
176
     1
290
     0
176
     1
 90
        1
176
     1
 40
0.0
176
     1
 90
        0
176
     1
290
     0
176
     1
290
     1
176
     1
290
     1
176
     1
290
     0
176
     1
290
     0
176
     1
290
     0
176
     1
290
     0
176
     1
290
     0
176
     1
290
     0
176
     1
 90
       50
176
     1
 40
0.0
176
     1
 40
1.0
176
     1
 90
        0
176
     1
 62
    18
420
        0
176
     1
 90
       50
176
     1
 90
        3
176
     1
 62
     5
420
      255
176
     1
290
     0
176
     1
 90
       50
176
     1
 90
       50
176
     1
 90
       50
176
     1
290
     0
176
     1
 90
       50
176
     1
 62
   256
176
     0
 40
1.0
176
     0
 90
        2
176
     1
  1
strokes_ogs.tif
176
     1
290
     0
176
     1
 40
1.0
176
     1
 40
1.0
176
     1
  0
VISUALSTYLE
  5
3B
102
{ACAD_REACTORS
330
2A
102
}
330
2A
100
AcDbVisualStyle
  2
JitterOff
 70
    20
177
     3
291
     1
 70
    58
 90
        2
176
     0
 90
        2
176
     0
 90
        0
176
     0
 90
        0
176
     0
 40
0.6
176
     0
 40
30.0
176
     0
 62
     7
420
 16777215
176
     0
 90
        1
176
     0
 90
        4
176
     0
 62
     7
176
     0
 62
   257
176
     0
 90
        1
176
     0
 90
        1
176
     0
 40
1.0
176
     0
 90
       10
176
     2
 62
     7
176
     0
 40
1.0
176
     0
 90
        1
176
     0
 90
        6
176
     0
 90
        2
176
     0
 62
     7
176
     0
 90
        5
176
     0
 90
        0
176
     0
 90
        0
176
     0
290
     0
176
     0
 90
        1
176
     0
 40
0.0
176
     0
 90
        0
176
     0
290
     0
176
     0
290
     1
176
     0
290
     1
176
     0
290
     0
176
     0
290
     0
176
     0
290
     0
176
     0
290
     0
176
     0
290
     0
176
     0
290
     0
176
     0
 90
       50
176
     0
 40
0.0
176
     0
 40
1.0
176
     0
 90
        0
176
     0
 62
    18
420
        0
176
     0
 90
       50
176
     0
 90
        3
176
     0
 62
     5
420
      255
176
     0
290
     0
176
     0
 90
       50
176
     0
 90
       50
176
     0
 90
       50
176
     0
290
     0
176
     0
 90
       50
176
     0
 62
   256
176
     0
 40
1.0
176
     0
 90
        2
176
     0
  1
strokes_ogs.tif
176
     0
290
     0
176
     0
 40
1.0
176
     0
 40
1.0
176
     0
  0
VISUALSTYLE
  5
38
102
{ACAD_REACTORS
330
2A
102
}
330
2A
100
AcDbVisualStyle
  2
Linepattern
 70
    14
177
     3
291
     1
 70
    58
 90
        2
176
     1
 90
        2
176
     1
 90
        0
176
     1
 90
        0
176
     1
 40
0.6
176
     1
 40
30.0
176
     1
 62
     7
420
 16777215
176
     1
 90
        1
176
     1
 90
        4
176
     1
 62
     7
176
     1
 62
   257
176
     1
 90
        7
176
     1
 90
        7
176
     1
 40
1.0
176
     1
 90
        8
176
     1
 62
     7
176
     1
 40
1.0
176
     1
 90
        1
176
     1
 90
        6
176
     1
 90
        2
176
     1
 62
     7
176
     1
 90
        5
176
     1
 90
        0
176
     1
 90
        0
176
     1
290
     0
176
     1
 90
        1
176
     1
 40
0.0
176
     1
 90
        0
176
     1
290
     0
176
     1
290
     1
176
     1
290
     1
176
     1
290
     0
176
     1
290
     0
176
     1
290
     0
176
     1
290
     0
176
     1
290
     0
176
     1
290
     0
176
     1
 90
       50
176
     1
 40
0.0
176
     1
 40
1.0
176
     1
 90
        0
176
     1
 62
    18
420
        0
176
     1
 90
       50
176
     1
 90
        3
176
     1
 62
     5
420
      255
176
     1
290
     0
176
     1
 90
       50
176
     1
 90
       50
176
     1
 90
       50
176
     1
290
     0
176
     1
 90
       50
176
     1
 62
   256
176
     0
 40
1.0
176
     0
 90
        2
176
     1
  1
strokes_ogs.tif
176
     1
290
     0
176
     1
 40
1.0
176
     1
 40
1.0
176
     1
  0
VISUALSTYLE
  5
3C
102
{ACAD_REACTORS
330
2A
102
}
330
2A
100
AcDbVisualStyle
  2
OverhangOff
 70
    21
177
     3
291
     1
 70
    58
 90
        2
176
     0
 90
        2
176
     0
 90
        0
176
     0
 90
        0
176
     0
 40
0.6
176
     0
 40
30.0
176
     0
 62
     7
420
 16777215
176
     0
 90
        1
176
     0
 90
        4
176
     0
 62
     7
176
     0
 62
   257
176
     0
 90
        1
176
     0
 90
        1
176
     0
 40
1.0
176
     0
 90
        9
176
     2
 62
     7
176
     0
 40
1.0
176
     0
 90
        1
176
     0
 90
        6
176
     0
 90
        2
176
     0
 62
     7
176
     0
 90
        5
176
     0
 90
        0
176
     0
 90
        0
176
     0
290
     0
176
     0
 90
        1
176
     0
 40
0.0
176
     0
 90
        0
176
     0
290
     0
176
     0
290
     1
176
     0
290
     1
176
     0
290
     0
176
     0
290
     0
176
     0
290
     0
176
     0
290
     0
176
     0
290
     0
176
     0
290
     0
176
     0
 90
       50
176
     0
 40
0.0
176
     0
 40
1.0
176
     0
 90
        0
176
     0
 62
    18
420
        0
176
     0
 90
       50
176
     0
 90
        3
176
     0
 62
     5
420
      255
176
     0
290
     0
176
     0
 90
       50
176
     0
 90
       50
176
     0
 90
       50
176
     0
290
     0
176
     0
 90
       50
176
     0
 62
   256
176
     0
 40
1.0
176
     0
 90
        2
176
     0
  1
strokes_ogs.tif
176
     0
290
     0
176
     0
 40
1.0
176
     0
 40
1.0
176
     0
  0
VISUALSTYLE
  5
33
102
{ACAD_REACTORS
330
2A
102
}
330
2A
100
AcDbVisualStyle
  2
Realistic
 70
     8
177
     3
291
     0
 70
    58
 90
        2
176
     1
 90
        3
176
     1
 90
        0
176
     1
 90
        2
176
     1
 40
0.6
176
     1
 40
30.0
176
     1
 62
     7
420
 16777215
176
     1
 90
        0
176
     1
 90
        0
176
     1
 62
     7
176
     1
 62
   257
176
     1
 90
        1
176
     1
 90
        1
176
     1
 40
1.0
176
     1
 90
        8
176
     1
 62
   257
176
     1
 40
1.0
176
     1
 90
        1
176
     1
 90
        6
176
     1
 90
        2
176
     1
 62
     7
176
     1
 90
        3
176
     1
 90
        0
176
     1
 90
        0
176
     1
290
     0
176
     1
 90
       13
176
     1
 40
0.0
176
     1
 90
        0
176
     1
290
     0
176
     1
290
     1
176
     1
290
     1
176
     1
290
     0
176
     1
290
     0
176
     1
290
     0
176
     1
290
     0
176
     1
290
     0
176
     1
290
     0
176
     1
 90
       50
176
     1
 40
0.0
176
     1
 40
1.0
176
     1
 90
        0
176
     1
 62
    18
420
        0
176
     1
 90
       50
176
     1
 90
        3
176
     1
 62
     5
420
      255
176
     1
290
     0
176
     1
 90
       50
176
     1
 90
       50
176
     1
 90
       50
176
     1
290
     0
176
     1
 90
       50
176
     1
 62
   256
176
     0
 40
1.0
176
     0
 90
        2
176
     1
  1
strokes_ogs.tif
176
     1
290
     0
176
     1
 40
1.0
176
     1
 40
1.0
176
     1
  0
VISUALSTYLE
  5
42
102
{ACAD_REACTORS
330
2A
102
}
330
2A
100
AcDbVisualStyle
  2
Shaded
 70
    27
177
     3
291
     0
 70
    58
 90
        2
176
     1
 90
        2
176
     1
 90
        1
176
     1
 90
        2
176
     1
 40
0.6
176
     1
 40
30.0
176
     1
 62
     7
420
 16777215
176
     1
 90
        0
176
     1
 90
        4
176
     1
 62
     7
176
     1
 62
   257
176
     1
 90
        1
176
     1
 90
        1
176
     1
 40
1.0
176
     1
 90
        8
176
     1
 62
   257
176
     1
 40
1.0
176
     1
 90
        1
176
     1
 90
        6
176
     1
 90
        2
176
     1
 62
     8
420
  7895160
176
     1
 90
        3
176
     1
 90
        0
176
     1
 90
        0
176
     1
290
     0
176
     1
 90
        5
176
     1
 40
0.0
176
     1
 90
        0
176
     1
290
     0
176
     1
290
     1
176
     1
290
     1
176
     1
290
     0
176
     1
290
     0
176
     1
290
     0
176
     1
290
     0
176
     1
290
     0
176
     1
290
     0
176
     1
 90
       50
176
     1
 40
0.0
176
     1
 40
1.0
176
     1
 90
        0
176
     1
 62
    18
420
        0
176
     1
 90
       50
176
     1
 90
        3
176
     1
 62
     5
420
      255
176
     1
290
     0
176
     1
 90
       50
176
     1
 90
       50
176
     1
 90
       50
176
     1
290
     0
176
     1
 90
       50
176
     1
 62
   256
176
     0
 40
1.0
176
     0
 90
        2
176
     1
  1
strokes_ogs.tif
176
     1
290
     0
176
     1
 40
1.0
176
     1
 40
1.0
176
     1
  0
VISUALSTYLE
  5
41
102
{ACAD_REACTORS
330
2A
102
}
330
2A
100
AcDbVisualStyle
  2
Shaded with edges
 70
    26
177
     3
291
     0
 70
    58
 90
        2
176
     1
 90
        2
176
     1
 90
        1
176
     1
 90
        2
176
     1
 40
0.6
176
     1
 40
30.0
176
     1
 62
     7
420
 16777215
176
     1
 90
        1
176
     1
 90
       10
176
     1
 62
     7
176
     1
 62
   257
176
     1
 90
        2
176
     1
 90
        1
176
     1
 40
1.0
176
     1
 90
        8
176
     1
 62
   257
176
     1
 40
1.0
176
     1
 90
        1
176
     1
 90
        6
176
     1
 90
        2
176
     1
 62
     7
176
     1
 90
        3
176
     1
 90
        0
176
     1
 90
        0
176
     1
290
     0
176
     1
 90
        5
176
     1
 40
0.0
176
     1
 90
        0
176
     1
290
     0
176
     1
290
     1
176
     1
290
     1
176
     1
290
     0
176
     1
290
     0
176
     1
290
     0
176
     1
290
     0
176
     1
290
     0
176
     1
290
     0
176
     1
 90
       50
176
     1
 40
0.0
176
     1
 40
1.0
176
     1
 90
        0
176
     1
 62
    18
420
        0
176
     1
 90
       50
176
     1
 90
        3
176
     1
 62
     5
420
      255
176
     1
290
     0
176
     1
 90
       50
176
     1
 90
       50
176
     1
 90
       50
176
     1
290
     0
176
     1
 90
       50
176
     1
 62
   256
176
     0
 40
1.0
176
     0
 90
        2
176
     1
  1
strokes_ogs.tif
176
     1
290
     0
176
     1
 40
1.0
176
     1
 40
1.0
176
     1
  0
VISUALSTYLE
  5
3E
102
{ACAD_REACTORS
330
2A
102
}
330
2A
100
AcDbVisualStyle
  2
Shades of Gray
 70
    23
177
     3
291
     0
 70
    58
 90
        2
176
     1
 90
        2
176
     1
 90
        3
176
     1
 90
        0
176
     1
 40
0.6
176
     1
 40
30.0
176
     1
 62
     7
420
 16777215
176
     1
 90
        2
176
     1
 90
        2
176
     1
 62
     7
176
     1
 62
     7
176
     1
 90
        1
176
     1
 90
        1
176
     1
 40
40.0
176
     1
 90
        8
176
     1
 62
     7
176
     1
 40
1.0
176
     1
 90
        1
176
     1
 90
        6
176
     1
 90
        2
176
     1
 62
     7
176
     1
 90
        3
176
     1
 90
        0
176
     1
 90
        0
176
     1
290
     0
176
     1
 90
        1
176
     1
 40
0.0
176
     1
 90
        0
176
     1
290
     0
176
     1
290
     1
176
     1
290
     1
176
     1
290
     0
176
     1
290
     0
176
     1
290
     0
176
     1
290
     0
176
     1
290
     0
176
     1
290
     0
176
     1
 90
       50
176
     1
 40
0.0
176
     1
 40
1.0
176
     1
 90
        0
176
     1
 62
    18
420
        0
176
     1
 90
       50
176
     1
 90
        3
176
     1
 62
     5
420
      255
176
     1
290
     0
176
     1
 90
       50
176
     1
 90
       50
176
     1
 90
       50
176
     1
290
     0
176
     1
 90
       50
176
     1
 62
   256
176
     0
 40
1.0
176
     0
 90
        2
176
     1
  1
strokes_ogs.tif
176
     1
290
     0
176
     1
 40
1.0
176
     1
 40
1.0
176
     1
  0
VISUALSTYLE
  5
3F
102
{ACAD_REACTORS
330
2A
102
}
330
2A
100
AcDbVisualStyle
  2
Sketchy
 70
    24
177
     3
291
     0
 70
    58
 90
        1
176
     1
 90
        2
176
     1
 90
        2
176
     1
 90
        0
176
     1
 40
0.6
176
     1
 40
30.0
176
     1
 62
     7
420
 16777215
176
     1
 90
        2
176
     1
 90
        2
176
     1
 62
     7
176
     1
 62
     7
176
     1
 90
        1
176
     1
 90
        1
176
     1
 40
40.0
176
     1
 90
       11
176
     1
 62
     7
176
     1
 40
1.0
176
     1
 90
        1
176
     1
 90
        6
176
     1
 90
        2
176
     1
 62
     7
176
     1
 90
        6
176
     1
 90
        0
176
     1
 90
        0
176
     1
290
     0
176
     1
 90
        1
176
     1
 40
0.0
176
     1
 90
        0
176
     1
290
     0
176
     1
290
     1
176
     1
290
     1
176
     1
290
     0
176
     1
290
     0
176
     1
290
     0
176
     1
290
     0
176
     1
290
     0
176
     1
290
     0
176
     1
 90
       50
176
     1
 40
0.0
176
     1
 40
1.0
176
     1
 90
        0
176
     1
 62
    18
420
        0
176
     1
 90
       50
176
     1
 90
        3
176
     1
 62
     5
420
      255
176
     1
290
     0
176
     1
 90
       50
176
     1
 90
       50
176
     1
 90
       50
176
     1
290
     0
176
     1
 90
       50
176
     1
 62
   256
176
     0
 40
1.0
176
     0
 90
        2
176
     1
  1
strokes_ogs.tif
176
     1
290
     0
176
     1
 40
1.0
176
     1
 40
1.0
176
     1
  0
VISUALSTYLE
  5
37
102
{ACAD_REACTORS
330
2A
102
}
330
2A
100
AcDbVisualStyle
  2
Thicken
 70
    13
177
     3
291
     1
 70
    58
 90
        2
176
     1
 90
        2
176
     1
 90
        0
176
     1
 90
        0
176
     1
 40
0.6
176
     1
 40
30.0
176
     1
 62
     7
420
 16777215
176
     1
 90
        1
176
     1
 90
        4
176
     1
 62
     7
176
     1
 62
   257
176
     1
 90
        1
176
     1
 90
        1
176
     1
 40
1.0
176
     1
 90
       12
176
     1
 62
     7
176
     1
 40
1.0
176
     1
 90
        1
176
     1
 90
        6
176
     1
 90
        2
176
     1
 62
     7
176
     1
 90
        5
176
     1
 90
        0
176
     1
 90
        0
176
     1
290
     0
176
     1
 90
        1
176
     1
 40
0.0
176
     1
 90
        0
176
     1
290
     0
176
     1
290
     1
176
     1
290
     1
176
     1
290
     0
176
     1
290
     0
176
     1
290
     0
176
     1
290
     0
176
     1
290
     0
176
     1
290
     0
176
     1
 90
       50
176
     1
 40
0.0
176
     1
 40
1.0
176
     1
 90
        0
176
     1
 62
    18
420
        0
176
     1
 90
       50
176
     1
 90
        3
176
     1
 62
     5
420
      255
176
     1
290
     0
176
     1
 90
       50
176
     1
 90
       50
176
     1
 90
       50
176
     1
290
     0
176
     1
 90
       50
176
     1
 62
   256
176
     0
 40
1.0
176
     0
 90
        2
176
     1
  1
strokes_ogs.tif
176
     1
290
     0
176
     1
 40
1.0
176
     1
 40
1.0
176
     1
  0
VISUALSTYLE
  5
30
102
{ACAD_REACTORS
330
2A
102
}
330
2A
100
AcDbVisualStyle
  2
Wireframe
 70
     5
177
     3
291
     0
 70
    58
 90
        0
176
     1
 90
        2
176
     1
 90
        0
176
     1
 90
        0
176
     1
 40
0.6
176
     1
 40
30.0
176
     1
 62
     7
420
 16777215
176
     1
 90
        1
176
     1
 90
        4
176
     1
 62
     7
176
     1
 62
   257
176
     1
 90
        1
176
     1
 90
        1
176
     1
 40
1.0
176
     1
 90
        0
176
     1
 62
   257
176
     1
 40
1.0
176
     1
 90
        1
176
     1
 90
        6
176
     1
 90
        2
176
     1
 62
     7
176
     1
 90
        3
176
     1
 90
        0
176
     1
 90
        0
176
     1
290
     0
176
     1
 90
        1
176
     1
 40
0.0
176
     1
 90
        0
176
     1
290
     0
176
     1
290
     1
176
     1
290
     1
176
     1
290
     0
176
     1
290
     0
176
     1
290
     0
176
     1
290
     0
176
     1
290
     0
176
     1
290
     0
176
     1
 90
       50
176
     1
 40
0.0
176
     1
 40
1.0
176
     1
 90
        0
176
     1
 62
    18
420
        0
176
     1
 90
       50
176
     1
 90
        3
176
     1
 62
     5
420
      255
176
     1
290
     0
176
     1
 90
       50
176
     1
 90
       50
176
     1
 90
       50
176
     1
290
     0
176
     1
 90
       50
176
     1
 62
   256
176
     0
 40
1.0
176
     0
 90
        2
176
     1
  1
strokes_ogs.tif
176
     1
290
     0
176
     1
 40
1.0
176
     1
 40
1.0
176
     1
  0
VISUALSTYLE
  5
40
102
{ACAD_REACTORS
330
2A
102
}
330
2A
100
AcDbVisualStyle
  2
X-Ray
 70
    25
177
     3
291
     0
 70
    58
 90
        2
176
     1
 90
        2
176
     1
 90
        1
176
     1
 90
        1
176
     1
 40
0.5
176
     1
 40
30.0
176
     1
 62
     7
420
 16777215
176
     1
 90
        1
176
     1
 90
        0
176
     1
 62
     7
176
     1
 62
   257
176
     1
 90
        1
176
     1
 90
        1
176
     1
 40
1.0
176
     1
 90
        8
176
     1
 62
     7
176
     1
 40
1.0
176
     1
 90
        1
176
     1
 90
        6
176
     1
 90
        2
176
     1
 62
     7
176
     1
 90
        3
176
     1
 90
        0
176
     1
 90
        0
176
     1
290
     0
176
     1
 90
       13
176
     1
 40
0.0
176
     1
 90
        0
176
     1
290
     0
176
     1
290
     1
176
     1
290
     1
176
     1
290
     0
176
     1
290
     0
176
     1
290
     0
176
     1
290
     0
176
     1
290
     0
176
     1
290
     0
176
     1
 90
       50
176
     1
 40
0.0
176
     1
 40
1.0
176
     1
 90
        0
176
     1
 62
    18
420
        0
176
     1
 90
       50
176
     1
 90
        3
176
     1
 62
     5
420
      255
176
     1
290
     0
176
     1
 90
       50
176
     1
 90
       50
176
     1
 90
       50
176
     1
290
     0
176
     1
 90
       50
176
     1
 62
   256
176
     0
 40
1.0
176
     0
 90
        2
176
     1
  1
strokes_ogs.tif
176
     1
290
     0
176
     1
 40
1.0
176
     1
 40
1.0
176
     1
  0
DICTIONARYVAR
  5
23F
102
{ACAD_REACTORS
330
23E
102
}
330
23E
100
DictionaryVariables
280
     0
  1
1:1
  0
DICTIONARYVAR
  5
244
102
{ACAD_REACTORS
330
23E
102
}
330
23E
100
DictionaryVariables
280
     0
  1
Standard
  0
DICTIONARYVAR
  5
243
102
{ACAD_REACTORS
330
23E
102
}
330
23E
100
DictionaryVariables
280
     0
  1
Standard
  0
DICTIONARY
  5
240
330
6A
100
AcDbDictionary
280
     1
281
     1
  3
ACAD_ROUNDTRIP_2008_TABLESTYLE_CELLSTYLEMAP
360
241
  0
CELLSTYLEMAP
  5
241
102
{ACAD_REACTORS
330
240
102
}
330
240
100
AcDbCellStyleMap
 90
        3
300
CELLSTYLE
  1
TABLEFORMAT_BEGIN
 90
        5
170
     1
 91
        0
 92
    32768
 62
   257
 93
        1
300
CONTENTFORMAT
  1
CONTENTFORMAT_BEGIN
 90
        0
 91
        0
 92
        4
 93
        0
300

 40
0.0
140
1.0
 94
        5
 62
     0
340
11
144
0.25
309
CONTENTFORMAT_END
171
     1
301
MARGIN
  1
CELLMARGIN_BEGIN
 40
0.06
 40
0.06
 40
0.06
 40
0.06
 40
0.06
 40
0.06
309
CELLMARGIN_END
 94
        6
 95
        1
302
GRIDFORMAT
  1
GRIDFORMAT_BEGIN
 90
        0
 91
        1
 62
     0
 92
       -2
340
14
 93
        0
 40
0.045
309
GRIDFORMAT_END
 95
        2
302
GRIDFORMAT
  1
GRIDFORMAT_BEGIN
 90
        0
 91
        1
 62
     0
 92
       -2
340
14
 93
        0
 40
0.045
309
GRIDFORMAT_END
 95
        4
302
GRIDFORMAT
  1
GRIDFORMAT_BEGIN
 90
        0
 91
        1
 62
     0
 92
       -2
340
14
 93
        0
 40
0.045
309
GRIDFORMAT_END
 95
        8
302
GRIDFORMAT
  1
GRIDFORMAT_BEGIN
 90
        0
 91
        1
 62
     0
 92
       -2
340
14
 93
        0
 40
0.045
309
GRIDFORMAT_END
 95
       16
302
GRIDFORMAT
  1
GRIDFORMAT_BEGIN
 90
        0
 91
        1
 62
     0
 92
       -2
340
14
 93
        0
 40
0.045
309
GRIDFORMAT_END
 95
       32
302
GRIDFORMAT
  1
GRIDFORMAT_BEGIN
 90
        0
 91
        1
 62
     0
 92
       -2
340
14
 93
        0
 40
0.045
309
GRIDFORMAT_END
309
TABLEFORMAT_END
  1
CELLSTYLE_BEGIN
 90
        1
 91
        1
300
_TITLE
309
CELLSTYLE_END
300
CELLSTYLE
  1
TABLEFORMAT_BEGIN
 90
        5
170
     1
 91
        0
 92
        0
 62
   257
 93
        1
300
CONTENTFORMAT
  1
CONTENTFORMAT_BEGIN
 90
        0
 91
        0
 92
        4
 93
        0
300

 40
0.0
140
1.0
 94
        5
 62
     0
340
11
144
0.18
309
CONTENTFORMAT_END
171
     1
301
MARGIN
  1
CELLMARGIN_BEGIN
 40
0.06
 40
0.06
 40
0.06
 40
0.06
 40
0.06
 40
0.06
309
CELLMARGIN_END
 94
        6
 95
        1
302
GRIDFORMAT
  1
GRIDFORMAT_BEGIN
 90
        0
 91
        1
 62
     0
 92
       -2
340
14
 93
        0
 40
0.045
309
GRIDFORMAT_END
 95
        2
302
GRIDFORMAT
  1
GRIDFORMAT_BEGIN
 90
        0
 91
        1
 62
     0
 92
       -2
340
14
 93
        0
 40
0.045
309
GRIDFORMAT_END
 95
        4
302
GRIDFORMAT
  1
GRIDFORMAT_BEGIN
 90
        0
 91
        1
 62
     0
 92
       -2
340
14
 93
        0
 40
0.045
309
GRIDFORMAT_END
 95
        8
302
GRIDFORMAT
  1
GRIDFORMAT_BEGIN
 90
        0
 91
        1
 62
     0
 92
       -2
340
14
 93
        0
 40
0.045
309
GRIDFORMAT_END
 95
       16
302
GRIDFORMAT
  1
GRIDFORMAT_BEGIN
 90
        0
 91
        1
 62
     0
 92
       -2
340
14
 93
        0
 40
0.045
309
GRIDFORMAT_END
 95
       32
302
GRIDFORMAT
  1
GRIDFORMAT_BEGIN
 90
        0
 91
        1
 62
     0
 92
       -2
340
14
 93
        0
 40
0.045
309
GRIDFORMAT_END
309
TABLEFORMAT_END
  1
CELLSTYLE_BEGIN
 90
        2
 91
        1
300
_HEADER
309
CELLSTYLE_END
300
CELLSTYLE
  1
TABLEFORMAT_BEGIN
 90
        5
170
     1
 91
        0
 92
        0
 62
   257
 93
        1
300
CONTENTFORMAT
  1
CONTENTFORMAT_BEGIN
 90
        0
 91
        0
 92
        4
 93
        0
300

 40
0.0
140
1.0
 94
        2
 62
     0
340
11
144
0.18
309
CONTENTFORMAT_END
171
     1
301
MARGIN
  1
CELLMARGIN_BEGIN
 40
0.06
 40
0.06
 40
0.06
 40
0.06
 40
0.06
 40
0.06
309
CELLMARGIN_END
 94
        6
 95
        1
302
GRIDFORMAT
  1
GRIDFORMAT_BEGIN
 90
        0
 91
        1
 62
     0
 92
       -2
340
14
 93
        0
 40
0.045
309
GRIDFORMAT_END
 95
        2
302
GRIDFORMAT
  1
GRIDFORMAT_BEGIN
 90
        0
 91
        1
 62
     0
 92
       -2
340
14
 93
        0
 40
0.045
309
GRIDFORMAT_END
 95
        4
302
GRIDFORMAT
  1
GRIDFORMAT_BEGIN
 90
        0
 91
        1
 62
     0
 92
       -2
340
14
 93
        0
 40
0.045
309
GRIDFORMAT_END
 95
        8
302
GRIDFORMAT
  1
GRIDFORMAT_BEGIN
 90
        0
 91
        1
 62
     0
 92
       -2
340
14
 93
        0
 40
0.045
309
GRIDFORMAT_END
 95
       16
302
GRIDFORMAT
  1
GRIDFORMAT_BEGIN
 90
        0
 91
        1
 62
     0
 92
       -2
340
14
 93
        0
 40
0.045
309
GRIDFORMAT_END
 95
       32
302
GRIDFORMAT
  1
GRIDFORMAT_BEGIN
 90
        0
 91
        1
 62
     0
 92
       -2
340
14
 93
        0
 40
0.045
309
GRIDFORMAT_END
309
TABLEFORMAT_END
  1
CELLSTYLE_BEGIN
 90
        3
 91
        2
300
_DATA
309
CELLSTYLE_END
  0
ENDSEC
  0
EOF