0
SECTION
  2
HEADER
  9
$ACADVER
  1
AC1027
  9
$ACADMAINTVER
 70
     8
  9
$DWGCODEPAGE
  3
ANSI_1252
  9
$REQUIREDVERSIONS
160
                 0
  9
$COMMENTS
  1
File was created by Cadenas
  9
$CUSTOMPROPERTYTAG
  1
NN
  9
$CUSTOMPROPERTY
  1
Type K Pillow Block 2&4-Bolt Base Expansion Inch Bore
  9
$CUSTOMPROPERTYTAG
  1
NT
  9
$CUSTOMPROPERTY
  1
Type K
  9
$CUSTOMPROPERTYTAG
  1
NB
  9
$CUSTOMPROPERTY
  1
023192
  9
$CUSTOMPROPERTYTAG
  1
NBSYN
  9
$CUSTOMPROPERTY
  1
$PN.
  9
$CUSTOMPROPERTYTAG
  1
LINA
  9
$CUSTOMPROPERTY
  1
023192
  9
$CUSTOMPROPERTYTAG
  1
SS
  9
$CUSTOMPROPERTY
  1
1-7/16
  9
$CUSTOMPROPERTYTAG
  1
PN
  9
$CUSTOMPROPERTY
  1
023192
  9
$CUSTOMPROPERTYTAG
  1
PNA
  9
$CUSTOMPROPERTY
  1
P2B-K-107RE
  9
$CUSTOMPROPERTYTAG
  1
WEIGHT
  9
$CUSTOMPROPERTY
  1
11
  9
$CUSTOMPROPERTYTAG
  1
A
  9
$CUSTOMPROPERTY
  1
2.55
  9
$CUSTOMPROPERTYTAG
  1
B
  9
$CUSTOMPROPERTY
  1
8.00
  9
$CUSTOMPROPERTYTAG
  1
C
  9
$CUSTOMPROPERTY
  1
2.19
  9
$CUSTOMPROPERTYTAG
  1
DMIN
  9
$CUSTOMPROPERTY
  1
6.25
  9
$CUSTOMPROPERTYTAG
  1
DMAX
  9
$CUSTOMPROPERTY
  1
6.62
  9
$CUSTOMPROPERTYTAG
  1
E
  9
$CUSTOMPROPERTY
  1
N/A
  9
$CUSTOMPROPERTYTAG
  1
F
  9
$CUSTOMPROPERTY
  1
1/2
  9
$CUSTOMPROPERTYTAG
  1
G
  9
$CUSTOMPROPERTY
  1
.75
  9
$CUSTOMPROPERTYTAG
  1
H
  9
$CUSTOMPROPERTY
  1
1.25
  9
$CUSTOMPROPERTYTAG
  1
J
  9
$CUSTOMPROPERTY
  1
5.23
  9
$CUSTOMPROPERTYTAG
  1
L
  9
$CUSTOMPROPERTY
  1
2.75
  9
$CUSTOMPROPERTYTAG
  1
M
  9
$CUSTOMPROPERTY
  1
2.38
  9
$CUSTOMPROPERTYTAG
  1
P
  9
$CUSTOMPROPERTY
  1
5.51
  9
$CUSTOMPROPERTYTAG
  1
R
  9
$CUSTOMPROPERTY
  1
1.03
  9
$CUSTOMPROPERTYTAG
  1
S
  9
$CUSTOMPROPERTY
  1
1.50
  9
$CUSTOMPROPERTYTAG
  1
T
  9
$CUSTOMPROPERTY
  1
.09
  9
$CUSTOMPROPERTYTAG
  1
CS
  9
$CUSTOMPROPERTY
  1
26000
  9
$CUSTOMPROPERTYTAG
  1
CD
  9
$CUSTOMPROPERTY
  1
4760
  9
$CUSTOMPROPERTYTAG
  1
RN
  9
$CUSTOMPROPERTY
  1
20
  9
$CUSTOMPROPERTYTAG
  1
RM
  9
$CUSTOMPROPERTY
  1
.29
  9
$CUSTOMPROPERTYTAG
  1
PDI
  9
$CUSTOMPROPERTY
  1
2.084
  9
$CUSTOMPROPERTYTAG
  1
EP
  9
$CUSTOMPROPERTY
  1
.004-.012
  9
$CUSTOMPROPERTYTAG
  1
SC
  9
$CUSTOMPROPERTY
  1
5/16-18*5/8
  9
$CUSTOMPROPERTYTAG
  1
TC
  9
$CUSTOMPROPERTY
  1
165
  9
$CUSTOMPROPERTYTAG
  1
MH
  9
$CUSTOMPROPERTY
  1
C.I. ASTM A48 CLASS 30
  9
$CUSTOMPROPERTYTAG
  1
MC
  9
$CUSTOMPROPERTY
  1
4118 CASE CARB.
  9
$CUSTOMPROPERTYTAG
  1
MCU
  9
$CUSTOMPROPERTY
  1
4118 CASE CARB.
  9
$CUSTOMPROPERTYTAG
  1
MR
  9
$CUSTOMPROPERTY
  1
STEEL
  9
$CUSTOMPROPERTYTAG
  1
MRO
  9
$CUSTOMPROPERTY
  1
4118 CASE CARB.
  9
$CUSTOMPROPERTYTAG
  1
SM
  9
$CUSTOMPROPERTY
  1
2.84*
  9
$CUSTOMPROPERTYTAG
  1
COMPANY
  9
$CUSTOMPROPERTY
  1
baldor
  9
$INSBASE
 10
0.0
 20
0.0
 30
0.0
  9
$EXTMIN
 10
1.000000000000000E+20
 20
1.000000000000000E+20
 30
1.000000000000000E+20
  9
$EXTMAX
 10
-1.000000000000000E+20
 20
-1.000000000000000E+20
 30
-1.000000000000000E+20
  9
$LIMMIN
 10
0.0
 20
0.0
  9
$LIMMAX
 10
12.0
 20
9.0
  9
$ORTHOMODE
 70
     0
  9
$REGENMODE
 70
     1
  9
$FILLMODE
 70
     1
  9
$QTEXTMODE
 70
     0
  9
$MIRRTEXT
 70
     1
  9
$LTSCALE
 40
1.0
  9
$ATTMODE
 70
     1
  9
$TEXTSIZE
 40
0.2
  9
$TRACEWID
 40
0.05
  9
$TEXTSTYLE
  7
Standard
  9
$CLAYER
  8
0
  9
$CELTYPE
  6
ByLayer
  9
$CECOLOR
 62
   256
  9
$CELTSCALE
 40
1.0
  9
$DISPSILH
 70
     0
  9
$DIMSCALE
 40
1.0
  9
$DIMASZ
 40
0.18
  9
$DIMEXO
 40
0.0625
  9
$DIMDLI
 40
0.38
  9
$DIMRND
 40
0.0
  9
$DIMDLE
 40
0.0
  9
$DIMEXE
 40
0.18
  9
$DIMTP
 40
0.0
  9
$DIMTM
 40
0.0
  9
$DIMTXT
 40
0.18
  9
$DIMCEN
 40
0.09
  9
$DIMTSZ
 40
0.0
  9
$DIMTOL
 70
     0
  9
$DIMLIM
 70
     0
  9
$DIMTIH
 70
     1
  9
$DIMTOH
 70
     1
  9
$DIMSE1
 70
     0
  9
$DIMSE2
 70
     0
  9
$DIMTAD
 70
     0
  9
$DIMZIN
 70
     0
  9
$DIMBLK
  1

  9
$DIMASO
 70
     1
  9
$DIMSHO
 70
     1
  9
$DIMPOST
  1

  9
$DIMAPOST
  1

  9
$DIMALT
 70
     0
  9
$DIMALTD
 70
     2
  9
$DIMALTF
 40
25.4
  9
$DIMLFAC
 40
1.0
  9
$DIMTOFL
 70
     0
  9
$DIMTVP
 40
0.0
  9
$DIMTIX
 70
     0
  9
$DIMSOXD
 70
     0
  9
$DIMSAH
 70
     0
  9
$DIMBLK1
  1

  9
$DIMBLK2
  1

  9
$DIMSTYLE
  2
Standard
  9
$DIMCLRD
 70
     0
  9
$DIMCLRE
 70
     0
  9
$DIMCLRT
 70
     0
  9
$DIMTFAC
 40
1.0
  9
$DIMGAP
 40
0.09
  9
$DIMJUST
 70
     0
  9
$DIMSD1
 70
     0
  9
$DIMSD2
 70
     0
  9
$DIMTOLJ
 70
     1
  9
$DIMTZIN
 70
     0
  9
$DIMALTZ
 70
     0
  9
$DIMALTTZ
 70
     0
  9
$DIMUPT
 70
     0
  9
$DIMDEC
 70
     4
  9
$DIMTDEC
 70
     4
  9
$DIMALTU
 70
     2
  9
$DIMALTTD
 70
     2
  9
$DIMTXSTY
  7
Standard
  9
$DIMAUNIT
 70
     0
  9
$DIMADEC
 70
     0
  9
$DIMALTRND
 40
0.0
  9
$DIMAZIN
 70
     0
  9
$DIMDSEP
 70
    46
  9
$DIMATFIT
 70
     3
  9
$DIMFRAC
 70
     0
  9
$DIMLDRBLK
  1

  9
$DIMLUNIT
 70
     2
  9
$DIMLWD
 70
    -2
  9
$DIMLWE
 70
    -2
  9
$DIMTMOVE
 70
     0
  9
$DIMFXL
 40
1.0
  9
$DIMFXLON
 70
     0
  9
$DIMJOGANG
 40
0.7853981633974483
  9
$DIMTFILL
 70
     0
  9
$DIMTFILLCLR
 70
     0
  9
$DIMARCSYM
 70
     0
  9
$DIMLTYPE
  6

  9
$DIMLTEX1
  6

  9
$DIMLTEX2
  6

  9
$DIMTXTDIRECTION
 70
     0
  9
$LUNITS
 70
     2
  9
$LUPREC
 70
     4
  9
$SKETCHINC
 40
0.1
  9
$FILLETRAD
 40
0.5
  9
$AUNITS
 70
     0
  9
$AUPREC
 70
     0
  9
$MENU
  1
.
  9
$ELEVATION
 40
0.0
  9
$PELEVATION
 40
0.0
  9
$THICKNESS
 40
0.0
  9
$LIMCHECK
 70
     0
  9
$CHAMFERA
 40
0.0
  9
$CHAMFERB
 40
0.0
  9
$CHAMFERC
 40
0.0
  9
$CHAMFERD
 40
0.0
  9
$SKPOLY
 70
     0
  9
$TDCREATE
 40
2458169.005183183
  9
$TDUCREATE
 40
2458168.963516516
  9
$TDUPDATE
 40
2458169.005183368
  9
$TDUUPDATE
 40
2458168.963516701
  9
$TDINDWG
 40
0.0000000116
  9
$TDUSRTIMER
 40
0.0000000116
  9
$USRTIMER
 70
     1
  9
$ANGBASE
 50
0.0
  9
$ANGDIR
 70
     0
  9
$PDMODE
 70
     0
  9
$PDSIZE
 40
0.0
  9
$PLINEWID
 40
0.0
  9
$SPLFRAME
 70
     0
  9
$SPLINETYPE
 70
     6
  9
$SPLINESEGS
 70
     8
  9
$HANDSEED
  5
239
  9
$SURFTAB1
 70
     6
  9
$SURFTAB2
 70
     6
  9
$SURFTYPE
 70
     6
  9
$SURFU
 70
     6
  9
$SURFV
 70
     6
  9
$UCSBASE
  2

  9
$UCSNAME
  2

  9
$UCSORG
 10
0.0
 20
0.0
 30
0.0
  9
$UCSXDIR
 10
1.0
 20
0.0
 30
0.0
  9
$UCSYDIR
 10
0.0
 20
1.0
 30
0.0
  9
$UCSORTHOREF
  2

  9
$UCSORTHOVIEW
 70
     0
  9
$UCSORGTOP
 10
0.0
 20
0.0
 30
0.0
  9
$UCSORGBOTTOM
 10
0.0
 20
0.0
 30
0.0
  9
$UCSORGLEFT
 10
0.0
 20
0.0
 30
0.0
  9
$UCSORGRIGHT
 10
0.0
 20
0.0
 30
0.0
  9
$UCSORGFRONT
 10
0.0
 20
0.0
 30
0.0
  9
$UCSORGBACK
 10
0.0
 20
0.0
 30
0.0
  9
$PUCSBASE
  2

  9
$PUCSNAME
  2

  9
$PUCSORG
 10
0.0
 20
0.0
 30
0.0
  9
$PUCSXDIR
 10
1.0
 20
0.0
 30
0.0
  9
$PUCSYDIR
 10
0.0
 20
1.0
 30
0.0
  9
$PUCSORTHOREF
  2

  9
$PUCSORTHOVIEW
 70
     0
  9
$PUCSORGTOP
 10
0.0
 20
0.0
 30
0.0
  9
$PUCSORGBOTTOM
 10
0.0
 20
0.0
 30
0.0
  9
$PUCSORGLEFT
 10
0.0
 20
0.0
 30
0.0
  9
$PUCSORGRIGHT
 10
0.0
 20
0.0
 30
0.0
  9
$PUCSORGFRONT
 10
0.0
 20
0.0
 30
0.0
  9
$PUCSORGBACK
 10
0.0
 20
0.0
 30
0.0
  9
$USERI1
 70
     0
  9
$USERI2
 70
     0
  9
$USERI3
 70
     0
  9
$USERI4
 70
     0
  9
$USERI5
 70
     0
  9
$USERR1
 40
0.0
  9
$USERR2
 40
0.0
  9
$USERR3
 40
0.0
  9
$USERR4
 40
0.0
  9
$USERR5
 40
0.0
  9
$WORLDVIEW
 70
     1
  9
$SHADEDGE
 70
     3
  9
$SHADEDIF
 70
    70
  9
$TILEMODE
 70
     1
  9
$MAXACTVP
 70
    64
  9
$PINSBASE
 10
0.0
 20
0.0
 30
0.0
  9
$PLIMCHECK
 70
     0
  9
$PEXTMIN
 10
1.000000000000000E+20
 20
1.000000000000000E+20
 30
1.000000000000000E+20
  9
$PEXTMAX
 10
-1.000000000000000E+20
 20
-1.000000000000000E+20
 30
-1.000000000000000E+20
  9
$PLIMMIN
 10
0.0
 20
0.0
  9
$PLIMMAX
 10
12.0
 20
9.0
  9
$UNITMODE
 70
     0
  9
$VISRETAIN
 70
     1
  9
$PLINEGEN
 70
     0
  9
$PSLTSCALE
 70
     1
  9
$TREEDEPTH
 70
  3020
  9
$CMLSTYLE
  2
Standard
  9
$CMLJUST
 70
     0
  9
$CMLSCALE
 40
1.0
  9
$PROXYGRAPHICS
 70
     1
  9
$MEASUREMENT
 70
     0
  9
$CELWEIGHT
370
    -1
  9
$ENDCAPS
280
     0
  9
$JOINSTYLE
280
     0
  9
$LWDISPLAY
290
     0
  9
$INSUNITS
 70
     1
  9
$HYPERLINKBASE
  1

  9
$STYLESHEET
  1

  9
$XEDIT
290
     1
  9
$CEPSNTYPE
380
     0
  9
$PSTYLEMODE
290
     1
  9
$FINGERPRINTGUID
  2
{F19E1131-38B6-4393-BA18-120A594C6963}
  9
$VERSIONGUID
  2
{FAEB1C32-E019-11D5-929B-00C0DF256EC4}
  9
$EXTNAMES
290
     1
  9
$PSVPSCALE
 40
0.0
  9
$OLESTARTUP
290
     0
  9
$SORTENTS
280
   127
  9
$INDEXCTL
280
     0
  9
$HIDETEXT
280
     1
  9
$XCLIPFRAME
280
     2
  9
$HALOGAP
280
     0
  9
$OBSCOLOR
 70
   257
  9
$OBSLTYPE
280
     0
  9
$INTERSECTIONDISPLAY
280
     0
  9
$INTERSECTIONCOLOR
 70
   257
  9
$DIMASSOC
280
     2
  9
$PROJECTNAME
  1

  9
$CAMERADISPLAY
290
     0
  9
$LENSLENGTH
 40
50.0
  9
$CAMERAHEIGHT
 40
0.0
  9
$STEPSPERSEC
 40
2.0
  9
$STEPSIZE
 40
6.0
  9
$3DDWFPREC
 40
2.0
  9
$PSOLWIDTH
 40
0.25
  9
$PSOLHEIGHT
 40
4.0
  9
$LOFTANG1
 40
1.570796326794897
  9
$LOFTANG2
 40
1.570796326794897
  9
$LOFTMAG1
 40
0.0
  9
$LOFTMAG2
 40
0.0
  9
$LOFTPARAM
 70
     7
  9
$LOFTNORMALS
280
     1
  9
$LATITUDE
 40
37.795
  9
$LONGITUDE
 40
-122.394
  9
$NORTHDIRECTION
 40
0.0
  9
$TIMEZONE
 70
 -8000
  9
$LIGHTGLYPHDISPLAY
280
     1
  9
$TILEMODELIGHTSYNCH
280
     1
  9
$CMATERIAL
347
44
  9
$SOLIDHIST
280
     0
  9
$SHOWHIST
280
     1
  9
$DWFFRAME
280
     2
  9
$DGNFRAME
280
     2
  9
$REALWORLDSCALE
290
     1
  9
$INTERFERECOLOR
 62
   256
  9
$CSHADOW
280
     0
  9
$SHADOWPLANELOCATION
 40
0.0
  0
ENDSEC
  0
SECTION
  2
CLASSES
  0
CLASS
  1
ACDBDICTIONARYWDFLT
  2
AcDbDictionaryWithDefault
  3
ObjectDBX Classes
 90
        0
 91
        4
280
     0
281
     0
  0
CLASS
  1
VISUALSTYLE
  2
AcDbVisualStyle
  3
ObjectDBX Classes
 90
     4095
 91
        4
280
     0
281
     0
  0
CLASS
  1
MATERIAL
  2
AcDbMaterial
  3
ObjectDBX Classes
 90
     1153
 91
        4
280
     0
281
     0
  0
CLASS
  1
SCALE
  2
AcDbScale
  3
ObjectDBX Classes
 90
     1153
 91
        4
280
     0
281
     0
  0
CLASS
  1
TABLESTYLE
  2
AcDbTableStyle
  3
ObjectDBX Classes
 90
     4095
 91
        4
280
     0
281
     0
  0
CLASS
  1
MLEADERSTYLE
  2
AcDbMLeaderStyle
  3
ACDB_MLEADERSTYLE_CLASS
 90
     4095
 91
        4
280
     0
281
     0
  0
CLASS
  1
SUN
  2
AcDbSun
  3
SCENEOE
 90
     1153
 91
        4
280
     0
281
     0
  0
CLASS
  1
DICTIONARYVAR
  2
AcDbDictionaryVar
  3
ObjectDBX Classes
 90
        0
 91
        4
280
     0
281
     0
  0
CLASS
  1
CELLSTYLEMAP
  2
AcDbCellStyleMap
  3
ObjectDBX Classes
 90
     1152
 91
        4
280
     0
281
     0
  0
ENDSEC
  0
SECTION
  2
TABLES
  0
TABLE
  2
VPORT
  5
8
330
0
100
AcDbSymbolTable
 70
     1
  0
VPORT
  5
29
330
8
100
AcDbSymbolTableRecord
100
AcDbViewportTableRecord
  2
*Active
 70
     0
 10
0.0
 20
0.0
 11
1.0
 21
1.0
 12
-0.1249955357142856
 22
0.8779999828338623
 13
0.0
 23
0.0
 14
0.5
 24
0.5
 15
0.5
 25
0.5
 16
0.0
 26
0.0
 36
1.0
 17
0.0
 27
0.0
 37
0.0
 40
6.646319964981079
 41
0.4608861179242938
 42
50.0
 43
0.0
 44
0.0
 50
0.0
 51
0.0
 71
     0
 72
   100
 73
     1
 74
     3
 75
     0
 76
     0
 77
     0
 78
     0
281
     0
 65
     1
110
0.0
120
0.0
130
0.0
111
1.0
121
0.0
131
0.0
112
0.0
122
1.0
132
0.0
 79
     0
146
0.0
348
2F
 60
     3
 61
     5
292
     1
282
     1
141
0.0
142
0.0
 63
   250
361
6D
  0
ENDTAB
  0
TABLE
  2
LTYPE
  5
5
330
0
100
AcDbSymbolTable
 70
     3
  0
LTYPE
  5
14
330
5
100
AcDbSymbolTableRecord
100
AcDbLinetypeTableRecord
  2
ByBlock
 70
     0
  3

 72
    65
 73
     0
 40
0.0
  0
LTYPE
  5
15
330
5
100
AcDbSymbolTableRecord
100
AcDbLinetypeTableRecord
  2
ByLayer
 70
     0
  3

 72
    65
 73
     0
 40
0.0
  0
LTYPE
  5
16
330
5
100
AcDbSymbolTableRecord
100
AcDbLinetypeTableRecord
  2
Continuous
 70
     0
  3
Solid line
 72
    65
 73
     0
 40
0.0
  0
LTYPE
  5
B0
330
5
100
AcDbSymbolTableRecord
100
AcDbLinetypeTableRecord
  2
Dashed
 70
     0
  3

 72
    65
 73
     2
 40
2.0
 49
1.0
 74
     0
 49
-1.0
 74
     0
  0
LTYPE
  5
CB
330
5
100
AcDbSymbolTableRecord
100
AcDbLinetypeTableRecord
  2
Center
 70
     0
  3

 72
    65
 73
     4
 40
1.5
 49
0.45
 74
     0
 49
-0.5
 74
     0
 49
0.05
 74
     0
 49
-0.5
 74
     0
  0
ENDTAB
  0
TABLE
  2
LAYER
  5
2
330
0
100
AcDbSymbolTable
 70
     7
  0
LAYER
  5
10
330
2
100
AcDbSymbolTableRecord
100
AcDbLayerTableRecord
  2
0
 70
     0
 62
     7
  6
Continuous
370
    -3
390
F
347
46
348
0
  0
LAYER
  5
72
330
2
100
AcDbSymbolTableRecord
100
AcDbLayerTableRecord
  2
AM_6
 70
     0
 62
    -2
  6
Continuous
370
    35
390
F
347
46
348
0
  0
LAYER
  5
B1
330
2
100
AcDbSymbolTableRecord
100
AcDbLayerTableRecord
  2
AM_9
 70
     0
 62
     6
  6
Dashed
370
    25
390
F
347
46
348
0
  0
LAYER
  5
C8
330
2
100
AcDbSymbolTableRecord
100
AcDbLayerTableRecord
  2
AM_5
 70
     0
 62
     3
  6
Continuous
370
    25
390
F
347
46
348
0
  0
LAYER
  5
CC
330
2
100
AcDbSymbolTableRecord
100
AcDbLayerTableRecord
  2
AM_7
 70
     0
 62
     7
  6
Center
370
    25
390
F
347
46
348
0
  0
LAYER
  5
CE
330
2
100
AcDbSymbolTableRecord
100
AcDbLayerTableRecord
  2
AM_4
 70
     0
 62
     7
  6
Continuous
370
    50
390
F
347
46
348
0
  0
LAYER
  5
228
330
2
100
AcDbSymbolTableRecord
100
AcDbLayerTableRecord
  2
ConnectionPoints
 70
     0
 62
     7
  6
Continuous
370
    50
390
F
347
46
348
0
  0
ENDTAB
  0
TABLE
  2
STYLE
  5
3
330
0
100
AcDbSymbolTable
 70
     1
  0
STYLE
  5
11
330
3
100
AcDbSymbolTableRecord
100
AcDbTextStyleTableRecord
  2
Standard
 70
     0
 40
0.0
 41
1.0
 50
0.0
 71
     0
 42
0.2
  3
txt
  4

  0
ENDTAB
  0
TABLE
  2
VIEW
  5
6
330
0
100
AcDbSymbolTable
 70
     0
  0
ENDTAB
  0
TABLE
  2
UCS
  5
7
330
0
100
AcDbSymbolTable
 70
     0
  0
ENDTAB
  0
TABLE
  2
APPID
  5
9
330
0
100
AcDbSymbolTable
 70
     1
  0
APPID
  5
12
330
9
100
AcDbSymbolTableRecord
100
AcDbRegAppTableRecord
  2
ACAD
 70
     0
  0
ENDTAB
  0
TABLE
  2
DIMSTYLE
  5
A
330
0
100
AcDbSymbolTable
 70
     1
100
AcDbDimStyleTable
  0
DIMSTYLE
105
27
330
A
100
AcDbSymbolTableRecord
100
AcDbDimStyleTableRecord
  2
Standard
 70
     0
178
     0
340
11
  0
ENDTAB
  0
TABLE
  2
BLOCK_RECORD
  5
1
330
0
100
AcDbSymbolTable
 70
     6
  0
BLOCK_RECORD
  5
1F
330
1
100
AcDbSymbolTableRecord
100
AcDbBlockTableRecord
  2
*Model_Space
340
22
 70
     0
280
     1
281
     0
  0
BLOCK_RECORD
  5
1B
330
1
100
AcDbSymbolTableRecord
100
AcDbBlockTableRecord
  2
*Paper_Space
340
1E
 70
     0
280
     1
281
     0
  0
BLOCK_RECORD
  5
23
330
1
100
AcDbSymbolTableRecord
100
AcDbBlockTableRecord
  2
*Paper_Space0
340
26
 70
     0
280
     1
281
     0
  0
BLOCK_RECORD
  5
6E
330
1
100
AcDbSymbolTableRecord
100
AcDbBlockTableRecord
  2
1_023192_2
340
0
102
{BLKREFS
331
6F
102
}
 70
     0
280
     1
281
     0
  0
BLOCK_RECORD
  5
9B
330
1
100
AcDbSymbolTableRecord
100
AcDbBlockTableRecord
  2
2_1_7_16C_0_in_023192_2
340
0
102
{BLKREFS
331
9C
102
}
 70
     0
280
     1
281
     0
  0
BLOCK_RECORD
  5
DC
330
1
100
AcDbSymbolTableRecord
100
AcDbBlockTableRecord
  2
3_405020c_Inch_0_in_023192_2
340
0
102
{BLKREFS
331
DD
102
}
 70
     0
280
     1
281
     0
  0
BLOCK_RECORD
  5
120
330
1
100
AcDbSymbolTableRecord
100
AcDbBlockTableRecord
  2
4_S1U_K_107R_0_in_023192_2
340
0
102
{BLKREFS
331
121
102
}
 70
     0
280
     1
281
     0
  0
BLOCK_RECORD
  5
190
330
1
100
AcDbSymbolTableRecord
100
AcDbBlockTableRecord
  2
5_P2B_K_107RE_0_in_023192_2
340
0
102
{BLKREFS
331
191
102
}
 70
     0
280
     1
281
     0
  0
ENDTAB
  0
ENDSEC
  0
SECTION
  2
BLOCKS
  0
BLOCK
  5
20
330
1F
100
AcDbEntity
  8
0
100
AcDbBlockBegin
  2
*Model_Space
 70
     0
 10
0.0
 20
0.0
 30
0.0
  3
*Model_Space
  1

  0
ENDBLK
  5
21
330
1F
100
AcDbEntity
  8
0
100
AcDbBlockEnd
  0
BLOCK
  5
1C
330
1B
100
AcDbEntity
 67
     1
  8
0
100
AcDbBlockBegin
  2
*Paper_Space
 70
     0
 10
0.0
 20
0.0
 30
0.0
  3
*Paper_Space
  1

  0
ENDBLK
  5
1D
330
1B
100
AcDbEntity
 67
     1
  8
0
100
AcDbBlockEnd
  0
BLOCK
  5
24
330
23
100
AcDbEntity
  8
0
100
AcDbBlockBegin
  2
*Paper_Space0
 70
     0
 10
0.0
 20
0.0
 30
0.0
  3
*Paper_Space0
  1

  0
ENDBLK
  5
25
330
23
100
AcDbEntity
  8
0
100
AcDbBlockEnd
  0
BLOCK
  5
70
330
6E
100
AcDbEntity
  8
0
100
AcDbBlockBegin
  2
1_023192_2
 70
     2
 10
0.0
 20
0.0
 30
0.0
  3
1_023192_2
  1

  0
ATTDEF
  5
73
330
6E
100
AcDbEntity
  8
AM_6
100
AcDbText
 10
6.376571428571428
 20
4.135999965667724
 30
0.0
 40
0.5
  1
Type K Pillow Block 2&4-Bolt Base Expansion Inch Bore
100
AcDbAttributeDefinition
  3

  2
NN
 70
     8
280
     0
  0
ATTDEF
  5
74
330
6E
100
AcDbEntity
  8
AM_6
100
AcDbText
 10
6.376571428571428
 20
3.635999965667724
 30
0.0
 40
0.5
  1
Type K
100
AcDbAttributeDefinition
  3

  2
NT
 70
     8
280
     0
  0
ATTDEF
  5
75
330
6E
100
AcDbEntity
  8
AM_6
100
AcDbText
 10
6.376571428571428
 20
3.135999965667724
 30
0.0
 40
0.5
  1
023192
100
AcDbAttributeDefinition
  3

  2
NB
 70
     8
280
     0
  0
ATTDEF
  5
76
330
6E
100
AcDbEntity
  8
AM_6
100
AcDbText
 10
6.376571428571428
 20
2.635999965667724
 30
0.0
 40
0.5
  1
$PN.
100
AcDbAttributeDefinition
  3

  2
NBSYN
 70
     8
280
     0
  0
ATTDEF
  5
77
330
6E
100
AcDbEntity
  8
AM_6
100
AcDbText
 10
6.376571428571428
 20
2.135999965667724
 30
0.0
 40
0.5
  1
023192
100
AcDbAttributeDefinition
  3

  2
LINA
 70
     8
280
     0
  0
ATTDEF
  5
78
330
6E
100
AcDbEntity
  8
AM_6
100
AcDbText
 10
6.376571428571428
 20
1.635999965667724
 30
0.0
 40
0.5
  1
1-7/16
100
AcDbAttributeDefinition
  3

  2
SS
 70
     8
280
     0
  0
ATTDEF
  5
79
330
6E
100
AcDbEntity
  8
AM_6
100
AcDbText
 10
6.376571428571428
 20
1.135999965667724
 30
0.0
 40
0.5
  1
023192
100
AcDbAttributeDefinition
  3

  2
PN
 70
     8
280
     0
  0
ATTDEF
  5
7A
330
6E
100
AcDbEntity
  8
AM_6
100
AcDbText
 10
6.376571428571428
 20
0.6359999656677244
 30
0.0
 40
0.5
  1
P2B-K-107RE
100
AcDbAttributeDefinition
  3

  2
PNA
 70
     8
280
     0
  0
ATTDEF
  5
7B
330
6E
100
AcDbEntity
  8
AM_6
100
AcDbText
 10
6.376571428571428
 20
0.1359999656677244
 30
0.0
 40
0.5
  1
11
100
AcDbAttributeDefinition
  3

  2
WEIGHT
 70
     8
280
     0
  0
ATTDEF
  5
7C
330
6E
100
AcDbEntity
  8
AM_6
100
AcDbText
 10
6.376571428571428
 20
-0.3640000343322756
 30
0.0
 40
0.5
  1
2.55
100
AcDbAttributeDefinition
  3

  2
A
 70
     8
280
     0
  0
ATTDEF
  5
7D
330
6E
100
AcDbEntity
  8
AM_6
100
AcDbText
 10
6.376571428571428
 20
-0.8640000343322756
 30
0.0
 40
0.5
  1
8.00
100
AcDbAttributeDefinition
  3

  2
B
 70
     8
280
     0
  0
ATTDEF
  5
7E
330
6E
100
AcDbEntity
  8
AM_6
100
AcDbText
 10
6.376571428571428
 20
-1.364000034332276
 30
0.0
 40
0.5
  1
2.19
100
AcDbAttributeDefinition
  3

  2
C
 70
     8
280
     0
  0
ATTDEF
  5
7F
330
6E
100
AcDbEntity
  8
AM_6
100
AcDbText
 10
6.376571428571428
 20
-1.864000034332276
 30
0.0
 40
0.5
  1
6.25
100
AcDbAttributeDefinition
  3

  2
DMIN
 70
     8
280
     0
  0
ATTDEF
  5
80
330
6E
100
AcDbEntity
  8
AM_6
100
AcDbText
 10
6.376571428571428
 20
-2.364000034332276
 30
0.0
 40
0.5
  1
6.62
100
AcDbAttributeDefinition
  3

  2
DMAX
 70
     8
280
     0
  0
ATTDEF
  5
81
330
6E
100
AcDbEntity
  8
AM_6
100
AcDbText
 10
6.376571428571428
 20
-2.864000034332276
 30
0.0
 40
0.5
  1
N/A
100
AcDbAttributeDefinition
  3

  2
E
 70
     8
280
     0
  0
ATTDEF
  5
82
330
6E
100
AcDbEntity
  8
AM_6
100
AcDbText
 10
6.376571428571428
 20
-3.364000034332276
 30
0.0
 40
0.5
  1
1/2
100
AcDbAttributeDefinition
  3

  2
F
 70
     8
280
     0
  0
ATTDEF
  5
83
330
6E
100
AcDbEntity
  8
AM_6
100
AcDbText
 10
6.376571428571428
 20
-3.864000034332276
 30
0.0
 40
0.5
  1
.75
100
AcDbAttributeDefinition
  3

  2
G
 70
     8
280
     0
  0
ATTDEF
  5
84
330
6E
100
AcDbEntity
  8
AM_6
100
AcDbText
 10
6.376571428571428
 20
-4.364000034332276
 30
0.0
 40
0.5
  1
1.25
100
AcDbAttributeDefinition
  3

  2
H
 70
     8
280
     0
  0
ATTDEF
  5
85
330
6E
100
AcDbEntity
  8
AM_6
100
AcDbText
 10
6.376571428571428
 20
-4.864000034332276
 30
0.0
 40
0.5
  1
5.23
100
AcDbAttributeDefinition
  3

  2
J
 70
     8
280
     0
  0
ATTDEF
  5
86
330
6E
100
AcDbEntity
  8
AM_6
100
AcDbText
 10
6.376571428571428
 20
-5.364000034332276
 30
0.0
 40
0.5
  1
2.75
100
AcDbAttributeDefinition
  3

  2
L
 70
     8
280
     0
  0
ATTDEF
  5
87
330
6E
100
AcDbEntity
  8
AM_6
100
AcDbText
 10
6.376571428571428
 20
-5.864000034332276
 30
0.0
 40
0.5
  1
2.38
100
AcDbAttributeDefinition
  3

  2
M
 70
     8
280
     0
  0
ATTDEF
  5
88
330
6E
100
AcDbEntity
  8
AM_6
100
AcDbText
 10
6.376571428571428
 20
-6.364000034332276
 30
0.0
 40
0.5
  1
5.51
100
AcDbAttributeDefinition
  3

  2
P
 70
     8
280
     0
  0
ATTDEF
  5
89
330
6E
100
AcDbEntity
  8
AM_6
100
AcDbText
 10
6.376571428571428
 20
-6.864000034332276
 30
0.0
 40
0.5
  1
1.03
100
AcDbAttributeDefinition
  3

  2
R
 70
     8
280
     0
  0
ATTDEF
  5
8A
330
6E
100
AcDbEntity
  8
AM_6
100
AcDbText
 10
6.376571428571428
 20
-7.364000034332276
 30
0.0
 40
0.5
  1
1.50
100
AcDbAttributeDefinition
  3

  2
S
 70
     8
280
     0
  0
ATTDEF
  5
8B
330
6E
100
AcDbEntity
  8
AM_6
100
AcDbText
 10
6.376571428571428
 20
-7.864000034332276
 30
0.0
 40
0.5
  1
.09
100
AcDbAttributeDefinition
  3

  2
T
 70
     8
280
     0
  0
ATTDEF
  5
8C
330
6E
100
AcDbEntity
  8
AM_6
100
AcDbText
 10
6.376571428571428
 20
-8.364000034332275
 30
0.0
 40
0.5
  1
26000
100
AcDbAttributeDefinition
  3

  2
CS
 70
     8
280
     0
  0
ATTDEF
  5
8D
330
6E
100
AcDbEntity
  8
AM_6
100
AcDbText
 10
6.376571428571428
 20
-8.864000034332275
 30
0.0
 40
0.5
  1
4760
100
AcDbAttributeDefinition
  3

  2
CD
 70
     8
280
     0
  0
ATTDEF
  5
8E
330
6E
100
AcDbEntity
  8
AM_6
100
AcDbText
 10
6.376571428571428
 20
-9.364000034332275
 30
0.0
 40
0.5
  1
20
100
AcDbAttributeDefinition
  3

  2
RN
 70
     8
280
     0
  0
ATTDEF
  5
8F
330
6E
100
AcDbEntity
  8
AM_6
100
AcDbText
 10
6.376571428571428
 20
-9.864000034332275
 30
0.0
 40
0.5
  1
.29
100
AcDbAttributeDefinition
  3

  2
RM
 70
     8
280
     0
  0
ATTDEF
  5
90
330
6E
100
AcDbEntity
  8
AM_6
100
AcDbText
 10
6.376571428571428
 20
-10.36400003433227
 30
0.0
 40
0.5
  1
2.084
100
AcDbAttributeDefinition
  3

  2
PDI
 70
     8
280
     0
  0
ATTDEF
  5
91
330
6E
100
AcDbEntity
  8
AM_6
100
AcDbText
 10
6.376571428571428
 20
-10.86400003433227
 30
0.0
 40
0.5
  1
.004-.012
100
AcDbAttributeDefinition
  3

  2
EP
 70
     8
280
     0
  0
ATTDEF
  5
92
330
6E
100
AcDbEntity
  8
AM_6
100
AcDbText
 10
6.376571428571428
 20
-11.36400003433227
 30
0.0
 40
0.5
  1
5/16-18*5/8
100
AcDbAttributeDefinition
  3

  2
SC
 70
     8
280
     0
  0
ATTDEF
  5
93
330
6E
100
AcDbEntity
  8
AM_6
100
AcDbText
 10
6.376571428571428
 20
-11.86400003433227
 30
0.0
 40
0.5
  1
165
100
AcDbAttributeDefinition
  3

  2
TC
 70
     8
280
     0
  0
ATTDEF
  5
94
330
6E
100
AcDbEntity
  8
AM_6
100
AcDbText
 10
6.376571428571428
 20
-12.36400003433227
 30
0.0
 40
0.5
  1
C.I. ASTM A48 CLASS 30
100
AcDbAttributeDefinition
  3

  2
MH
 70
     8
280
     0
  0
ATTDEF
  5
95
330
6E
100
AcDbEntity
  8
AM_6
100
AcDbText
 10
6.376571428571428
 20
-12.86400003433227
 30
0.0
 40
0.5
  1
4118 CASE CARB.
100
AcDbAttributeDefinition
  3

  2
MC
 70
     8
280
     0
  0
ATTDEF
  5
96
330
6E
100
AcDbEntity
  8
AM_6
100
AcDbText
 10
6.376571428571428
 20
-13.36400003433227
 30
0.0
 40
0.5
  1
4118 CASE CARB.
100
AcDbAttributeDefinition
  3

  2
MCU
 70
     8
280
     0
  0
ATTDEF
  5
97
330
6E
100
AcDbEntity
  8
AM_6
100
AcDbText
 10
6.376571428571428
 20
-13.86400003433227
 30
0.0
 40
0.5
  1
STEEL
100
AcDbAttributeDefinition
  3

  2
MR
 70
     8
280
     0
  0
ATTDEF
  5
98
330
6E
100
AcDbEntity
  8
AM_6
100
AcDbText
 10
6.376571428571428
 20
-14.36400003433227
 30
0.0
 40
0.5
  1
4118 CASE CARB.
100
AcDbAttributeDefinition
  3

  2
MRO
 70
     8
280
     0
  0
ATTDEF
  5
99
330
6E
100
AcDbEntity
  8
AM_6
100
AcDbText
 10
6.376571428571428
 20
-14.86400003433227
 30
0.0
 40
0.5
  1
2.84*
100
AcDbAttributeDefinition
  3

  2
SM
 70
     8
280
     0
  0
ATTDEF
  5
9A
330
6E
100
AcDbEntity
  8
AM_6
100
AcDbText
 10
6.376571428571428
 20
-15.36400003433227
 30
0.0
 40
0.5
  1
baldor
100
AcDbAttributeDefinition
  3

  2
COMPANY
 70
     8
280
     0
  0
INSERT
  5
9C
330
6E
100
AcDbEntity
  8
0
100
AcDbBlockReference
  2
2_1_7_16C_0_in_023192_2
 10
0.0
 20
0.0
 30
0.0
  0
INSERT
  5
DD
330
6E
100
AcDbEntity
  8
0
100
AcDbBlockReference
  2
3_405020c_Inch_0_in_023192_2
 10
0.0
 20
0.0
 30
0.0
  0
INSERT
  5
121
330
6E
100
AcDbEntity
  8
0
100
AcDbBlockReference
  2
4_S1U_K_107R_0_in_023192_2
 10
0.0
 20
0.0
 30
0.0
  0
INSERT
  5
191
330
6E
100
AcDbEntity
  8
0
100
AcDbBlockReference
  2
5_P2B_K_107RE_0_in_023192_2
 10
0.0
 20
0.0
 30
0.0
  0
ENDBLK
  5
71
330
6E
100
AcDbEntity
  8
0
100
AcDbBlockEnd
  0
BLOCK
  5
9D
330
9B
100
AcDbEntity
  8
0
100
AcDbBlockBegin
  2
2_1_7_16C_0_in_023192_2
 70
     2
 10
0.0
 20
0.0
 30
0.0
  3
2_1_7_16C_0_in_023192_2
  1

  0
ATTDEF
  5
9F
330
9B
100
AcDbEntity
  8
AM_6
100
AcDbText
 10
4.06
 20
1.401041666666667
 30
0.0
 40
0.5
  1
E-Type Collar -Inch
100
AcDbAttributeDefinition
  3

  2
NN
 70
     8
280
     0
  0
ATTDEF
  5
A0
330
9B
100
AcDbEntity
  8
AM_6
100
AcDbText
 10
4.06
 20
0.9010416666666667
 30
0.0
 40
0.5
  1
E-Type Bearings
100
AcDbAttributeDefinition
  3

  2
NT
 70
     8
280
     0
  0
ATTDEF
  5
A1
330
9B
100
AcDbEntity
  8
AM_6
100
AcDbText
 10
4.06
 20
0.4010416666666667
 30
0.0
 40
0.5
  1
1-7/16C
100
AcDbAttributeDefinition
  3

  2
NB
 70
     8
280
     0
  0
ATTDEF
  5
A2
330
9B
100
AcDbEntity
  8
AM_6
100
AcDbText
 10
4.06
 20
-0.0989583333333333
 30
0.0
 40
0.5
  1
$BORE.C
100
AcDbAttributeDefinition
  3

  2
NBSYN
 70
     8
280
     0
  0
ATTDEF
  5
A3
330
9B
100
AcDbEntity
  8
AM_6
100
AcDbText
 10
4.06
 20
-0.5989583333333333
 30
0.0
 40
0.5
  1
1-7/16C
100
AcDbAttributeDefinition
  3

  2
LINA
 70
     8
280
     0
  0
ATTDEF
  5
A4
330
9B
100
AcDbEntity
  8
AM_6
100
AcDbText
 10
4.06
 20
-1.098958333333333
 30
0.0
 40
0.5
  1
1-7/16
100
AcDbAttributeDefinition
  3

  2
BORE
 70
     8
280
     0
  0
ATTDEF
  5
A5
330
9B
100
AcDbEntity
  8
AM_6
100
AcDbText
 10
4.06
 20
-1.598958333333333
 30
0.0
 40
0.5
  1
2.75000
100
AcDbAttributeDefinition
  3

  2
L
 70
     8
280
     0
  0
ATTDEF
  5
A6
330
9B
100
AcDbEntity
  8
AM_6
100
AcDbText
 10
4.06
 20
-2.098958333333333
 30
0.0
 40
0.5
  1
3.00
100
AcDbAttributeDefinition
  3

  2
A
 70
     8
280
     0
  0
ATTDEF
  5
A7
330
9B
100
AcDbEntity
  8
AM_6
100
AcDbText
 10
4.06
 20
-2.598958333333333
 30
0.0
 40
0.5
  1
1.25
100
AcDbAttributeDefinition
  3

  2
B
 70
     8
280
     0
  0
ATTDEF
  5
A8
330
9B
100
AcDbEntity
  8
AM_6
100
AcDbText
 10
4.06
 20
-3.098958333333333
 30
0.0
 40
0.5
  1
1.75
100
AcDbAttributeDefinition
  3

  2
C
 70
     8
280
     0
  0
ATTDEF
  5
A9
330
9B
100
AcDbEntity
  8
AM_6
100
AcDbText
 10
4.06
 20
-3.598958333333333
 30
0.0
 40
0.5
  1
2.81
100
AcDbAttributeDefinition
  3

  2
D
 70
     8
280
     0
  0
ATTDEF
  5
AA
330
9B
100
AcDbEntity
  8
AM_6
100
AcDbText
 10
4.06
 20
-4.098958333333333
 30
0.0
 40
0.5
  1
0.35
100
AcDbAttributeDefinition
  3

  2
E
 70
     8
280
     0
  0
ATTDEF
  5
AB
330
9B
100
AcDbEntity
  8
AM_6
100
AcDbText
 10
4.06
 20
-4.598958333333333
 30
0.0
 40
0.5
  1
0.28
100
AcDbAttributeDefinition
  3

  2
F
 70
     8
280
     0
  0
ATTDEF
  5
AC
330
9B
100
AcDbEntity
  8
AM_6
100
AcDbText
 10
4.06
 20
-5.098958333333333
 30
0.0
 40
0.5
  1
5/16-18
100
AcDbAttributeDefinition
  3

  2
CS
 70
     8
280
     0
  0
ATTDEF
  5
AD
330
9B
100
AcDbEntity
  8
AM_6
100
AcDbText
 10
4.06
 20
-5.598958333333333
 30
0.0
 40
0.5
  1
0.3125
100
AcDbAttributeDefinition
  3

  2
NDM
 70
     8
280
     0
  0
ATTDEF
  5
AE
330
9B
100
AcDbEntity
  8
AM_6
100
AcDbText
 10
4.06
 20
-6.098958333333333
 30
0.0
 40
0.5
  1
0.2520
100
AcDbAttributeDefinition
  3

  2
KDM
 70
     8
280
     0
  0
ATTDEF
  5
AF
330
9B
100
AcDbEntity
  8
AM_6
100
AcDbText
 10
4.06
 20
-6.598958333333333
 30
0.0
 40
0.5
  1
baldor
100
AcDbAttributeDefinition
  3

  2
COMPANY
 70
     8
280
     0
  0
LINE
  5
B2
330
9B
100
AcDbEntity
  8
AM_9
100
AcDbLine
 10
-1.0938
 20
0.8842166666666665
 30
0.0
 11
-1.0938
 21
1.34495
 31
0.0
  0
LINE
  5
B3
330
9B
100
AcDbEntity
  8
AM_9
100
AcDbLine
 10
-1.3462
 20
1.34495
 30
0.0
 11
-1.3462
 21
0.8842166666666665
 31
0.0
  0
LINE
  5
B4
330
9B
100
AcDbEntity
  8
AM_9
100
AcDbLine
 10
-1.3462
 20
1.34495
 30
0.0
 11
-1.0938
 21
1.34495
 31
0.0
  0
LINE
  5
B5
330
9B
100
AcDbEntity
  8
AM_9
100
AcDbLine
 10
-1.0938
 20
1.34495
 30
0.0
 11
-1.06375
 21
1.375
 31
0.0
  0
LINE
  5
B6
330
9B
100
AcDbEntity
  8
AM_9
100
AcDbLine
 10
-1.37625
 20
1.375
 30
0.0
 11
-1.3462
 21
1.34495
 31
0.0
  0
LINE
  5
B7
330
9B
100
AcDbEntity
  8
AM_9
100
AcDbLine
 10
-1.3462
 20
0.8842166666666665
 30
0.0
 11
-1.0938
 21
0.8842166666666665
 31
0.0
  0
LINE
  5
B8
330
9B
100
AcDbEntity
  8
AM_9
100
AcDbLine
 10
-1.3462
 20
0.8842166666666665
 30
0.0
 11
-1.355322756135511
 21
0.875093910531155
 31
0.0
  0
LINE
  5
B9
330
9B
100
AcDbEntity
  8
AM_9
100
AcDbLine
 10
-1.084801376692717
 20
0.8752180433593841
 30
0.0
 11
-1.0938
 21
0.8842166666666665
 31
0.0
  0
LWPOLYLINE
  5
BA
330
9B
100
AcDbEntity
  8
AM_9
100
AcDbPolyline
 90
       38
 70
     0
 43
0.0
 10
-1.122512944615278
 20
0.2743731080557923
 10
-1.10987067025447
 20
0.2902087235174336
 10
-1.099652100472578
 20
0.3074241341673336
 10
-1.090777076816615
 20
0.3294306542079486
 10
-1.085749860806129
 20
0.3522153566566878
 10
-1.084747776894818
 20
0.3760788117394522
 10
-1.08802554884785
 20
0.3994424596119345
 10
-1.095672747625656
 20
0.4218773501572947
 10
-1.107474314973258
 20
0.4425398213078174
 10
-1.122967780635393
 20
0.4605376263200328
 10
-1.141928028831849
 20
0.4756867412286193
 10
-1.1625560753687
 20
0.4867933339497444
 10
-1.185275560392111
 20
0.4944473998520165
 10
-1.206948264240496
 20
0.4980243739354936
 10
-1.229044684241965
 20
0.4983421825221666
 10
-1.249307696735587
 20
0.4956521935770825
 10
-1.268764666059565
 20
0.4902387315737626
 10
-1.28714812826148
 20
0.4821376512726612
 10
-1.303819681444548
 20
0.4716906817304888
 10
-1.319539183502123
 20
0.4580642858508739
 10
-1.332636951173203
 20
0.4423822146551874
 10
-1.343671908509527
 20
0.4233165305818403
 10
-1.351156367690985
 20
0.4026972617325465
 10
-1.35502773251204
 20
0.3797008329426652
 10
-1.354710188987229
 20
0.3561175715320604
 10
-1.350024083668005
 20
0.3321188293758287
 10
-1.341078315598573
 20
0.3088956051556672
 10
-1.328085227015781
 20
0.2873380055979072
 10
-1.311318304145893
 20
0.2680703259489686
 10
-1.292014725291367
 20
0.2525574880576902
 10
-1.270072510545152
 20
0.2406364257056886
 10
-1.248338942753326
 20
0.2335605630787611
 10
-1.225634877090701
 20
0.2304276571482665
 10
-1.204782158177671
 20
0.2312439789963953
 10
-1.18437027990892
 20
0.2354488955541852
 10
-1.165307411503916
 20
0.2427260654064994
 10
-1.147656115607665
 20
0.2527551944583884
 10
-1.122512944615278
 20
0.2743731080557923
  0
LINE
  5
BB
330
9B
100
AcDbEntity
  8
AM_9
100
AcDbLine
 10
-1.5
 20
-0.875
 30
0.0
 11
-0.94
 21
-0.875
 31
0.0
  0
LINE
  5
BC
330
9B
100
AcDbEntity
  8
AM_9
100
AcDbLine
 10
-0.94
 20
0.875
 30
0.0
 11
-1.085116962535728
 21
0.875
 31
0.0
  0
LINE
  5
BD
330
9B
100
AcDbEntity
  8
AM_9
100
AcDbLine
 10
-1.35518643514101
 20
0.875
 30
0.0
 11
-1.5
 21
0.875
 31
0.0
  0
LWPOLYLINE
  5
BE
330
9B
100
AcDbEntity
  8
AM_9
100
AcDbPolyline
 90
       21
 70
     0
 43
0.0
 10
-1.355416666665996
 20
0.8749999999998772
 10
-1.355383606156809
 20
0.874993947356603
 10
-1.352636230202916
 20
0.8744957887278755
 10
-1.34568101656021
 20
0.8732774829402508
 10
-1.334248970900008
 20
0.871409717282672
 10
-1.319482484702337
 20
0.8692487463534139
 10
-1.300615093504594
 20
0.866907706543922
 10
-1.280587174492273
 20
0.8649477428884087
 10
-1.257574299387511
 20
0.8633744315584261
 10
-1.23623856407008
 20
0.8625721331397554
 10
-1.213634206282981
 20
0.8624159782618529
 10
-1.193538202169756
 20
0.8628773888899468
 10
-1.173625633874727
 20
0.8638897112264655
 10
-1.155323700304483
 20
0.8653035315819461
 10
-1.138253679073796
 20
0.8670346320224149
 10
-1.122485701466208
 20
0.8689823829023265
 10
-1.108941602637135
 20
0.8709186336298379
 10
-1.097645431565555
 20
0.8727166463535222
 10
-1.089617548557427
 20
0.8740942665872906
 10
-1.085250973049289
 20
0.8748780373430578
 10
-1.084583333333417
 20
0.8749999999999847
  0
LINE
  5
BF
330
9B
100
AcDbEntity
  8
AM_9
100
AcDbLine
 10
-1.0938
 20
0.3736861106688221
 30
0.0
 11
-1.0938
 21
0.5684004311281539
 31
0.0
  0
LINE
  5
C0
330
9B
100
AcDbEntity
  8
AM_9
100
AcDbLine
 10
-1.3462
 20
0.5684004311281539
 30
0.0
 11
-1.3462
 21
0.3736861106688221
 31
0.0
  0
ELLIPSE
  5
C1
330
9B
100
AcDbEntity
  8
AM_9
100
AcDbEllipse
 10
-1.220000000000035
 20
0.5684004311281665
 30
0.0
 11
0.1262000000000347
 21
0.0
 31
0.0
210
0.0
220
0.0
230
1.0
 40
0.9063077870366567
 41
6.145172090913566
 42
6.421198523445385
  0
ELLIPSE
  5
C2
330
9B
100
AcDbEntity
  8
AM_9
100
AcDbEllipse
 10
-1.22
 20
0.3736861106688227
 30
0.0
 11
0.1261999999999994
 21
0.0
 31
0.0
210
0.0
220
0.0
230
1.0
 40
0.9063077870366489
 41
2.1233206344004
 42
7.301457326368986
  0
LWPOLYLINE
  5
C3
330
9B
100
AcDbEntity
  8
AM_9
100
AcDbPolyline
 90
        9
 70
     0
 43
0.0
 10
-1.094604131786949
 20
0.6599910837206615
 10
-1.083802433908226
 20
0.6460756392111471
 10
-1.072809153749846
 20
0.6257047151284929
 10
-1.066012224683069
 20
0.6037559805055568
 10
-1.063771399685511
 20
0.5820743868195628
 10
-1.065643797398974
 20
0.5601889914516516
 10
-1.071427047275454
 20
0.539266325583897
 10
-1.080850750539779
 20
0.5193474066282417
 10
-1.094345397644157
 20
0.5001154315177633
  0
LINE
  5
C4
330
9B
100
AcDbEntity
  8
AM_9
100
AcDbLine
 10
-1.095
 20
-1.375
 30
0.0
 11
-0.94
 21
-1.375
 31
0.0
  0
LINE
  5
C5
330
9B
100
AcDbEntity
  8
AM_9
100
AcDbLine
 10
-0.94
 20
1.375
 30
0.0
 11
-1.06375
 21
1.375
 31
0.0
  0
LINE
  5
C6
330
9B
100
AcDbEntity
  8
AM_9
100
AcDbLine
 10
-1.063750000000042
 20
1.374999999999996
 30
0.0
 11
-1.094873375456563
 21
1.372135083813919
 31
0.0
  0
LINE
  5
C7
330
9B
100
AcDbEntity
  8
AM_9
100
AcDbLine
 10
-0.94
 20
1.375
 30
0.0
 11
-0.94
 21
-1.375
 31
0.0
  0
LINE
  5
C9
330
9B
100
AcDbEntity
  8
AM_5
100
AcDbLine
 10
-1.37625
 20
1.375
 30
0.0
 11
-1.37625
 21
0.875
 31
0.0
  0
LINE
  5
CA
330
9B
100
AcDbEntity
  8
AM_5
100
AcDbLine
 10
-1.06375
 20
1.375
 30
0.0
 11
-1.06375
 21
0.875
 31
0.0
  0
LINE
  5
CD
330
9B
100
AcDbEntity
  8
AM_7
100
AcDbLine
 10
-1.22
 20
1.401041666666667
 30
0.0
 11
-1.22
 21
0.828125
 31
0.0
  0
ELLIPSE
  5
CF
330
9B
100
AcDbEntity
  8
AM_4
100
AcDbEllipse
 10
-1.22
 20
0.3736861106688238
 30
0.0
 11
0.1261999999999983
 21
0.0
 31
0.0
210
0.0
220
0.0
230
1.0
 40
0.9063077870366482
 41
1.570796326794897
 42
2.123320634400398
  0
ELLIPSE
  5
D0
330
9B
100
AcDbEntity
  8
AM_4
100
AcDbEllipse
 10
-1.22
 20
0.5684004311281539
 30
0.0
 11
0.1262000000000001
 21
0.0
 31
0.0
210
0.0
220
0.0
230
1.0
 40
0.9063077870366504
 41
1.570796326794897
 42
6.145172090913638
  0
ELLIPSE
  5
D1
330
9B
100
AcDbEntity
  8
AM_4
100
AcDbEllipse
 10
-1.22
 20
0.5684004311281535
 30
0.0
 11
0.1262000000000003
 21
0.0
 31
0.0
210
0.0
220
0.0
230
1.0
 40
0.9063077870366487
 41
0.1380132162659491
 42
1.570796326794897
  0
ELLIPSE
  5
D2
330
9B
100
AcDbEntity
  8
AM_4
100
AcDbEllipse
 10
-1.22
 20
0.3736861106688192
 30
0.0
 11
0.1262000000000025
 21
0.0
 31
0.0
210
0.0
220
0.0
230
1.0
 40
0.9063077870366544
 41
1.018272019189408
 42
1.570796326794897
  0
LINE
  5
D3
330
9B
100
AcDbEntity
  8
AM_4
100
AcDbLine
 10
-1.094345397644157
 20
0.5001154315177633
 30
0.0
 11
-1.100737901136074
 21
0.4929518138866407
 31
0.0
  0
LWPOLYLINE
  5
D4
330
9B
100
AcDbEntity
  8
AM_4
100
AcDbPolyline
 90
       31
 70
     0
 43
0.0
 10
-1.100737901136074
 20
0.4929518138866407
 10
-1.117052505794309
 20
0.478184995251073
 10
-1.135491892973774
 20
0.4657443238136156
 10
-1.158722070384836
 20
0.4546873869228014
 10
-1.183537976368723
 20
0.447268639744102
 10
-1.210286872408725
 20
0.443653416105651
 10
-1.237300946102108
 20
0.444235519677651
 10
-1.264289218204959
 20
0.4491771691350587
 10
-1.29001308628885
 20
0.4583188756761399
 10
-1.313524275971437
 20
0.4713722948970543
 10
-1.334285601758116
 20
0.487972805995754
 10
-1.351027611144431
 20
0.5069986731919219
 10
-1.363919759244189
 20
0.5283313706339569
 10
-1.372047697163316
 20
0.5500770922468966
 10
-1.37593847519573
 20
0.5726171305514657
 10
-1.375484183905685
 20
0.5941942099697561
 10
-1.371045463425595
 20
0.6152276866481442
 10
-1.36283964844079
 20
0.6349181422963716
 10
-1.351179009021861
 20
0.6530336655464631
 10
-1.335905414122079
 20
0.6696048932712816
 10
-1.317830469953243
 20
0.6837520792037503
 10
-1.296332813732761
 20
0.6957048429348078
 10
-1.272905290297762
 20
0.7044983750785049
 10
-1.246986690689378
 20
0.7101276702619833
 10
-1.22034413607417
 20
0.7120605378312687
 10
-1.193028976858676
 20
0.7101287623116718
 10
-1.166473971776393
 20
0.7043138673284388
 10
-1.141438636526269
 20
0.6946534904720006
 10
-1.118696022862792
 20
0.6813759789146264
 10
-1.099469110817792
 20
0.6651409607601427
 10
-1.094604131786949
 20
0.6599910837206615
  0
LINE
  5
D5
330
9B
100
AcDbEntity
  8
AM_4
100
AcDbLine
 10
-1.406666666666667
 20
-1.375
 30
0.0
 11
-1.095
 21
-1.375
 31
0.0
  0
LINE
  5
D6
330
9B
100
AcDbEntity
  8
AM_4
100
AcDbLine
 10
-1.37625
 20
1.375
 30
0.0
 11
-1.406666666666667
 21
1.375
 31
0.0
  0
LWPOLYLINE
  5
D7
330
9B
100
AcDbEntity
  8
AM_4
100
AcDbPolyline
 90
       16
 70
     0
 43
0.0
 10
-1.094873375456563
 20
1.372135083813919
 10
-1.109772359402606
 20
1.370984923616305
 10
-1.129080069890754
 20
1.369709022795597
 10
-1.151189956010213
 20
1.36854693075873
 10
-1.175586064860428
 20
1.367636767592361
 10
-1.20183085489531
 20
1.367095046119883
 10
-1.228693878067912
 20
1.36701106113551
 10
-1.256070477788024
 20
1.367415334717704
 10
-1.281899686892216
 20
1.368249426366891
 10
-1.306671708626957
 20
1.369460917454835
 10
-1.327857641863691
 20
1.370815243767821
 10
-1.346452413466206
 20
1.37224439629973
 10
-1.360140110260821
 20
1.373439286972606
 10
-1.370105318328365
 20
1.374385073574348
 10
-1.37515370501682
 20
1.374888517493469
 10
-1.376249999999893
 20
1.374999999999989
  0
LINE
  5
D8
330
9B
100
AcDbEntity
  8
AM_4
100
AcDbLine
 10
-1.5
 20
1.281666666666667
 30
0.0
 11
-1.5
 21
-1.281666666666667
 31
0.0
  0
ARC
  5
D9
330
9B
100
AcDbEntity
  8
AM_4
100
AcDbCircle
 10
-1.406666666666667
 20
-1.281666666666667
 30
0.0
 40
0.0933333333333326
100
AcDbArc
 50
180.0
 51
270.0
  0
ARC
  5
DA
330
9B
100
AcDbEntity
  8
AM_4
100
AcDbCircle
 10
-1.406666666666667
 20
1.281666666666667
 30
0.0
 40
0.0933333333333326
100
AcDbArc
 50
90.0
 51
180.0
  0
LINE
  5
DB
330
9B
100
AcDbEntity
  8
AM_4
100
AcDbLine
 10
-1.406666666666667
 20
1.375
 30
0.0
 11
-1.406666666666667
 21
-1.375
 31
0.0
  0
ENDBLK
  5
9E
330
9B
100
AcDbEntity
  8
0
100
AcDbBlockEnd
  0
BLOCK
  5
DE
330
DC
100
AcDbEntity
  8
0
100
AcDbBlockBegin
  2
3_405020c_Inch_0_in_023192_2
 70
     2
 10
0.0
 20
0.0
 30
0.0
  3
3_405020c_Inch_0_in_023192_2
  1

  0
ATTDEF
  5
E0
330
DC
100
AcDbEntity
  8
AM_6
100
AcDbText
 10
5.162408630723042
 20
2.5575
 30
0.0
 40
0.5
  1
405020C -Inch
100
AcDbAttributeDefinition
  3

  2
NN
 70
     8
280
     0
  0
ATTDEF
  5
E1
330
DC
100
AcDbEntity
  8
AM_6
100
AcDbText
 10
5.162408630723042
 20
2.0575
 30
0.0
 40
0.5
  1
Grease fitting
100
AcDbAttributeDefinition
  3

  2
NT
 70
     8
280
     0
  0
ATTDEF
  5
E2
330
DC
100
AcDbEntity
  8
AM_6
100
AcDbText
 10
5.162408630723042
 20
1.5575
 30
0.0
 40
0.5
  1
405020c-Inch
100
AcDbAttributeDefinition
  3

  2
NB
 70
     8
280
     0
  0
ATTDEF
  5
E3
330
DC
100
AcDbEntity
  8
AM_6
100
AcDbText
 10
5.162408630723042
 20
1.0575
 30
0.0
 40
0.5
  1
$MN.-Inch
100
AcDbAttributeDefinition
  3

  2
NBSYN
 70
     8
280
     0
  0
ATTDEF
  5
E4
330
DC
100
AcDbEntity
  8
AM_6
100
AcDbText
 10
5.162408630723042
 20
0.5575000000000001
 30
0.0
 40
0.5
  1
405020c
100
AcDbAttributeDefinition
  3

  2
LINA
 70
     8
280
     0
  0
ATTDEF
  5
E5
330
DC
100
AcDbEntity
  8
AM_6
100
AcDbText
 10
5.162408630723042
 20
0.0575000000000001
 30
0.0
 40
0.5
  1
405020c
100
AcDbAttributeDefinition
  3

  2
MN
 70
     8
280
     0
  0
ATTDEF
  5
E6
330
DC
100
AcDbEntity
  8
AM_6
100
AcDbText
 10
5.162408630723042
 20
-0.4424999999999999
 30
0.0
 40
0.5
  1
0.230
100
AcDbAttributeDefinition
  3

  2
NDR
 70
     8
280
     0
  0
ATTDEF
  5
E7
330
DC
100
AcDbEntity
  8
AM_6
100
AcDbText
 10
5.162408630723042
 20
-0.9424999999999999
 30
0.0
 40
0.5
  1
0.210
100
AcDbAttributeDefinition
  3

  2
KDR
 70
     8
280
     0
  0
ATTDEF
  5
E8
330
DC
100
AcDbEntity
  8
AM_6
100
AcDbText
 10
5.162408630723042
 20
-1.4425
 30
0.0
 40
0.5
  1
0.157
100
AcDbAttributeDefinition
  3

  2
BZE
 70
     8
280
     0
  0
ATTDEF
  5
E9
330
DC
100
AcDbEntity
  8
AM_6
100
AcDbText
 10
5.162408630723042
 20
-1.9425
 30
0.0
 40
0.5
  1
9/32
100
AcDbAttributeDefinition
  3

  2
WAF
 70
     8
280
     0
  0
ATTDEF
  5
EA
330
DC
100
AcDbEntity
  8
AM_6
100
AcDbText
 10
5.162408630723042
 20
-2.4425
 30
0.0
 40
0.5
  1
0.2813
100
AcDbAttributeDefinition
  3

  2
WAF1
 70
     8
280
     0
  0
ATTDEF
  5
EB
330
DC
100
AcDbEntity
  8
AM_6
100
AcDbText
 10
5.162408630723042
 20
-2.9425
 30
0.0
 40
0.5
  1
0.545
100
AcDbAttributeDefinition
  3

  2
BL
 70
     8
280
     0
  0
ATTDEF
  5
EC
330
DC
100
AcDbEntity
  8
AM_6
100
AcDbText
 10
5.162408630723042
 20
-3.4425
 30
0.0
 40
0.5
  1
0.200
100
AcDbAttributeDefinition
  3

  2
TL
 70
     8
280
     0
  0
ATTDEF
  5
ED
330
DC
100
AcDbEntity
  8
AM_6
100
AcDbText
 10
5.162408630723042
 20
-3.9425
 30
0.0
 40
0.5
  1
baldor
100
AcDbAttributeDefinition
  3

  2
COMPANY
 70
     8
280
     0
  0
LINE
  5
EE
330
DC
100
AcDbEntity
  8
AM_9
100
AcDbLine
 10
0.1406499999999998
 20
2.2125
 30
0.0
 11
0.1624086307230417
 21
2.218330207530646
 31
0.0
  0
LINE
  5
EF
330
DC
100
AcDbEntity
  8
AM_9
100
AcDbLine
 10
-0.1624086307230417
 20
2.218330207530646
 30
0.0
 11
-0.1406499999999998
 21
2.2125
 31
0.0
  0
LINE
  5
F0
330
DC
100
AcDbEntity
  8
AM_9
100
AcDbLine
 10
0.1624086307230417
 20
2.273336459136021
 30
0.0
 11
0.14065
 21
2.279166666666666
 31
0.0
  0
LINE
  5
F1
330
DC
100
AcDbEntity
  8
AM_9
100
AcDbLine
 10
-0.14065
 20
2.279166666666666
 30
0.0
 11
-0.1624086307230417
 21
2.273336459136021
 31
0.0
  0
LINE
  5
F2
330
DC
100
AcDbEntity
  8
AM_9
100
AcDbLine
 10
0.080806429716728
 20
2.5575
 30
0.0
 11
-0.0808064288343149
 21
2.5575
 31
0.0
  0
ARC
  5
F3
330
DC
100
AcDbEntity
  8
AM_9
100
AcDbCircle
 10
-0.0808064297167284
 20
2.532500000000001
 30
0.0
 40
0.0249999999999995
100
AcDbArc
 50
90.0
 51
157.0000000000019
  0
ARC
  5
F4
330
DC
100
AcDbEntity
  8
AM_9
100
AcDbCircle
 10
0.0808064297167284
 20
2.532500000000001
 30
0.0
 40
0.0249999999999993
100
AcDbArc
 50
22.99999999999806
 51
90.0
  0
ARC
  5
F5
330
DC
100
AcDbEntity
  8
AM_9
100
AcDbCircle
 10
-0.1446847896390993
 20
2.345842555146223
 30
0.0
 40
0.0500000000000006
100
AcDbArc
 50
315.0000000000001
 51
24.99999999999955
  0
ARC
  5
F6
330
DC
100
AcDbEntity
  8
AM_9
100
AcDbCircle
 10
0.1446847896390993
 20
2.345842555146223
 30
0.0
 40
0.0500000000000003
100
AcDbArc
 50
155.0000000000005
 51
224.9999999999999
  0
LINE
  5
F7
330
DC
100
AcDbEntity
  8
AM_9
100
AcDbLine
 10
0.1000886227036577
 20
2.0125
 30
0.0
 11
-0.1000886227036577
 21
2.0125
 31
0.0
  0
LINE
  5
F8
330
DC
100
AcDbEntity
  8
AM_9
100
AcDbLine
 10
0.1000886227036577
 20
2.0125
 30
0.0
 11
0.1104162595939891
 21
2.022827636890331
 31
0.0
  0
LINE
  5
F9
330
DC
100
AcDbEntity
  8
AM_9
100
AcDbLine
 10
-0.1104162595939891
 20
2.022827636890331
 30
0.0
 11
-0.1000886227036577
 21
2.0125
 31
0.0
  0
LINE
  5
FA
330
DC
100
AcDbEntity
  8
AM_9
100
AcDbLine
 10
0.1104162595939891
 20
2.022827636890331
 30
0.0
 11
-0.1104162595939891
 21
2.022827636890331
 31
0.0
  0
LINE
  5
FB
330
DC
100
AcDbEntity
  8
AM_9
100
AcDbLine
 10
0.1104162595939891
 20
2.022827636890331
 30
0.0
 11
0.1163438171532771
 21
2.2125
 31
0.0
  0
LINE
  5
FC
330
DC
100
AcDbEntity
  8
AM_9
100
AcDbLine
 10
-0.1163438171532771
 20
2.2125
 30
0.0
 11
-0.1104162595939891
 21
2.022827636890331
 31
0.0
  0
LINE
  5
FD
330
DC
100
AcDbEntity
  8
AM_9
100
AcDbLine
 10
0.0993694002872663
 20
2.366973468233258
 30
0.0
 11
-0.0993694002872663
 21
2.366973468233258
 31
0.0
  0
LINE
  5
FE
330
DC
100
AcDbEntity
  8
AM_9
100
AcDbLine
 10
0.0993694002872663
 20
2.366973468233258
 30
0.0
 11
0.1312419113468905
 21
2.435324288774639
 31
0.0
  0
LINE
  5
FF
330
DC
100
AcDbEntity
  8
AM_9
100
AcDbLine
 10
-0.1312419113468905
 20
2.435324288774639
 30
0.0
 11
-0.0993694002872663
 21
2.366973468233258
 31
0.0
  0
LINE
  5
100
330
DC
100
AcDbEntity
  8
AM_9
100
AcDbLine
 10
0.1038190510530391
 20
2.542268278212231
 30
0.0
 11
-0.1038190510530391
 21
2.542268278212231
 31
0.0
  0
LINE
  5
101
330
DC
100
AcDbEntity
  8
AM_9
100
AcDbLine
 10
-0.1038190510530391
 20
2.542268278212231
 30
0.0
 11
-0.13195176466768
 21
2.475991758286138
 31
0.0
  0
LINE
  5
102
330
DC
100
AcDbEntity
  8
AM_9
100
AcDbLine
 10
0.13195176466768
 20
2.475991758286138
 30
0.0
 11
0.1038190510530391
 21
2.542268278212231
 31
0.0
  0
LINE
  5
103
330
DC
100
AcDbEntity
  8
AM_9
100
AcDbLine
 10
0.13195176466768
 20
2.475991758286138
 30
0.0
 11
-0.13195176466768
 21
2.475991758286138
 31
0.0
  0
LINE
  5
104
330
DC
100
AcDbEntity
  8
AM_9
100
AcDbLine
 10
0.1312419113468905
 20
2.435324288774639
 30
0.0
 11
-0.1312419113468905
 21
2.435324288774639
 31
0.0
  0
ARC
  5
105
330
DC
100
AcDbEntity
  8
AM_9
100
AcDbCircle
 10
-0.0859265219950572
 20
2.456455201861674
 30
0.0
 40
0.050000000000001
100
AcDbArc
 50
156.9999999999997
 51
204.9999999999989
  0
ARC
  5
106
330
DC
100
AcDbEntity
  8
AM_9
100
AcDbCircle
 10
0.0859265219950572
 20
2.456455201861674
 30
0.0
 40
0.0500000000000004
100
AcDbArc
 50
335.000000000001
 51
23.00000000000027
  0
LWPOLYLINE
  5
107
330
DC
100
AcDbEntity
  8
AM_9
100
AcDbPolyline
 90
        3
 70
     0
 43
0.0
 10
0.1218064730422813
 20
2.2125
 10
0.1015053942019011
 20
2.214038875462469
 10
0.0812043153615209
 20
2.218330207530646
  0
LWPOLYLINE
  5
108
330
DC
100
AcDbEntity
  8
AM_9
100
AcDbPolyline
 90
        3
 70
     0
 43
0.0
 10
0.1624086307230417
 20
2.218330207530646
 10
0.1421988309996541
 20
2.214052470556179
 10
0.1218064730422813
 20
2.2125
  0
LINE
  5
109
330
DC
100
AcDbEntity
  8
AM_9
100
AcDbLine
 10
0.1624086307230417
 20
2.273336459136021
 30
0.0
 11
0.1624086307230417
 21
2.218330207530646
 31
0.0
  0
LWPOLYLINE
  5
10A
330
DC
100
AcDbEntity
  8
AM_9
100
AcDbPolyline
 90
        3
 70
     0
 43
0.0
 10
0.1218064730422813
 20
2.279166666666666
 10
0.1421075518826615
 20
2.277627791204198
 10
0.1624086307230417
 20
2.273336459136021
  0
LWPOLYLINE
  5
10B
330
DC
100
AcDbEntity
  8
AM_9
100
AcDbPolyline
 90
        3
 70
     0
 43
0.0
 10
0.0812043153615209
 20
2.273336459136021
 10
0.1014141150849086
 20
2.277614196110488
 10
0.1218064730422813
 20
2.279166666666666
  0
LWPOLYLINE
  5
10C
330
DC
100
AcDbEntity
  8
AM_9
100
AcDbPolyline
 90
        4
 70
     0
 43
0.0
 10
0.0812043153615209
 20
2.218330207530646
 10
0.0623017518439031
 20
2.216031798436252
 10
0.0312428256208204
 20
2.213418591732272
 10
0.0
 20
2.2125
  0
LINE
  5
10D
330
DC
100
AcDbEntity
  8
AM_9
100
AcDbLine
 10
0.0812043153615209
 20
2.273336459136021
 30
0.0
 11
0.0812043153615209
 21
2.218330207530646
 31
0.0
  0
LWPOLYLINE
  5
10E
330
DC
100
AcDbEntity
  8
AM_9
100
AcDbPolyline
 90
        4
 70
     0
 43
0.0
 10
0.0
 20
2.279166666666666
 10
0.0311508759219516
 20
2.278253410066301
 10
0.0623017518439031
 20
2.275634868230415
 10
0.0812043153615209
 20
2.273336459136021
  0
LWPOLYLINE
  5
10F
330
DC
100
AcDbEntity
  8
AM_9
100
AcDbPolyline
 90
        3
 70
     0
 43
0.0
 10
-0.0812043153615208
 20
2.273336459136021
 10
-0.0407847159147455
 20
2.277614196110488
 10
0.0
 20
2.279166666666666
  0
LWPOLYLINE
  5
110
330
DC
100
AcDbEntity
  8
AM_9
100
AcDbPolyline
 90
        3
 70
     0
 43
0.0
 10
0.0
 20
2.2125
 10
-0.0406021576807604
 20
2.214038875462469
 10
-0.0812043153615208
 20
2.218330207530646
  0
LINE
  5
111
330
DC
100
AcDbEntity
  8
AM_9
100
AcDbLine
 10
-0.1624086307230417
 20
2.273336459136021
 30
0.0
 11
-0.1624086307230417
 21
2.218330207530646
 31
0.0
  0
LWPOLYLINE
  5
112
330
DC
100
AcDbEntity
  8
AM_9
100
AcDbPolyline
 90
        3
 70
     0
 43
0.0
 10
-0.1218064730422813
 20
2.2125
 10
-0.1421075518826615
 20
2.214038875462469
 10
-0.1624086307230417
 20
2.218330207530646
  0
LWPOLYLINE
  5
113
330
DC
100
AcDbEntity
  8
AM_9
100
AcDbPolyline
 90
        3
 70
     0
 43
0.0
 10
-0.0812043153615208
 20
2.218330207530646
 10
-0.1014141150849086
 20
2.214052470556179
 10
-0.1218064730422813
 20
2.2125
  0
LINE
  5
114
330
DC
100
AcDbEntity
  8
AM_9
100
AcDbLine
 10
-0.0812043153615208
 20
2.273336459136021
 30
0.0
 11
-0.0812043153615208
 21
2.218330207530646
 31
0.0
  0
LWPOLYLINE
  5
115
330
DC
100
AcDbEntity
  8
AM_9
100
AcDbPolyline
 90
        3
 70
     0
 43
0.0
 10
-0.1218064730422813
 20
2.279166666666666
 10
-0.1015053942019011
 20
2.277627791204198
 10
-0.0812043153615208
 20
2.273336459136021
  0
LWPOLYLINE
  5
116
330
DC
100
AcDbEntity
  8
AM_9
100
AcDbPolyline
 90
        3
 70
     0
 43
0.0
 10
-0.1624086307230417
 20
2.273336459136021
 10
-0.142198830999654
 20
2.277614196110488
 10
-0.1218064730422813
 20
2.279166666666666
  0
LINE
  5
117
330
DC
100
AcDbEntity
  8
AM_9
100
AcDbLine
 10
0.14065
 20
2.279166666666666
 30
0.0
 11
-0.14065
 21
2.279166666666666
 31
0.0
  0
LINE
  5
118
330
DC
100
AcDbEntity
  8
AM_9
100
AcDbLine
 10
0.1093294505797714
 20
2.310487216086895
 30
0.0
 11
-0.1093294505797714
 21
2.310487216086895
 31
0.0
  0
LINE
  5
119
330
DC
100
AcDbEntity
  8
AM_9
100
AcDbLine
 10
-0.1093294505797714
 20
2.310487216086895
 30
0.0
 11
-0.14065
 21
2.279166666666666
 31
0.0
  0
LINE
  5
11A
330
DC
100
AcDbEntity
  8
AM_9
100
AcDbLine
 10
0.14065
 20
2.279166666666666
 30
0.0
 11
0.1093294505797714
 21
2.310487216086895
 31
0.0
  0
LINE
  5
11B
330
DC
100
AcDbEntity
  8
AM_5
100
AcDbLine
 10
-0.1057663861878746
 20
2.19417935215437
 30
0.0
 11
-0.1000886227036577
 21
2.0125
 31
0.0
  0
LINE
  5
11C
330
DC
100
AcDbEntity
  8
AM_5
100
AcDbLine
 10
-0.1163438171532771
 20
2.2125
 30
0.0
 11
-0.1057663861878746
 21
2.194179352154371
 31
0.0
  0
LINE
  5
11D
330
DC
100
AcDbEntity
  8
AM_5
100
AcDbLine
 10
0.11577126829667
 20
2.194179352154371
 30
0.0
 11
-0.11577126829667
 21
2.194179352154371
 31
0.0
  0
LINE
  5
11E
330
DC
100
AcDbEntity
  8
AM_5
100
AcDbLine
 10
0.1057663861878746
 20
2.194179352154371
 30
0.0
 11
0.1000886227036577
 21
2.0125
 31
0.0
  0
LINE
  5
11F
330
DC
100
AcDbEntity
  8
AM_5
100
AcDbLine
 10
0.1163438171532771
 20
2.2125
 30
0.0
 11
0.1057663861878746
 21
2.194179352154371
 31
0.0
  0
ENDBLK
  5
DF
330
DC
100
AcDbEntity
  8
0
100
AcDbBlockEnd
  0
BLOCK
  5
122
330
120
100
AcDbEntity
  8
0
100
AcDbBlockBegin
  2
4_S1U_K_107R_0_in_023192_2
 70
     2
 10
0.0
 20
0.0
 30
0.0
  3
4_S1U_K_107R_0_in_023192_2
  1

  0
ATTDEF
  5
124
330
120
100
AcDbEntity
  8
AM_6
100
AcDbText
 10
6.03125
 20
2.2125
 30
0.0
 40
0.5
  1
Type K Units - Inch
100
AcDbAttributeDefinition
  3

  2
NN
 70
     8
280
     0
  0
ATTDEF
  5
125
330
120
100
AcDbEntity
  8
AM_6
100
AcDbText
 10
6.03125
 20
1.7125
 30
0.0
 40
0.5
  1
Type K
100
AcDbAttributeDefinition
  3

  2
NT
 70
     8
280
     0
  0
ATTDEF
  5
126
330
120
100
AcDbEntity
  8
AM_6
100
AcDbText
 10
6.03125
 20
1.2125
 30
0.0
 40
0.5
  1
S1U-K-107R
100
AcDbAttributeDefinition
  3

  2
NB
 70
     8
280
     0
  0
ATTDEF
  5
127
330
120
100
AcDbEntity
  8
AM_6
100
AcDbText
 10
6.03125
 20
0.7124999999999999
 30
0.0
 40
0.5
  1
$PN.
100
AcDbAttributeDefinition
  3

  2
NBSYN
 70
     8
280
     0
  0
ATTDEF
  5
128
330
120
100
AcDbEntity
  8
AM_6
100
AcDbText
 10
6.03125
 20
0.2124999999999999
 30
0.0
 40
0.5
  1
S1U-K-107R
100
AcDbAttributeDefinition
  3

  2
LINA
 70
     8
280
     0
  0
ATTDEF
  5
129
330
120
100
AcDbEntity
  8
AM_6
100
AcDbText
 10
6.03125
 20
-0.2875000000000001
 30
0.0
 40
0.5
  1
1-7/16
100
AcDbAttributeDefinition
  3

  2
SS
 70
     8
280
     0
  0
ATTDEF
  5
12A
330
120
100
AcDbEntity
  8
AM_6
100
AcDbText
 10
6.03125
 20
-0.7875000000000001
 30
0.0
 40
0.5
  1
1.437500
100
AcDbAttributeDefinition
  3

  2
SS1
 70
     8
280
     0
  0
ATTDEF
  5
12B
330
120
100
AcDbEntity
  8
AM_6
100
AcDbText
 10
6.03125
 20
-1.2875
 30
0.0
 40
0.5
  1
S1U-K-107R
100
AcDbAttributeDefinition
  3

  2
PN
 70
     8
280
     0
  0
ATTDEF
  5
12C
330
120
100
AcDbEntity
  8
AM_6
100
AcDbText
 10
6.03125
 20
-1.7875
 30
0.0
 40
0.5
  1
S1U-K-107R
100
AcDbAttributeDefinition
  3

  2
PNA
 70
     8
280
     0
  0
ATTDEF
  5
12D
330
120
100
AcDbEntity
  8
AM_6
100
AcDbText
 10
6.03125
 20
-2.2875
 30
0.0
 40
0.5
  1
4
100
AcDbAttributeDefinition
  3

  2
WEIGHT
 70
     8
280
     0
  0
ATTDEF
  5
12E
330
120
100
AcDbEntity
  8
AM_6
100
AcDbText
 10
6.03125
 20
-2.7875
 30
0.0
 40
0.5
  1
2-17/32
100
AcDbAttributeDefinition
  3

  2
A
 70
     8
280
     0
  0
ATTDEF
  5
12F
330
120
100
AcDbEntity
  8
AM_6
100
AcDbText
 10
6.03125
 20
-3.2875
 30
0.0
 40
0.5
  1
2.531250
100
AcDbAttributeDefinition
  3

  2
A1
 70
     8
280
     0
  0
ATTDEF
  5
130
330
120
100
AcDbEntity
  8
AM_6
100
AcDbText
 10
6.03125
 20
-3.7875
 30
0.0
 40
0.5
  1
2-1/16
100
AcDbAttributeDefinition
  3

  2
B
 70
     8
280
     0
  0
ATTDEF
  5
131
330
120
100
AcDbEntity
  8
AM_6
100
AcDbText
 10
6.03125
 20
-4.2875
 30
0.0
 40
0.5
  1
2.062500
100
AcDbAttributeDefinition
  3

  2
B1
 70
     8
280
     0
  0
ATTDEF
  5
132
330
120
100
AcDbEntity
  8
AM_6
100
AcDbText
 10
6.03125
 20
-4.7875
 30
0.0
 40
0.5
  1
1-5/32
100
AcDbAttributeDefinition
  3

  2
C
 70
     8
280
     0
  0
ATTDEF
  5
133
330
120
100
AcDbEntity
  8
AM_6
100
AcDbText
 10
6.03125
 20
-5.2875
 30
0.0
 40
0.5
  1
1.156250
100
AcDbAttributeDefinition
  3

  2
C1
 70
     8
280
     0
  0
ATTDEF
  5
134
330
120
100
AcDbEntity
  8
AM_6
100
AcDbText
 10
6.03125
 20
-5.7875
 30
0.0
 40
0.5
  1
3-7/16
100
AcDbAttributeDefinition
  3

  2
D
 70
     8
280
     0
  0
ATTDEF
  5
135
330
120
100
AcDbEntity
  8
AM_6
100
AcDbText
 10
6.03125
 20
-6.2875
 30
0.0
 40
0.5
  1
3.437500
100
AcDbAttributeDefinition
  3

  2
D1
 70
     8
280
     0
  0
ATTDEF
  5
136
330
120
100
AcDbEntity
  8
AM_6
100
AcDbText
 10
6.03125
 20
-6.7875
 30
0.0
 40
0.5
  1
0.450
100
AcDbAttributeDefinition
  3

  2
E
 70
     8
280
     0
  0
ATTDEF
  5
137
330
120
100
AcDbEntity
  8
AM_6
100
AcDbText
 10
6.03125
 20
-7.2875
 30
0.0
 40
0.5
  1
3.250
100
AcDbAttributeDefinition
  3

  2
EM
 70
     8
280
     0
  0
ATTDEF
  5
138
330
120
100
AcDbEntity
  8
AM_6
100
AcDbText
 10
6.03125
 20
-7.7875
 30
0.0
 40
0.5
  1
3.310
100
AcDbAttributeDefinition
  3

  2
EC
 70
     8
280
     0
  0
ATTDEF
  5
139
330
120
100
AcDbEntity
  8
AM_6
100
AcDbText
 10
6.03125
 20
-8.2875
 30
0.0
 40
0.5
  1
11/16
100
AcDbAttributeDefinition
  3

  2
H
 70
     8
280
     0
  0
ATTDEF
  5
13A
330
120
100
AcDbEntity
  8
AM_6
100
AcDbText
 10
6.03125
 20
-8.7875
 30
0.0
 40
0.5
  1
0.687500
100
AcDbAttributeDefinition
  3

  2
H1
 70
     8
280
     0
  0
ATTDEF
  5
13B
330
120
100
AcDbEntity
  8
AM_6
100
AcDbText
 10
6.03125
 20
-9.2875
 30
0.0
 40
0.5
  1
2-5/8
100
AcDbAttributeDefinition
  3

  2
J
 70
     8
280
     0
  0
ATTDEF
  5
13C
330
120
100
AcDbEntity
  8
AM_6
100
AcDbText
 10
6.03125
 20
-9.7875
 30
0.0
 40
0.5
  1
2.625000
100
AcDbAttributeDefinition
  3

  2
J1
 70
     8
280
     0
  0
ATTDEF
  5
13D
330
120
100
AcDbEntity
  8
AM_6
100
AcDbText
 10
6.03125
 20
-10.2875
 30
0.0
 40
0.5
  1
3.625
100
AcDbAttributeDefinition
  3

  2
K
 70
     8
280
     0
  0
ATTDEF
  5
13E
330
120
100
AcDbEntity
  8
AM_6
100
AcDbText
 10
6.03125
 20
-10.7875
 30
0.0
 40
0.5
  1
2-3/4
100
AcDbAttributeDefinition
  3

  2
L
 70
     8
280
     0
  0
ATTDEF
  5
13F
330
120
100
AcDbEntity
  8
AM_6
100
AcDbText
 10
6.03125
 20
-11.2875
 30
0.0
 40
0.5
  1
2.750000
100
AcDbAttributeDefinition
  3

  2
L1
 70
     8
280
     0
  0
ATTDEF
  5
140
330
120
100
AcDbEntity
  8
AM_6
100
AcDbText
 10
6.03125
 20
-11.7875
 30
0.0
 40
0.5
  1
2-5/8
100
AcDbAttributeDefinition
  3

  2
M
 70
     8
280
     0
  0
ATTDEF
  5
141
330
120
100
AcDbEntity
  8
AM_6
100
AcDbText
 10
6.03125
 20
-12.2875
 30
0.0
 40
0.5
  1
2.625000
100
AcDbAttributeDefinition
  3

  2
M1
 70
     8
280
     0
  0
ATTDEF
  5
142
330
120
100
AcDbEntity
  8
AM_6
100
AcDbText
 10
6.03125
 20
-12.7875
 30
0.0
 40
0.5
  1
1-1/32
100
AcDbAttributeDefinition
  3

  2
R
 70
     8
280
     0
  0
ATTDEF
  5
143
330
120
100
AcDbEntity
  8
AM_6
100
AcDbText
 10
6.03125
 20
-13.2875
 30
0.0
 40
0.5
  1
1.031250
100
AcDbAttributeDefinition
  3

  2
R1
 70
     8
280
     0
  0
ATTDEF
  5
144
330
120
100
AcDbEntity
  8
AM_6
100
AcDbText
 10
6.03125
 20
-13.7875
 30
0.0
 40
0.5
  1
1-1/2
100
AcDbAttributeDefinition
  3

  2
S
 70
     8
280
     0
  0
ATTDEF
  5
145
330
120
100
AcDbEntity
  8
AM_6
100
AcDbText
 10
6.03125
 20
-14.2875
 30
0.0
 40
0.5
  1
1.500000
100
AcDbAttributeDefinition
  3

  2
S1
 70
     8
280
     0
  0
ATTDEF
  5
146
330
120
100
AcDbEntity
  8
AM_6
100
AcDbText
 10
6.03125
 20
-14.7875
 30
0.0
 40
0.5
  1
1.7500
100
AcDbAttributeDefinition
  3

  2
CC
 70
     8
280
     0
  0
ATTDEF
  5
147
330
120
100
AcDbEntity
  8
AM_6
100
AcDbText
 10
6.03125
 20
-15.2875
 30
0.0
 40
0.5
  1
baldor
100
AcDbAttributeDefinition
  3

  2
COMPANY
 70
     8
280
     0
  0
LINE
  5
148
330
120
100
AcDbEntity
  8
AM_9
100
AcDbLine
 10
-1.4359375
 20
0.8750000000000001
 30
0.0
 11
-1.4359375
 21
0.71875
 31
0.0
  0
LINE
  5
149
330
120
100
AcDbEntity
  8
AM_9
100
AcDbLine
 10
-0.9859374999999999
 20
0.71875
 30
0.0
 11
-0.9859374999999999
 21
0.8750000000000001
 31
0.0
  0
LINE
  5
14A
330
120
100
AcDbEntity
  8
AM_9
100
AcDbLine
 10
0.305316369154144
 20
2.2125
 30
0.0
 11
-0.3053163689989668
 21
2.2125
 31
0.0
  0
ARC
  5
14B
330
120
100
AcDbEntity
  8
AM_9
100
AcDbCircle
 10
-0.3053163691541427
 20
2.167499999999998
 30
0.0
 40
0.0450000000000017
100
AcDbArc
 50
90.0
 51
170.9999999999983
  0
ARC
  5
14C
330
120
100
AcDbEntity
  8
AM_9
100
AcDbCircle
 10
0.3053163691541426
 20
2.167499999999998
 30
0.0
 40
0.0450000000000014
100
AcDbArc
 50
9.000000000001734
 51
90.0
  0
LINE
  5
14D
330
120
100
AcDbEntity
  8
AM_9
100
AcDbLine
 10
0.349762344480925
 20
2.17453955092681
 30
0.0
 11
-0.349762344480925
 21
2.17453955092681
 31
0.0
  0
LINE
  5
14E
330
120
100
AcDbEntity
  8
AM_9
100
AcDbLine
 10
-0.349762344480925
 20
2.17453955092681
 30
0.0
 11
-0.4084299448505878
 21
1.804126900230502
 31
0.0
  0
LINE
  5
14F
330
120
100
AcDbEntity
  8
AM_9
100
AcDbLine
 10
0.4268756698268287
 20
1.687665176222482
 30
0.0
 11
0.349762344480925
 21
2.17453955092681
 31
0.0
  0
LINE
  5
150
330
120
100
AcDbEntity
  8
AM_9
100
AcDbLine
 10
-1.5
 20
-0.71875
 30
0.0
 11
1.03125
 21
-0.71875
 31
0.0
  0
LINE
  5
151
330
120
100
AcDbEntity
  8
AM_9
100
AcDbLine
 10
1.03125
 20
0.71875
 30
0.0
 11
-0.9859374999999998
 21
0.71875
 31
0.0
  0
LINE
  5
152
330
120
100
AcDbEntity
  8
AM_9
100
AcDbLine
 10
-1.4359375
 20
0.71875
 30
0.0
 11
-1.5
 21
0.71875
 31
0.0
  0
LWPOLYLINE
  5
153
330
120
100
AcDbEntity
  8
AM_9
100
AcDbPolyline
 90
       21
 70
     0
 43
0.0
 10
-1.435937499996874
 20
0.7187499999990214
 10
-1.43592647305625
 20
0.7187465481634719
 10
-1.432394367457442
 20
0.7176487348585397
 10
-1.423336364605685
 20
0.7149054763993518
 10
-1.40854358462359
 20
0.7106509179479511
 10
-1.388693856760897
 20
0.7053891726337365
 10
-1.363567641574283
 20
0.6994801802888952
 10
-1.333903158312192
 20
0.6936116461134073
 10
-1.299687972843949
 20
0.6883699651568366
 10
-1.263944499834099
 20
0.6846797094491789
 10
-1.225377359816036
 20
0.6827774689102643
 10
-1.189220514182954
 20
0.6829701237777371
 10
-1.152633527417473
 20
0.6851101486030579
 10
-1.119181220337811
 20
0.6887639489385646
 10
-1.087331732593656
 20
0.6937254127074423
 10
-1.05845251448808
 20
0.6994485208409339
 10
-1.033014900591193
 20
0.7054310837214266
 10
-1.012443710290291
 20
0.7108982677242376
 10
-0.9970831838804064
 20
0.715339241914617
 10
-0.9888242496672837
 20
0.71785155740819
 10
-0.9859374999999999
 20
0.71875
  0
LWPOLYLINE
  5
154
330
120
100
AcDbEntity
  8
AM_9
100
AcDbPolyline
 90
        3
 70
     0
 43
0.0
 10
-0.9883304137025278
 20
0.273780687260319
 10
-0.9866046335317704
 20
0.2879771708771542
 10
-0.9859375000914602
 20
0.3037510613083147
  0
LWPOLYLINE
  5
155
330
120
100
AcDbEntity
  8
AM_9
100
AcDbPolyline
 90
       10
 70
     0
 43
0.0
 10
-1.2109375
 20
0.0845704372651555
 10
-1.174747878908008
 20
0.0876305917569027
 10
-1.138558257816015
 20
0.0970265893667362
 10
-1.105455500780546
 20
0.1117918082728534
 10
-1.07438328952462
 20
0.1321359436516745
 10
-1.046937308354977
 20
0.1570892136570009
 10
-1.02333650756406
 20
0.186603381240475
 10
-1.005146703371576
 20
0.2188693371415965
 10
-0.992473597713175
 20
0.2541097836526038
 10
-0.9883304137025278
 20
0.273780687260319
  0
LINE
  5
156
330
120
100
AcDbEntity
  8
AM_9
100
AcDbLine
 10
-1.4359375
 20
0.3697283574570224
 30
0.0
 11
-1.4359375
 21
0.3036639693599902
 31
0.0
  0
LINE
  5
157
330
120
100
AcDbEntity
  8
AM_9
100
AcDbLine
 10
-0.9859374999999999
 20
0.3036506077002158
 30
0.0
 11
-0.9859374999999999
 21
0.3697056621939079
 31
0.0
  0
LWPOLYLINE
  5
158
330
120
100
AcDbEntity
  8
AM_9
100
AcDbPolyline
 90
        3
 70
     0
 43
0.0
 10
-1.433055234657041
 20
0.3359129756616595
 10
-1.43546063850292
 20
0.3169631436819947
 10
-1.435937499734661
 20
0.3037667804993065
  0
LWPOLYLINE
  5
159
330
120
100
AcDbEntity
  8
AM_9
100
AcDbPolyline
 90
        8
 70
     0
 43
0.0
 10
-1.296873140052381
 20
0.4792266066806175
 10
-1.318374054312056
 20
0.4712112876920131
 10
-1.348718903705007
 20
0.4555215139383507
 10
-1.376106406969486
 20
0.4352875752342951
 10
-1.399281597138645
 20
0.4108279808728347
 10
-1.417667580771745
 20
0.3819205461498356
 10
-1.42957518823538
 20
0.3510760423294387
 10
-1.433055234657041
 20
0.3359129756616595
  0
LWPOLYLINE
  5
15A
330
120
100
AcDbEntity
  8
AM_9
100
AcDbPolyline
 90
        6
 70
     0
 43
0.0
 10
-1.168693892710889
 20
0.4893345171230952
 10
-1.176843637827985
 20
0.4904138688180132
 10
-1.213337290298813
 20
0.4923991251024122
 10
-1.25087320700818
 20
0.4896644336098456
 10
-1.285179894257925
 20
0.4826892086953879
 10
-1.296873140052381
 20
0.4792266066806175
  0
LWPOLYLINE
  5
15B
330
120
100
AcDbEntity
  8
AM_9
100
AcDbPolyline
 90
        3
 70
     0
 43
0.0
 10
-1.137458822815009
 20
0.48289503442896
 10
-1.138745941629672
 20
0.4832364319148155
 10
-1.168693892710889
 20
0.4893345171230952
  0
LWPOLYLINE
  5
15C
330
120
100
AcDbEntity
  8
AM_9
100
AcDbPolyline
 90
        3
 70
     0
 43
0.0
 10
-1.094646173088608
 20
0.4672163841958753
 10
-1.104034396903384
 20
0.4714382214533234
 10
-1.137458822815009
 20
0.48289503442896
  0
LWPOLYLINE
  5
15D
330
120
100
AcDbEntity
  8
AM_9
100
AcDbPolyline
 90
        4
 70
     0
 43
0.0
 10
-1.030673202215608
 20
0.4204107196202518
 10
-1.044599069699544
 20
0.4342494931259093
 10
-1.071912073381582
 20
0.4547463335335556
 10
-1.094646173088608
 20
0.4672163841958753
  0
LWPOLYLINE
  5
15E
330
120
100
AcDbEntity
  8
AM_9
100
AcDbPolyline
 90
        5
 70
     0
 43
0.0
 10
-0.9889765419174845
 20
0.3367597598805852
 10
-0.9930419289492521
 20
0.3536686944989325
 10
-1.005036660346944
 20
0.3835464991510527
 10
-1.022119558234171
 20
0.4102214208429075
 10
-1.030673202215608
 20
0.4204107196202518
  0
LINE
  5
15F
330
120
100
AcDbEntity
  8
AM_9
100
AcDbLine
 10
-0.9884228681025099
 20
0.3336552898466468
 30
0.0
 11
-0.9889765419174845
 21
0.3367597598805852
 31
0.0
  0
LWPOLYLINE
  5
160
330
120
100
AcDbEntity
  8
AM_9
100
AcDbPolyline
 90
        3
 70
     0
 43
0.0
 10
-0.9861513524060278
 20
0.3126172458226476
 10
-0.9869079319946169
 20
0.3225476329542051
 10
-0.9884228681025099
 20
0.3336552898466468
  0
LINE
  5
161
330
120
100
AcDbEntity
  8
AM_9
100
AcDbLine
 10
-0.9859375000914602
 20
0.3037510613083147
 30
0.0
 11
-0.9861513524060278
 21
0.3126172458226476
 31
0.0
  0
LWPOLYLINE
  5
162
330
120
100
AcDbEntity
  8
AM_9
100
AcDbPolyline
 90
       11
 70
     0
 43
0.0
 10
-1.435937499734661
 20
0.3037667804993065
 10
-1.434899709058037
 20
0.2840568598649824
 10
-1.428267751670747
 20
0.2499693029290585
 10
-1.416340525361544
 20
0.2180315741530774
 10
-1.398801701058512
 20
0.1869939695493554
 10
-1.376229672482284
 20
0.1584744380842113
 10
-1.348515885187544
 20
0.1329341892760702
 10
-1.316752801206189
 20
0.1119740023512617
 10
-1.280772894395435
 20
0.0961472131759662
 10
-1.246814752702607
 20
0.087577701724846
 10
-1.2109375
 20
0.0845704372651555
  0
LWPOLYLINE
  5
163
330
120
100
AcDbEntity
  8
AM_9
100
AcDbPolyline
 90
        8
 70
     0
 43
0.0
 10
-1.337929954502454
 20
0.529697959193936
 10
-1.353418768744712
 20
0.5201957547912155
 10
-1.380131997349892
 20
0.4988615115499128
 10
-1.402744358353581
 20
0.4729979252667496
 10
-1.419906971414405
 20
0.4436997039272109
 10
-1.430951349647267
 20
0.4118353311947279
 10
-1.435751150126878
 20
0.3780684136028856
 10
-1.435937498680157
 20
0.3698130662217741
  0
LWPOLYLINE
  5
164
330
120
100
AcDbEntity
  8
AM_9
100
AcDbPolyline
 90
        9
 70
     0
 43
0.0
 10
-1.098661875022781
 20
0.5372090909332876
 10
-1.107448471944927
 20
0.5410915479467692
 10
-1.142798927014524
 20
0.5528391266282238
 10
-1.180200131851852
 20
0.5595996652212121
 10
-1.217482681788866
 20
0.5611831326307524
 10
-1.254575061421304
 20
0.5578790445782266
 10
-1.289772712051501
 20
0.5498823814210544
 10
-1.32281836059131
 20
0.5373927020994451
 10
-1.337929954502454
 20
0.529697959193936
  0
LINE
  5
165
330
120
100
AcDbEntity
  8
AM_9
100
AcDbLine
 10
-1.094593581936147
 20
0.5352644671515724
 30
0.0
 11
-1.098661875022781
 21
0.5372090909332876
 31
0.0
  0
LWPOLYLINE
  5
166
330
120
100
AcDbEntity
  8
AM_9
100
AcDbPolyline
 90
        4
 70
     0
 43
0.0
 10
-1.030726252727743
 20
0.4874776626464372
 10
-1.047129244434582
 20
0.5037944236027743
 10
-1.0753558259521
 20
0.5246376608537036
 10
-1.094593581936147
 20
0.5352644671515724
  0
LWPOLYLINE
  5
167
330
120
100
AcDbEntity
  8
AM_9
100
AcDbPolyline
 90
        5
 70
     0
 43
0.0
 10
-0.9884343074346326
 20
0.3998157252802571
 10
-0.9937450139612842
 20
0.4221326922040864
 10
-1.006144466751893
 20
0.4521485979845944
 10
-1.024160326308991
 20
0.4796410057794989
 10
-1.030726252727743
 20
0.4874776626464372
  0
LWPOLYLINE
  5
168
330
120
100
AcDbEntity
  8
AM_9
100
AcDbPolyline
 90
        3
 70
     0
 43
0.0
 10
-0.9859375003357737
 20
0.3697798384693902
 10
-0.987068470347082
 20
0.3900886154256636
 10
-0.9884343074346326
 20
0.3998157252802571
  0
LWPOLYLINE
  5
169
330
120
100
AcDbEntity
  8
AM_9
100
AcDbPolyline
 90
       11
 70
     0
 43
0.0
 10
-1.435937498680157
 20
0.3698130662217741
 10
-1.434181841371806
 20
0.3443420790056997
 10
-1.426614038360207
 20
0.3107043634762242
 10
-1.413306769785742
 20
0.2783571607413563
 10
-1.394701998166837
 20
0.2480325871653458
 10
-1.370595036343415
 20
0.2200117074629269
 10
-1.342091553590428
 20
0.1959369006457247
 10
-1.309198883350575
 20
0.176342417409015
 10
-1.273389240025017
 20
0.1624227781777192
 10
-1.242492277029374
 20
0.1557147659314425
 10
-1.2109375
 20
0.1534369141390007
  0
LWPOLYLINE
  5
16A
330
120
100
AcDbEntity
  8
AM_9
100
AcDbPolyline
 90
       14
 70
     0
 43
0.0
 10
-1.094733069503893
 20
0.8535241470907103
 10
-1.121639213058176
 20
0.850278886043129
 10
-1.158616362306769
 20
0.8471938983783547
 10
-1.19529331060844
 20
0.8457214320695196
 10
-1.233557803532651
 20
0.8458792337750757
 10
-1.269139658944706
 20
0.84757742496236
 10
-1.304076723522144
 20
0.8506908457003095
 10
-1.335880823967912
 20
0.8547577634652702
 10
-1.365093974631421
 20
0.8595139432672328
 10
-1.39011069735107
 20
0.864351221812641
 10
-1.410703282368396
 20
0.8688534789049633
 10
-1.42517216739666
 20
0.8722938110032409
 10
-1.433815811463101
 20
0.8744568266762189
 10
-1.435937499995092
 20
0.8749999999987378
  0
LWPOLYLINE
  5
16B
330
120
100
AcDbEntity
  8
AM_9
100
AcDbPolyline
 90
        5
 70
     0
 43
0.0
 10
-1.031036539378918
 20
0.864502374567235
 10
-1.03319969306516
 20
0.8640548177135559
 10
-1.058278109838403
 20
0.8592466988033824
 10
-1.088390807438521
 20
0.8544107278456642
 10
-1.094733069503893
 20
0.8535241470907103
  0
LWPOLYLINE
  5
16C
330
120
100
AcDbEntity
  8
AM_9
100
AcDbPolyline
 90
        5
 70
     0
 43
0.0
 10
-0.9859374999999999
 20
0.875
 10
-0.9889273025783887
 20
0.8742359680081704
 10
-0.9981486115759769
 20
0.8719398551716347
 10
-1.012779442540588
 20
0.8684852420945838
 10
-1.031036539378918
 20
0.864502374567235
  0
LWPOLYLINE
  5
16D
330
120
100
AcDbEntity
  8
AM_9
100
AcDbPolyline
 90
        3
 70
     0
 43
0.0
 10
-0.9882745871057266
 20
0.3402233124020538
 10
-0.9864726863482227
 20
0.3560043620570277
 10
-0.9859375003357737
 20
0.3697798384693902
  0
LWPOLYLINE
  5
16E
330
120
100
AcDbEntity
  8
AM_9
100
AcDbPolyline
 90
        3
 70
     0
 43
0.0
 10
-0.9947351533108093
 20
0.3123875777010898
 10
-0.9921184470972427
 20
0.3216593318184763
 10
-0.9882745871057266
 20
0.3402233124020538
  0
LWPOLYLINE
  5
16F
330
120
100
AcDbEntity
  8
AM_9
100
AcDbPolyline
 90
        4
 70
     0
 43
0.0
 10
-1.030646897942082
 20
0.2433891986562542
 10
-1.022268021280658
 20
0.2550373944903355
 10
-1.004232254363311
 20
0.2873886080726671
 10
-0.9947351533108093
 20
0.3123875777010898
  0
LWPOLYLINE
  5
170
330
120
100
AcDbEntity
  8
AM_9
100
AcDbPolyline
 90
        7
 70
     0
 43
0.0
 10
-1.194941814676667
 20
0.1540168113178708
 10
-1.173872223910214
 20
0.1565921765379492
 10
-1.137869435579627
 20
0.1658208632132667
 10
-1.103997107683178
 20
0.1808117991986636
 10
-1.073064709789544
 20
0.200925503854738
 10
-1.045369741585185
 20
0.2260881657041485
 10
-1.030646897942082
 20
0.2433891986562542
  0
LINE
  5
171
330
120
100
AcDbEntity
  8
AM_9
100
AcDbLine
 10
-1.2109375
 20
0.1534369141390007
 30
0.0
 11
-1.194941814676667
 21
0.1540168113178708
 31
0.0
  0
LINE
  5
172
330
120
100
AcDbEntity
  8
AM_9
100
AcDbLine
 10
-1.5
 20
-0.875
 30
0.0
 11
-0.921875
 21
-0.875
 31
0.0
  0
LINE
  5
173
330
120
100
AcDbEntity
  8
AM_9
100
AcDbLine
 10
-0.921875
 20
0.875
 30
0.0
 11
-0.9859375
 21
0.875
 31
0.0
  0
LINE
  5
174
330
120
100
AcDbEntity
  8
AM_9
100
AcDbLine
 10
-1.4359375
 20
0.875
 30
0.0
 11
-1.5
 21
0.875
 31
0.0
  0
LINE
  5
175
330
120
100
AcDbEntity
  8
AM_9
100
AcDbLine
 10
1.03125
 20
1.145833333333333
 30
0.0
 11
0.6875000000000001
 21
1.145833333333333
 31
0.0
  0
LINE
  5
176
330
120
100
AcDbEntity
  8
AM_9
100
AcDbLine
 10
0.6874999999999999
 20
-1.145833333333333
 30
0.0
 11
1.03125
 21
-1.145833333333333
 31
0.0
  0
LINE
  5
177
330
120
100
AcDbEntity
  8
AM_9
100
AcDbLine
 10
-0.921875
 20
1.41025641025641
 30
0.0
 11
-1.03125
 21
1.429542173771399
 31
0.0
  0
LINE
  5
178
330
120
100
AcDbEntity
  8
AM_9
100
AcDbLine
 10
-1.03125
 20
-1.429542173771399
 30
0.0
 11
-0.921875
 21
-1.41025641025641
 31
0.0
  0
LINE
  5
179
330
120
100
AcDbEntity
  8
AM_9
100
AcDbLine
 10
-0.921875
 20
1.41025641025641
 30
0.0
 11
-0.921875
 21
-1.41025641025641
 31
0.0
  0
LINE
  5
17A
330
120
100
AcDbEntity
  8
AM_9
100
AcDbLine
 10
0.6874999999999997
 20
-1.41025641025641
 30
0.0
 11
0.6875
 21
1.41025641025641
 31
0.0
  0
LINE
  5
17B
330
120
100
AcDbEntity
  8
AM_9
100
AcDbLine
 10
0.6874999999999997
 20
-1.41025641025641
 30
0.0
 11
1.03125
 21
-1.470868809874945
 31
0.0
  0
LINE
  5
17C
330
120
100
AcDbEntity
  8
AM_9
100
AcDbLine
 10
1.03125
 20
1.470868809874945
 30
0.0
 11
0.6875
 21
1.41025641025641
 31
0.0
  0
LINE
  5
17D
330
120
100
AcDbEntity
  8
AM_9
100
AcDbLine
 10
-0.9890624999999997
 20
-1.625
 30
0.0
 11
-0.5781250000000001
 21
-1.625
 31
0.0
  0
LINE
  5
17E
330
120
100
AcDbEntity
  8
AM_9
100
AcDbLine
 10
-0.5781250000000001
 20
1.625
 30
0.0
 11
-0.9890624999999997
 21
1.625
 31
0.0
  0
LINE
  5
17F
330
120
100
AcDbEntity
  8
AM_9
100
AcDbLine
 10
-1.03125
 20
1.5828125
 30
0.0
 11
-1.03125
 21
-1.5828125
 31
0.0
  0
ARC
  5
180
330
120
100
AcDbEntity
  8
AM_9
100
AcDbCircle
 10
-0.9890625000000001
 20
-1.5828125
 30
0.0
 40
0.0421875000000002
100
AcDbArc
 50
180.0
 51
270.0
  0
ARC
  5
181
330
120
100
AcDbEntity
  8
AM_9
100
AcDbCircle
 10
-0.9890625000000001
 20
1.5828125
 30
0.0
 40
0.0421875
100
AcDbArc
 50
90.0
 51
180.0
  0
LINE
  5
182
330
120
100
AcDbEntity
  8
AM_9
100
AcDbLine
 10
-0.9890624999999997
 20
1.625
 30
0.0
 11
-0.9890624999999997
 21
-1.625
 31
0.0
  0
LINE
  5
183
330
120
100
AcDbEntity
  8
AM_9
100
AcDbLine
 10
1.03125
 20
1.612812500000001
 30
0.0
 11
1.03125
 21
-1.612812500000001
 31
0.0
  0
ARC
  5
184
330
120
100
AcDbEntity
  8
AM_9
100
AcDbCircle
 10
0.9890624999999998
 20
-1.6128125
 30
0.0
 40
0.0421875000000003
100
AcDbArc
 50
270.0
 51
0.0
  0
ARC
  5
185
330
120
100
AcDbEntity
  8
AM_9
100
AcDbCircle
 10
0.9890624999999998
 20
1.6128125
 30
0.0
 40
0.0421875000000002
100
AcDbArc
 50
0.0
 51
90.0
  0
LINE
  5
186
330
120
100
AcDbEntity
  8
AM_9
100
AcDbLine
 10
0.578125
 20
-1.655
 30
0.0
 11
0.9890625
 21
-1.655
 31
0.0
  0
LINE
  5
187
330
120
100
AcDbEntity
  8
AM_9
100
AcDbLine
 10
0.9890625
 20
1.655
 30
0.0
 11
0.578125
 21
1.655
 31
0.0
  0
LINE
  5
188
330
120
100
AcDbEntity
  8
AM_9
100
AcDbLine
 10
0.578125
 20
1.655
 30
0.0
 11
0.578125
 21
-1.655
 31
0.0
  0
LINE
  5
189
330
120
100
AcDbEntity
  8
AM_9
100
AcDbLine
 10
0.9890625
 20
1.655
 30
0.0
 11
0.9890625
 21
-1.655
 31
0.0
  0
ARC
  5
18A
330
120
100
AcDbEntity
  8
AM_9
100
AcDbCircle
 10
-0.234375000000098
 20
-0.0000000000002141
 30
0.0
 40
1.812500000000235
100
AcDbArc
 50
63.36688125084434
 51
68.61270224383699
  0
ARC
  5
18B
330
120
100
AcDbEntity
  8
AM_9
100
AcDbCircle
 10
-0.2343750000000084
 20
0.0000000000000642
 30
0.0
 40
1.812499999999936
100
AcDbArc
 50
95.50568208587215
 51
100.9326611448115
  0
ARC
  5
18C
330
120
100
AcDbEntity
  8
AM_9
100
AcDbCircle
 10
-0.2343749999999991
 20
-0.0000000000000082
 30
0.0
 40
1.812499999999993
100
AcDbArc
 50
259.0673388551886
 51
296.633118749156
  0
LINE
  5
18D
330
120
100
AcDbEntity
  8
AM_9
100
AcDbLine
 10
-0.5781249999999996
 20
1.779604503112981
 30
0.0
 11
-0.5781249999999996
 21
-1.779604503112982
 31
0.0
  0
LINE
  5
18E
330
120
100
AcDbEntity
  8
AM_9
100
AcDbLine
 10
0.4268911765004956
 20
1.687567270899502
 30
0.0
 11
-0.408430512992457
 21
1.804123312962863
 31
0.0
  0
LINE
  5
18F
330
120
100
AcDbEntity
  8
AM_7
100
AcDbLine
 10
-1.2109375
 20
-0.06875
 30
0.0
 11
-1.2109375
 21
1.44375
 31
0.0
  0
ENDBLK
  5
123
330
120
100
AcDbEntity
  8
0
100
AcDbBlockEnd
  0
BLOCK
  5
192
330
190
100
AcDbEntity
  8
0
100
AcDbBlockBegin
  2
5_P2B_K_107RE_0_in_023192_2
 70
     2
 10
0.0
 20
0.0
 30
0.0
  3
5_P2B_K_107RE_0_in_023192_2
  1

  0
ATTDEF
  5
194
330
190
100
AcDbEntity
  8
AM_6
100
AcDbText
 10
6.376571428571428
 20
4.135999965667724
 30
0.0
 40
0.5
  1
2 & 4 Bolt Base - Body - Inch - EXP
100
AcDbAttributeDefinition
  3

  2
NN
 70
     8
280
     0
  0
ATTDEF
  5
195
330
190
100
AcDbEntity
  8
AM_6
100
AcDbText
 10
6.376571428571428
 20
3.635999965667724
 30
0.0
 40
0.5
  1
Type K
100
AcDbAttributeDefinition
  3

  2
NT
 70
     8
280
     0
  0
ATTDEF
  5
196
330
190
100
AcDbEntity
  8
AM_6
100
AcDbText
 10
6.376571428571428
 20
3.135999965667724
 30
0.0
 40
0.5
  1
P2B-K-107RE
100
AcDbAttributeDefinition
  3

  2
NB
 70
     8
280
     0
  0
ATTDEF
  5
197
330
190
100
AcDbEntity
  8
AM_6
100
AcDbText
 10
6.376571428571428
 20
2.635999965667724
 30
0.0
 40
0.5
  1
$PN.
100
AcDbAttributeDefinition
  3

  2
NBSYN
 70
     8
280
     0
  0
ATTDEF
  5
198
330
190
100
AcDbEntity
  8
AM_6
100
AcDbText
 10
6.376571428571428
 20
2.135999965667724
 30
0.0
 40
0.5
  1
P2B-K-107RE
100
AcDbAttributeDefinition
  3

  2
LINA
 70
     8
280
     0
  0
ATTDEF
  5
199
330
190
100
AcDbEntity
  8
AM_6
100
AcDbText
 10
6.376571428571428
 20
1.635999965667724
 30
0.0
 40
0.5
  1
1-7/16
100
AcDbAttributeDefinition
  3

  2
SS
 70
     8
280
     0
  0
ATTDEF
  5
19A
330
190
100
AcDbEntity
  8
AM_6
100
AcDbText
 10
6.376571428571428
 20
1.135999965667724
 30
0.0
 40
0.5
  1
1.437500
100
AcDbAttributeDefinition
  3

  2
SS1
 70
     8
280
     0
  0
ATTDEF
  5
19B
330
190
100
AcDbEntity
  8
AM_6
100
AcDbText
 10
6.376571428571428
 20
0.6359999656677244
 30
0.0
 40
0.5
  1
3.437500
100
AcDbAttributeDefinition
  3

  2
BORE
 70
     8
280
     0
  0
ATTDEF
  5
19C
330
190
100
AcDbEntity
  8
AM_6
100
AcDbText
 10
6.376571428571428
 20
0.1359999656677244
 30
0.0
 40
0.5
  1
P2B-K-107RE
100
AcDbAttributeDefinition
  3

  2
PN
 70
     8
280
     0
  0
ATTDEF
  5
19D
330
190
100
AcDbEntity
  8
AM_6
100
AcDbText
 10
6.376571428571428
 20
-0.3640000343322756
 30
0.0
 40
0.5
  1
P2B-K-107RE
100
AcDbAttributeDefinition
  3

  2
PNA
 70
     8
280
     0
  0
ATTDEF
  5
19E
330
190
100
AcDbEntity
  8
AM_6
100
AcDbText
 10
6.376571428571428
 20
-0.8640000343322756
 30
0.0
 40
0.5
  1
11
100
AcDbAttributeDefinition
  3

  2
WEIGHT
 70
     8
280
     0
  0
ATTDEF
  5
19F
330
190
100
AcDbEntity
  8
AM_6
100
AcDbText
 10
6.376571428571428
 20
-1.364000034332276
 30
0.0
 40
0.5
  1
2.55
100
AcDbAttributeDefinition
  3

  2
A
 70
     8
280
     0
  0
ATTDEF
  5
1A0
330
190
100
AcDbEntity
  8
AM_6
100
AcDbText
 10
6.376571428571428
 20
-1.864000034332276
 30
0.0
 40
0.5
  1
2.550000
100
AcDbAttributeDefinition
  3

  2
A1
 70
     8
280
     0
  0
ATTDEF
  5
1A1
330
190
100
AcDbEntity
  8
AM_6
100
AcDbText
 10
6.376571428571428
 20
-2.364000034332276
 30
0.0
 40
0.5
  1
8.00
100
AcDbAttributeDefinition
  3

  2
B
 70
     8
280
     0
  0
ATTDEF
  5
1A2
330
190
100
AcDbEntity
  8
AM_6
100
AcDbText
 10
6.376571428571428
 20
-2.864000034332276
 30
0.0
 40
0.5
  1
8.000000
100
AcDbAttributeDefinition
  3

  2
B1
 70
     8
280
     0
  0
ATTDEF
  5
1A3
330
190
100
AcDbEntity
  8
AM_6
100
AcDbText
 10
6.376571428571428
 20
-3.364000034332276
 30
0.0
 40
0.5
  1
2.19
100
AcDbAttributeDefinition
  3

  2
C
 70
     8
280
     0
  0
ATTDEF
  5
1A4
330
190
100
AcDbEntity
  8
AM_6
100
AcDbText
 10
6.376571428571428
 20
-3.864000034332276
 30
0.0
 40
0.5
  1
2.190000
100
AcDbAttributeDefinition
  3

  2
C1
 70
     8
280
     0
  0
ATTDEF
  5
1A5
330
190
100
AcDbEntity
  8
AM_6
100
AcDbText
 10
6.376571428571428
 20
-4.364000034332276
 30
0.0
 40
0.5
  1
6.25
100
AcDbAttributeDefinition
  3

  2
DMIN
 70
     8
280
     0
  0
ATTDEF
  5
1A6
330
190
100
AcDbEntity
  8
AM_6
100
AcDbText
 10
6.376571428571428
 20
-4.864000034332276
 30
0.0
 40
0.5
  1
6.250000
100
AcDbAttributeDefinition
  3

  2
DMIN1
 70
     8
280
     0
  0
ATTDEF
  5
1A7
330
190
100
AcDbEntity
  8
AM_6
100
AcDbText
 10
6.376571428571428
 20
-5.364000034332276
 30
0.0
 40
0.5
  1
6.62
100
AcDbAttributeDefinition
  3

  2
DMAX
 70
     8
280
     0
  0
ATTDEF
  5
1A8
330
190
100
AcDbEntity
  8
AM_6
100
AcDbText
 10
6.376571428571428
 20
-5.864000034332276
 30
0.0
 40
0.5
  1
6.620000
100
AcDbAttributeDefinition
  3

  2
DMAX1
 70
     8
280
     0
  0
ATTDEF
  5
1A9
330
190
100
AcDbEntity
  8
AM_6
100
AcDbText
 10
6.376571428571428
 20
-6.364000034332276
 30
0.0
 40
0.5
  1
1/2
100
AcDbAttributeDefinition
  3

  2
F
 70
     8
280
     0
  0
ATTDEF
  5
1AA
330
190
100
AcDbEntity
  8
AM_6
100
AcDbText
 10
6.376571428571428
 20
-6.864000034332276
 30
0.0
 40
0.5
  1
0.500000
100
AcDbAttributeDefinition
  3

  2
F1
 70
     8
280
     0
  0
ATTDEF
  5
1AB
330
190
100
AcDbEntity
  8
AM_6
100
AcDbText
 10
6.376571428571428
 20
-7.364000034332276
 30
0.0
 40
0.5
  1
.75
100
AcDbAttributeDefinition
  3

  2
G
 70
     8
280
     0
  0
ATTDEF
  5
1AC
330
190
100
AcDbEntity
  8
AM_6
100
AcDbText
 10
6.376571428571428
 20
-7.864000034332276
 30
0.0
 40
0.5
  1
0.750000
100
AcDbAttributeDefinition
  3

  2
G1
 70
     8
280
     0
  0
ATTDEF
  5
1AD
330
190
100
AcDbEntity
  8
AM_6
100
AcDbText
 10
6.376571428571428
 20
-8.364000034332275
 30
0.0
 40
0.5
  1
1.25
100
AcDbAttributeDefinition
  3

  2
H
 70
     8
280
     0
  0
ATTDEF
  5
1AE
330
190
100
AcDbEntity
  8
AM_6
100
AcDbText
 10
6.376571428571428
 20
-8.864000034332275
 30
0.0
 40
0.5
  1
1.250000
100
AcDbAttributeDefinition
  3

  2
H1
 70
     8
280
     0
  0
ATTDEF
  5
1AF
330
190
100
AcDbEntity
  8
AM_6
100
AcDbText
 10
6.376571428571428
 20
-9.364000034332275
 30
0.0
 40
0.5
  1
5.23
100
AcDbAttributeDefinition
  3

  2
J
 70
     8
280
     0
  0
ATTDEF
  5
1B0
330
190
100
AcDbEntity
  8
AM_6
100
AcDbText
 10
6.376571428571428
 20
-9.864000034332275
 30
0.0
 40
0.5
  1
5.230000
100
AcDbAttributeDefinition
  3

  2
J1
 70
     8
280
     0
  0
ATTDEF
  5
1B1
330
190
100
AcDbEntity
  8
AM_6
100
AcDbText
 10
6.376571428571428
 20
-10.36400003433227
 30
0.0
 40
0.5
  1
2.75
100
AcDbAttributeDefinition
  3

  2
L
 70
     8
280
     0
  0
ATTDEF
  5
1B2
330
190
100
AcDbEntity
  8
AM_6
100
AcDbText
 10
6.376571428571428
 20
-10.86400003433227
 30
0.0
 40
0.5
  1
2.750000
100
AcDbAttributeDefinition
  3

  2
L1
 70
     8
280
     0
  0
ATTDEF
  5
1B3
330
190
100
AcDbEntity
  8
AM_6
100
AcDbText
 10
6.376571428571428
 20
-11.36400003433227
 30
0.0
 40
0.5
  1
2.38
100
AcDbAttributeDefinition
  3

  2
M
 70
     8
280
     0
  0
ATTDEF
  5
1B4
330
190
100
AcDbEntity
  8
AM_6
100
AcDbText
 10
6.376571428571428
 20
-11.86400003433227
 30
0.0
 40
0.5
  1
2.380000
100
AcDbAttributeDefinition
  3

  2
M1
 70
     8
280
     0
  0
ATTDEF
  5
1B5
330
190
100
AcDbEntity
  8
AM_6
100
AcDbText
 10
6.376571428571428
 20
-12.36400003433227
 30
0.0
 40
0.5
  1
5.51
100
AcDbAttributeDefinition
  3

  2
P
 70
     8
280
     0
  0
ATTDEF
  5
1B6
330
190
100
AcDbEntity
  8
AM_6
100
AcDbText
 10
6.376571428571428
 20
-12.86400003433227
 30
0.0
 40
0.5
  1
5.510000
100
AcDbAttributeDefinition
  3

  2
P1
 70
     8
280
     0
  0
ATTDEF
  5
1B7
330
190
100
AcDbEntity
  8
AM_6
100
AcDbText
 10
6.376571428571428
 20
-13.36400003433227
 30
0.0
 40
0.5
  1
1.03
100
AcDbAttributeDefinition
  3

  2
R
 70
     8
280
     0
  0
ATTDEF
  5
1B8
330
190
100
AcDbEntity
  8
AM_6
100
AcDbText
 10
6.376571428571428
 20
-13.86400003433227
 30
0.0
 40
0.5
  1
1.030000
100
AcDbAttributeDefinition
  3

  2
R1
 70
     8
280
     0
  0
ATTDEF
  5
1B9
330
190
100
AcDbEntity
  8
AM_6
100
AcDbText
 10
6.376571428571428
 20
-14.36400003433227
 30
0.0
 40
0.5
  1
1.50
100
AcDbAttributeDefinition
  3

  2
S
 70
     8
280
     0
  0
ATTDEF
  5
1BA
330
190
100
AcDbEntity
  8
AM_6
100
AcDbText
 10
6.376571428571428
 20
-14.86400003433227
 30
0.0
 40
0.5
  1
1.500000
100
AcDbAttributeDefinition
  3

  2
S1
 70
     8
280
     0
  0
ATTDEF
  5
1BB
330
190
100
AcDbEntity
  8
AM_6
100
AcDbText
 10
6.376571428571428
 20
-15.36400003433227
 30
0.0
 40
0.5
  1
0.093750
100
AcDbAttributeDefinition
  3

  2
EXP1
 70
     8
280
     0
  0
ATTDEF
  5
1BC
330
190
100
AcDbEntity
  8
AM_6
100
AcDbText
 10
6.376571428571428
 20
-15.86400003433227
 30
0.0
 40
0.5
  1
3
100
AcDbAttributeDefinition
  3

  2
HF
 70
     8
280
     0
  0
ATTDEF
  5
1BD
330
190
100
AcDbEntity
  8
AM_6
100
AcDbText
 10
6.376571428571428
 20
-16.36400003433227
 30
0.0
 40
0.5
  1
.09
100
AcDbAttributeDefinition
  3

  2
T
 70
     8
280
     0
  0
ATTDEF
  5
1BE
330
190
100
AcDbEntity
  8
AM_6
100
AcDbText
 10
6.376571428571428
 20
-16.86400003433227
 30
0.0
 40
0.5
  1
baldor
100
AcDbAttributeDefinition
  3

  2
COMPANY
 70
     8
280
     0
  0
LINE
  5
1BF
330
190
100
AcDbEntity
  8
AM_9
100
AcDbLine
 10
-0.5785499983578919
 20
2.950000000000001
 30
0.0
 11
-0.5785499983578919
 21
2.850000000000001
 31
0.0
  0
LINE
  5
1C0
330
190
100
AcDbEntity
  8
AM_9
100
AcDbLine
 10
0.1377499999999997
 20
2.950000000000001
 30
0.0
 11
0.1377499999999997
 21
2.850000000000001
 31
0.0
  0
LINE
  5
1C1
330
190
100
AcDbEntity
  8
AM_9
100
AcDbLine
 10
-0.5475
 20
2.850000000000001
 30
0.0
 11
-0.5475
 21
1.900000009500001
 31
0.0
  0
LINE
  5
1C2
330
190
100
AcDbEntity
  8
AM_9
100
AcDbLine
 10
0.5475
 20
1.900000009500001
 30
0.0
 11
0.5475
 21
2.850000000000001
 31
0.0
  0
LINE
  5
1C3
330
190
100
AcDbEntity
  8
AM_9
100
AcDbLine
 10
-1.042857142857143
 20
-1.71875
 30
0.0
 11
1.042857142857143
 21
-1.71875
 31
0.0
  0
LINE
  5
1C4
330
190
100
AcDbEntity
  8
AM_9
100
AcDbLine
 10
1.042857142857143
 20
1.71875
 30
0.0
 11
0.5475
 21
1.71875
 31
0.0
  0
LINE
  5
1C5
330
190
100
AcDbEntity
  8
AM_9
100
AcDbLine
 10
-0.5475
 20
1.71875
 30
0.0
 11
-1.042857142857143
 21
1.71875
 31
0.0
  0
LWPOLYLINE
  5
1C6
330
190
100
AcDbEntity
  8
AM_9
100
AcDbPolyline
 90
       40
 70
     0
 43
0.0
 10
-0.5474999999997313
 20
1.718749999999915
 10
-0.5474819251184322
 20
1.718744242414032
 10
-0.5451794876739982
 20
1.718011279618749
 10
-0.5390559742997886
 20
1.716078860637906
 10
-0.5297819773637743
 20
1.713187707281726
 10
-0.5172145516756612
 20
1.709343793672021
 10
-0.5009610878459451
 20
1.704495747227826
 10
-0.4814619707245991
 20
1.698867546854085
 10
-0.4589016263623348
 20
1.692612012374791
 10
-0.4334067057420176
 20
1.685878609236782
 10
-0.4043393522655059
 20
1.678641174260598
 10
-0.3725374371374785
 20
1.671265824029487
 10
-0.3377218705741318
 20
1.663852021030291
 10
-0.3005152034435395
 20
1.656699942657303
 10
-0.2599583931667707
 20
1.649826769913052
 10
-0.2173834942558003
 20
1.643654737490469
 10
-0.1745706716725186
 20
1.638544033268796
 10
-0.1304397344664722
 20
1.634429514181534
 10
-0.0838439786842515
 20
1.631374997316561
 10
-0.0365533530021777
 20
1.629626171892101
 10
0.0074285783541807
 20
1.629235334719777
 10
0.0513573686398874
 20
1.630025426738373
 10
0.0962186801210009
 20
1.632057219633987
 10
0.1403593565458982
 20
1.635251069857464
 10
0.1816259307265177
 20
1.639310247448613
 10
0.2216838777483557
 20
1.644229015117282
 10
0.2613026402243877
 20
1.650038760321856
 10
0.2991550590090531
 20
1.656453760848974
 10
0.3354773331127917
 20
1.663397833756772
 10
0.3695472780124966
 20
1.670601838615787
 10
0.4019805826642005
 20
1.67807459705966
 10
0.4316238327124219
 20
1.685421147804121
 10
0.4584144998797129
 20
1.69247997691507
 10
0.4819995551545959
 20
1.699019977419109
 10
0.5027488137412185
 20
1.70502185335657
 10
0.5197305504640708
 20
1.710106767890732
 10
0.5316522874647974
 20
1.713766998608602
 10
0.5403005597461223
 20
1.716470217441006
 10
0.5456924863275225
 20
1.718174249094561
 10
0.5475
 20
1.71875
  0
LINE
  5
1C7
330
190
100
AcDbEntity
  8
AM_9
100
AcDbLine
 10
1.042857142857143
 20
1.808108108108108
 30
0.0
 11
1.042857142857143
 21
-1.808108108108108
 31
0.0
  0
ARC
  5
1C8
330
190
100
AcDbEntity
  8
AM_9
100
AcDbCircle
 10
1.092857142857143
 20
-1.808108108108108
 30
0.0
 40
0.0500000000000003
100
AcDbArc
 50
180.0
 51
270.0
  0
ARC
  5
1C9
330
190
100
AcDbEntity
  8
AM_9
100
AcDbCircle
 10
1.092857142857143
 20
1.808108108108108
 30
0.0
 40
0.0500000000000005
100
AcDbArc
 50
90.0
 51
180.0
  0
LINE
  5
1CA
330
190
100
AcDbEntity
  8
AM_9
100
AcDbLine
 10
1.092857142857143
 20
-1.858108108108108
 30
0.0
 11
1.095
 21
-1.858108108108108
 31
0.0
  0
LINE
  5
1CB
330
190
100
AcDbEntity
  8
AM_9
100
AcDbLine
 10
1.095
 20
1.858108108108108
 30
0.0
 11
1.092857142857143
 21
1.858108108108108
 31
0.0
  0
LINE
  5
1CC
330
190
100
AcDbEntity
  8
AM_9
100
AcDbLine
 10
1.092857142857143
 20
1.858108108108108
 30
0.0
 11
1.092857142857143
 21
-1.858108108108108
 31
0.0
  0
LINE
  5
1CD
330
190
100
AcDbEntity
  8
AM_9
100
AcDbLine
 10
-1.042857142857143
 20
1.808108108108109
 30
0.0
 11
-1.042857142857143
 21
-1.808108108108109
 31
0.0
  0
ARC
  5
1CE
330
190
100
AcDbEntity
  8
AM_9
100
AcDbCircle
 10
-1.092857142857142
 20
-1.808108108108109
 30
0.0
 40
0.0499999999999994
100
AcDbArc
 50
270.0
 51
0.0
  0
ARC
  5
1CF
330
190
100
AcDbEntity
  8
AM_9
100
AcDbCircle
 10
-1.092857142857142
 20
1.808108108108109
 30
0.0
 40
0.0499999999999994
100
AcDbArc
 50
0.0
 51
90.0
  0
LINE
  5
1D0
330
190
100
AcDbEntity
  8
AM_9
100
AcDbLine
 10
-1.095
 20
-1.858108108108109
 30
0.0
 11
-1.092857142857143
 21
-1.858108108108109
 31
0.0
  0
LINE
  5
1D1
330
190
100
AcDbEntity
  8
AM_9
100
AcDbLine
 10
-1.092857142857143
 20
1.858108108108109
 30
0.0
 11
-1.095
 21
1.858108108108109
 31
0.0
  0
LINE
  5
1D2
330
190
100
AcDbEntity
  8
AM_9
100
AcDbLine
 10
-1.092857142857143
 20
1.858108108108109
 30
0.0
 11
-1.092857142857143
 21
-1.858108108108109
 31
0.0
  0
LINE
  5
1D3
330
190
100
AcDbEntity
  8
AM_9
100
AcDbLine
 10
0.5118670613173629
 20
2.15
 30
0.0
 11
0.5118670613173629
 21
1.95
 31
0.0
  0
LINE
  5
1D4
330
190
100
AcDbEntity
  8
AM_9
100
AcDbLine
 10
-0.5118670613173627
 20
2.15
 30
0.0
 11
-0.5118670613173627
 21
1.95
 31
0.0
  0
LWPOLYLINE
  5
1D5
330
190
100
AcDbEntity
  8
AM_9
100
AcDbPolyline
 90
        5
 70
     0
 43
0.0
 10
0.748297245573881
 20
1.900000009500001
 10
0.7109621929205211
 20
1.920454140416564
 10
0.6703245141502846
 20
1.937134132761815
 10
0.6453762118972557
 20
1.94458739194234
 10
0.6198293791895881
 20
1.95
  0
LINE
  5
1D6
330
190
100
AcDbEntity
  8
AM_9
100
AcDbLine
 10
0.5346276657191575
 20
1.95
 30
0.0
 11
0.5118670613173629
 21
1.944289332878111
 31
0.0
  0
LWPOLYLINE
  5
1D7
330
190
100
AcDbEntity
  8
AM_9
100
AcDbPolyline
 90
        3
 70
     0
 43
0.0
 10
0.5118670613173629
 20
1.944289332878111
 10
0.4857385078099087
 20
1.923369391687833
 10
0.4625470291274117
 20
1.9000000095
  0
LWPOLYLINE
  5
1D8
330
190
100
AcDbEntity
  8
AM_9
100
AcDbPolyline
 90
        4
 70
     0
 43
0.0
 10
-0.4625470291274115
 20
1.900000009500001
 10
-0.4789437498009351
 20
1.917053081260576
 10
-0.4971364585901787
 20
1.933109881868982
 10
-0.5118670613173627
 20
1.944289332878111
  0
LINE
  5
1D9
330
190
100
AcDbEntity
  8
AM_9
100
AcDbLine
 10
-0.5118670613173627
 20
1.944289332878111
 30
0.0
 11
-0.5346276657194937
 21
1.95
 31
0.0
  0
LWPOLYLINE
  5
1DA
330
190
100
AcDbEntity
  8
AM_9
100
AcDbPolyline
 90
        5
 70
     0
 43
0.0
 10
-0.6198293791895897
 20
1.95
 10
-0.6608432161841948
 20
1.940216031635057
 10
-0.7020374037608723
 20
1.924604145489765
 10
-0.7255562524593967
 20
1.913063064595645
 10
-0.7482972455738812
 20
1.900000009500001
  0
LINE
  5
1DB
330
190
100
AcDbEntity
  8
AM_9
100
AcDbLine
 10
0.2825000000000001
 20
-1.13
 30
0.0
 11
0.2825000000000001
 21
-2.38
 31
0.0
  0
LINE
  5
1DC
330
190
100
AcDbEntity
  8
AM_9
100
AcDbLine
 10
-0.2824999999999998
 20
-1.13
 30
0.0
 11
-0.2824999999999998
 21
-2.38
 31
0.0
  0
LINE
  5
1DD
330
190
100
AcDbEntity
  8
AM_7
100
AcDbLine
 10
0.6843750000000002
 20
1.845
 30
0.0
 11
0.6843750000000002
 21
1.955
 31
0.0
  0
LINE
  5
1DE
330
190
100
AcDbEntity
  8
AM_7
100
AcDbLine
 10
-0.6843750000000002
 20
1.845
 30
0.0
 11
-0.6843750000000002
 21
1.955
 31
0.0
  0
LINE
  5
1DF
330
190
100
AcDbEntity
  8
AM_7
100
AcDbLine
 10
-1.6265625
 20
0.0
 30
0.0
 11
1.376571428571429
 21
0.0
 31
0.0
  0
LINE
  5
1E0
330
190
100
AcDbEntity
  8
AM_7
100
AcDbLine
 10
0.0
 20
-0.2020000000000001
 30
0.0
 11
0.0
 21
4.135999965667724
 31
0.0
  0
LINE
  5
1E1
330
190
100
AcDbEntity
  8
AM_4
100
AcDbLine
 10
-0.6042200538379251
 20
3.050000000000001
 30
0.0
 11
-0.3732799461620748
 21
3.050000000000001
 31
0.0
  0
LINE
  5
1E2
330
190
100
AcDbEntity
  8
AM_4
100
AcDbLine
 10
-0.3732799461620748
 20
3.050000000000001
 30
0.0
 11
-0.3732799461620748
 21
2.950000000000001
 31
0.0
  0
LINE
  5
1E3
330
190
100
AcDbEntity
  8
AM_4
100
AcDbLine
 10
-0.4310149730810374
 20
3.050000000000001
 30
0.0
 11
-0.4310149730810374
 21
2.950000000000001
 31
0.0
  0
LINE
  5
1E4
330
190
100
AcDbEntity
  8
AM_4
100
AcDbLine
 10
-0.5464850269189625
 20
3.050000000000001
 30
0.0
 11
-0.5464850269189625
 21
2.950000000000001
 31
0.0
  0
LINE
  5
1E5
330
190
100
AcDbEntity
  8
AM_4
100
AcDbLine
 10
-0.6042200538379251
 20
3.050000000000001
 30
0.0
 11
-0.6042200538379251
 21
2.950000000000001
 31
0.0
  0
LINE
  5
1E6
330
190
100
AcDbEntity
  8
AM_4
100
AcDbLine
 10
0.4310149730810374
 20
3.050000000000001
 30
0.0
 11
0.4310149730810374
 21
2.950000000000001
 31
0.0
  0
LINE
  5
1E7
330
190
100
AcDbEntity
  8
AM_4
100
AcDbLine
 10
0.3732799461620748
 20
3.050000000000001
 30
0.0
 11
0.3732799461620748
 21
2.950000000000001
 31
0.0
  0
LINE
  5
1E8
330
190
100
AcDbEntity
  8
AM_4
100
AcDbLine
 10
0.3732799461620748
 20
3.050000000000001
 30
0.0
 11
0.6042200538379251
 21
3.050000000000001
 31
0.0
  0
LINE
  5
1E9
330
190
100
AcDbEntity
  8
AM_4
100
AcDbLine
 10
0.6042200538379251
 20
3.050000000000001
 30
0.0
 11
0.604220053837925
 21
2.950000000000001
 31
0.0
  0
LINE
  5
1EA
330
190
100
AcDbEntity
  8
AM_4
100
AcDbLine
 10
0.5464850269189625
 20
3.050000000000001
 30
0.0
 11
0.5464850269189625
 21
2.950000000000001
 31
0.0
  0
LINE
  5
1EB
330
190
100
AcDbEntity
  8
AM_4
100
AcDbLine
 10
-0.68875
 20
2.950000000000001
 30
0.0
 11
-0.68875
 21
2.850000000000001
 31
0.0
  0
LINE
  5
1EC
330
190
100
AcDbEntity
  8
AM_4
100
AcDbLine
 10
-0.1377499999999998
 20
2.950000000000001
 30
0.0
 11
-0.1377499999999997
 21
2.850000000000001
 31
0.0
  0
LINE
  5
1ED
330
190
100
AcDbEntity
  8
AM_4
100
AcDbLine
 10
-0.68875
 20
2.950000000000001
 30
0.0
 11
0.6887500000000001
 21
2.950000000000001
 31
0.0
  0
LINE
  5
1EE
330
190
100
AcDbEntity
  8
AM_4
100
AcDbLine
 10
0.6887500000000001
 20
2.950000000000001
 30
0.0
 11
0.6887499999999999
 21
2.850000000000001
 31
0.0
  0
LINE
  5
1EF
330
190
100
AcDbEntity
  8
AM_4
100
AcDbLine
 10
0.5785500000000001
 20
2.950000000000001
 30
0.0
 11
0.5785500000000001
 21
2.850000000000001
 31
0.0
  0
LINE
  5
1F0
330
190
100
AcDbEntity
  8
AM_4
100
AcDbLine
 10
-0.93875
 20
2.850000000000001
 30
0.0
 11
0.9387499999999998
 21
2.850000000000001
 31
0.0
  0
LWPOLYLINE
  5
1F1
330
190
100
AcDbEntity
  8
AM_4
100
AcDbPolyline
 90
       19
 70
     0
 43
0.0
 10
-0.9387499999999998
 20
2.850000000000001
 10
-0.9523680848043214
 20
2.849405421576836
 10
-0.9658825277604577
 20
2.847626211408158
 10
-0.9791904757972687
 20
2.844675910357668
 10
-0.9921906473946355
 20
2.840576971997799
 10
-1.004784103396984
 20
2.835360591724478
 10
-1.016875
 20
2.82906646934132
 10
-1.028371318179851
 20
2.821742506920156
 10
-1.039185564013522
 20
2.813444444237341
 10
-1.049235434560398
 20
2.804235434560399
 10
-1.05844444423734
 20
2.794185564013523
 10
-1.066742506920155
 20
2.783371318179852
 10
-1.074066469341318
 20
2.771875000000001
 10
-1.080360591724476
 20
2.759784103396985
 10
-1.085576971997798
 20
2.747190647394637
 10
-1.089675910357667
 20
2.73419047579727
 10
-1.092626211408157
 20
2.720882527760459
 10
-1.094405421576835
 20
2.707368084804322
 10
-1.095
 20
2.693750000000001
  0
LWPOLYLINE
  5
1F2
330
190
100
AcDbEntity
  8
AM_4
100
AcDbPolyline
 90
       19
 70
     0
 43
0.0
 10
1.095
 20
2.693750000000001
 10
1.094405421576835
 20
2.707368084804322
 10
1.092626211408157
 20
2.720882527760458
 10
1.089675910357667
 20
2.734190475797269
 10
1.085576971997798
 20
2.747190647394636
 10
1.080360591724476
 20
2.759784103396985
 10
1.074066469341318
 20
2.771875000000001
 10
1.066742506920155
 20
2.783371318179852
 10
1.05844444423734
 20
2.794185564013522
 10
1.049235434560398
 20
2.804235434560399
 10
1.039185564013522
 20
2.813444444237341
 10
1.028371318179851
 20
2.821742506920156
 10
1.016875
 20
2.829066469341319
 10
1.004784103396984
 20
2.835360591724477
 10
0.9921906473946357
 20
2.840576971997799
 10
0.9791904757972687
 20
2.844675910357668
 10
0.9658825277604578
 20
2.847626211408158
 10
0.9523680848043217
 20
2.849405421576836
 10
0.93875
 20
2.850000000000001
  0
LINE
  5
1F3
330
190
100
AcDbEntity
  8
AM_4
100
AcDbLine
 10
0.5268548164886543
 20
2.693750000000001
 30
0.0
 11
1.095
 21
2.69375
 31
0.0
  0
LINE
  5
1F4
330
190
100
AcDbEntity
  8
AM_4
100
AcDbLine
 10
-1.095
 20
2.69375
 30
0.0
 11
-0.5268548164886541
 21
2.693750000000001
 31
0.0
  0
LINE
  5
1F5
330
190
100
AcDbEntity
  8
AM_4
100
AcDbLine
 10
1.095
 20
2.532380885923145
 30
0.0
 11
0.5118670613173629
 21
2.698012357824668
 31
0.0
  0
LINE
  5
1F6
330
190
100
AcDbEntity
  8
AM_4
100
AcDbLine
 10
-0.5118670613173627
 20
2.698012357824668
 30
0.0
 11
-1.095
 21
2.532380885923145
 31
0.0
  0
LINE
  5
1F7
330
190
100
AcDbEntity
  8
AM_4
100
AcDbLine
 10
0.5118670613173629
 20
2.698012357824668
 30
0.0
 11
0.5118670613173629
 21
2.15
 31
0.0
  0
LINE
  5
1F8
330
190
100
AcDbEntity
  8
AM_4
100
AcDbLine
 10
0.5118670613173629
 20
2.698012357824668
 30
0.0
 11
-0.5118670613173627
 21
2.698012357824668
 31
0.0
  0
LINE
  5
1F9
330
190
100
AcDbEntity
  8
AM_4
100
AcDbLine
 10
-0.5118670613173627
 20
2.698012357824668
 30
0.0
 11
-0.5118670613173627
 21
2.15
 31
0.0
  0
LINE
  5
1FA
330
190
100
AcDbEntity
  8
AM_4
100
AcDbLine
 10
-0.934375
 20
2.15
 30
0.0
 11
-0.4343749999999999
 21
2.15
 31
0.0
  0
LINE
  5
1FB
330
190
100
AcDbEntity
  8
AM_4
100
AcDbLine
 10
-0.934375
 20
2.15
 30
0.0
 11
-0.934375
 21
1.95
 31
0.0
  0
LINE
  5
1FC
330
190
100
AcDbEntity
  8
AM_4
100
AcDbLine
 10
0.4343750000000001
 20
2.15
 30
0.0
 11
0.9343750000000001
 21
2.15
 31
0.0
  0
LINE
  5
1FD
330
190
100
AcDbEntity
  8
AM_4
100
AcDbLine
 10
0.4343750000000001
 20
2.15
 30
0.0
 11
0.4343750000000001
 21
1.95
 31
0.0
  0
LINE
  5
1FE
330
190
100
AcDbEntity
  8
AM_4
100
AcDbLine
 10
0.6843750000000002
 20
2.15
 30
0.0
 11
0.6843750000000002
 21
1.95
 31
0.0
  0
LINE
  5
1FF
330
190
100
AcDbEntity
  8
AM_4
100
AcDbLine
 10
0.9343750000000001
 20
2.15
 30
0.0
 11
0.9343750000000001
 21
1.95
 31
0.0
  0
LINE
  5
200
330
190
100
AcDbEntity
  8
AM_4
100
AcDbLine
 10
-0.6843749999999998
 20
2.15
 30
0.0
 11
-0.6843749999999998
 21
1.95
 31
0.0
  0
LINE
  5
201
330
190
100
AcDbEntity
  8
AM_4
100
AcDbLine
 10
-0.4343749999999999
 20
2.15
 30
0.0
 11
-0.4343749999999999
 21
1.95
 31
0.0
  0
LINE
  5
202
330
190
100
AcDbEntity
  8
AM_4
100
AcDbLine
 10
0.3718750000000001
 20
1.95
 30
0.0
 11
0.3718750000000001
 21
1.900000009500001
 31
0.0
  0
LINE
  5
203
330
190
100
AcDbEntity
  8
AM_4
100
AcDbLine
 10
0.9968750000000002
 20
1.900000009500001
 30
0.0
 11
0.9968750000000002
 21
1.95
 31
0.0
  0
LINE
  5
204
330
190
100
AcDbEntity
  8
AM_4
100
AcDbLine
 10
0.3718750000000001
 20
1.95
 30
0.0
 11
0.9968750000000002
 21
1.95
 31
0.0
  0
LINE
  5
205
330
190
100
AcDbEntity
  8
AM_4
100
AcDbLine
 10
-0.9968749999999998
 20
1.95
 30
0.0
 11
-0.9968749999999998
 21
1.900000009500001
 31
0.0
  0
LINE
  5
206
330
190
100
AcDbEntity
  8
AM_4
100
AcDbLine
 10
-0.3718749999999998
 20
1.900000009500001
 30
0.0
 11
-0.3718749999999998
 21
1.95
 31
0.0
  0
LINE
  5
207
330
190
100
AcDbEntity
  8
AM_4
100
AcDbLine
 10
-0.9968749999999998
 20
1.95
 30
0.0
 11
-0.3718749999999998
 21
1.95
 31
0.0
  0
LINE
  5
208
330
190
100
AcDbEntity
  8
AM_4
100
AcDbLine
 10
-0.1509042251849517
 20
0.3125
 30
0.0
 11
-0.1509042251849517
 21
0.0
 31
0.0
  0
LINE
  5
209
330
190
100
AcDbEntity
  8
AM_4
100
AcDbLine
 10
0.1509042118918236
 20
0.3125
 30
0.0
 11
0.1509042118918236
 21
0.0
 31
0.0
  0
LINE
  5
20A
330
190
100
AcDbEntity
  8
AM_4
100
AcDbLine
 10
1.095
 20
2.69375
 30
0.0
 11
1.095
 21
0.3125
 31
0.0
  0
LINE
  5
20B
330
190
100
AcDbEntity
  8
AM_4
100
AcDbLine
 10
0.8212500000000001
 20
1.900000009500001
 30
0.0
 11
0.8212499999999997
 21
0.3124999999999999
 31
0.0
  0
LINE
  5
20C
330
190
100
AcDbEntity
  8
AM_4
100
AcDbLine
 10
0.3104255457140112
 20
1.900000009500001
 30
0.0
 11
0.3104255457140112
 21
0.3125
 31
0.0
  0
LINE
  5
20D
330
190
100
AcDbEntity
  8
AM_4
100
AcDbLine
 10
0.3104255457140112
 20
0.0
 30
0.0
 11
0.3104255457140112
 21
-1.13
 31
0.0
  0
LINE
  5
20E
330
190
100
AcDbEntity
  8
AM_4
100
AcDbLine
 10
0.547500000000002
 20
-1.13
 30
0.0
 11
0.547500000000002
 21
1.900000009500001
 31
0.0
  0
LINE
  5
20F
330
190
100
AcDbEntity
  8
AM_4
100
AcDbLine
 10
0.8212500000000001
 20
0.0
 30
0.0
 11
0.8212500000000001
 21
-1.13
 31
0.0
  0
LINE
  5
210
330
190
100
AcDbEntity
  8
AM_4
100
AcDbLine
 10
-0.3104255457140118
 20
1.900000009500001
 30
0.0
 11
-0.3104255457140118
 21
0.3125
 31
0.0
  0
LINE
  5
211
330
190
100
AcDbEntity
  8
AM_4
100
AcDbLine
 10
-0.8212499999999995
 20
0.0
 30
0.0
 11
-0.8212499999999995
 21
-1.13
 31
0.0
  0
LINE
  5
212
330
190
100
AcDbEntity
  8
AM_4
100
AcDbLine
 10
-1.095
 20
2.69375
 30
0.0
 11
-1.095
 21
0.3125
 31
0.0
  0
LINE
  5
213
330
190
100
AcDbEntity
  8
AM_4
100
AcDbLine
 10
-0.8212499999999995
 20
1.900000009500001
 30
0.0
 11
-0.8212499999999995
 21
0.3124999999999999
 31
0.0
  0
LINE
  5
214
330
190
100
AcDbEntity
  8
AM_4
100
AcDbLine
 10
-1.095
 20
1.900000009500001
 30
0.0
 11
1.095
 21
1.900000009500001
 31
0.0
  0
LINE
  5
215
330
190
100
AcDbEntity
  8
AM_4
100
AcDbLine
 10
-0.5475000000000017
 20
-1.13
 30
0.0
 11
-0.5475
 21
1.900000009500001
 31
0.0
  0
LINE
  5
216
330
190
100
AcDbEntity
  8
AM_4
100
AcDbLine
 10
-0.3104255457140119
 20
0.0
 30
0.0
 11
-0.3104255457140118
 21
-1.13
 31
0.0
  0
LINE
  5
217
330
190
100
AcDbEntity
  8
AM_4
100
AcDbLine
 10
-0.3017733207225181
 20
0.3125
 30
0.0
 11
-0.3017733207225181
 21
0.0
 31
0.0
  0
LINE
  5
218
330
190
100
AcDbEntity
  8
AM_4
100
AcDbLine
 10
1.195000000000001
 20
0.3125
 30
0.0
 11
1.195000000000001
 21
0.0
 31
0.0
  0
LINE
  5
219
330
190
100
AcDbEntity
  8
AM_4
100
AcDbLine
 10
0.3017733207225178
 20
0.3125
 30
0.0
 11
0.3017733207225178
 21
0.0
 31
0.0
  0
LINE
  5
21A
330
190
100
AcDbEntity
  8
AM_4
100
AcDbLine
 10
0.9212500000000003
 20
0.3125
 30
0.0
 11
0.9212500000000003
 21
0.0
 31
0.0
  0
LINE
  5
21B
330
190
100
AcDbEntity
  8
AM_4
100
AcDbLine
 10
-1.195
 20
0.0
 30
0.0
 11
1.195000000000001
 21
0.0
 31
0.0
  0
LINE
  5
21C
330
190
100
AcDbEntity
  8
AM_4
100
AcDbLine
 10
-0.9212499999999992
 20
0.3125
 30
0.0
 11
-0.9212499999999992
 21
0.0
 31
0.0
  0
LINE
  5
21D
330
190
100
AcDbEntity
  8
AM_4
100
AcDbLine
 10
-1.195
 20
0.3125
 30
0.0
 11
1.195000000000001
 21
0.3125
 31
0.0
  0
LINE
  5
21E
330
190
100
AcDbEntity
  8
AM_4
100
AcDbLine
 10
-1.195
 20
0.3125
 30
0.0
 11
-1.195
 21
0.0
 31
0.0
  0
LINE
  5
21F
330
190
100
AcDbEntity
  8
AM_4
100
AcDbLine
 10
-1.095
 20
-1.129999999999999
 30
0.0
 11
1.095
 21
-1.129999999999999
 31
0.0
  0
LINE
  5
220
330
190
100
AcDbEntity
  8
AM_4
100
AcDbLine
 10
1.095
 20
0.0
 30
0.0
 11
1.095
 21
-2.38
 31
0.0
  0
LWPOLYLINE
  5
221
330
190
100
AcDbEntity
  8
AM_4
100
AcDbPolyline
 90
       18
 70
     0
 43
0.0
 10
0.8760000000000003
 20
-1.38
 10
0.8769513254770639
 20
-1.358211064313086
 10
0.8797980617469483
 20
-1.336587955583268
 10
0.8845185434277333
 20
-1.31529523872437
 10
0.8910768448035232
 20
-1.294494964168583
 10
0.8994230532408377
 20
-1.274345434564825
 10
0.9094936490538907
 20
-1.255
 10
0.9212119889277525
 20
-1.236605890912238
 10
0.9344888892202557
 20
-1.219303097578365
 10
0.9492233047033635
 20
-1.203223304703363
 10
0.9653030975783655
 20
-1.188488889220255
 10
0.9826058909122389
 20
-1.175211988927752
 10
1.001000000000001
 20
-1.16349364905389
 10
1.020345434564826
 20
-1.153423053240837
 10
1.040494964168583
 20
-1.145076844803522
 10
1.06129523872437
 20
-1.138518543427733
 10
1.082587955583268
 20
-1.133798061746947
 10
1.095
 20
-1.131929445520029
  0
LINE
  5
222
330
190
100
AcDbEntity
  8
AM_4
100
AcDbLine
 10
-1.095
 20
-2.38
 30
0.0
 11
1.095
 21
-2.38
 31
0.0
  0
LINE
  5
223
330
190
100
AcDbEntity
  8
AM_4
100
AcDbLine
 10
-1.095
 20
0.0
 30
0.0
 11
-1.095
 21
-2.38
 31
0.0
  0
LWPOLYLINE
  5
224
330
190
100
AcDbEntity
  8
AM_4
100
AcDbPolyline
 90
       18
 70
     0
 43
0.0
 10
-1.094999999999999
 20
-1.131929445520029
 10
-1.07349719092963
 20
-1.135575256899551
 10
-1.052393959938349
 20
-1.141081288161762
 10
-1.031850915356479
 20
-1.148405635084125
 10
-1.012024402157518
 20
-1.157492554963999
 10
-0.9930653120784865
 20
-1.168272890854265
 10
-0.9751179352426964
 20
-1.180664597889454
 10
-0.9583188620247911
 20
-1.194573367696711
 10
-0.9427959435155164
 20
-1.209893346139458
 10
-0.9286673184977223
 20
-1.226507938931289
 10
-0.9160405143388917
 20
-1.244290698988894
 10
-0.9050116286429456
 20
-1.26310628877071
 10
-0.8956645978894535
 20
-1.282811510277333
 10
-0.8880705586263411
 20
-1.30325639487476
 10
-0.882287306077807
 20
-1.324285344646246
 10
-0.8783588542877688
 20
-1.345738316586403
 10
-0.8763151011464126
 20
-1.367452040625108
 10
-0.8759999999999999
 20
-1.380000005268356
  0
LINE
  5
225
330
190
100
AcDbEntity
  8
AM_4
100
AcDbLine
 10
0.876
 20
-1.38
 30
0.0
 11
0.876
 21
-2.38
 31
0.0
  0
LINE
  5
226
330
190
100
AcDbEntity
  8
AM_4
100
AcDbLine
 10
-0.8759999999999998
 20
-1.38
 30
0.0
 11
0.876
 21
-1.38
 31
0.0
  0
LINE
  5
227
330
190
100
AcDbEntity
  8
AM_4
100
AcDbLine
 10
-0.8759999999999998
 20
-1.38
 30
0.0
 11
-0.8759999999999998
 21
-2.38
 31
0.0
  0
ENDBLK
  5
193
330
190
100
AcDbEntity
  8
0
100
AcDbBlockEnd
  0
ENDSEC
  0
SECTION
  2
ENTITIES
  0
INSERT
  5
6F
330
1F
100
AcDbEntity
  8
0
100
AcDbBlockReference
  2
1_023192_2
 10
0.0
 20
0.0
 30
0.0
  0
POINT
  5
229
330
1F
100
AcDbEntity
  8
ConnectionPoints
100
AcDbPoint
 10
0.0
 20
2.2125
 30
0.0
  0
POINT
  5
22A
330
1F
100
AcDbEntity
  8
ConnectionPoints
100
AcDbPoint
 10
0.0
 20
2.2125
 30
0.0
  0
POINT
  5
22B
330
1F
100
AcDbEntity
  8
ConnectionPoints
100
AcDbPoint
 10
0.0
 20
0.0
 30
0.0
  0
POINT
  5
22C
330
1F
100
AcDbEntity
  8
ConnectionPoints
100
AcDbPoint
 10
-1.5
 20
0.0
 30
0.0000000000000001
  0
POINT
  5
22D
330
1F
100
AcDbEntity
  8
ConnectionPoints
100
AcDbPoint
 10
1.266625
 20
0.0
 30
-0.0000000000000001
  0
POINT
  5
22E
330
1F
100
AcDbEntity
  8
ConnectionPoints
100
AcDbPoint
 10
0.0
 20
0.0
 30
0.0
  0
POINT
  5
22F
330
1F
100
AcDbEntity
  8
ConnectionPoints
100
AcDbPoint
 10
-1.5
 20
0.0
 30
0.0000000000000001
  0
ENDSEC
  0
SECTION
  2
OBJECTS
  0
DICTIONARY
  5
C
330
0
100
AcDbDictionary
281
     1
  3
ACAD_DETAILVIEWSTYLE
350
237
  3
ACAD_GROUP
350
D
  3
ACAD_LAYOUT
350
1A
  3
ACAD_MATERIAL
350
43
  3
ACAD_MLEADERSTYLE
350
6B
  3
ACAD_MLINESTYLE
350
17
  3
ACAD_PLOTSETTINGS
350
19
  3
ACAD_PLOTSTYLENAME
350
E
  3
ACAD_SCALELIST
350
47
  3
ACAD_SECTIONVIEWSTYLE
350
238
  3
ACAD_TABLESTYLE
350
69
  3
ACAD_VISUALSTYLE
350
2A
  3
ACDB_RECOMPOSE_DATA
350
234
  3
AcDbVariableDictionary
350
230
  0
SUN
  5
6D
330
29
100
AcDbSun
 90
        1
290
     0
 63
     7
421
 16777215
 40
1.0
291
     1
 91
  2455826
 92
 54000000
292
     0
 70
     2
 71
   256
280
     1
  0
DICTIONARY
  5
237
102
{ACAD_REACTORS
330
C
102
}
330
C
100
AcDbDictionary
281
     1
  0
DICTIONARY
  5
D
102
{ACAD_REACTORS
330
C
102
}
330
C
100
AcDbDictionary
281
     1
  0
DICTIONARY
  5
1A
102
{ACAD_REACTORS
330
C
102
}
330
C
100
AcDbDictionary
281
     1
  3
Layout1
350
1E
  3
Layout2
350
26
  3
Model
350
22
  0
DICTIONARY
  5
43
102
{ACAD_REACTORS
330
C
102
}
330
C
100
AcDbDictionary
281
     1
  3
ByBlock
350
45
  3
ByLayer
350
44
  3
Global
350
46
  0
DICTIONARY
  5
6B
102
{ACAD_REACTORS
330
C
102
}
330
C
100
AcDbDictionary
281
     1
  3
Standard
350
6C
  0
DICTIONARY
  5
17
102
{ACAD_REACTORS
330
C
102
}
330
C
100
AcDbDictionary
281
     1
  3
Standard
350
18
  0
DICTIONARY
  5
19
102
{ACAD_REACTORS
330
C
102
}
330
C
100
AcDbDictionary
281
     1
  0
ACDBDICTIONARYWDFLT
  5
E
102
{ACAD_REACTORS
330
C
102
}
330
C
100
AcDbDictionary
281
     1
  3
Normal
350
F
100
AcDbDictionaryWithDefault
340
F
  0
DICTIONARY
  5
47
102
{ACAD_REACTORS
330
C
102
}
330
C
100
AcDbDictionary
281
     1
  3
A0
350
48
  3
A1
350
49
  3
A2
350
4A
  3
A3
350
4B
  3
A4
350
4C
  3
A5
350
4D
  3
A6
350
4E
  3
A7
350
4F
  3
A8
350
50
  3
A9
350
51
  3
B0
350
52
  3
B1
350
53
  3
B2
350
54
  3
B3
350
55
  3
B4
350
56
  3
B5
350
57
  3
B6
350
58
  3
B7
350
59
  3
B8
350
5A
  3
B9
350
5B
  3
C0
350
5C
  3
C1
350
5D
  3
C2
350
5E
  3
C3
350
5F
  3
C4
350
60
  3
C5
350
61
  3
C6
350
62
  3
C7
350
63
  3
C8
350
64
  3
C9
350
65
  3
D0
350
66
  3
D1
350
67
  3
D2
350
68
  0
DICTIONARY
  5
238
102
{ACAD_REACTORS
330
C
102
}
330
C
100
AcDbDictionary
281
     1
  0
DICTIONARY
  5
69
102
{ACAD_REACTORS
330
C
102
}
330
C
100
AcDbDictionary
281
     1
  3
Standard
350
6A
  0
DICTIONARY
  5
2A
102
{ACAD_REACTORS
330
C
102
}
330
C
100
AcDbDictionary
281
     1
  3
2dWireframe
350
2F
  3
Basic
350
32
  3
Brighten
350
36
  3
ColorChange
350
3A
  3
Conceptual
350
34
  3
Dim
350
35
  3
EdgeColorOff
350
3D
  3
Facepattern
350
39
  3
Flat
350
2B
  3
FlatWithEdges
350
2C
  3
Gouraud
350
2D
  3
GouraudWithEdges
350
2E
  3
Hidden
350
31
  3
JitterOff
350
3B
  3
Linepattern
350
38
  3
OverhangOff
350
3C
  3
Realistic
350
33
  3
Shaded
350
42
  3
Shaded with edges
350
41
  3
Shades of Gray
350
3E
  3
Sketchy
350
3F
  3
Thicken
350
37
  3
Wireframe
350
30
  3
X-Ray
350
40
  0
XRECORD
  5
234
102
{ACAD_REACTORS
330
C
102
}
330
C
100
AcDbXrecord
280
     1
 90
        1
330
6A
  0
DICTIONARY
  5
230
102
{ACAD_REACTORS
330
C
102
}
330
C
100
AcDbDictionary
281
     1
  3
CANNOSCALE
350
231
  3
CMLEADERSTYLE
350
236
  3
CTABLESTYLE
350
235
  0
LAYOUT
  5
1E
102
{ACAD_REACTORS
330
1A
102
}
330
1A
100
AcDbPlotSettings
  1

  2
none_device
  4

  6

 40
0.0
 41
0.0
 42
0.0
 43
0.0
 44
0.0
 45
0.0
 46
0.0
 47
0.0
 48
0.0
 49
0.0
140
0.0
141
0.0
142
1.0
143
1.0
 70
   688
 72
     0
 73
     0
 74
     5
  7

 75
    16
 76
     0
 77
     2
 78
   300
147
1.0
148
0.0
149
0.0
100
AcDbLayout
  1
Layout1
 70
     1
 71
     1
 10
0.0
 20
0.0
 11
12.0
 21
9.0
 12
0.0
 22
0.0
 32
0.0
 14
1.000000000000000E+20
 24
1.000000000000000E+20
 34
1.000000000000000E+20
 15
-1.000000000000000E+20
 25
-1.000000000000000E+20
 35
-1.000000000000000E+20
146
0.0
 13
0.0
 23
0.0
 33
0.0
 16
1.0
 26
0.0
 36
0.0
 17
0.0
 27
1.0
 37
0.0
 76
     0
330
1B
  0
LAYOUT
  5
26
102
{ACAD_REACTORS
330
1A
102
}
330
1A
100
AcDbPlotSettings
  1

  2
none_device
  4

  6

 40
0.0
 41
0.0
 42
0.0
 43
0.0
 44
0.0
 45
0.0
 46
0.0
 47
0.0
 48
0.0
 49
0.0
140
0.0
141
0.0
142
1.0
143
1.0
 70
   688
 72
     0
 73
     0
 74
     5
  7

 75
    16
 76
     0
 77
     2
 78
   300
147
1.0
148
0.0
149
0.0
100
AcDbLayout
  1
Layout2
 70
     1
 71
     2
 10
0.0
 20
0.0
 11
0.0
 21
0.0
 12
0.0
 22
0.0
 32
0.0
 14
0.0
 24
0.0
 34
0.0
 15
0.0
 25
0.0
 35
0.0
146
0.0
 13
0.0
 23
0.0
 33
0.0
 16
1.0
 26
0.0
 36
0.0
 17
0.0
 27
1.0
 37
0.0
 76
     0
330
23
  0
LAYOUT
  5
22
102
{ACAD_REACTORS
330
1A
102
}
330
1A
100
AcDbPlotSettings
  1

  2
none_device
  4
Letter_(8.50_x_11.00_Inches)
  6

 40
6.35
 41
6.35
 42
6.35000508
 43
6.35000508
 44
215.9
 45
279.4
 46
0.0
 47
0.0
 48
0.0
 49
0.0
140
0.0
141
0.0
142
1.0
143
1.0
 70
  1712
 72
     0
 73
     0
 74
     0
  7

 75
     0
 76
     0
 77
     2
 78
   300
147
1.0
148
0.0
149
0.0
100
AcDbLayout
  1
Model
 70
     1
 71
     0
 10
0.0
 20
0.0
 11
12.0
 21
9.0
 12
0.0
 22
0.0
 32
0.0
 14
1.000000000000000E+20
 24
1.000000000000000E+20
 34
1.000000000000000E+20
 15
-1.000000000000000E+20
 25
-1.000000000000000E+20
 35
-1.000000000000000E+20
146
0.0
 13
0.0
 23
0.0
 33
0.0
 16
1.0
 26
0.0
 36
0.0
 17
0.0
 27
1.0
 37
0.0
 76
     0
330
1F
331
29
  0
MATERIAL
  5
45
102
{ACAD_REACTORS
330
43
102
}
330
43
100
AcDbMaterial
  1
ByBlock
 72
     1
 94
      127
  0
MATERIAL
  5
44
102
{ACAD_REACTORS
330
43
102
}
330
43
100
AcDbMaterial
  1
ByLayer
 72
     1
 94
      127
  0
MATERIAL
  5
46
102
{ACAD_REACTORS
330
43
102
}
330
43
100
AcDbMaterial
  1
Global
 72
     1
 94
      127
  0
MLEADERSTYLE
  5
6C
102
{ACAD_REACTORS
330
6B
102
}
330
6B
100
AcDbMLeaderStyle
179
     2
170
     2
171
     1
172
     0
 90
        2
 40
0.0
 41
0.0
173
     1
 91
-1056964608
340
14
 92
       -2
290
     1
 42
0.09
291
     1
 43
0.36
  3
Standard
341
0
 44
0.18
300

342
11
174
     1
178
     6
175
     1
176
     0
 93
-1056964608
 45
0.18
292
     0
297
     0
 46
0.18
343
0
 94
-1056964608
 47
1.0
 49
1.0
140
1.0
293
     1
141
0.0
294
     1
177
     0
142
1.0
295
     0
296
     0
143
0.125
271
     0
272
     9
273
     9
298
     0
  0
MLINESTYLE
  5
18
102
{ACAD_REACTORS
330
17
102
}
330
17
100
AcDbMlineStyle
  2
Standard
 70
     0
  3

 62
   256
 51
90.0
 52
90.0
 71
     2
 49
0.5
 62
   256
  6
BYLAYER
 49
-0.5
 62
   256
  6
BYLAYER
  0
ACDBPLACEHOLDER
  5
F
102
{ACAD_REACTORS
330
E
102
}
330
E
  0
SCALE
  5
48
102
{ACAD_REACTORS
330
47
102
}
330
47
100
AcDbScale
 70
     0
300
1:1
140
1.0
141
1.0
290
     1
  0
SCALE
  5
49
102
{ACAD_REACTORS
330
47
102
}
330
47
100
AcDbScale
 70
     0
300
1:2
140
1.0
141
2.0
290
     0
  0
SCALE
  5
4A
102
{ACAD_REACTORS
330
47
102
}
330
47
100
AcDbScale
 70
     0
300
1:4
140
1.0
141
4.0
290
     0
  0
SCALE
  5
4B
102
{ACAD_REACTORS
330
47
102
}
330
47
100
AcDbScale
 70
     0
300
1:5
140
1.0
141
5.0
290
     0
  0
SCALE
  5
4C
102
{ACAD_REACTORS
330
47
102
}
330
47
100
AcDbScale
 70
     0
300
1:8
140
1.0
141
8.0
290
     0
  0
SCALE
  5
4D
102
{ACAD_REACTORS
330
47
102
}
330
47
100
AcDbScale
 70
     0
300
1:10
140
1.0
141
10.0
290
     0
  0
SCALE
  5
4E
102
{ACAD_REACTORS
330
47
102
}
330
47
100
AcDbScale
 70
     0
300
1:16
140
1.0
141
16.0
290
     0
  0
SCALE
  5
4F
102
{ACAD_REACTORS
330
47
102
}
330
47
100
AcDbScale
 70
     0
300
1:20
140
1.0
141
20.0
290
     0
  0
SCALE
  5
50
102
{ACAD_REACTORS
330
47
102
}
330
47
100
AcDbScale
 70
     0
300
1:30
140
1.0
141
30.0
290
     0
  0
SCALE
  5
51
102
{ACAD_REACTORS
330
47
102
}
330
47
100
AcDbScale
 70
     0
300
1:40
140
1.0
141
40.0
290
     0
  0
SCALE
  5
52
102
{ACAD_REACTORS
330
47
102
}
330
47
100
AcDbScale
 70
     0
300
1:50
140
1.0
141
50.0
290
     0
  0
SCALE
  5
53
102
{ACAD_REACTORS
330
47
102
}
330
47
100
AcDbScale
 70
     0
300
1:100
140
1.0
141
100.0
290
     0
  0
SCALE
  5
54
102
{ACAD_REACTORS
330
47
102
}
330
47
100
AcDbScale
 70
     0
300
2:1
140
2.0
141
1.0
290
     0
  0
SCALE
  5
55
102
{ACAD_REACTORS
330
47
102
}
330
47
100
AcDbScale
 70
     0
300
4:1
140
4.0
141
1.0
290
     0
  0
SCALE
  5
56
102
{ACAD_REACTORS
330
47
102
}
330
47
100
AcDbScale
 70
     0
300
8:1
140
8.0
141
1.0
290
     0
  0
SCALE
  5
57
102
{ACAD_REACTORS
330
47
102
}
330
47
100
AcDbScale
 70
     0
300
10:1
140
10.0
141
1.0
290
     0
  0
SCALE
  5
58
102
{ACAD_REACTORS
330
47
102
}
330
47
100
AcDbScale
 70
     0
300
100:1
140
100.0
141
1.0
290
     0
  0
SCALE
  5
59
102
{ACAD_REACTORS
330
47
102
}
330
47
100
AcDbScale
 70
     0
300
1/128" = 1'-0"
140
0.0078125
141
12.0
290
     0
  0
SCALE
  5
5A
102
{ACAD_REACTORS
330
47
102
}
330
47
100
AcDbScale
 70
     0
300
1/64" = 1'-0"
140
0.015625
141
12.0
290
     0
  0
SCALE
  5
5B
102
{ACAD_REACTORS
330
47
102
}
330
47
100
AcDbScale
 70
     0
300
1/32" = 1'-0"
140
0.03125
141
12.0
290
     0
  0
SCALE
  5
5C
102
{ACAD_REACTORS
330
47
102
}
330
47
100
AcDbScale
 70
     0
300
1/16" = 1'-0"
140
0.0625
141
12.0
290
     0
  0
SCALE
  5
5D
102
{ACAD_REACTORS
330
47
102
}
330
47
100
AcDbScale
 70
     0
300
3/32" = 1'-0"
140
0.09375
141
12.0
290
     0
  0
SCALE
  5
5E
102
{ACAD_REACTORS
330
47
102
}
330
47
100
AcDbScale
 70
     0
300
1/8" = 1'-0"
140
0.125
141
12.0
290
     0
  0
SCALE
  5
5F
102
{ACAD_REACTORS
330
47
102
}
330
47
100
AcDbScale
 70
     0
300
3/16" = 1'-0"
140
0.1875
141
12.0
290
     0
  0
SCALE
  5
60
102
{ACAD_REACTORS
330
47
102
}
330
47
100
AcDbScale
 70
     0
300
1/4" = 1'-0"
140
0.25
141
12.0
290
     0
  0
SCALE
  5
61
102
{ACAD_REACTORS
330
47
102
}
330
47
100
AcDbScale
 70
     0
300
3/8" = 1'-0"
140
0.375
141
12.0
290
     0
  0
SCALE
  5
62
102
{ACAD_REACTORS
330
47
102
}
330
47
100
AcDbScale
 70
     0
300
1/2" = 1'-0"
140
0.5
141
12.0
290
     0
  0
SCALE
  5
63
102
{ACAD_REACTORS
330
47
102
}
330
47
100
AcDbScale
 70
     0
300
3/4" = 1'-0"
140
0.75
141
12.0
290
     0
  0
SCALE
  5
64
102
{ACAD_REACTORS
330
47
102
}
330
47
100
AcDbScale
 70
     0
300
1" = 1'-0"
140
1.0
141
12.0
290
     0
  0
SCALE
  5
65
102
{ACAD_REACTORS
330
47
102
}
330
47
100
AcDbScale
 70
     0
300
1-1/2" = 1'-0"
140
1.5
141
12.0
290
     0
  0
SCALE
  5
66
102
{ACAD_REACTORS
330
47
102
}
330
47
100
AcDbScale
 70
     0
300
3" = 1'-0"
140
3.0
141
12.0
290
     0
  0
SCALE
  5
67
102
{ACAD_REACTORS
330
47
102
}
330
47
100
AcDbScale
 70
     0
300
6" = 1'-0"
140
6.0
141
12.0
290
     0
  0
SCALE
  5
68
102
{ACAD_REACTORS
330
47
102
}
330
47
100
AcDbScale
 70
     0
300
1'-0" = 1'-0"
140
12.0
141
12.0
290
     0
  0
TABLESTYLE
  5
6A
102
{ACAD_REACTORS
330
69
102
}
102
{ACAD_XDICTIONARY
360
232
102
}
330
69
100
AcDbTableStyle
  3
Standard
 70
     0
 71
     0
 40
0.06
 41
0.06
280
     0
281
     0
  7
Standard
140
0.18
170
     2
 62
     0
 63
   257
283
     0
 90
        4
 91
        0
  1

274
    -2
284
     1
 64
     0
275
    -2
285
     1
 65
     0
276
    -2
286
     1
 66
     0
277
    -2
287
     1
 67
     0
278
    -2
288
     1
 68
     0
279
    -2
289
     1
 69
     0
  7
Standard
140
0.25
170
     5
 62
     0
 63
   257
283
     0
 90
        4
 91
        0
  1

274
    -2
284
     1
 64
     0
275
    -2
285
     1
 65
     0
276
    -2
286
     1
 66
     0
277
    -2
287
     1
 67
     0
278
    -2
288
     1
 68
     0
279
    -2
289
     1
 69
     0
  7
Standard
140
0.18
170
     5
 62
     0
 63
   257
283
     0
 90
        4
 91
        0
  1

274
    -2
284
     1
 64
     0
275
    -2
285
     1
 65
     0
276
    -2
286
     1
 66
     0
277
    -2
287
     1
 67
     0
278
    -2
288
     1
 68
     0
279
    -2
289
     1
 69
     0
  0
VISUALSTYLE
  5
2F
102
{ACAD_REACTORS
330
2A
102
}
330
2A
100
AcDbVisualStyle
  2
2dWireframe
 70
     4
177
     3
291
     0
 70
    58
 90
        0
176
     1
 90
        2
176
     1
 90
        0
176
     1
 90
        0
176
     1
 40
0.6
176
     1
 40
30.0
176
     1
 62
     7
420
 16777215
176
     1
 90
        1
176
     1
 90
        4
176
     1
 62
     7
176
     1
 62
   257
176
     1
 90
        1
176
     1
 90
        1
176
     1
 40
1.0
176
     1
 90
        0
176
     1
 62
   257
176
     1
 40
1.0
176
     1
 90
        1
176
     1
 90
        6
176
     1
 90
        2
176
     1
 62
     7
176
     1
 90
        5
176
     1
 90
        0
176
     1
 90
        0
176
     1
290
     0
176
     1
 90
        1
176
     1
 40
0.0
176
     1
 90
        0
176
     1
290
     1
176
     1
290
     1
176
     1
290
     0
176
     1
290
     0
176
     1
290
     0
176
     1
290
     0
176
     1
290
     0
176
     1
290
     0
176
     1
290
     0
176
     1
 90
       50
176
     1
 40
0.0
176
     1
 40
1.0
176
     1
 90
        0
176
     1
 62
    18
420
        0
176
     1
 90
       50
176
     1
 90
        3
176
     1
 62
     5
420
      255
176
     1
290
     0
176
     1
 90
       50
176
     1
 90
       50
176
     1
 90
       50
176
     1
290
     0
176
     1
 90
       50
176
     1
 62
   256
176
     0
 40
1.0
176
     0
 90
        2
176
     1
  1
strokes_ogs.tif
176
     1
290
     0
176
     1
 40
1.0
176
     1
 40
1.0
176
     1
  0
VISUALSTYLE
  5
32
102
{ACAD_REACTORS
330
2A
102
}
330
2A
100
AcDbVisualStyle
  2
Basic
 70
     7
177
     3
291
     1
 70
    58
 90
        1
176
     1
 90
        0
176
     1
 90
        1
176
     1
 90
        0
176
     1
 40
0.6
176
     1
 40
30.0
176
     1
 62
     7
420
 16777215
176
     1
 90
        0
176
     1
 90
        4
176
     1
 62
     7
176
     1
 62
   257
176
     1
 90
        1
176
     1
 90
        1
176
     1
 40
1.0
176
     1
 90
        8
176
     1
 62
     7
176
     1
 40
1.0
176
     1
 90
        1
176
     1
 90
        6
176
     1
 90
        2
176
     1
 62
     7
176
     1
 90
        5
176
     1
 90
        0
176
     1
 90
        0
176
     1
290
     0
176
     1
 90
        1
176
     1
 40
0.0
176
     1
 90
        0
176
     1
290
     0
176
     1
290
     1
176
     1
290
     1
176
     1
290
     0
176
     1
290
     0
176
     1
290
     0
176
     1
290
     0
176
     1
290
     0
176
     1
290
     0
176
     1
 90
       50
176
     1
 40
0.0
176
     1
 40
1.0
176
     1
 90
        0
176
     1
 62
    18
420
        0
176
     1
 90
       50
176
     1
 90
        3
176
     1
 62
     5
420
      255
176
     1
290
     0
176
     1
 90
       50
176
     1
 90
       50
176
     1
 90
       50
176
     1
290
     0
176
     1
 90
       50
176
     1
 62
   256
176
     0
 40
1.0
176
     0
 90
        2
176
     1
  1
strokes_ogs.tif
176
     1
290
     0
176
     1
 40
1.0
176
     1
 40
1.0
176
     1
  0
VISUALSTYLE
  5
36
102
{ACAD_REACTORS
330
2A
102
}
330
2A
100
AcDbVisualStyle
  2
Brighten
 70
    12
177
     3
291
     1
 70
    58
 90
        2
176
     1
 90
        2
176
     1
 90
        0
176
     1
 90
        0
176
     1
 40
0.6
176
     1
 40
30.0
176
     1
 62
     7
420
 16777215
176
     1
 90
        1
176
     1
 90
        4
176
     1
 62
     7
176
     1
 62
   257
176
     1
 90
        1
176
     1
 90
        1
176
     1
 40
1.0
176
     1
 90
        8
176
     1
 62
     7
176
     1
 40
1.0
176
     1
 90
        1
176
     1
 90
        6
176
     1
 90
        2
176
     1
 62
     7
176
     1
 90
        5
176
     1
 90
        0
176
     1
 90
        0
176
     1
290
     0
176
     1
 90
        1
176
     1
 40
50.0
176
     1
 90
        0
176
     1
290
     0
176
     1
290
     1
176
     1
290
     1
176
     1
290
     0
176
     1
290
     0
176
     1
290
     0
176
     1
290
     0
176
     1
290
     0
176
     1
290
     0
176
     1
 90
       50
176
     1
 40
0.0
176
     1
 40
1.0
176
     1
 90
        0
176
     1
 62
    18
420
        0
176
     1
 90
       50
176
     1
 90
        3
176
     1
 62
     5
420
      255
176
     1
290
     0
176
     1
 90
       50
176
     1
 90
       50
176
     1
 90
       50
176
     1
290
     0
176
     1
 90
       50
176
     1
 62
   256
176
     0
 40
1.0
176
     0
 90
        2
176
     1
  1
strokes_ogs.tif
176
     1
290
     0
176
     1
 40
1.0
176
     1
 40
1.0
176
     1
  0
VISUALSTYLE
  5
3A
102
{ACAD_REACTORS
330
2A
102
}
330
2A
100
AcDbVisualStyle
  2
ColorChange
 70
    16
177
     3
291
     1
 70
    58
 90
        2
176
     1
 90
        2
176
     1
 90
        3
176
     1
 90
        0
176
     1
 40
0.6
176
     1
 40
30.0
176
     1
 62
     8
420
  8421504
176
     1
 90
        1
176
     1
 90
        4
176
     1
 62
     7
176
     1
 62
   257
176
     1
 90
        1
176
     1
 90
        1
176
     1
 40
1.0
176
     1
 90
        8
176
     1
 62
     8
420
  8421504
176
     1
 40
1.0
176
     1
 90
        1
176
     1
 90
        6
176
     1
 90
        2
176
     1
 62
     7
176
     1
 90
        5
176
     1
 90
        0
176
     1
 90
        0
176
     1
290
     0
176
     1
 90
        1
176
     1
 40
0.0
176
     1
 90
        0
176
     1
290
     0
176
     1
290
     1
176
     1
290
     1
176
     1
290
     0
176
     1
290
     0
176
     1
290
     0
176
     1
290
     0
176
     1
290
     0
176
     1
290
     0
176
     1
 90
       50
176
     1
 40
0.0
176
     1
 40
1.0
176
     1
 90
        0
176
     1
 62
    18
420
        0
176
     1
 90
       50
176
     1
 90
        3
176
     1
 62
     5
420
      255
176
     1
290
     0
176
     1
 90
       50
176
     1
 90
       50
176
     1
 90
       50
176
     1
290
     0
176
     1
 90
       50
176
     1
 62
   256
176
     0
 40
1.0
176
     0
 90
        2
176
     1
  1
strokes_ogs.tif
176
     1
290
     0
176
     1
 40
1.0
176
     1
 40
1.0
176
     1
  0
VISUALSTYLE
  5
34
102
{ACAD_REACTORS
330
2A
102
}
330
2A
100
AcDbVisualStyle
  2
Conceptual
 70
     9
177
     3
291
     0
 70
    58
 90
        3
176
     1
 90
        2
176
     1
 90
        0
176
     1
 90
        0
176
     1
 40
0.6
176
     1
 40
30.0
176
     1
 62
     7
420
 16777215
176
     1
 90
        2
176
     1
 90
        2
176
     1
 62
     7
176
     1
 62
   257
176
     1
 90
        1
176
     1
 90
        1
176
     1
 40
179.0
176
     1
 90
        8
176
     1
 62
     7
176
     1
 40
1.0
176
     1
 90
        1
176
     1
 90
        6
176
     1
 90
        2
176
     1
 62
     7
176
     1
 90
        3
176
     1
 90
        0
176
     1
 90
        0
176
     1
290
     0
176
     1
 90
        1
176
     1
 40
0.0
176
     1
 90
        0
176
     1
290
     0
176
     1
290
     1
176
     1
290
     1
176
     1
290
     0
176
     1
290
     0
176
     1
290
     0
176
     1
290
     0
176
     1
290
     0
176
     1
290
     0
176
     1
 90
       50
176
     1
 40
0.0
176
     1
 40
1.0
176
     1
 90
        0
176
     1
 62
    18
420
        0
176
     1
 90
       50
176
     1
 90
        3
176
     1
 62
     5
420
      255
176
     1
290
     0
176
     1
 90
       50
176
     1
 90
       50
176
     1
 90
       50
176
     1
290
     0
176
     1
 90
       50
176
     1
 62
   256
176
     0
 40
1.0
176
     0
 90
        2
176
     1
  1
strokes_ogs.tif
176
     1
290
     0
176
     1
 40
1.0
176
     1
 40
1.0
176
     1
  0
VISUALSTYLE
  5
35
102
{ACAD_REACTORS
330
2A
102
}
330
2A
100
AcDbVisualStyle
  2
Dim
 70
    11
177
     3
291
     1
 70
    58
 90
        2
176
     1
 90
        2
176
     1
 90
        0
176
     1
 90
        0
176
     1
 40
0.6
176
     1
 40
30.0
176
     1
 62
     7
420
 16777215
176
     1
 90
        1
176
     1
 90
        4
176
     1
 62
     7
176
     1
 62
   257
176
     1
 90
        1
176
     1
 90
        1
176
     1
 40
1.0
176
     1
 90
        8
176
     1
 62
     7
176
     1
 40
1.0
176
     1
 90
        1
176
     1
 90
        6
176
     1
 90
        2
176
     1
 62
     7
176
     1
 90
        5
176
     1
 90
        0
176
     1
 90
        0
176
     1
290
     0
176
     1
 90
        1
176
     1
 40
-50.0
176
     1
 90
        0
176
     1
290
     0
176
     1
290
     1
176
     1
290
     1
176
     1
290
     0
176
     1
290
     0
176
     1
290
     0
176
     1
290
     0
176
     1
290
     0
176
     1
290
     0
176
     1
 90
       50
176
     1
 40
0.0
176
     1
 40
1.0
176
     1
 90
        0
176
     1
 62
    18
420
        0
176
     1
 90
       50
176
     1
 90
        3
176
     1
 62
     5
420
      255
176
     1
290
     0
176
     1
 90
       50
176
     1
 90
       50
176
     1
 90
       50
176
     1
290
     0
176
     1
 90
       50
176
     1
 62
   256
176
     0
 40
1.0
176
     0
 90
        2
176
     1
  1
strokes_ogs.tif
176
     1
290
     0
176
     1
 40
1.0
176
     1
 40
1.0
176
     1
  0
VISUALSTYLE
  5
3D
102
{ACAD_REACTORS
330
2A
102
}
330
2A
100
AcDbVisualStyle
  2
EdgeColorOff
 70
    22
177
     3
291
     1
 70
    58
 90
        2
176
     0
 90
        2
176
     0
 90
        0
176
     0
 90
        0
176
     0
 40
0.6
176
     0
 40
30.0
176
     0
 62
     7
420
 16777215
176
     0
 90
        1
176
     0
 90
        4
176
     0
 62
     7
176
     0
 62
   257
176
     0
 90
        1
176
     0
 90
        1
176
     0
 40
1.0
176
     0
 90
        8
176
     2
 62
     7
176
     0
 40
1.0
176
     0
 90
        1
176
     0
 90
        6
176
     0
 90
        2
176
     0
 62
     7
176
     0
 90
        5
176
     0
 90
        0
176
     0
 90
        0
176
     0
290
     0
176
     0
 90
        1
176
     0
 40
0.0
176
     0
 90
        0
176
     0
290
     0
176
     0
290
     1
176
     0
290
     1
176
     0
290
     0
176
     0
290
     0
176
     0
290
     0
176
     0
290
     0
176
     0
290
     0
176
     0
290
     0
176
     0
 90
       50
176
     0
 40
0.0
176
     0
 40
1.0
176
     0
 90
        0
176
     0
 62
    18
420
        0
176
     0
 90
       50
176
     0
 90
        3
176
     0
 62
     5
420
      255
176
     0
290
     0
176
     0
 90
       50
176
     0
 90
       50
176
     0
 90
       50
176
     0
290
     0
176
     0
 90
       50
176
     0
 62
   256
176
     0
 40
1.0
176
     0
 90
        2
176
     0
  1
strokes_ogs.tif
176
     0
290
     0
176
     0
 40
1.0
176
     0
 40
1.0
176
     0
  0
VISUALSTYLE
  5
39
102
{ACAD_REACTORS
330
2A
102
}
330
2A
100
AcDbVisualStyle
  2
Facepattern
 70
    15
177
     3
291
     1
 70
    58
 90
        2
176
     1
 90
        2
176
     1
 90
        0
176
     1
 90
        0
176
     1
 40
0.6
176
     1
 40
30.0
176
     1
 62
     7
420
 16777215
176
     1
 90
        1
176
     1
 90
        4
176
     1
 62
     7
176
     1
 62
   257
176
     1
 90
        1
176
     1
 90
        1
176
     1
 40
1.0
176
     1
 90
        8
176
     1
 62
     7
176
     1
 40
1.0
176
     1
 90
        1
176
     1
 90
        6
176
     1
 90
        2
176
     1
 62
     7
176
     1
 90
        5
176
     1
 90
        0
176
     1
 90
        0
176
     1
290
     0
176
     1
 90
        1
176
     1
 40
0.0
176
     1
 90
        0
176
     1
290
     0
176
     1
290
     1
176
     1
290
     1
176
     1
290
     0
176
     1
290
     0
176
     1
290
     0
176
     1
290
     0
176
     1
290
     0
176
     1
290
     0
176
     1
 90
       50
176
     1
 40
0.0
176
     1
 40
1.0
176
     1
 90
        0
176
     1
 62
    18
420
        0
176
     1
 90
       50
176
     1
 90
        3
176
     1
 62
     5
420
      255
176
     1
290
     0
176
     1
 90
       50
176
     1
 90
       50
176
     1
 90
       50
176
     1
290
     0
176
     1
 90
       50
176
     1
 62
   256
176
     0
 40
1.0
176
     0
 90
        2
176
     1
  1
strokes_ogs.tif
176
     1
290
     0
176
     1
 40
1.0
176
     1
 40
1.0
176
     1
  0
VISUALSTYLE
  5
2B
102
{ACAD_REACTORS
330
2A
102
}
330
2A
100
AcDbVisualStyle
  2
Flat
 70
     0
177
     3
291
     1
 70
    58
 90
        2
176
     1
 90
        1
176
     1
 90
        1
176
     1
 90
        2
176
     1
 40
0.6
176
     1
 40
30.0
176
     1
 62
     7
420
 16777215
176
     1
 90
        0
176
     1
 90
        0
176
     1
 62
     7
176
     1
 62
   257
176
     1
 90
        1
176
     1
 90
        1
176
     1
 40
1.0
176
     1
 90
        8
176
     1
 62
     7
176
     1
 40
1.0
176
     1
 90
        1
176
     1
 90
        6
176
     1
 90
        2
176
     1
 62
     7
176
     1
 90
        5
176
     1
 90
        0
176
     1
 90
        0
176
     1
290
     0
176
     1
 90
       13
176
     1
 40
0.0
176
     1
 90
        0
176
     1
290
     0
176
     1
290
     1
176
     1
290
     1
176
     1
290
     0
176
     1
290
     0
176
     1
290
     0
176
     1
290
     0
176
     1
290
     0
176
     1
290
     0
176
     1
 90
       50
176
     1
 40
0.0
176
     1
 40
1.0
176
     1
 90
        0
176
     1
 62
    18
420
        0
176
     1
 90
       50
176
     1
 90
        3
176
     1
 62
     5
420
      255
176
     1
290
     0
176
     1
 90
       50
176
     1
 90
       50
176
     1
 90
       50
176
     1
290
     0
176
     1
 90
       50
176
     1
 62
   256
176
     0
 40
1.0
176
     0
 90
        2
176
     1
  1
strokes_ogs.tif
176
     1
290
     0
176
     1
 40
1.0
176
     1
 40
1.0
176
     1
  0
VISUALSTYLE
  5
2C
102
{ACAD_REACTORS
330
2A
102
}
330
2A
100
AcDbVisualStyle
  2
FlatWithEdges
 70
     1
177
     3
291
     1
 70
    58
 90
        2
176
     1
 90
        1
176
     1
 90
        1
176
     1
 90
        2
176
     1
 40
0.6
176
     1
 40
30.0
176
     1
 62
     7
420
 16777215
176
     1
 90
        1
176
     1
 90
        0
176
     1
 62
     7
176
     1
 62
   257
176
     1
 90
        1
176
     1
 90
        1
176
     1
 40
1.0
176
     1
 90
        0
176
     1
 62
   257
176
     1
 40
1.0
176
     1
 90
        1
176
     1
 90
        6
176
     1
 90
        2
176
     1
 62
     7
176
     1
 90
        5
176
     1
 90
        0
176
     1
 90
        0
176
     1
290
     0
176
     1
 90
       13
176
     1
 40
0.0
176
     1
 90
        0
176
     1
290
     0
176
     1
290
     1
176
     1
290
     1
176
     1
290
     0
176
     1
290
     0
176
     1
290
     0
176
     1
290
     0
176
     1
290
     0
176
     1
290
     0
176
     1
 90
       50
176
     1
 40
0.0
176
     1
 40
1.0
176
     1
 90
        0
176
     1
 62
    18
420
        0
176
     1
 90
       50
176
     1
 90
        3
176
     1
 62
     5
420
      255
176
     1
290
     0
176
     1
 90
       50
176
     1
 90
       50
176
     1
 90
       50
176
     1
290
     0
176
     1
 90
       50
176
     1
 62
   256
176
     0
 40
1.0
176
     0
 90
        2
176
     1
  1
strokes_ogs.tif
176
     1
290
     0
176
     1
 40
1.0
176
     1
 40
1.0
176
     1
  0
VISUALSTYLE
  5
2D
102
{ACAD_REACTORS
330
2A
102
}
330
2A
100
AcDbVisualStyle
  2
Gouraud
 70
     2
177
     3
291
     1
 70
    58
 90
        2
176
     1
 90
        2
176
     1
 90
        1
176
     1
 90
        2
176
     1
 40
0.6
176
     1
 40
30.0
176
     1
 62
     7
420
 16777215
176
     1
 90
        0
176
     1
 90
        0
176
     1
 62
     7
176
     1
 62
   257
176
     1
 90
        1
176
     1
 90
        1
176
     1
 40
1.0
176
     1
 90
        0
176
     1
 62
     7
176
     1
 40
1.0
176
     1
 90
        1
176
     1
 90
        6
176
     1
 90
        2
176
     1
 62
     7
176
     1
 90
        5
176
     1
 90
        0
176
     1
 90
        0
176
     1
290
     0
176
     1
 90
       13
176
     1
 40
0.0
176
     1
 90
        0
176
     1
290
     0
176
     1
290
     1
176
     1
290
     1
176
     1
290
     0
176
     1
290
     0
176
     1
290
     0
176
     1
290
     0
176
     1
290
     0
176
     1
290
     0
176
     1
 90
       50
176
     1
 40
0.0
176
     1
 40
1.0
176
     1
 90
        0
176
     1
 62
    18
420
        0
176
     1
 90
       50
176
     1
 90
        3
176
     1
 62
     5
420
      255
176
     1
290
     0
176
     1
 90
       50
176
     1
 90
       50
176
     1
 90
       50
176
     1
290
     0
176
     1
 90
       50
176
     1
 62
   256
176
     0
 40
1.0
176
     0
 90
        2
176
     1
  1
strokes_ogs.tif
176
     1
290
     0
176
     1
 40
1.0
176
     1
 40
1.0
176
     1
  0
VISUALSTYLE
  5
2E
102
{ACAD_REACTORS
330
2A
102
}
330
2A
100
AcDbVisualStyle
  2
GouraudWithEdges
 70
     3
177
     3
291
     1
 70
    58
 90
        2
176
     1
 90
        2
176
     1
 90
        1
176
     1
 90
        2
176
     1
 40
0.6
176
     1
 40
30.0
176
     1
 62
     7
420
 16777215
176
     1
 90
        1
176
     1
 90
        0
176
     1
 62
     7
176
     1
 62
   257
176
     1
 90
        1
176
     1
 90
        1
176
     1
 40
1.0
176
     1
 90
        0
176
     1
 62
   257
176
     1
 40
1.0
176
     1
 90
        1
176
     1
 90
        6
176
     1
 90
        2
176
     1
 62
     7
176
     1
 90
        5
176
     1
 90
        0
176
     1
 90
        0
176
     1
290
     0
176
     1
 90
       13
176
     1
 40
0.0
176
     1
 90
        0
176
     1
290
     0
176
     1
290
     1
176
     1
290
     1
176
     1
290
     0
176
     1
290
     0
176
     1
290
     0
176
     1
290
     0
176
     1
290
     0
176
     1
290
     0
176
     1
 90
       50
176
     1
 40
0.0
176
     1
 40
1.0
176
     1
 90
        0
176
     1
 62
    18
420
        0
176
     1
 90
       50
176
     1
 90
        3
176
     1
 62
     5
420
      255
176
     1
290
     0
176
     1
 90
       50
176
     1
 90
       50
176
     1
 90
       50
176
     1
290
     0
176
     1
 90
       50
176
     1
 62
   256
176
     0
 40
1.0
176
     0
 90
        2
176
     1
  1
strokes_ogs.tif
176
     1
290
     0
176
     1
 40
1.0
176
     1
 40
1.0
176
     1
  0
VISUALSTYLE
  5
31
102
{ACAD_REACTORS
330
2A
102
}
330
2A
100
AcDbVisualStyle
  2
Hidden
 70
     6
177
     3
291
     0
 70
    58
 90
        1
176
     1
 90
        2
176
     1
 90
        2
176
     1
 90
        0
176
     1
 40
0.6
176
     1
 40
30.0
176
     1
 62
     7
420
 16777215
176
     1
 90
        2
176
     1
 90
        2
176
     1
 62
     7
176
     1
 62
   257
176
     1
 90
        2
176
     1
 90
        1
176
     1
 40
40.0
176
     1
 90
        0
176
     1
 62
   257
176
     1
 40
1.0
176
     1
 90
        1
176
     1
 90
        6
176
     1
 90
        2
176
     1
 62
     7
176
     1
 90
        3
176
     1
 90
        0
176
     1
 90
        0
176
     1
290
     0
176
     1
 90
        1
176
     1
 40
0.0
176
     1
 90
        0
176
     1
290
     0
176
     1
290
     1
176
     1
290
     1
176
     1
290
     0
176
     1
290
     0
176
     1
290
     0
176
     1
290
     0
176
     1
290
     0
176
     1
290
     0
176
     1
 90
       50
176
     1
 40
0.0
176
     1
 40
1.0
176
     1
 90
        0
176
     1
 62
    18
420
        0
176
     1
 90
       50
176
     1
 90
        3
176
     1
 62
     5
420
      255
176
     1
290
     0
176
     1
 90
       50
176
     1
 90
       50
176
     1
 90
       50
176
     1
290
     0
176
     1
 90
       50
176
     1
 62
   256
176
     0
 40
1.0
176
     0
 90
        2
176
     1
  1
strokes_ogs.tif
176
     1
290
     0
176
     1
 40
1.0
176
     1
 40
1.0
176
     1
  0
VISUALSTYLE
  5
3B
102
{ACAD_REACTORS
330
2A
102
}
330
2A
100
AcDbVisualStyle
  2
JitterOff
 70
    20
177
     3
291
     1
 70
    58
 90
        2
176
     0
 90
        2
176
     0
 90
        0
176
     0
 90
        0
176
     0
 40
0.6
176
     0
 40
30.0
176
     0
 62
     7
420
 16777215
176
     0
 90
        1
176
     0
 90
        4
176
     0
 62
     7
176
     0
 62
   257
176
     0
 90
        1
176
     0
 90
        1
176
     0
 40
1.0
176
     0
 90
       10
176
     2
 62
     7
176
     0
 40
1.0
176
     0
 90
        1
176
     0
 90
        6
176
     0
 90
        2
176
     0
 62
     7
176
     0
 90
        5
176
     0
 90
        0
176
     0
 90
        0
176
     0
290
     0
176
     0
 90
        1
176
     0
 40
0.0
176
     0
 90
        0
176
     0
290
     0
176
     0
290
     1
176
     0
290
     1
176
     0
290
     0
176
     0
290
     0
176
     0
290
     0
176
     0
290
     0
176
     0
290
     0
176
     0
290
     0
176
     0
 90
       50
176
     0
 40
0.0
176
     0
 40
1.0
176
     0
 90
        0
176
     0
 62
    18
420
        0
176
     0
 90
       50
176
     0
 90
        3
176
     0
 62
     5
420
      255
176
     0
290
     0
176
     0
 90
       50
176
     0
 90
       50
176
     0
 90
       50
176
     0
290
     0
176
     0
 90
       50
176
     0
 62
   256
176
     0
 40
1.0
176
     0
 90
        2
176
     0
  1
strokes_ogs.tif
176
     0
290
     0
176
     0
 40
1.0
176
     0
 40
1.0
176
     0
  0
VISUALSTYLE
  5
38
102
{ACAD_REACTORS
330
2A
102
}
330
2A
100
AcDbVisualStyle
  2
Linepattern
 70
    14
177
     3
291
     1
 70
    58
 90
        2
176
     1
 90
        2
176
     1
 90
        0
176
     1
 90
        0
176
     1
 40
0.6
176
     1
 40
30.0
176
     1
 62
     7
420
 16777215
176
     1
 90
        1
176
     1
 90
        4
176
     1
 62
     7
176
     1
 62
   257
176
     1
 90
        7
176
     1
 90
        7
176
     1
 40
1.0
176
     1
 90
        8
176
     1
 62
     7
176
     1
 40
1.0
176
     1
 90
        1
176
     1
 90
        6
176
     1
 90
        2
176
     1
 62
     7
176
     1
 90
        5
176
     1
 90
        0
176
     1
 90
        0
176
     1
290
     0
176
     1
 90
        1
176
     1
 40
0.0
176
     1
 90
        0
176
     1
290
     0
176
     1
290
     1
176
     1
290
     1
176
     1
290
     0
176
     1
290
     0
176
     1
290
     0
176
     1
290
     0
176
     1
290
     0
176
     1
290
     0
176
     1
 90
       50
176
     1
 40
0.0
176
     1
 40
1.0
176
     1
 90
        0
176
     1
 62
    18
420
        0
176
     1
 90
       50
176
     1
 90
        3
176
     1
 62
     5
420
      255
176
     1
290
     0
176
     1
 90
       50
176
     1
 90
       50
176
     1
 90
       50
176
     1
290
     0
176
     1
 90
       50
176
     1
 62
   256
176
     0
 40
1.0
176
     0
 90
        2
176
     1
  1
strokes_ogs.tif
176
     1
290
     0
176
     1
 40
1.0
176
     1
 40
1.0
176
     1
  0
VISUALSTYLE
  5
3C
102
{ACAD_REACTORS
330
2A
102
}
330
2A
100
AcDbVisualStyle
  2
OverhangOff
 70
    21
177
     3
291
     1
 70
    58
 90
        2
176
     0
 90
        2
176
     0
 90
        0
176
     0
 90
        0
176
     0
 40
0.6
176
     0
 40
30.0
176
     0
 62
     7
420
 16777215
176
     0
 90
        1
176
     0
 90
        4
176
     0
 62
     7
176
     0
 62
   257
176
     0
 90
        1
176
     0
 90
        1
176
     0
 40
1.0
176
     0
 90
        9
176
     2
 62
     7
176
     0
 40
1.0
176
     0
 90
        1
176
     0
 90
        6
176
     0
 90
        2
176
     0
 62
     7
176
     0
 90
        5
176
     0
 90
        0
176
     0
 90
        0
176
     0
290
     0
176
     0
 90
        1
176
     0
 40
0.0
176
     0
 90
        0
176
     0
290
     0
176
     0
290
     1
176
     0
290
     1
176
     0
290
     0
176
     0
290
     0
176
     0
290
     0
176
     0
290
     0
176
     0
290
     0
176
     0
290
     0
176
     0
 90
       50
176
     0
 40
0.0
176
     0
 40
1.0
176
     0
 90
        0
176
     0
 62
    18
420
        0
176
     0
 90
       50
176
     0
 90
        3
176
     0
 62
     5
420
      255
176
     0
290
     0
176
     0
 90
       50
176
     0
 90
       50
176
     0
 90
       50
176
     0
290
     0
176
     0
 90
       50
176
     0
 62
   256
176
     0
 40
1.0
176
     0
 90
        2
176
     0
  1
strokes_ogs.tif
176
     0
290
     0
176
     0
 40
1.0
176
     0
 40
1.0
176
     0
  0
VISUALSTYLE
  5
33
102
{ACAD_REACTORS
330
2A
102
}
330
2A
100
AcDbVisualStyle
  2
Realistic
 70
     8
177
     3
291
     0
 70
    58
 90
        2
176
     1
 90
        3
176
     1
 90
        0
176
     1
 90
        2
176
     1
 40
0.6
176
     1
 40
30.0
176
     1
 62
     7
420
 16777215
176
     1
 90
        0
176
     1
 90
        0
176
     1
 62
     7
176
     1
 62
   257
176
     1
 90
        1
176
     1
 90
        1
176
     1
 40
1.0
176
     1
 90
        8
176
     1
 62
   257
176
     1
 40
1.0
176
     1
 90
        1
176
     1
 90
        6
176
     1
 90
        2
176
     1
 62
     7
176
     1
 90
        3
176
     1
 90
        0
176
     1
 90
        0
176
     1
290
     0
176
     1
 90
       13
176
     1
 40
0.0
176
     1
 90
        0
176
     1
290
     0
176
     1
290
     1
176
     1
290
     1
176
     1
290
     0
176
     1
290
     0
176
     1
290
     0
176
     1
290
     0
176
     1
290
     0
176
     1
290
     0
176
     1
 90
       50
176
     1
 40
0.0
176
     1
 40
1.0
176
     1
 90
        0
176
     1
 62
    18
420
        0
176
     1
 90
       50
176
     1
 90
        3
176
     1
 62
     5
420
      255
176
     1
290
     0
176
     1
 90
       50
176
     1
 90
       50
176
     1
 90
       50
176
     1
290
     0
176
     1
 90
       50
176
     1
 62
   256
176
     0
 40
1.0
176
     0
 90
        2
176
     1
  1
strokes_ogs.tif
176
     1
290
     0
176
     1
 40
1.0
176
     1
 40
1.0
176
     1
  0
VISUALSTYLE
  5
42
102
{ACAD_REACTORS
330
2A
102
}
330
2A
100
AcDbVisualStyle
  2
Shaded
 70
    27
177
     3
291
     0
 70
    58
 90
        2
176
     1
 90
        2
176
     1
 90
        1
176
     1
 90
        2
176
     1
 40
0.6
176
     1
 40
30.0
176
     1
 62
     7
420
 16777215
176
     1
 90
        0
176
     1
 90
        4
176
     1
 62
     7
176
     1
 62
   257
176
     1
 90
        1
176
     1
 90
        1
176
     1
 40
1.0
176
     1
 90
        8
176
     1
 62
   257
176
     1
 40
1.0
176
     1
 90
        1
176
     1
 90
        6
176
     1
 90
        2
176
     1
 62
     8
420
  7895160
176
     1
 90
        3
176
     1
 90
        0
176
     1
 90
        0
176
     1
290
     0
176
     1
 90
        5
176
     1
 40
0.0
176
     1
 90
        0
176
     1
290
     0
176
     1
290
     1
176
     1
290
     1
176
     1
290
     0
176
     1
290
     0
176
     1
290
     0
176
     1
290
     0
176
     1
290
     0
176
     1
290
     0
176
     1
 90
       50
176
     1
 40
0.0
176
     1
 40
1.0
176
     1
 90
        0
176
     1
 62
    18
420
        0
176
     1
 90
       50
176
     1
 90
        3
176
     1
 62
     5
420
      255
176
     1
290
     0
176
     1
 90
       50
176
     1
 90
       50
176
     1
 90
       50
176
     1
290
     0
176
     1
 90
       50
176
     1
 62
   256
176
     0
 40
1.0
176
     0
 90
        2
176
     1
  1
strokes_ogs.tif
176
     1
290
     0
176
     1
 40
1.0
176
     1
 40
1.0
176
     1
  0
VISUALSTYLE
  5
41
102
{ACAD_REACTORS
330
2A
102
}
330
2A
100
AcDbVisualStyle
  2
Shaded with edges
 70
    26
177
     3
291
     0
 70
    58
 90
        2
176
     1
 90
        2
176
     1
 90
        1
176
     1
 90
        2
176
     1
 40
0.6
176
     1
 40
30.0
176
     1
 62
     7
420
 16777215
176
     1
 90
        1
176
     1
 90
       10
176
     1
 62
     7
176
     1
 62
   257
176
     1
 90
        2
176
     1
 90
        1
176
     1
 40
1.0
176
     1
 90
        8
176
     1
 62
   257
176
     1
 40
1.0
176
     1
 90
        1
176
     1
 90
        6
176
     1
 90
        2
176
     1
 62
     7
176
     1
 90
        3
176
     1
 90
        0
176
     1
 90
        0
176
     1
290
     0
176
     1
 90
        5
176
     1
 40
0.0
176
     1
 90
        0
176
     1
290
     0
176
     1
290
     1
176
     1
290
     1
176
     1
290
     0
176
     1
290
     0
176
     1
290
     0
176
     1
290
     0
176
     1
290
     0
176
     1
290
     0
176
     1
 90
       50
176
     1
 40
0.0
176
     1
 40
1.0
176
     1
 90
        0
176
     1
 62
    18
420
        0
176
     1
 90
       50
176
     1
 90
        3
176
     1
 62
     5
420
      255
176
     1
290
     0
176
     1
 90
       50
176
     1
 90
       50
176
     1
 90
       50
176
     1
290
     0
176
     1
 90
       50
176
     1
 62
   256
176
     0
 40
1.0
176
     0
 90
        2
176
     1
  1
strokes_ogs.tif
176
     1
290
     0
176
     1
 40
1.0
176
     1
 40
1.0
176
     1
  0
VISUALSTYLE
  5
3E
102
{ACAD_REACTORS
330
2A
102
}
330
2A
100
AcDbVisualStyle
  2
Shades of Gray
 70
    23
177
     3
291
     0
 70
    58
 90
        2
176
     1
 90
        2
176
     1
 90
        3
176
     1
 90
        0
176
     1
 40
0.6
176
     1
 40
30.0
176
     1
 62
     7
420
 16777215
176
     1
 90
        2
176
     1
 90
        2
176
     1
 62
     7
176
     1
 62
     7
176
     1
 90
        1
176
     1
 90
        1
176
     1
 40
40.0
176
     1
 90
        8
176
     1
 62
     7
176
     1
 40
1.0
176
     1
 90
        1
176
     1
 90
        6
176
     1
 90
        2
176
     1
 62
     7
176
     1
 90
        3
176
     1
 90
        0
176
     1
 90
        0
176
     1
290
     0
176
     1
 90
        1
176
     1
 40
0.0
176
     1
 90
        0
176
     1
290
     0
176
     1
290
     1
176
     1
290
     1
176
     1
290
     0
176
     1
290
     0
176
     1
290
     0
176
     1
290
     0
176
     1
290
     0
176
     1
290
     0
176
     1
 90
       50
176
     1
 40
0.0
176
     1
 40
1.0
176
     1
 90
        0
176
     1
 62
    18
420
        0
176
     1
 90
       50
176
     1
 90
        3
176
     1
 62
     5
420
      255
176
     1
290
     0
176
     1
 90
       50
176
     1
 90
       50
176
     1
 90
       50
176
     1
290
     0
176
     1
 90
       50
176
     1
 62
   256
176
     0
 40
1.0
176
     0
 90
        2
176
     1
  1
strokes_ogs.tif
176
     1
290
     0
176
     1
 40
1.0
176
     1
 40
1.0
176
     1
  0
VISUALSTYLE
  5
3F
102
{ACAD_REACTORS
330
2A
102
}
330
2A
100
AcDbVisualStyle
  2
Sketchy
 70
    24
177
     3
291
     0
 70
    58
 90
        1
176
     1
 90
        2
176
     1
 90
        2
176
     1
 90
        0
176
     1
 40
0.6
176
     1
 40
30.0
176
     1
 62
     7
420
 16777215
176
     1
 90
        2
176
     1
 90
        2
176
     1
 62
     7
176
     1
 62
     7
176
     1
 90
        1
176
     1
 90
        1
176
     1
 40
40.0
176
     1
 90
       11
176
     1
 62
     7
176
     1
 40
1.0
176
     1
 90
        1
176
     1
 90
        6
176
     1
 90
        2
176
     1
 62
     7
176
     1
 90
        6
176
     1
 90
        0
176
     1
 90
        0
176
     1
290
     0
176
     1
 90
        1
176
     1
 40
0.0
176
     1
 90
        0
176
     1
290
     0
176
     1
290
     1
176
     1
290
     1
176
     1
290
     0
176
     1
290
     0
176
     1
290
     0
176
     1
290
     0
176
     1
290
     0
176
     1
290
     0
176
     1
 90
       50
176
     1
 40
0.0
176
     1
 40
1.0
176
     1
 90
        0
176
     1
 62
    18
420
        0
176
     1
 90
       50
176
     1
 90
        3
176
     1
 62
     5
420
      255
176
     1
290
     0
176
     1
 90
       50
176
     1
 90
       50
176
     1
 90
       50
176
     1
290
     0
176
     1
 90
       50
176
     1
 62
   256
176
     0
 40
1.0
176
     0
 90
        2
176
     1
  1
strokes_ogs.tif
176
     1
290
     0
176
     1
 40
1.0
176
     1
 40
1.0
176
     1
  0
VISUALSTYLE
  5
37
102
{ACAD_REACTORS
330
2A
102
}
330
2A
100
AcDbVisualStyle
  2
Thicken
 70
    13
177
     3
291
     1
 70
    58
 90
        2
176
     1
 90
        2
176
     1
 90
        0
176
     1
 90
        0
176
     1
 40
0.6
176
     1
 40
30.0
176
     1
 62
     7
420
 16777215
176
     1
 90
        1
176
     1
 90
        4
176
     1
 62
     7
176
     1
 62
   257
176
     1
 90
        1
176
     1
 90
        1
176
     1
 40
1.0
176
     1
 90
       12
176
     1
 62
     7
176
     1
 40
1.0
176
     1
 90
        1
176
     1
 90
        6
176
     1
 90
        2
176
     1
 62
     7
176
     1
 90
        5
176
     1
 90
        0
176
     1
 90
        0
176
     1
290
     0
176
     1
 90
        1
176
     1
 40
0.0
176
     1
 90
        0
176
     1
290
     0
176
     1
290
     1
176
     1
290
     1
176
     1
290
     0
176
     1
290
     0
176
     1
290
     0
176
     1
290
     0
176
     1
290
     0
176
     1
290
     0
176
     1
 90
       50
176
     1
 40
0.0
176
     1
 40
1.0
176
     1
 90
        0
176
     1
 62
    18
420
        0
176
     1
 90
       50
176
     1
 90
        3
176
     1
 62
     5
420
      255
176
     1
290
     0
176
     1
 90
       50
176
     1
 90
       50
176
     1
 90
       50
176
     1
290
     0
176
     1
 90
       50
176
     1
 62
   256
176
     0
 40
1.0
176
     0
 90
        2
176
     1
  1
strokes_ogs.tif
176
     1
290
     0
176
     1
 40
1.0
176
     1
 40
1.0
176
     1
  0
VISUALSTYLE
  5
30
102
{ACAD_REACTORS
330
2A
102
}
330
2A
100
AcDbVisualStyle
  2
Wireframe
 70
     5
177
     3
291
     0
 70
    58
 90
        0
176
     1
 90
        2
176
     1
 90
        0
176
     1
 90
        0
176
     1
 40
0.6
176
     1
 40
30.0
176
     1
 62
     7
420
 16777215
176
     1
 90
        1
176
     1
 90
        4
176
     1
 62
     7
176
     1
 62
   257
176
     1
 90
        1
176
     1
 90
        1
176
     1
 40
1.0
176
     1
 90
        0
176
     1
 62
   257
176
     1
 40
1.0
176
     1
 90
        1
176
     1
 90
        6
176
     1
 90
        2
176
     1
 62
     7
176
     1
 90
        3
176
     1
 90
        0
176
     1
 90
        0
176
     1
290
     0
176
     1
 90
        1
176
     1
 40
0.0
176
     1
 90
        0
176
     1
290
     0
176
     1
290
     1
176
     1
290
     1
176
     1
290
     0
176
     1
290
     0
176
     1
290
     0
176
     1
290
     0
176
     1
290
     0
176
     1
290
     0
176
     1
 90
       50
176
     1
 40
0.0
176
     1
 40
1.0
176
     1
 90
        0
176
     1
 62
    18
420
        0
176
     1
 90
       50
176
     1
 90
        3
176
     1
 62
     5
420
      255
176
     1
290
     0
176
     1
 90
       50
176
     1
 90
       50
176
     1
 90
       50
176
     1
290
     0
176
     1
 90
       50
176
     1
 62
   256
176
     0
 40
1.0
176
     0
 90
        2
176
     1
  1
strokes_ogs.tif
176
     1
290
     0
176
     1
 40
1.0
176
     1
 40
1.0
176
     1
  0
VISUALSTYLE
  5
40
102
{ACAD_REACTORS
330
2A
102
}
330
2A
100
AcDbVisualStyle
  2
X-Ray
 70
    25
177
     3
291
     0
 70
    58
 90
        2
176
     1
 90
        2
176
     1
 90
        1
176
     1
 90
        1
176
     1
 40
0.5
176
     1
 40
30.0
176
     1
 62
     7
420
 16777215
176
     1
 90
        1
176
     1
 90
        0
176
     1
 62
     7
176
     1
 62
   257
176
     1
 90
        1
176
     1
 90
        1
176
     1
 40
1.0
176
     1
 90
        8
176
     1
 62
     7
176
     1
 40
1.0
176
     1
 90
        1
176
     1
 90
        6
176
     1
 90
        2
176
     1
 62
     7
176
     1
 90
        3
176
     1
 90
        0
176
     1
 90
        0
176
     1
290
     0
176
     1
 90
       13
176
     1
 40
0.0
176
     1
 90
        0
176
     1
290
     0
176
     1
290
     1
176
     1
290
     1
176
     1
290
     0
176
     1
290
     0
176
     1
290
     0
176
     1
290
     0
176
     1
290
     0
176
     1
290
     0
176
     1
 90
       50
176
     1
 40
0.0
176
     1
 40
1.0
176
     1
 90
        0
176
     1
 62
    18
420
        0
176
     1
 90
       50
176
     1
 90
        3
176
     1
 62
     5
420
      255
176
     1
290
     0
176
     1
 90
       50
176
     1
 90
       50
176
     1
 90
       50
176
     1
290
     0
176
     1
 90
       50
176
     1
 62
   256
176
     0
 40
1.0
176
     0
 90
        2
176
     1
  1
strokes_ogs.tif
176
     1
290
     0
176
     1
 40
1.0
176
     1
 40
1.0
176
     1
  0
DICTIONARYVAR
  5
231
102
{ACAD_REACTORS
330
230
102
}
330
230
100
DictionaryVariables
280
     0
  1
1:1
  0
DICTIONARYVAR
  5
236
102
{ACAD_REACTORS
330
230
102
}
330
230
100
DictionaryVariables
280
     0
  1
Standard
  0
DICTIONARYVAR
  5
235
102
{ACAD_REACTORS
330
230
102
}
330
230
100
DictionaryVariables
280
     0
  1
Standard
  0
DICTIONARY
  5
232
330
6A
100
AcDbDictionary
280
     1
281
     1
  3
ACAD_ROUNDTRIP_2008_TABLESTYLE_CELLSTYLEMAP
360
233
  0
CELLSTYLEMAP
  5
233
102
{ACAD_REACTORS
330
232
102
}
330
232
100
AcDbCellStyleMap
 90
        3
300
CELLSTYLE
  1
TABLEFORMAT_BEGIN
 90
        5
170
     1
 91
        0
 92
    32768
 62
   257
 93
        1
300
CONTENTFORMAT
  1
CONTENTFORMAT_BEGIN
 90
        0
 91
        0
 92
        4
 93
        0
300

 40
0.0
140
1.0
 94
        5
 62
     0
340
11
144
0.25
309
CONTENTFORMAT_END
171
     1
301
MARGIN
  1
CELLMARGIN_BEGIN
 40
0.06
 40
0.06
 40
0.06
 40
0.06
 40
0.06
 40
0.06
309
CELLMARGIN_END
 94
        6
 95
        1
302
GRIDFORMAT
  1
GRIDFORMAT_BEGIN
 90
        0
 91
        1
 62
     0
 92
       -2
340
14
 93
        0
 40
0.045
309
GRIDFORMAT_END
 95
        2
302
GRIDFORMAT
  1
GRIDFORMAT_BEGIN
 90
        0
 91
        1
 62
     0
 92
       -2
340
14
 93
        0
 40
0.045
309
GRIDFORMAT_END
 95
        4
302
GRIDFORMAT
  1
GRIDFORMAT_BEGIN
 90
        0
 91
        1
 62
     0
 92
       -2
340
14
 93
        0
 40
0.045
309
GRIDFORMAT_END
 95
        8
302
GRIDFORMAT
  1
GRIDFORMAT_BEGIN
 90
        0
 91
        1
 62
     0
 92
       -2
340
14
 93
        0
 40
0.045
309
GRIDFORMAT_END
 95
       16
302
GRIDFORMAT
  1
GRIDFORMAT_BEGIN
 90
        0
 91
        1
 62
     0
 92
       -2
340
14
 93
        0
 40
0.045
309
GRIDFORMAT_END
 95
       32
302
GRIDFORMAT
  1
GRIDFORMAT_BEGIN
 90
        0
 91
        1
 62
     0
 92
       -2
340
14
 93
        0
 40
0.045
309
GRIDFORMAT_END
309
TABLEFORMAT_END
  1
CELLSTYLE_BEGIN
 90
        1
 91
        1
300
_TITLE
309
CELLSTYLE_END
300
CELLSTYLE
  1
TABLEFORMAT_BEGIN
 90
        5
170
     1
 91
        0
 92
        0
 62
   257
 93
        1
300
CONTENTFORMAT
  1
CONTENTFORMAT_BEGIN
 90
        0
 91
        0
 92
        4
 93
        0
300

 40
0.0
140
1.0
 94
        5
 62
     0
340
11
144
0.18
309
CONTENTFORMAT_END
171
     1
301
MARGIN
  1
CELLMARGIN_BEGIN
 40
0.06
 40
0.06
 40
0.06
 40
0.06
 40
0.06
 40
0.06
309
CELLMARGIN_END
 94
        6
 95
        1
302
GRIDFORMAT
  1
GRIDFORMAT_BEGIN
 90
        0
 91
        1
 62
     0
 92
       -2
340
14
 93
        0
 40
0.045
309
GRIDFORMAT_END
 95
        2
302
GRIDFORMAT
  1
GRIDFORMAT_BEGIN
 90
        0
 91
        1
 62
     0
 92
       -2
340
14
 93
        0
 40
0.045
309
GRIDFORMAT_END
 95
        4
302
GRIDFORMAT
  1
GRIDFORMAT_BEGIN
 90
        0
 91
        1
 62
     0
 92
       -2
340
14
 93
        0
 40
0.045
309
GRIDFORMAT_END
 95
        8
302
GRIDFORMAT
  1
GRIDFORMAT_BEGIN
 90
        0
 91
        1
 62
     0
 92
       -2
340
14
 93
        0
 40
0.045
309
GRIDFORMAT_END
 95
       16
302
GRIDFORMAT
  1
GRIDFORMAT_BEGIN
 90
        0
 91
        1
 62
     0
 92
       -2
340
14
 93
        0
 40
0.045
309
GRIDFORMAT_END
 95
       32
302
GRIDFORMAT
  1
GRIDFORMAT_BEGIN
 90
        0
 91
        1
 62
     0
 92
       -2
340
14
 93
        0
 40
0.045
309
GRIDFORMAT_END
309
TABLEFORMAT_END
  1
CELLSTYLE_BEGIN
 90
        2
 91
        1
300
_HEADER
309
CELLSTYLE_END
300
CELLSTYLE
  1
TABLEFORMAT_BEGIN
 90
        5
170
     1
 91
        0
 92
        0
 62
   257
 93
        1
300
CONTENTFORMAT
  1
CONTENTFORMAT_BEGIN
 90
        0
 91
        0
 92
        4
 93
        0
300

 40
0.0
140
1.0
 94
        2
 62
     0
340
11
144
0.18
309
CONTENTFORMAT_END
171
     1
301
MARGIN
  1
CELLMARGIN_BEGIN
 40
0.06
 40
0.06
 40
0.06
 40
0.06
 40
0.06
 40
0.06
309
CELLMARGIN_END
 94
        6
 95
        1
302
GRIDFORMAT
  1
GRIDFORMAT_BEGIN
 90
        0
 91
        1
 62
     0
 92
       -2
340
14
 93
        0
 40
0.045
309
GRIDFORMAT_END
 95
        2
302
GRIDFORMAT
  1
GRIDFORMAT_BEGIN
 90
        0
 91
        1
 62
     0
 92
       -2
340
14
 93
        0
 40
0.045
309
GRIDFORMAT_END
 95
        4
302
GRIDFORMAT
  1
GRIDFORMAT_BEGIN
 90
        0
 91
        1
 62
     0
 92
       -2
340
14
 93
        0
 40
0.045
309
GRIDFORMAT_END
 95
        8
302
GRIDFORMAT
  1
GRIDFORMAT_BEGIN
 90
        0
 91
        1
 62
     0
 92
       -2
340
14
 93
        0
 40
0.045
309
GRIDFORMAT_END
 95
       16
302
GRIDFORMAT
  1
GRIDFORMAT_BEGIN
 90
        0
 91
        1
 62
     0
 92
       -2
340
14
 93
        0
 40
0.045
309
GRIDFORMAT_END
 95
       32
302
GRIDFORMAT
  1
GRIDFORMAT_BEGIN
 90
        0
 91
        1
 62
     0
 92
       -2
340
14
 93
        0
 40
0.045
309
GRIDFORMAT_END
309
TABLEFORMAT_END
  1
CELLSTYLE_BEGIN
 90
        3
 91
        2
300
_DATA
309
CELLSTYLE_END
  0
ENDSEC
  0
EOF