0
SECTION
  2
HEADER
  9
$ACADVER
  1
AC1027
  9
$ACADMAINTVER
 70
     8
  9
$DWGCODEPAGE
  3
ANSI_1252
  9
$REQUIREDVERSIONS
160
                 0
  9
$COMMENTS
  1
File was created by Cadenas
  9
$CUSTOMPROPERTYTAG
  1
NN
  9
$CUSTOMPROPERTY
  1
Type K Pillow Block 2&4-Bolt Base Non-Expansion Inch Bore
  9
$CUSTOMPROPERTYTAG
  1
NT
  9
$CUSTOMPROPERTY
  1
Type K
  9
$CUSTOMPROPERTYTAG
  1
NB
  9
$CUSTOMPROPERTY
  1
023188
  9
$CUSTOMPROPERTYTAG
  1
NBSYN
  9
$CUSTOMPROPERTY
  1
$PN.
  9
$CUSTOMPROPERTYTAG
  1
LINA
  9
$CUSTOMPROPERTY
  1
023188
  9
$CUSTOMPROPERTYTAG
  1
SS
  9
$CUSTOMPROPERTY
  1
3-15/16
  9
$CUSTOMPROPERTYTAG
  1
PN
  9
$CUSTOMPROPERTY
  1
023188
  9
$CUSTOMPROPERTYTAG
  1
PNA
  9
$CUSTOMPROPERTY
  1
P2B-K-315R
  9
$CUSTOMPROPERTYTAG
  1
WEIGHT
  9
$CUSTOMPROPERTY
  1
106
  9
$CUSTOMPROPERTYTAG
  1
A
  9
$CUSTOMPROPERTY
  1
5.41
  9
$CUSTOMPROPERTYTAG
  1
B
  9
$CUSTOMPROPERTY
  1
17.44
  9
$CUSTOMPROPERTYTAG
  1
C
  9
$CUSTOMPROPERTY
  1
4.75
  9
$CUSTOMPROPERTYTAG
  1
DMIN
  9
$CUSTOMPROPERTY
  1
13.12
  9
$CUSTOMPROPERTYTAG
  1
DMAX
  9
$CUSTOMPROPERTY
  1
14.75
  9
$CUSTOMPROPERTYTAG
  1
E
  9
$CUSTOMPROPERTY
  1
2
  9
$CUSTOMPROPERTYTAG
  1
F
  9
$CUSTOMPROPERTY
  1
3/4
  9
$CUSTOMPROPERTYTAG
  1
G
  9
$CUSTOMPROPERTY
  1
1.70
  9
$CUSTOMPROPERTYTAG
  1
H
  9
$CUSTOMPROPERTY
  1
2.75
  9
$CUSTOMPROPERTYTAG
  1
J
  9
$CUSTOMPROPERTY
  1
10.42
  9
$CUSTOMPROPERTYTAG
  1
L
  9
$CUSTOMPROPERTY
  1
6.00
  9
$CUSTOMPROPERTYTAG
  1
M
  9
$CUSTOMPROPERTY
  1
5.00
  9
$CUSTOMPROPERTYTAG
  1
P
  9
$CUSTOMPROPERTY
  1
10.71
  9
$CUSTOMPROPERTYTAG
  1
R
  9
$CUSTOMPROPERTY
  1
2.13
  9
$CUSTOMPROPERTYTAG
  1
S
  9
$CUSTOMPROPERTY
  1
3.13
  9
$CUSTOMPROPERTYTAG
  1
T
  9
$CUSTOMPROPERTY
  1
.34
  9
$CUSTOMPROPERTYTAG
  1
CS
  9
$CUSTOMPROPERTY
  1
154000
  9
$CUSTOMPROPERTYTAG
  1
CD
  9
$CUSTOMPROPERTY
  1
21000
  9
$CUSTOMPROPERTYTAG
  1
RN
  9
$CUSTOMPROPERTY
  1
26
  9
$CUSTOMPROPERTYTAG
  1
RM
  9
$CUSTOMPROPERTY
  1
.51
  9
$CUSTOMPROPERTYTAG
  1
PDI
  9
$CUSTOMPROPERTY
  1
5.12
  9
$CUSTOMPROPERTYTAG
  1
EP
  9
$CUSTOMPROPERTY
  1
.008-.012
  9
$CUSTOMPROPERTYTAG
  1
CSS
  9
$CUSTOMPROPERTY
  1
5/8-11*1
  9
$CUSTOMPROPERTYTAG
  1
CST
  9
$CUSTOMPROPERTY
  1
1325
  9
$CUSTOMPROPERTYTAG
  1
MH
  9
$CUSTOMPROPERTY
  1
C.I. ASTM A48 CLASS 30
  9
$CUSTOMPROPERTYTAG
  1
MC
  9
$CUSTOMPROPERTY
  1
4118 CASE CARB.
  9
$CUSTOMPROPERTYTAG
  1
MCU
  9
$CUSTOMPROPERTY
  1
4118 CASE CARB.
  9
$CUSTOMPROPERTYTAG
  1
MR
  9
$CUSTOMPROPERTY
  1
STEEL
  9
$CUSTOMPROPERTYTAG
  1
MRO
  9
$CUSTOMPROPERTY
  1
4118 CASE CARB.
  9
$CUSTOMPROPERTYTAG
  1
SM
  9
$CUSTOMPROPERTY
  1
3.55*
  9
$CUSTOMPROPERTYTAG
  1
COMPANY
  9
$CUSTOMPROPERTY
  1
baldor
  9
$INSBASE
 10
0.0
 20
0.0
 30
0.0
  9
$EXTMIN
 10
1.000000000000000E+20
 20
1.000000000000000E+20
 30
1.000000000000000E+20
  9
$EXTMAX
 10
-1.000000000000000E+20
 20
-1.000000000000000E+20
 30
-1.000000000000000E+20
  9
$LIMMIN
 10
0.0
 20
0.0
  9
$LIMMAX
 10
12.0
 20
9.0
  9
$ORTHOMODE
 70
     0
  9
$REGENMODE
 70
     1
  9
$FILLMODE
 70
     1
  9
$QTEXTMODE
 70
     0
  9
$MIRRTEXT
 70
     1
  9
$LTSCALE
 40
1.0
  9
$ATTMODE
 70
     1
  9
$TEXTSIZE
 40
0.2
  9
$TRACEWID
 40
0.05
  9
$TEXTSTYLE
  7
Standard
  9
$CLAYER
  8
0
  9
$CELTYPE
  6
ByLayer
  9
$CECOLOR
 62
   256
  9
$CELTSCALE
 40
1.0
  9
$DISPSILH
 70
     0
  9
$DIMSCALE
 40
1.0
  9
$DIMASZ
 40
0.18
  9
$DIMEXO
 40
0.0625
  9
$DIMDLI
 40
0.38
  9
$DIMRND
 40
0.0
  9
$DIMDLE
 40
0.0
  9
$DIMEXE
 40
0.18
  9
$DIMTP
 40
0.0
  9
$DIMTM
 40
0.0
  9
$DIMTXT
 40
0.18
  9
$DIMCEN
 40
0.09
  9
$DIMTSZ
 40
0.0
  9
$DIMTOL
 70
     0
  9
$DIMLIM
 70
     0
  9
$DIMTIH
 70
     1
  9
$DIMTOH
 70
     1
  9
$DIMSE1
 70
     0
  9
$DIMSE2
 70
     0
  9
$DIMTAD
 70
     0
  9
$DIMZIN
 70
     0
  9
$DIMBLK
  1

  9
$DIMASO
 70
     1
  9
$DIMSHO
 70
     1
  9
$DIMPOST
  1

  9
$DIMAPOST
  1

  9
$DIMALT
 70
     0
  9
$DIMALTD
 70
     2
  9
$DIMALTF
 40
25.4
  9
$DIMLFAC
 40
1.0
  9
$DIMTOFL
 70
     0
  9
$DIMTVP
 40
0.0
  9
$DIMTIX
 70
     0
  9
$DIMSOXD
 70
     0
  9
$DIMSAH
 70
     0
  9
$DIMBLK1
  1

  9
$DIMBLK2
  1

  9
$DIMSTYLE
  2
Standard
  9
$DIMCLRD
 70
     0
  9
$DIMCLRE
 70
     0
  9
$DIMCLRT
 70
     0
  9
$DIMTFAC
 40
1.0
  9
$DIMGAP
 40
0.09
  9
$DIMJUST
 70
     0
  9
$DIMSD1
 70
     0
  9
$DIMSD2
 70
     0
  9
$DIMTOLJ
 70
     1
  9
$DIMTZIN
 70
     0
  9
$DIMALTZ
 70
     0
  9
$DIMALTTZ
 70
     0
  9
$DIMUPT
 70
     0
  9
$DIMDEC
 70
     4
  9
$DIMTDEC
 70
     4
  9
$DIMALTU
 70
     2
  9
$DIMALTTD
 70
     2
  9
$DIMTXSTY
  7
Standard
  9
$DIMAUNIT
 70
     0
  9
$DIMADEC
 70
     0
  9
$DIMALTRND
 40
0.0
  9
$DIMAZIN
 70
     0
  9
$DIMDSEP
 70
    46
  9
$DIMATFIT
 70
     3
  9
$DIMFRAC
 70
     0
  9
$DIMLDRBLK
  1

  9
$DIMLUNIT
 70
     2
  9
$DIMLWD
 70
    -2
  9
$DIMLWE
 70
    -2
  9
$DIMTMOVE
 70
     0
  9
$DIMFXL
 40
1.0
  9
$DIMFXLON
 70
     0
  9
$DIMJOGANG
 40
0.7853981633974483
  9
$DIMTFILL
 70
     0
  9
$DIMTFILLCLR
 70
     0
  9
$DIMARCSYM
 70
     0
  9
$DIMLTYPE
  6

  9
$DIMLTEX1
  6

  9
$DIMLTEX2
  6

  9
$DIMTXTDIRECTION
 70
     0
  9
$LUNITS
 70
     2
  9
$LUPREC
 70
     4
  9
$SKETCHINC
 40
0.1
  9
$FILLETRAD
 40
0.5
  9
$AUNITS
 70
     0
  9
$AUPREC
 70
     0
  9
$MENU
  1
.
  9
$ELEVATION
 40
0.0
  9
$PELEVATION
 40
0.0
  9
$THICKNESS
 40
0.0
  9
$LIMCHECK
 70
     0
  9
$CHAMFERA
 40
0.0
  9
$CHAMFERB
 40
0.0
  9
$CHAMFERC
 40
0.0
  9
$CHAMFERD
 40
0.0
  9
$SKPOLY
 70
     0
  9
$TDCREATE
 40
2458168.97822772
  9
$TDUCREATE
 40
2458168.936561053
  9
$TDUPDATE
 40
2458168.978227905
  9
$TDUUPDATE
 40
2458168.936561238
  9
$TDINDWG
 40
0.0000000116
  9
$TDUSRTIMER
 40
0.0000000116
  9
$USRTIMER
 70
     1
  9
$ANGBASE
 50
0.0
  9
$ANGDIR
 70
     0
  9
$PDMODE
 70
     0
  9
$PDSIZE
 40
0.0
  9
$PLINEWID
 40
0.0
  9
$SPLFRAME
 70
     0
  9
$SPLINETYPE
 70
     6
  9
$SPLINESEGS
 70
     8
  9
$HANDSEED
  5
272
  9
$SURFTAB1
 70
     6
  9
$SURFTAB2
 70
     6
  9
$SURFTYPE
 70
     6
  9
$SURFU
 70
     6
  9
$SURFV
 70
     6
  9
$UCSBASE
  2

  9
$UCSNAME
  2

  9
$UCSORG
 10
0.0
 20
0.0
 30
0.0
  9
$UCSXDIR
 10
1.0
 20
0.0
 30
0.0
  9
$UCSYDIR
 10
0.0
 20
1.0
 30
0.0
  9
$UCSORTHOREF
  2

  9
$UCSORTHOVIEW
 70
     0
  9
$UCSORGTOP
 10
0.0
 20
0.0
 30
0.0
  9
$UCSORGBOTTOM
 10
0.0
 20
0.0
 30
0.0
  9
$UCSORGLEFT
 10
0.0
 20
0.0
 30
0.0
  9
$UCSORGRIGHT
 10
0.0
 20
0.0
 30
0.0
  9
$UCSORGFRONT
 10
0.0
 20
0.0
 30
0.0
  9
$UCSORGBACK
 10
0.0
 20
0.0
 30
0.0
  9
$PUCSBASE
  2

  9
$PUCSNAME
  2

  9
$PUCSORG
 10
0.0
 20
0.0
 30
0.0
  9
$PUCSXDIR
 10
1.0
 20
0.0
 30
0.0
  9
$PUCSYDIR
 10
0.0
 20
1.0
 30
0.0
  9
$PUCSORTHOREF
  2

  9
$PUCSORTHOVIEW
 70
     0
  9
$PUCSORGTOP
 10
0.0
 20
0.0
 30
0.0
  9
$PUCSORGBOTTOM
 10
0.0
 20
0.0
 30
0.0
  9
$PUCSORGLEFT
 10
0.0
 20
0.0
 30
0.0
  9
$PUCSORGRIGHT
 10
0.0
 20
0.0
 30
0.0
  9
$PUCSORGFRONT
 10
0.0
 20
0.0
 30
0.0
  9
$PUCSORGBACK
 10
0.0
 20
0.0
 30
0.0
  9
$USERI1
 70
     0
  9
$USERI2
 70
     0
  9
$USERI3
 70
     0
  9
$USERI4
 70
     0
  9
$USERI5
 70
     0
  9
$USERR1
 40
0.0
  9
$USERR2
 40
0.0
  9
$USERR3
 40
0.0
  9
$USERR4
 40
0.0
  9
$USERR5
 40
0.0
  9
$WORLDVIEW
 70
     1
  9
$SHADEDGE
 70
     3
  9
$SHADEDIF
 70
    70
  9
$TILEMODE
 70
     1
  9
$MAXACTVP
 70
    64
  9
$PINSBASE
 10
0.0
 20
0.0
 30
0.0
  9
$PLIMCHECK
 70
     0
  9
$PEXTMIN
 10
1.000000000000000E+20
 20
1.000000000000000E+20
 30
1.000000000000000E+20
  9
$PEXTMAX
 10
-1.000000000000000E+20
 20
-1.000000000000000E+20
 30
-1.000000000000000E+20
  9
$PLIMMIN
 10
0.0
 20
0.0
  9
$PLIMMAX
 10
12.0
 20
9.0
  9
$UNITMODE
 70
     0
  9
$VISRETAIN
 70
     1
  9
$PLINEGEN
 70
     0
  9
$PSLTSCALE
 70
     1
  9
$TREEDEPTH
 70
  3020
  9
$CMLSTYLE
  2
Standard
  9
$CMLJUST
 70
     0
  9
$CMLSCALE
 40
1.0
  9
$PROXYGRAPHICS
 70
     1
  9
$MEASUREMENT
 70
     0
  9
$CELWEIGHT
370
    -1
  9
$ENDCAPS
280
     0
  9
$JOINSTYLE
280
     0
  9
$LWDISPLAY
290
     0
  9
$INSUNITS
 70
     1
  9
$HYPERLINKBASE
  1

  9
$STYLESHEET
  1

  9
$XEDIT
290
     1
  9
$CEPSNTYPE
380
     0
  9
$PSTYLEMODE
290
     1
  9
$FINGERPRINTGUID
  2
{15F5E975-28F4-4838-8217-71602162E394}
  9
$VERSIONGUID
  2
{FAEB1C32-E019-11D5-929B-00C0DF256EC4}
  9
$EXTNAMES
290
     1
  9
$PSVPSCALE
 40
0.0
  9
$OLESTARTUP
290
     0
  9
$SORTENTS
280
   127
  9
$INDEXCTL
280
     0
  9
$HIDETEXT
280
     1
  9
$XCLIPFRAME
280
     2
  9
$HALOGAP
280
     0
  9
$OBSCOLOR
 70
   257
  9
$OBSLTYPE
280
     0
  9
$INTERSECTIONDISPLAY
280
     0
  9
$INTERSECTIONCOLOR
 70
   257
  9
$DIMASSOC
280
     2
  9
$PROJECTNAME
  1

  9
$CAMERADISPLAY
290
     0
  9
$LENSLENGTH
 40
50.0
  9
$CAMERAHEIGHT
 40
0.0
  9
$STEPSPERSEC
 40
2.0
  9
$STEPSIZE
 40
6.0
  9
$3DDWFPREC
 40
2.0
  9
$PSOLWIDTH
 40
0.25
  9
$PSOLHEIGHT
 40
4.0
  9
$LOFTANG1
 40
1.570796326794897
  9
$LOFTANG2
 40
1.570796326794897
  9
$LOFTMAG1
 40
0.0
  9
$LOFTMAG2
 40
0.0
  9
$LOFTPARAM
 70
     7
  9
$LOFTNORMALS
280
     1
  9
$LATITUDE
 40
37.795
  9
$LONGITUDE
 40
-122.394
  9
$NORTHDIRECTION
 40
0.0
  9
$TIMEZONE
 70
 -8000
  9
$LIGHTGLYPHDISPLAY
280
     1
  9
$TILEMODELIGHTSYNCH
280
     1
  9
$CMATERIAL
347
44
  9
$SOLIDHIST
280
     0
  9
$SHOWHIST
280
     1
  9
$DWFFRAME
280
     2
  9
$DGNFRAME
280
     2
  9
$REALWORLDSCALE
290
     1
  9
$INTERFERECOLOR
 62
   256
  9
$CSHADOW
280
     0
  9
$SHADOWPLANELOCATION
 40
0.0
  0
ENDSEC
  0
SECTION
  2
CLASSES
  0
CLASS
  1
ACDBDICTIONARYWDFLT
  2
AcDbDictionaryWithDefault
  3
ObjectDBX Classes
 90
        0
 91
        4
280
     0
281
     0
  0
CLASS
  1
VISUALSTYLE
  2
AcDbVisualStyle
  3
ObjectDBX Classes
 90
     4095
 91
        4
280
     0
281
     0
  0
CLASS
  1
MATERIAL
  2
AcDbMaterial
  3
ObjectDBX Classes
 90
     1153
 91
        4
280
     0
281
     0
  0
CLASS
  1
SCALE
  2
AcDbScale
  3
ObjectDBX Classes
 90
     1153
 91
        4
280
     0
281
     0
  0
CLASS
  1
TABLESTYLE
  2
AcDbTableStyle
  3
ObjectDBX Classes
 90
     4095
 91
        4
280
     0
281
     0
  0
CLASS
  1
MLEADERSTYLE
  2
AcDbMLeaderStyle
  3
ACDB_MLEADERSTYLE_CLASS
 90
     4095
 91
        4
280
     0
281
     0
  0
CLASS
  1
SUN
  2
AcDbSun
  3
SCENEOE
 90
     1153
 91
        4
280
     0
281
     0
  0
CLASS
  1
DICTIONARYVAR
  2
AcDbDictionaryVar
  3
ObjectDBX Classes
 90
        0
 91
        4
280
     0
281
     0
  0
CLASS
  1
CELLSTYLEMAP
  2
AcDbCellStyleMap
  3
ObjectDBX Classes
 90
     1152
 91
        4
280
     0
281
     0
  0
ENDSEC
  0
SECTION
  2
TABLES
  0
TABLE
  2
VPORT
  5
8
330
0
100
AcDbSymbolTable
 70
     1
  0
VPORT
  5
29
330
8
100
AcDbSymbolTableRecord
100
AcDbViewportTableRecord
  2
*Active
 70
     0
 10
0.0
 20
0.0
 11
1.0
 21
1.0
 12
0.0
 22
-0.2065178571428579
 13
0.0
 23
0.0
 14
0.5
 24
0.5
 15
0.5
 25
0.5
 16
0.0
 26
0.0
 36
1.0
 17
0.0
 27
0.0
 37
0.0
 40
6.512153571428573
 41
2.731630912091293
 42
50.0
 43
0.0
 44
0.0
 50
0.0
 51
0.0
 71
     0
 72
   100
 73
     1
 74
     3
 75
     0
 76
     0
 77
     0
 78
     0
281
     0
 65
     1
110
0.0
120
0.0
130
0.0
111
1.0
121
0.0
131
0.0
112
0.0
122
1.0
132
0.0
 79
     0
146
0.0
348
2F
 60
     3
 61
     5
292
     1
282
     1
141
0.0
142
0.0
 63
   250
361
6D
  0
ENDTAB
  0
TABLE
  2
LTYPE
  5
5
330
0
100
AcDbSymbolTable
 70
     3
  0
LTYPE
  5
14
330
5
100
AcDbSymbolTableRecord
100
AcDbLinetypeTableRecord
  2
ByBlock
 70
     0
  3

 72
    65
 73
     0
 40
0.0
  0
LTYPE
  5
15
330
5
100
AcDbSymbolTableRecord
100
AcDbLinetypeTableRecord
  2
ByLayer
 70
     0
  3

 72
    65
 73
     0
 40
0.0
  0
LTYPE
  5
16
330
5
100
AcDbSymbolTableRecord
100
AcDbLinetypeTableRecord
  2
Continuous
 70
     0
  3
Solid line
 72
    65
 73
     0
 40
0.0
  0
LTYPE
  5
B0
330
5
100
AcDbSymbolTableRecord
100
AcDbLinetypeTableRecord
  2
Dashed
 70
     0
  3

 72
    65
 73
     2
 40
2.0
 49
1.0
 74
     0
 49
-1.0
 74
     0
  0
LTYPE
  5
CB
330
5
100
AcDbSymbolTableRecord
100
AcDbLinetypeTableRecord
  2
Center
 70
     0
  3

 72
    65
 73
     4
 40
1.5
 49
0.45
 74
     0
 49
-0.5
 74
     0
 49
0.05
 74
     0
 49
-0.5
 74
     0
  0
ENDTAB
  0
TABLE
  2
LAYER
  5
2
330
0
100
AcDbSymbolTable
 70
     7
  0
LAYER
  5
10
330
2
100
AcDbSymbolTableRecord
100
AcDbLayerTableRecord
  2
0
 70
     0
 62
     7
  6
Continuous
370
    -3
390
F
347
46
348
0
  0
LAYER
  5
72
330
2
100
AcDbSymbolTableRecord
100
AcDbLayerTableRecord
  2
AM_6
 70
     0
 62
    -2
  6
Continuous
370
    35
390
F
347
46
348
0
  0
LAYER
  5
B1
330
2
100
AcDbSymbolTableRecord
100
AcDbLayerTableRecord
  2
AM_9
 70
     0
 62
     6
  6
Dashed
370
    25
390
F
347
46
348
0
  0
LAYER
  5
CC
330
2
100
AcDbSymbolTableRecord
100
AcDbLayerTableRecord
  2
AM_7
 70
     0
 62
     7
  6
Center
370
    25
390
F
347
46
348
0
  0
LAYER
  5
CE
330
2
100
AcDbSymbolTableRecord
100
AcDbLayerTableRecord
  2
AM_4
 70
     0
 62
     7
  6
Continuous
370
    50
390
F
347
46
348
0
  0
LAYER
  5
DD
330
2
100
AcDbSymbolTableRecord
100
AcDbLayerTableRecord
  2
AM_5
 70
     0
 62
     3
  6
Continuous
370
    25
390
F
347
46
348
0
  0
LAYER
  5
261
330
2
100
AcDbSymbolTableRecord
100
AcDbLayerTableRecord
  2
ConnectionPoints
 70
     0
 62
     7
  6
Continuous
370
    50
390
F
347
46
348
0
  0
ENDTAB
  0
TABLE
  2
STYLE
  5
3
330
0
100
AcDbSymbolTable
 70
     1
  0
STYLE
  5
11
330
3
100
AcDbSymbolTableRecord
100
AcDbTextStyleTableRecord
  2
Standard
 70
     0
 40
0.0
 41
1.0
 50
0.0
 71
     0
 42
0.2
  3
txt
  4

  0
ENDTAB
  0
TABLE
  2
VIEW
  5
6
330
0
100
AcDbSymbolTable
 70
     0
  0
ENDTAB
  0
TABLE
  2
UCS
  5
7
330
0
100
AcDbSymbolTable
 70
     0
  0
ENDTAB
  0
TABLE
  2
APPID
  5
9
330
0
100
AcDbSymbolTable
 70
     1
  0
APPID
  5
12
330
9
100
AcDbSymbolTableRecord
100
AcDbRegAppTableRecord
  2
ACAD
 70
     0
  0
ENDTAB
  0
TABLE
  2
DIMSTYLE
  5
A
330
0
100
AcDbSymbolTable
 70
     1
100
AcDbDimStyleTable
  0
DIMSTYLE
105
27
330
A
100
AcDbSymbolTableRecord
100
AcDbDimStyleTableRecord
  2
Standard
 70
     0
178
     0
340
11
  0
ENDTAB
  0
TABLE
  2
BLOCK_RECORD
  5
1
330
0
100
AcDbSymbolTable
 70
     6
  0
BLOCK_RECORD
  5
1F
330
1
100
AcDbSymbolTableRecord
100
AcDbBlockTableRecord
  2
*Model_Space
340
22
 70
     0
280
     1
281
     0
  0
BLOCK_RECORD
  5
1B
330
1
100
AcDbSymbolTableRecord
100
AcDbBlockTableRecord
  2
*Paper_Space
340
1E
 70
     0
280
     1
281
     0
  0
BLOCK_RECORD
  5
23
330
1
100
AcDbSymbolTableRecord
100
AcDbBlockTableRecord
  2
*Paper_Space0
340
26
 70
     0
280
     1
281
     0
  0
BLOCK_RECORD
  5
6E
330
1
100
AcDbSymbolTableRecord
100
AcDbBlockTableRecord
  2
1_023188_4
340
0
102
{BLKREFS
331
6F
102
}
 70
     0
280
     1
281
     0
  0
BLOCK_RECORD
  5
9B
330
1
100
AcDbSymbolTableRecord
100
AcDbBlockTableRecord
  2
2_3_15_16C_0_in_023188_4
340
0
102
{BLKREFS
331
9C
102
}
 70
     0
280
     1
281
     0
  0
BLOCK_RECORD
  5
DF
330
1
100
AcDbSymbolTableRecord
100
AcDbBlockTableRecord
  2
3_405020c_Inch_0_in_023188_4
340
0
102
{BLKREFS
331
E0
102
}
 70
     0
280
     1
281
     0
  0
BLOCK_RECORD
  5
101
330
1
100
AcDbSymbolTableRecord
100
AcDbBlockTableRecord
  2
4_S1U_K_315R_0_in_023188_4
340
0
102
{BLKREFS
331
102
102
}
 70
     0
280
     1
281
     0
  0
BLOCK_RECORD
  5
161
330
1
100
AcDbSymbolTableRecord
100
AcDbBlockTableRecord
  2
5_P2B_K_315R_0_in_023188_4
340
0
102
{BLKREFS
331
162
102
}
 70
     0
280
     1
281
     0
  0
ENDTAB
  0
ENDSEC
  0
SECTION
  2
BLOCKS
  0
BLOCK
  5
20
330
1F
100
AcDbEntity
  8
0
100
AcDbBlockBegin
  2
*Model_Space
 70
     0
 10
0.0
 20
0.0
 30
0.0
  3
*Model_Space
  1

  0
ENDBLK
  5
21
330
1F
100
AcDbEntity
  8
0
100
AcDbBlockEnd
  0
BLOCK
  5
1C
330
1B
100
AcDbEntity
 67
     1
  8
0
100
AcDbBlockBegin
  2
*Paper_Space
 70
     0
 10
0.0
 20
0.0
 30
0.0
  3
*Paper_Space
  1

  0
ENDBLK
  5
1D
330
1B
100
AcDbEntity
 67
     1
  8
0
100
AcDbBlockEnd
  0
BLOCK
  5
24
330
23
100
AcDbEntity
  8
0
100
AcDbBlockBegin
  2
*Paper_Space0
 70
     0
 10
0.0
 20
0.0
 30
0.0
  3
*Paper_Space0
  1

  0
ENDBLK
  5
25
330
23
100
AcDbEntity
  8
0
100
AcDbBlockEnd
  0
BLOCK
  5
70
330
6E
100
AcDbEntity
  8
0
100
AcDbBlockBegin
  2
1_023188_4
 70
     2
 10
0.0
 20
0.0
 30
0.0
  3
1_023188_4
  1

  0
ATTDEF
  5
73
330
6E
100
AcDbEntity
  8
AM_6
100
AcDbText
 10
13.72
 20
2.985714285714286
 30
0.0
 40
0.5
  1
Type K Pillow Block 2&4-Bolt Base Non-Expansion Inch Bore
100
AcDbAttributeDefinition
  3

  2
NN
 70
     8
280
     0
  0
ATTDEF
  5
74
330
6E
100
AcDbEntity
  8
AM_6
100
AcDbText
 10
13.72
 20
2.485714285714286
 30
0.0
 40
0.5
  1
Type K
100
AcDbAttributeDefinition
  3

  2
NT
 70
     8
280
     0
  0
ATTDEF
  5
75
330
6E
100
AcDbEntity
  8
AM_6
100
AcDbText
 10
13.72
 20
1.985714285714286
 30
0.0
 40
0.5
  1
023188
100
AcDbAttributeDefinition
  3

  2
NB
 70
     8
280
     0
  0
ATTDEF
  5
76
330
6E
100
AcDbEntity
  8
AM_6
100
AcDbText
 10
13.72
 20
1.485714285714286
 30
0.0
 40
0.5
  1
$PN.
100
AcDbAttributeDefinition
  3

  2
NBSYN
 70
     8
280
     0
  0
ATTDEF
  5
77
330
6E
100
AcDbEntity
  8
AM_6
100
AcDbText
 10
13.72
 20
0.9857142857142858
 30
0.0
 40
0.5
  1
023188
100
AcDbAttributeDefinition
  3

  2
LINA
 70
     8
280
     0
  0
ATTDEF
  5
78
330
6E
100
AcDbEntity
  8
AM_6
100
AcDbText
 10
13.72
 20
0.4857142857142858
 30
0.0
 40
0.5
  1
3-15/16
100
AcDbAttributeDefinition
  3

  2
SS
 70
     8
280
     0
  0
ATTDEF
  5
79
330
6E
100
AcDbEntity
  8
AM_6
100
AcDbText
 10
13.72
 20
-0.0142857142857142
 30
0.0
 40
0.5
  1
023188
100
AcDbAttributeDefinition
  3

  2
PN
 70
     8
280
     0
  0
ATTDEF
  5
7A
330
6E
100
AcDbEntity
  8
AM_6
100
AcDbText
 10
13.72
 20
-0.5142857142857142
 30
0.0
 40
0.5
  1
P2B-K-315R
100
AcDbAttributeDefinition
  3

  2
PNA
 70
     8
280
     0
  0
ATTDEF
  5
7B
330
6E
100
AcDbEntity
  8
AM_6
100
AcDbText
 10
13.72
 20
-1.014285714285714
 30
0.0
 40
0.5
  1
106
100
AcDbAttributeDefinition
  3

  2
WEIGHT
 70
     8
280
     0
  0
ATTDEF
  5
7C
330
6E
100
AcDbEntity
  8
AM_6
100
AcDbText
 10
13.72
 20
-1.514285714285714
 30
0.0
 40
0.5
  1
5.41
100
AcDbAttributeDefinition
  3

  2
A
 70
     8
280
     0
  0
ATTDEF
  5
7D
330
6E
100
AcDbEntity
  8
AM_6
100
AcDbText
 10
13.72
 20
-2.014285714285714
 30
0.0
 40
0.5
  1
17.44
100
AcDbAttributeDefinition
  3

  2
B
 70
     8
280
     0
  0
ATTDEF
  5
7E
330
6E
100
AcDbEntity
  8
AM_6
100
AcDbText
 10
13.72
 20
-2.514285714285714
 30
0.0
 40
0.5
  1
4.75
100
AcDbAttributeDefinition
  3

  2
C
 70
     8
280
     0
  0
ATTDEF
  5
7F
330
6E
100
AcDbEntity
  8
AM_6
100
AcDbText
 10
13.72
 20
-3.014285714285714
 30
0.0
 40
0.5
  1
13.12
100
AcDbAttributeDefinition
  3

  2
DMIN
 70
     8
280
     0
  0
ATTDEF
  5
80
330
6E
100
AcDbEntity
  8
AM_6
100
AcDbText
 10
13.72
 20
-3.514285714285714
 30
0.0
 40
0.5
  1
14.75
100
AcDbAttributeDefinition
  3

  2
DMAX
 70
     8
280
     0
  0
ATTDEF
  5
81
330
6E
100
AcDbEntity
  8
AM_6
100
AcDbText
 10
13.72
 20
-4.014285714285714
 30
0.0
 40
0.5
  1
2
100
AcDbAttributeDefinition
  3

  2
E
 70
     8
280
     0
  0
ATTDEF
  5
82
330
6E
100
AcDbEntity
  8
AM_6
100
AcDbText
 10
13.72
 20
-4.514285714285714
 30
0.0
 40
0.5
  1
3/4
100
AcDbAttributeDefinition
  3

  2
F
 70
     8
280
     0
  0
ATTDEF
  5
83
330
6E
100
AcDbEntity
  8
AM_6
100
AcDbText
 10
13.72
 20
-5.014285714285714
 30
0.0
 40
0.5
  1
1.70
100
AcDbAttributeDefinition
  3

  2
G
 70
     8
280
     0
  0
ATTDEF
  5
84
330
6E
100
AcDbEntity
  8
AM_6
100
AcDbText
 10
13.72
 20
-5.514285714285714
 30
0.0
 40
0.5
  1
2.75
100
AcDbAttributeDefinition
  3

  2
H
 70
     8
280
     0
  0
ATTDEF
  5
85
330
6E
100
AcDbEntity
  8
AM_6
100
AcDbText
 10
13.72
 20
-6.014285714285714
 30
0.0
 40
0.5
  1
10.42
100
AcDbAttributeDefinition
  3

  2
J
 70
     8
280
     0
  0
ATTDEF
  5
86
330
6E
100
AcDbEntity
  8
AM_6
100
AcDbText
 10
13.72
 20
-6.514285714285714
 30
0.0
 40
0.5
  1
6.00
100
AcDbAttributeDefinition
  3

  2
L
 70
     8
280
     0
  0
ATTDEF
  5
87
330
6E
100
AcDbEntity
  8
AM_6
100
AcDbText
 10
13.72
 20
-7.014285714285714
 30
0.0
 40
0.5
  1
5.00
100
AcDbAttributeDefinition
  3

  2
M
 70
     8
280
     0
  0
ATTDEF
  5
88
330
6E
100
AcDbEntity
  8
AM_6
100
AcDbText
 10
13.72
 20
-7.514285714285714
 30
0.0
 40
0.5
  1
10.71
100
AcDbAttributeDefinition
  3

  2
P
 70
     8
280
     0
  0
ATTDEF
  5
89
330
6E
100
AcDbEntity
  8
AM_6
100
AcDbText
 10
13.72
 20
-8.014285714285714
 30
0.0
 40
0.5
  1
2.13
100
AcDbAttributeDefinition
  3

  2
R
 70
     8
280
     0
  0
ATTDEF
  5
8A
330
6E
100
AcDbEntity
  8
AM_6
100
AcDbText
 10
13.72
 20
-8.514285714285714
 30
0.0
 40
0.5
  1
3.13
100
AcDbAttributeDefinition
  3

  2
S
 70
     8
280
     0
  0
ATTDEF
  5
8B
330
6E
100
AcDbEntity
  8
AM_6
100
AcDbText
 10
13.72
 20
-9.014285714285714
 30
0.0
 40
0.5
  1
.34
100
AcDbAttributeDefinition
  3

  2
T
 70
     8
280
     0
  0
ATTDEF
  5
8C
330
6E
100
AcDbEntity
  8
AM_6
100
AcDbText
 10
13.72
 20
-9.514285714285714
 30
0.0
 40
0.5
  1
154000
100
AcDbAttributeDefinition
  3

  2
CS
 70
     8
280
     0
  0
ATTDEF
  5
8D
330
6E
100
AcDbEntity
  8
AM_6
100
AcDbText
 10
13.72
 20
-10.01428571428571
 30
0.0
 40
0.5
  1
21000
100
AcDbAttributeDefinition
  3

  2
CD
 70
     8
280
     0
  0
ATTDEF
  5
8E
330
6E
100
AcDbEntity
  8
AM_6
100
AcDbText
 10
13.72
 20
-10.51428571428571
 30
0.0
 40
0.5
  1
26
100
AcDbAttributeDefinition
  3

  2
RN
 70
     8
280
     0
  0
ATTDEF
  5
8F
330
6E
100
AcDbEntity
  8
AM_6
100
AcDbText
 10
13.72
 20
-11.01428571428571
 30
0.0
 40
0.5
  1
.51
100
AcDbAttributeDefinition
  3

  2
RM
 70
     8
280
     0
  0
ATTDEF
  5
90
330
6E
100
AcDbEntity
  8
AM_6
100
AcDbText
 10
13.72
 20
-11.51428571428571
 30
0.0
 40
0.5
  1
5.12
100
AcDbAttributeDefinition
  3

  2
PDI
 70
     8
280
     0
  0
ATTDEF
  5
91
330
6E
100
AcDbEntity
  8
AM_6
100
AcDbText
 10
13.72
 20
-12.01428571428571
 30
0.0
 40
0.5
  1
.008-.012
100
AcDbAttributeDefinition
  3

  2
EP
 70
     8
280
     0
  0
ATTDEF
  5
92
330
6E
100
AcDbEntity
  8
AM_6
100
AcDbText
 10
13.72
 20
-12.51428571428571
 30
0.0
 40
0.5
  1
5/8-11*1
100
AcDbAttributeDefinition
  3

  2
CSS
 70
     8
280
     0
  0
ATTDEF
  5
93
330
6E
100
AcDbEntity
  8
AM_6
100
AcDbText
 10
13.72
 20
-13.01428571428571
 30
0.0
 40
0.5
  1
1325
100
AcDbAttributeDefinition
  3

  2
CST
 70
     8
280
     0
  0
ATTDEF
  5
94
330
6E
100
AcDbEntity
  8
AM_6
100
AcDbText
 10
13.72
 20
-13.51428571428571
 30
0.0
 40
0.5
  1
C.I. ASTM A48 CLASS 30
100
AcDbAttributeDefinition
  3

  2
MH
 70
     8
280
     0
  0
ATTDEF
  5
95
330
6E
100
AcDbEntity
  8
AM_6
100
AcDbText
 10
13.72
 20
-14.01428571428571
 30
0.0
 40
0.5
  1
4118 CASE CARB.
100
AcDbAttributeDefinition
  3

  2
MC
 70
     8
280
     0
  0
ATTDEF
  5
96
330
6E
100
AcDbEntity
  8
AM_6
100
AcDbText
 10
13.72
 20
-14.51428571428571
 30
0.0
 40
0.5
  1
4118 CASE CARB.
100
AcDbAttributeDefinition
  3

  2
MCU
 70
     8
280
     0
  0
ATTDEF
  5
97
330
6E
100
AcDbEntity
  8
AM_6
100
AcDbText
 10
13.72
 20
-15.01428571428571
 30
0.0
 40
0.5
  1
STEEL
100
AcDbAttributeDefinition
  3

  2
MR
 70
     8
280
     0
  0
ATTDEF
  5
98
330
6E
100
AcDbEntity
  8
AM_6
100
AcDbText
 10
13.72
 20
-15.51428571428571
 30
0.0
 40
0.5
  1
4118 CASE CARB.
100
AcDbAttributeDefinition
  3

  2
MRO
 70
     8
280
     0
  0
ATTDEF
  5
99
330
6E
100
AcDbEntity
  8
AM_6
100
AcDbText
 10
13.72
 20
-16.01428571428571
 30
0.0
 40
0.5
  1
3.55*
100
AcDbAttributeDefinition
  3

  2
SM
 70
     8
280
     0
  0
ATTDEF
  5
9A
330
6E
100
AcDbEntity
  8
AM_6
100
AcDbText
 10
13.72
 20
-16.51428571428571
 30
0.0
 40
0.5
  1
baldor
100
AcDbAttributeDefinition
  3

  2
COMPANY
 70
     8
280
     0
  0
INSERT
  5
9C
330
6E
100
AcDbEntity
  8
0
100
AcDbBlockReference
  2
2_3_15_16C_0_in_023188_4
 10
0.0
 20
0.0
 30
0.0
  0
INSERT
  5
E0
330
6E
100
AcDbEntity
  8
0
100
AcDbBlockReference
  2
3_405020c_Inch_0_in_023188_4
 10
0.0
 20
0.0
 30
0.0
  0
INSERT
  5
102
330
6E
100
AcDbEntity
  8
0
100
AcDbBlockReference
  2
4_S1U_K_315R_0_in_023188_4
 10
0.0
 20
0.0
 30
0.0
  0
INSERT
  5
162
330
6E
100
AcDbEntity
  8
0
100
AcDbBlockReference
  2
5_P2B_K_315R_0_in_023188_4
 10
0.0
 20
0.0
 30
0.0
  0
ENDBLK
  5
71
330
6E
100
AcDbEntity
  8
0
100
AcDbBlockEnd
  0
BLOCK
  5
9D
330
9B
100
AcDbEntity
  8
0
100
AcDbBlockBegin
  2
2_3_15_16C_0_in_023188_4
 70
     2
 10
0.0
 20
0.0
 30
0.0
  3
2_3_15_16C_0_in_023188_4
  1

  0
ATTDEF
  5
9F
330
9B
100
AcDbEntity
  8
AM_6
100
AcDbText
 10
8.0625
 20
-2.13
 30
0.0
 40
0.5
  1
E-Type Collar -Inch
100
AcDbAttributeDefinition
  3

  2
NN
 70
     8
280
     0
  0
ATTDEF
  5
A0
330
9B
100
AcDbEntity
  8
AM_6
100
AcDbText
 10
8.0625
 20
-2.63
 30
0.0
 40
0.5
  1
E-Type Bearings
100
AcDbAttributeDefinition
  3

  2
NT
 70
     8
280
     0
  0
ATTDEF
  5
A1
330
9B
100
AcDbEntity
  8
AM_6
100
AcDbText
 10
8.0625
 20
-3.13
 30
0.0
 40
0.5
  1
3-15/16C
100
AcDbAttributeDefinition
  3

  2
NB
 70
     8
280
     0
  0
ATTDEF
  5
A2
330
9B
100
AcDbEntity
  8
AM_6
100
AcDbText
 10
8.0625
 20
-3.63
 30
0.0
 40
0.5
  1
$BORE.C
100
AcDbAttributeDefinition
  3

  2
NBSYN
 70
     8
280
     0
  0
ATTDEF
  5
A3
330
9B
100
AcDbEntity
  8
AM_6
100
AcDbText
 10
8.0625
 20
-4.13
 30
0.0
 40
0.5
  1
3-15/16C
100
AcDbAttributeDefinition
  3

  2
LINA
 70
     8
280
     0
  0
ATTDEF
  5
A4
330
9B
100
AcDbEntity
  8
AM_6
100
AcDbText
 10
8.0625
 20
-4.63
 30
0.0
 40
0.5
  1
3-15/16
100
AcDbAttributeDefinition
  3

  2
BORE
 70
     8
280
     0
  0
ATTDEF
  5
A5
330
9B
100
AcDbEntity
  8
AM_6
100
AcDbText
 10
8.0625
 20
-5.13
 30
0.0
 40
0.5
  1
6.12500
100
AcDbAttributeDefinition
  3

  2
L
 70
     8
280
     0
  0
ATTDEF
  5
A6
330
9B
100
AcDbEntity
  8
AM_6
100
AcDbText
 10
8.0625
 20
-5.63
 30
0.0
 40
0.5
  1
6.25
100
AcDbAttributeDefinition
  3

  2
A
 70
     8
280
     0
  0
ATTDEF
  5
A7
330
9B
100
AcDbEntity
  8
AM_6
100
AcDbText
 10
8.0625
 20
-6.13
 30
0.0
 40
0.5
  1
3.12
100
AcDbAttributeDefinition
  3

  2
B
 70
     8
280
     0
  0
ATTDEF
  5
A8
330
9B
100
AcDbEntity
  8
AM_6
100
AcDbText
 10
8.0625
 20
-6.63
 30
0.0
 40
0.5
  1
4.50
100
AcDbAttributeDefinition
  3

  2
C
 70
     8
280
     0
  0
ATTDEF
  5
A9
330
9B
100
AcDbEntity
  8
AM_6
100
AcDbText
 10
8.0625
 20
-7.13
 30
0.0
 40
0.5
  1
6.38
100
AcDbAttributeDefinition
  3

  2
D
 70
     8
280
     0
  0
ATTDEF
  5
AA
330
9B
100
AcDbEntity
  8
AM_6
100
AcDbText
 10
8.0625
 20
-7.63
 30
0.0
 40
0.5
  1
0.66
100
AcDbAttributeDefinition
  3

  2
E
 70
     8
280
     0
  0
ATTDEF
  5
AB
330
9B
100
AcDbEntity
  8
AM_6
100
AcDbText
 10
8.0625
 20
-8.129999999999999
 30
0.0
 40
0.5
  1
0.50
100
AcDbAttributeDefinition
  3

  2
F
 70
     8
280
     0
  0
ATTDEF
  5
AC
330
9B
100
AcDbEntity
  8
AM_6
100
AcDbText
 10
8.0625
 20
-8.629999999999999
 30
0.0
 40
0.5
  1
5/8-11
100
AcDbAttributeDefinition
  3

  2
CS
 70
     8
280
     0
  0
ATTDEF
  5
AD
330
9B
100
AcDbEntity
  8
AM_6
100
AcDbText
 10
8.0625
 20
-9.129999999999999
 30
0.0
 40
0.5
  1
0.6250
100
AcDbAttributeDefinition
  3

  2
NDM
 70
     8
280
     0
  0
ATTDEF
  5
AE
330
9B
100
AcDbEntity
  8
AM_6
100
AcDbText
 10
8.0625
 20
-9.629999999999999
 30
0.0
 40
0.5
  1
0.5270
100
AcDbAttributeDefinition
  3

  2
KDM
 70
     8
280
     0
  0
ATTDEF
  5
AF
330
9B
100
AcDbEntity
  8
AM_6
100
AcDbText
 10
8.0625
 20
-10.13
 30
0.0
 40
0.5
  1
baldor
100
AcDbAttributeDefinition
  3

  2
COMPANY
 70
     8
280
     0
  0
LINE
  5
B2
330
9B
100
AcDbEntity
  8
AM_9
100
AcDbLine
 10
2.09790860523088
 20
-2.39707886592045
 30
0.0
 11
2.090072594686856
 21
-2.387305115083507
 31
0.0
  0
LINE
  5
B3
330
9B
100
AcDbEntity
  8
AM_9
100
AcDbLine
 10
2.090202939865654
 20
-2.872532307123468
 30
0.0
 11
2.09790860523088
 21
-2.86292113407955
 31
0.0
  0
LWPOLYLINE
  5
B4
330
9B
100
AcDbEntity
  8
AM_9
100
AcDbPolyline
 90
       26
 70
     0
 43
0.0
 10
2.089974291498123
 20
-2.387182503833253
 10
2.088480180615775
 20
-2.385359313984091
 10
2.070707186623837
 20
-2.369108572602769
 10
2.05123581950574
 20
-2.360525839022781
 10
2.029775768239221
 20
-2.359982978911711
 10
2.007561980939881
 20
-2.367801822298493
 10
1.985100534938405
 20
-2.384095114298602
 10
1.963415148688139
 20
-2.408381185166673
 10
1.943777574578607
 20
-2.439588846538541
 10
1.926706528307501
 20
-2.477250357517014
 10
1.913787830998972
 20
-2.518137637236525
 10
1.904772698179147
 20
-2.562795473323702
 10
1.900490200621654
 20
-2.606444316209666
 10
1.90033771366868
 20
-2.650820447616849
 10
1.904123335254845
 20
-2.692520023580483
 10
1.911465068447467
 20
-2.732492995204234
 10
1.92216707421251
 20
-2.770078911131668
 10
1.935604930807597
 20
-2.803991935643685
 10
1.952187588474347
 20
-2.835042125346482
 10
1.970504617805664
 20
-2.860590758007776
 10
1.99121768772588
 20
-2.881188683155973
 10
2.012406576528719
 20
-2.894606347972982
 10
2.034328586901401
 20
-2.900595235730551
 10
2.055378710883308
 20
-2.898348926536561
 10
2.075283835930662
 20
-2.887562895888697
 10
2.089978241654083
 20
-2.872812569970029
  0
LINE
  5
B5
330
9B
100
AcDbEntity
  8
AM_9
100
AcDbLine
 10
2.116397290396972
 20
-2.436408626746251
 30
0.0
 11
2.113541727828296
 21
-2.429082972374702
 31
0.0
  0
LWPOLYLINE
  5
B6
330
9B
100
AcDbEntity
  8
AM_9
100
AcDbPolyline
 90
       12
 70
     0
 43
0.0
 10
2.096323377094706
 20
-2.86413239523713
 10
2.108741995161096
 20
-2.841839356576487
 10
2.12170536158314
 20
-2.808045015133619
 10
2.131542920164772
 20
-2.769596931006785
 10
2.138717048774656
 20
-2.726392751805566
 10
2.142873560255341
 20
-2.68296272900591
 10
2.144565813751814
 20
-2.6378368690661
 10
2.143858278703618
 20
-2.59518222178112
 10
2.140961602448765
 20
-2.553521681249181
 10
2.13594331690787
 20
-2.514372715778862
 10
2.12887022227915
 20
-2.478280229800552
 10
2.116397290396972
 20
-2.436408626746251
  0
LWPOLYLINE
  5
B7
330
9B
100
AcDbEntity
  8
AM_9
100
AcDbPolyline
 90
        3
 70
     0
 43
0.0
 10
2.089978241654083
 20
-2.872812569970029
 10
2.093248015323251
 20
-2.868536016522357
 10
2.096323377094706
 20
-2.86413239523713
  0
LINE
  5
B8
330
9B
100
AcDbEntity
  8
AM_9
100
AcDbLine
 10
2.046020039494805
 20
-2.8933
 30
0.0
 11
2.730977254677537
 21
-2.8933
 31
0.0
  0
LINE
  5
B9
330
9B
100
AcDbEntity
  8
AM_9
100
AcDbLine
 10
2.730977254677537
 20
-2.3667
 30
0.0
 11
2.046020039494805
 21
-2.3667
 31
0.0
  0
ELLIPSE
  5
BA
330
9B
100
AcDbEntity
  8
AM_9
100
AcDbEllipse
 10
2.730977254677541
 20
-2.629999999999984
 30
0.0
 11
-4.836742533232179E-17
 21
-0.2632999999999841
 31
0.0
210
0.0
220
0.0
230
1.0
 40
0.4226182617406998
 41
2.889838803954063
 42
3.393346503225586
  0
ELLIPSE
  5
BB
330
9B
100
AcDbEntity
  8
AM_9
100
AcDbEllipse
 10
2.730977254677537
 20
-2.629999999999999
 30
0.0
 11
-4.836742533232497E-17
 21
-0.2633000000000014
 31
0.0
210
0.0
220
0.0
230
1.0
 40
0.4226182617406991
 41
3.494328285478149
 42
5.938905573559556
  0
LINE
  5
BC
330
9B
100
AcDbEntity
  8
AM_9
100
AcDbLine
 10
2.679088688941463
 20
-2.86292113407955
 30
0.0
 11
2.711216936690378
 21
-2.902994266518732
 31
0.0
  0
LINE
  5
BD
330
9B
100
AcDbEntity
  8
AM_9
100
AcDbLine
 10
2.711482959722113
 20
-2.356673926522299
 30
0.0
 11
2.679088688941463
 21
-2.39707886592045
 31
0.0
  0
LWPOLYLINE
  5
BE
330
9B
100
AcDbEntity
  8
AM_9
100
AcDbPolyline
 90
        3
 70
     0
 43
0.0
 10
2.699057389762351
 20
-2.374028046321794
 10
2.710372096438276
 20
-2.358075900607326
 10
2.711568360112273
 20
-2.356567408440393
  0
LWPOLYLINE
  5
BF
330
9B
100
AcDbEntity
  8
AM_9
100
AcDbPolyline
 90
        8
 70
     0
 43
0.0
 10
2.711568360112273
 20
-2.356567408440393
 10
2.731501565906844
 20
-2.335961778577955
 10
2.753398758708792
 20
-2.322216726338115
 10
2.774267919857352
 20
-2.317550753690212
 10
2.794488876738895
 20
-2.321171210940322
 10
2.813069225880485
 20
-2.332720709455908
 10
2.830062464527642
 20
-2.351663868003402
 10
2.843110954246554
 20
-2.373388304448426
  0
LWPOLYLINE
  5
C0
330
9B
100
AcDbEntity
  8
AM_9
100
AcDbPolyline
 90
       39
 70
     0
 43
0.0
 10
-0.2014674474065457
 20
-2.435735211364563
 10
-0.2297357356806127
 20
-2.465439735924682
 10
-0.253753357905469
 20
-2.499840353049987
 10
-0.2734317043856317
 20
-2.541135796202667
 10
-0.2858097120107878
 20
-2.586774836284429
 10
-0.2895404355017268
 20
-2.629535921085054
 10
-0.2857395366228401
 20
-2.67362715521264
 10
-0.2752385706158127
 20
-2.713863902850179
 10
-0.2578801168263556
 20
-2.752880977350692
 10
-0.2344921550702033
 20
-2.788590902897185
 10
-0.2050387686865354
 20
-2.820967199008946
 10
-0.1695631338298023
 20
-2.849330235923443
 10
-0.1290229167026697
 20
-2.872328153422485
 10
-0.0837394506217024
 20
-2.889201068495301
 10
-0.0350231494639953
 20
-2.898834159892084
 10
0.0151041759514513
 20
-2.900462607440459
 10
0.0662201632149338
 20
-2.89361806861081
 10
0.114513957174331
 20
-2.878646827757242
 10
0.1608653651617119
 20
-2.855000172924426
 10
0.2004862293331461
 20
-2.825151131989308
 10
0.2352610533937061
 20
-2.787593089846569
 10
0.2605702976775573
 20
-2.747827705802229
 10
0.2788768325671597
 20
-2.702643841859466
 10
0.2877851052778556
 20
-2.659701320489271
 10
0.2890600055978148
 20
-2.61443962131652
 10
0.2830497067018699
 20
-2.573120692678949
 10
0.2699287906576919
 20
-2.532248441284869
 10
0.2507191399295246
 20
-2.494807228378662
 10
0.2251762956592333
 20
-2.460021789540426
 10
0.1935578944982599
 20
-2.428819443424516
 10
0.1564955422752521
 20
-2.40231363970213
 10
0.1140352191890709
 20
-2.381160028593252
 10
0.0675112616376613
 20
-2.366669989647122
 10
0.0182919817445277
 20
-2.359710563360627
 10
-0.0328014473202238
 20
-2.360919465138447
 10
-0.082472520845974
 20
-2.370442175541581
 10
-0.1311922493566842
 20
-2.388696355065427
 10
-0.1676812724784255
 20
-2.409405345489852
 10
-0.2014674474065458
 20
-2.435735211364563
  0
LINE
  5
C1
330
9B
100
AcDbEntity
  8
AM_9
100
AcDbLine
 10
2.096903158151125
 20
-2.396741632378688
 30
0.0
 11
2.089974291498123
 21
-2.387182503833253
 31
0.0
  0
LWPOLYLINE
  5
C2
330
9B
100
AcDbEntity
  8
AM_9
100
AcDbPolyline
 90
        3
 70
     0
 43
0.0
 10
2.113541727828296
 20
-2.429082972374702
 10
2.101812553264939
 20
-2.404763396888957
 10
2.096903158151125
 20
-2.396741632378688
  0
LINE
  5
C3
330
9B
100
AcDbEntity
  8
AM_9
100
AcDbLine
 10
2.25
 20
-3.13
 30
0.0
 11
2.25
 21
-2.13
 31
0.0
  0
LINE
  5
C4
330
9B
100
AcDbEntity
  8
AM_9
100
AcDbLine
 10
-2.25
 20
-2.13
 30
0.0
 11
-2.25
 21
-3.13
 31
0.0
  0
ARC
  5
C5
330
9B
100
AcDbEntity
  8
AM_9
100
AcDbCircle
 10
0.0
 20
-2.630000000000008
 30
0.0
 40
0.2633000000000076
100
AcDbArc
 50
75.57556693970115
 51
104.4244330602989
  0
LWPOLYLINE
  5
C6
330
9B
100
AcDbEntity
  8
AM_9
100
AcDbPolyline
 90
        9
 70
     0
 43
0.0
 10
-0.1713026302205112
 20
-2.374387096914675
 10
-0.1452129032040744
 20
-2.357184302563256
 10
-0.1000616613426287
 20
-2.335679345382352
 10
-0.0503002394656771
 20
-2.321993321100946
 10
-0.0025715090655811
 20
-2.317511660087832
 10
0.0466695786577158
 20
-2.321364188673968
 10
0.0921986140294068
 20
-2.332863685547852
 10
0.136408148374674
 20
-2.352225504573121
 10
0.1716760129336013
 20
-2.374662953998618
  0
LINE
  5
C7
330
9B
100
AcDbEntity
  8
AM_9
100
AcDbLine
 10
-3.0625
 20
-2.13
 30
0.0
 11
3.0625
 21
-2.13
 31
0.0
  0
LINE
  5
C8
330
9B
100
AcDbEntity
  8
AM_9
100
AcDbLine
 10
3.0625
 20
-2.375
 30
0.0
 11
3.0625
 21
-2.13
 31
0.0
  0
LINE
  5
C9
330
9B
100
AcDbEntity
  8
AM_9
100
AcDbLine
 10
-3.0625
 20
-2.13
 30
0.0
 11
-3.0625
 21
-2.375
 31
0.0
  0
ELLIPSE
  5
CA
330
9B
100
AcDbEntity
  8
AM_9
100
AcDbEllipse
 10
2.046020039494805
 20
-2.629999999999999
 30
0.0
 11
-4.836742533232481E-17
 21
-0.2633000000000005
 31
0.0
210
0.0
220
0.0
230
1.0
 40
0.4226182617406988
 41
0.0
 42
6.283185307179586
  0
LINE
  5
CD
330
9B
100
AcDbEntity
  8
AM_7
100
AcDbLine
 10
-0.276465
 20
-2.63
 30
0.0
 11
0.2764649999999998
 21
-2.63
 31
0.0
  0
ELLIPSE
  5
CF
330
9B
100
AcDbEntity
  8
AM_4
100
AcDbEllipse
 10
2.730977254677537
 20
-2.63
 30
0.0
 11
-4.836742533232473E-17
 21
-0.2633000000000001
 31
0.0
210
0.0
220
0.0
230
1.0
 40
0.4226182617406961
 41
5.93890557355955
 42
9.173024111133628
  0
ELLIPSE
  5
D0
330
9B
100
AcDbEntity
  8
AM_4
100
AcDbEllipse
 10
2.730977254677359
 20
-2.630000000000096
 30
0.0
 11
-4.836742533234325E-17
 21
-0.2633000000001009
 31
0.0
210
0.0
220
0.0
230
1.0
 40
0.4226182617404938
 41
3.393346503224013
 42
3.494328285476677
  0
LWPOLYLINE
  5
D1
330
9B
100
AcDbEntity
  8
AM_4
100
AcDbPolyline
 90
       14
 70
     0
 43
0.0
 10
2.711557552030851
 20
-2.903419107576594
 10
2.703351842624054
 20
-2.892397751366645
 10
2.685215264999866
 20
-2.861702694989811
 10
2.669296046081508
 20
-2.825324030547974
 10
2.655600960374694
 20
-2.782237509533978
 10
2.645343980801555
 20
-2.735266433147623
 10
2.63873825916536
 20
-2.683498866304247
 10
2.636471376714816
 20
-2.630291056265331
 10
2.638795717702245
 20
-2.575845484767137
 10
2.645659383518402
 20
-2.522926403221255
 10
2.656884021242903
 20
-2.473053092116228
 10
2.671971153752767
 20
-2.427748950221814
 10
2.68994386879635
 20
-2.389374815552092
 10
2.699057389762351
 20
-2.374028046321794
  0
LINE
  5
D2
330
9B
100
AcDbEntity
  8
AM_4
100
AcDbLine
 10
2.843110954246554
 20
-2.373388304448426
 30
0.0
 11
2.851476262408382
 21
-2.391669224162555
 31
0.0
  0
LINE
  5
D3
330
9B
100
AcDbEntity
  8
AM_4
100
AcDbLine
 10
-2.895833333333333
 20
-3.13
 30
0.0
 11
2.895833333323518
 21
-3.13
 31
0.0
  0
ARC
  5
D4
330
9B
100
AcDbEntity
  8
AM_4
100
AcDbCircle
 10
2.895833333333332
 20
-2.963333333333332
 30
0.0
 40
0.1666666666666683
100
AcDbArc
 50
270.0
 51
0.0
  0
ARC
  5
D5
330
9B
100
AcDbEntity
  8
AM_4
100
AcDbCircle
 10
-2.895833333333332
 20
-2.963333333333332
 30
0.0
 40
0.1666666666666679
100
AcDbArc
 50
180.0
 51
270.0
  0
ARC
  5
D6
330
9B
100
AcDbEntity
  8
AM_4
100
AcDbCircle
 10
0.0
 20
-2.63
 30
0.0
 40
0.2633000000000004
100
AcDbArc
 50
104.4244330602993
 51
75.57556693970074
  0
LINE
  5
D7
330
9B
100
AcDbEntity
  8
AM_4
100
AcDbLine
 10
-3.0625
 20
-2.963333333333333
 30
0.0
 11
3.0625
 21
-2.963333333333333
 31
0.0
  0
LWPOLYLINE
  5
D8
330
9B
100
AcDbEntity
  8
AM_4
100
AcDbPolyline
 90
       31
 70
     0
 43
0.0
 10
0.1716760129336013
 20
-2.374662953998618
 10
0.1764285997321451
 20
-2.378253700854286
 10
0.2126775468805943
 20
-2.411235021022639
 10
0.2436412729902322
 20
-2.450215298746451
 10
0.2686017383178647
 20
-2.494824193208893
 10
0.2863766212330985
 20
-2.543757032163891
 10
0.296233403906352
 20
-2.596344420951938
 10
0.2973612251787392
 20
-2.649943905495578
 10
0.2893632207596263
 20
-2.704496661741504
 10
0.2727021832085631
 20
-2.755834228741049
 10
0.2467971695725122
 20
-2.804989448102392
 10
0.2143371044188261
 20
-2.846976268288858
 10
0.1738032310932085
 20
-2.883748219438782
 10
0.1305707167946742
 20
-2.910846642915295
 10
0.081700968048898
 20
-2.930501483050373
 10
0.034140056526476
 20
-2.940438087309889
 10
-0.0159338545228538
 20
-2.94205200994823
 10
-0.0625616349299918
 20
-2.935521316926255
 10
-0.1087312997398201
 20
-2.920913603985693
 10
-0.1508745916019466
 20
-2.899411869708007
 10
-0.190005650202073
 20
-2.870627237334802
 10
-0.2243175895594376
 20
-2.835582360535034
 10
-0.2533214887906873
 20
-2.794423960297643
 10
-0.2757840757970138
 20
-2.748226532860237
 10
-0.2908893146975848
 20
-2.69765697279029
 10
-0.2976324043934339
 20
-2.644853742653766
 10
-0.2955337886424056
 20
-2.590160247710521
 10
-0.284533133775164
 20
-2.537298454948959
 10
-0.2641924765284836
 20
-2.485592874092776
 10
-0.2424518266804284
 20
-2.448456407984777
 10
-0.2152669300916546
 20
-2.414038501657308
  0
LWPOLYLINE
  5
D9
330
9B
100
AcDbEntity
  8
AM_4
100
AcDbPolyline
 90
        3
 70
     0
 43
0.0
 10
-0.2152669300916546
 20
-2.414038501657308
 10
-0.1827839775859505
 20
-2.383293999030464
 10
-0.1713026302205112
 20
-2.374387096914675
  0
LWPOLYLINE
  5
DA
330
9B
100
AcDbEntity
  8
AM_4
100
AcDbPolyline
 90
       19
 70
     0
 43
0.0
 10
2.851476262408382
 20
-2.391669224162555
 10
2.862876742720252
 20
-2.424324124323393
 10
2.872209106237893
 20
-2.461249300311386
 10
2.880285057531378
 20
-2.507728121440682
 10
2.88558753068628
 20
-2.557392895672697
 10
2.888130667044118
 20
-2.610765715781385
 10
2.887710385238223
 20
-2.664664745061728
 10
2.884218588028089
 20
-2.718447471209891
 10
2.877660450021674
 20
-2.769707014395129
 10
2.8680767810671
 20
-2.816575755604573
 10
2.855505356882059
 20
-2.857977054622231
 10
2.840514360675947
 20
-2.891480688049366
 10
2.823008008823077
 20
-2.917334954168392
 10
2.804259027686237
 20
-2.933801648034093
 10
2.783960550102642
 20
-2.941793940430575
 10
2.763548581360399
 20
-2.941066908349553
 10
2.742818790930428
 20
-2.932284698360943
 10
2.722611445178584
 20
-2.915854155132226
 10
2.711557552030851
 20
-2.903419107576594
  0
LINE
  5
DB
330
9B
100
AcDbEntity
  8
AM_4
100
AcDbLine
 10
3.0625
 20
-2.963333333333333
 30
0.0
 11
3.0625
 21
-2.375
 31
0.0
  0
LINE
  5
DC
330
9B
100
AcDbEntity
  8
AM_4
100
AcDbLine
 10
-3.0625
 20
-2.375
 30
0.0
 11
-3.0625
 21
-2.963333333333333
 31
0.0
  0
CIRCLE
  5
DE
330
9B
100
AcDbEntity
  8
AM_5
100
AcDbCircle
 10
0.0
 20
-2.63
 30
0.0
 40
0.3124999999999998
  0
ENDBLK
  5
9E
330
9B
100
AcDbEntity
  8
0
100
AcDbBlockEnd
  0
BLOCK
  5
E1
330
DF
100
AcDbEntity
  8
0
100
AcDbBlockBegin
  2
3_405020c_Inch_0_in_023188_4
 70
     2
 10
0.0
 20
0.0
 30
0.0
  3
3_405020c_Inch_0_in_023188_4
  1

  0
ATTDEF
  5
E3
330
DF
100
AcDbEntity
  8
AM_6
100
AcDbText
 10
5.14065
 20
0.1574086307230421
 30
0.0
 40
0.5
  1
405020C -Inch
100
AcDbAttributeDefinition
  3

  2
NN
 70
     8
280
     0
  0
ATTDEF
  5
E4
330
DF
100
AcDbEntity
  8
AM_6
100
AcDbText
 10
5.14065
 20
-0.3425913692769579
 30
0.0
 40
0.5
  1
Grease fitting
100
AcDbAttributeDefinition
  3

  2
NT
 70
     8
280
     0
  0
ATTDEF
  5
E5
330
DF
100
AcDbEntity
  8
AM_6
100
AcDbText
 10
5.14065
 20
-0.8425913692769579
 30
0.0
 40
0.5
  1
405020c-Inch
100
AcDbAttributeDefinition
  3

  2
NB
 70
     8
280
     0
  0
ATTDEF
  5
E6
330
DF
100
AcDbEntity
  8
AM_6
100
AcDbText
 10
5.14065
 20
-1.342591369276958
 30
0.0
 40
0.5
  1
$MN.-Inch
100
AcDbAttributeDefinition
  3

  2
NBSYN
 70
     8
280
     0
  0
ATTDEF
  5
E7
330
DF
100
AcDbEntity
  8
AM_6
100
AcDbText
 10
5.14065
 20
-1.842591369276958
 30
0.0
 40
0.5
  1
405020c
100
AcDbAttributeDefinition
  3

  2
LINA
 70
     8
280
     0
  0
ATTDEF
  5
E8
330
DF
100
AcDbEntity
  8
AM_6
100
AcDbText
 10
5.14065
 20
-2.342591369276958
 30
0.0
 40
0.5
  1
405020c
100
AcDbAttributeDefinition
  3

  2
MN
 70
     8
280
     0
  0
ATTDEF
  5
E9
330
DF
100
AcDbEntity
  8
AM_6
100
AcDbText
 10
5.14065
 20
-2.842591369276958
 30
0.0
 40
0.5
  1
0.230
100
AcDbAttributeDefinition
  3

  2
NDR
 70
     8
280
     0
  0
ATTDEF
  5
EA
330
DF
100
AcDbEntity
  8
AM_6
100
AcDbText
 10
5.14065
 20
-3.342591369276958
 30
0.0
 40
0.5
  1
0.210
100
AcDbAttributeDefinition
  3

  2
KDR
 70
     8
280
     0
  0
ATTDEF
  5
EB
330
DF
100
AcDbEntity
  8
AM_6
100
AcDbText
 10
5.14065
 20
-3.842591369276958
 30
0.0
 40
0.5
  1
0.157
100
AcDbAttributeDefinition
  3

  2
BZE
 70
     8
280
     0
  0
ATTDEF
  5
EC
330
DF
100
AcDbEntity
  8
AM_6
100
AcDbText
 10
5.14065
 20
-4.342591369276958
 30
0.0
 40
0.5
  1
9/32
100
AcDbAttributeDefinition
  3

  2
WAF
 70
     8
280
     0
  0
ATTDEF
  5
ED
330
DF
100
AcDbEntity
  8
AM_6
100
AcDbText
 10
5.14065
 20
-4.842591369276958
 30
0.0
 40
0.5
  1
0.2813
100
AcDbAttributeDefinition
  3

  2
WAF1
 70
     8
280
     0
  0
ATTDEF
  5
EE
330
DF
100
AcDbEntity
  8
AM_6
100
AcDbText
 10
5.14065
 20
-5.342591369276958
 30
0.0
 40
0.5
  1
0.545
100
AcDbAttributeDefinition
  3

  2
BL
 70
     8
280
     0
  0
ATTDEF
  5
EF
330
DF
100
AcDbEntity
  8
AM_6
100
AcDbText
 10
5.14065
 20
-5.842591369276958
 30
0.0
 40
0.5
  1
0.200
100
AcDbAttributeDefinition
  3

  2
TL
 70
     8
280
     0
  0
ATTDEF
  5
F0
330
DF
100
AcDbEntity
  8
AM_6
100
AcDbText
 10
5.14065
 20
-6.342591369276958
 30
0.0
 40
0.5
  1
baldor
100
AcDbAttributeDefinition
  3

  2
COMPANY
 70
     8
280
     0
  0
CIRCLE
  5
F1
330
DF
100
AcDbEntity
  8
AM_9
100
AcDbCircle
 10
0.0
 20
-0.0049999999999996
 30
0.0
 40
0.1000886227036577
  0
CIRCLE
  5
F2
330
DF
100
AcDbEntity
  8
AM_9
100
AcDbCircle
 10
0.0
 20
-0.0049999999999996
 30
0.0
 40
0.1104162595939891
  0
CIRCLE
  5
F3
330
DF
100
AcDbEntity
  8
AM_9
100
AcDbCircle
 10
0.0
 20
-0.0049999999999996
 30
0.0
 40
0.1163438171532771
  0
LINE
  5
F4
330
DF
100
AcDbEntity
  8
AM_9
100
AcDbLine
 10
0.0
 20
0.1574086307230421
 30
0.0
 11
-0.14065
 21
0.0762043153615213
 31
0.0
  0
LINE
  5
F5
330
DF
100
AcDbEntity
  8
AM_9
100
AcDbLine
 10
0.14065
 20
0.0762043153615213
 30
0.0
 11
0.0
 21
0.1574086307230421
 31
0.0
  0
LINE
  5
F6
330
DF
100
AcDbEntity
  8
AM_9
100
AcDbLine
 10
-0.14065
 20
0.0762043153615213
 30
0.0
 11
-0.14065
 21
-0.0862043153615204
 31
0.0
  0
LINE
  5
F7
330
DF
100
AcDbEntity
  8
AM_9
100
AcDbLine
 10
0.0
 20
-0.1674086307230413
 30
0.0
 11
0.14065
 21
-0.0862043153615204
 31
0.0
  0
LINE
  5
F8
330
DF
100
AcDbEntity
  8
AM_9
100
AcDbLine
 10
0.14065
 20
-0.0862043153615204
 30
0.0
 11
0.14065
 21
0.0762043153615213
 31
0.0
  0
LINE
  5
F9
330
DF
100
AcDbEntity
  8
AM_9
100
AcDbLine
 10
-0.14065
 20
-0.0862043153615204
 30
0.0
 11
0.0
 21
-0.1674086307230413
 31
0.0
  0
CIRCLE
  5
FA
330
DF
100
AcDbEntity
  8
AM_9
100
AcDbCircle
 10
0.0
 20
-0.0049999999999996
 30
0.0
 40
0.1093294505797714
  0
CIRCLE
  5
FB
330
DF
100
AcDbEntity
  8
AM_9
100
AcDbCircle
 10
0.0
 20
-0.0049999999999996
 30
0.0
 40
0.0946847896390988
  0
CIRCLE
  5
FC
330
DF
100
AcDbEntity
  8
AM_9
100
AcDbCircle
 10
0.0
 20
-0.0049999999999996
 30
0.0
 40
0.135926521995058
  0
CIRCLE
  5
FD
330
DF
100
AcDbEntity
  8
AM_9
100
AcDbCircle
 10
0.0
 20
-0.0049999999999996
 30
0.0
 40
0.13195176466768
  0
CIRCLE
  5
FE
330
DF
100
AcDbEntity
  8
AM_9
100
AcDbCircle
 10
0.0
 20
-0.0049999999999996
 30
0.0
 40
0.1038190510530391
  0
CIRCLE
  5
FF
330
DF
100
AcDbEntity
  8
AM_9
100
AcDbCircle
 10
0.0
 20
-0.0049999999999996
 30
0.0
 40
0.080806429716728
  0
CIRCLE
  5
100
330
DF
100
AcDbEntity
  8
AM_9
100
AcDbCircle
 10
0.0
 20
-0.0049999999999995
 30
0.0
 40
0.1406500000000001
  0
ENDBLK
  5
E2
330
DF
100
AcDbEntity
  8
0
100
AcDbBlockEnd
  0
BLOCK
  5
103
330
101
100
AcDbEntity
  8
0
100
AcDbBlockBegin
  2
4_S1U_K_315R_0_in_023188_4
 70
     2
 10
0.0
 20
0.0
 30
0.0
  3
4_S1U_K_315R_0_in_023188_4
  1

  0
ATTDEF
  5
105
330
101
100
AcDbEntity
  8
AM_6
100
AcDbText
 10
8.998037983876298
 20
2.245000000000001
 30
0.0
 40
0.5
  1
Type K Units - Inch
100
AcDbAttributeDefinition
  3

  2
NN
 70
     8
280
     0
  0
ATTDEF
  5
106
330
101
100
AcDbEntity
  8
AM_6
100
AcDbText
 10
8.998037983876298
 20
1.745000000000001
 30
0.0
 40
0.5
  1
Type K
100
AcDbAttributeDefinition
  3

  2
NT
 70
     8
280
     0
  0
ATTDEF
  5
107
330
101
100
AcDbEntity
  8
AM_6
100
AcDbText
 10
8.998037983876298
 20
1.245000000000001
 30
0.0
 40
0.5
  1
S1U-K-315R
100
AcDbAttributeDefinition
  3

  2
NB
 70
     8
280
     0
  0
ATTDEF
  5
108
330
101
100
AcDbEntity
  8
AM_6
100
AcDbText
 10
8.998037983876298
 20
0.7450000000000006
 30
0.0
 40
0.5
  1
$PN.
100
AcDbAttributeDefinition
  3

  2
NBSYN
 70
     8
280
     0
  0
ATTDEF
  5
109
330
101
100
AcDbEntity
  8
AM_6
100
AcDbText
 10
8.998037983876298
 20
0.2450000000000006
 30
0.0
 40
0.5
  1
S1U-K-315R
100
AcDbAttributeDefinition
  3

  2
LINA
 70
     8
280
     0
  0
ATTDEF
  5
10A
330
101
100
AcDbEntity
  8
AM_6
100
AcDbText
 10
8.998037983876298
 20
-0.2549999999999994
 30
0.0
 40
0.5
  1
3-15/16
100
AcDbAttributeDefinition
  3

  2
SS
 70
     8
280
     0
  0
ATTDEF
  5
10B
330
101
100
AcDbEntity
  8
AM_6
100
AcDbText
 10
8.998037983876298
 20
-0.7549999999999994
 30
0.0
 40
0.5
  1
3.937500
100
AcDbAttributeDefinition
  3

  2
SS1
 70
     8
280
     0
  0
ATTDEF
  5
10C
330
101
100
AcDbEntity
  8
AM_6
100
AcDbText
 10
8.998037983876298
 20
-1.254999999999999
 30
0.0
 40
0.5
  1
S1U-K-315R
100
AcDbAttributeDefinition
  3

  2
PN
 70
     8
280
     0
  0
ATTDEF
  5
10D
330
101
100
AcDbEntity
  8
AM_6
100
AcDbText
 10
8.998037983876298
 20
-1.754999999999999
 30
0.0
 40
0.5
  1
S1U-K-315R
100
AcDbAttributeDefinition
  3

  2
PNA
 70
     8
280
     0
  0
ATTDEF
  5
10E
330
101
100
AcDbEntity
  8
AM_6
100
AcDbText
 10
8.998037983876298
 20
-2.254999999999999
 30
0.0
 40
0.5
  1
40
100
AcDbAttributeDefinition
  3

  2
WEIGHT
 70
     8
280
     0
  0
ATTDEF
  5
10F
330
101
100
AcDbEntity
  8
AM_6
100
AcDbText
 10
8.998037983876298
 20
-2.754999999999999
 30
0.0
 40
0.5
  1
5-3/8
100
AcDbAttributeDefinition
  3

  2
A
 70
     8
280
     0
  0
ATTDEF
  5
110
330
101
100
AcDbEntity
  8
AM_6
100
AcDbText
 10
8.998037983876298
 20
-3.254999999999999
 30
0.0
 40
0.5
  1
5.375000
100
AcDbAttributeDefinition
  3

  2
A1
 70
     8
280
     0
  0
ATTDEF
  5
111
330
101
100
AcDbEntity
  8
AM_6
100
AcDbText
 10
8.998037983876298
 20
-3.754999999999999
 30
0.0
 40
0.5
  1
4-1/2
100
AcDbAttributeDefinition
  3

  2
B
 70
     8
280
     0
  0
ATTDEF
  5
112
330
101
100
AcDbEntity
  8
AM_6
100
AcDbText
 10
8.998037983876298
 20
-4.254999999999999
 30
0.0
 40
0.5
  1
4.500000
100
AcDbAttributeDefinition
  3

  2
B1
 70
     8
280
     0
  0
ATTDEF
  5
113
330
101
100
AcDbEntity
  8
AM_6
100
AcDbText
 10
8.998037983876298
 20
-4.754999999999999
 30
0.0
 40
0.5
  1
2-3/8
100
AcDbAttributeDefinition
  3

  2
C
 70
     8
280
     0
  0
ATTDEF
  5
114
330
101
100
AcDbEntity
  8
AM_6
100
AcDbText
 10
8.998037983876298
 20
-5.254999999999999
 30
0.0
 40
0.5
  1
2.375000
100
AcDbAttributeDefinition
  3

  2
C1
 70
     8
280
     0
  0
ATTDEF
  5
115
330
101
100
AcDbEntity
  8
AM_6
100
AcDbText
 10
8.998037983876298
 20
-5.754999999999999
 30
0.0
 40
0.5
  1
7-7/8
100
AcDbAttributeDefinition
  3

  2
D
 70
     8
280
     0
  0
ATTDEF
  5
116
330
101
100
AcDbEntity
  8
AM_6
100
AcDbText
 10
8.998037983876298
 20
-6.254999999999999
 30
0.0
 40
0.5
  1
7.875000
100
AcDbAttributeDefinition
  3

  2
D1
 70
     8
280
     0
  0
ATTDEF
  5
117
330
101
100
AcDbEntity
  8
AM_6
100
AcDbText
 10
8.998037983876298
 20
-6.754999999999999
 30
0.0
 40
0.5
  1
0.450
100
AcDbAttributeDefinition
  3

  2
E
 70
     8
280
     0
  0
ATTDEF
  5
118
330
101
100
AcDbEntity
  8
AM_6
100
AcDbText
 10
8.998037983876298
 20
-7.254999999999999
 30
0.0
 40
0.5
  1
7.438
100
AcDbAttributeDefinition
  3

  2
EM
 70
     8
280
     0
  0
ATTDEF
  5
119
330
101
100
AcDbEntity
  8
AM_6
100
AcDbText
 10
8.998037983876298
 20
-7.754999999999999
 30
0.0
 40
0.5
  1
7.500
100
AcDbAttributeDefinition
  3

  2
EC
 70
     8
280
     0
  0
ATTDEF
  5
11A
330
101
100
AcDbEntity
  8
AM_6
100
AcDbText
 10
8.998037983876298
 20
-8.254999999999999
 30
0.0
 40
0.5
  1
15/16
100
AcDbAttributeDefinition
  3

  2
H
 70
     8
280
     0
  0
ATTDEF
  5
11B
330
101
100
AcDbEntity
  8
AM_6
100
AcDbText
 10
8.998037983876298
 20
-8.754999999999999
 30
0.0
 40
0.5
  1
0.937500
100
AcDbAttributeDefinition
  3

  2
H1
 70
     8
280
     0
  0
ATTDEF
  5
11C
330
101
100
AcDbEntity
  8
AM_6
100
AcDbText
 10
8.998037983876298
 20
-9.254999999999999
 30
0.0
 40
0.5
  1
5-1/2
100
AcDbAttributeDefinition
  3

  2
J
 70
     8
280
     0
  0
ATTDEF
  5
11D
330
101
100
AcDbEntity
  8
AM_6
100
AcDbText
 10
8.998037983876298
 20
-9.754999999999999
 30
0.0
 40
0.5
  1
5.500000
100
AcDbAttributeDefinition
  3

  2
J1
 70
     8
280
     0
  0
ATTDEF
  5
11E
330
101
100
AcDbEntity
  8
AM_6
100
AcDbText
 10
8.998037983876298
 20
-10.255
 30
0.0
 40
0.5
  1
7.997
100
AcDbAttributeDefinition
  3

  2
K
 70
     8
280
     0
  0
ATTDEF
  5
11F
330
101
100
AcDbEntity
  8
AM_6
100
AcDbText
 10
8.998037983876298
 20
-10.755
 30
0.0
 40
0.5
  1
6
100
AcDbAttributeDefinition
  3

  2
L
 70
     8
280
     0
  0
ATTDEF
  5
120
330
101
100
AcDbEntity
  8
AM_6
100
AcDbText
 10
8.998037983876298
 20
-11.255
 30
0.0
 40
0.5
  1
6.000000
100
AcDbAttributeDefinition
  3

  2
L1
 70
     8
280
     0
  0
ATTDEF
  5
121
330
101
100
AcDbEntity
  8
AM_6
100
AcDbText
 10
8.998037983876298
 20
-11.755
 30
0.0
 40
0.5
  1
5-5/32
100
AcDbAttributeDefinition
  3

  2
M
 70
     8
280
     0
  0
ATTDEF
  5
122
330
101
100
AcDbEntity
  8
AM_6
100
AcDbText
 10
8.998037983876298
 20
-12.255
 30
0.0
 40
0.5
  1
5.156250
100
AcDbAttributeDefinition
  3

  2
M1
 70
     8
280
     0
  0
ATTDEF
  5
123
330
101
100
AcDbEntity
  8
AM_6
100
AcDbText
 10
8.998037983876298
 20
-12.755
 30
0.0
 40
0.5
  1
2-1/8
100
AcDbAttributeDefinition
  3

  2
R
 70
     8
280
     0
  0
ATTDEF
  5
124
330
101
100
AcDbEntity
  8
AM_6
100
AcDbText
 10
8.998037983876298
 20
-13.255
 30
0.0
 40
0.5
  1
2.125000
100
AcDbAttributeDefinition
  3

  2
R1
 70
     8
280
     0
  0
ATTDEF
  5
125
330
101
100
AcDbEntity
  8
AM_6
100
AcDbText
 10
8.998037983876298
 20
-13.755
 30
0.0
 40
0.5
  1
3-1/8
100
AcDbAttributeDefinition
  3

  2
S
 70
     8
280
     0
  0
ATTDEF
  5
126
330
101
100
AcDbEntity
  8
AM_6
100
AcDbText
 10
8.998037983876298
 20
-14.255
 30
0.0
 40
0.5
  1
3.125000
100
AcDbAttributeDefinition
  3

  2
S1
 70
     8
280
     0
  0
ATTDEF
  5
127
330
101
100
AcDbEntity
  8
AM_6
100
AcDbText
 10
8.998037983876298
 20
-14.755
 30
0.0
 40
0.5
  1
4.5000
100
AcDbAttributeDefinition
  3

  2
CC
 70
     8
280
     0
  0
ATTDEF
  5
128
330
101
100
AcDbEntity
  8
AM_6
100
AcDbText
 10
8.998037983876298
 20
-15.255
 30
0.0
 40
0.5
  1
baldor
100
AcDbAttributeDefinition
  3

  2
COMPANY
 70
     8
280
     0
  0
LINE
  5
129
330
101
100
AcDbEntity
  8
AM_9
100
AcDbLine
 10
2.039126437912054
 20
-2.31125
 30
0.0
 11
1.785
 21
-2.31125
 31
0.0
  0
LINE
  5
12A
330
101
100
AcDbEntity
  8
AM_9
100
AcDbLine
 10
1.784292492611981
 20
-2.76125
 30
0.0
 11
2.039187613297675
 21
-2.76125
 31
0.0
  0
LWPOLYLINE
  5
12B
330
101
100
AcDbEntity
  8
AM_9
100
AcDbPolyline
 90
       20
 70
     0
 43
0.0
 10
1.784302021951903
 20
-2.311250000913018
 10
1.773433360334866
 20
-2.312682297987487
 10
1.757308049621584
 20
-2.319896199307964
 10
1.740911473652664
 20
-2.333459325791811
 10
1.725679694539732
 20
-2.352283236778149
 10
1.71135585951987
 20
-2.376876538015194
 10
1.69921991801097
 20
-2.405371354862972
 10
1.689176490314998
 20
-2.438467698597826
 10
1.682213217241052
 20
-2.473402456539904
 10
1.678250766827448
 20
-2.511187965129779
 10
1.677686682346563
 20
-2.548407725329644
 10
1.680482607807715
 20
-2.586353259179499
 10
1.686336265861677
 20
-2.621735294142048
 10
1.695317330250181
 20
-2.655682457123234
 10
1.706601451803254
 20
-2.685506144400941
 10
1.720316448346687
 20
-2.711909083648776
 10
1.735235074205285
 20
-2.732784032297614
 10
1.751575120915037
 20
-2.748592454871778
 10
1.76780044442219
 20
-2.757978411322572
 10
1.784293793481975
 20
-2.761249999998584
  0
LWPOLYLINE
  5
12C
330
101
100
AcDbEntity
  8
AM_9
100
AcDbPolyline
 90
       11
 70
     0
 43
0.0
 10
1.784293793481975
 20
-2.761249999998584
 10
1.784340041635523
 20
-2.761249972994498
 10
1.799678682491228
 20
-2.758160772959689
 10
1.814383901550473
 20
-2.748663296429717
 10
1.827298668535487
 20
-2.733563132626477
 10
1.83892221627488
 20
-2.712435044049171
 10
1.848487817060114
 20
-2.686880549412785
 10
1.856368698604908
 20
-2.656266688093067
 10
1.862075832343203
 20
-2.623049863103182
 10
1.865886723091752
 20
-2.586339350494516
 10
1.867691736325404
 20
-2.53625
  0
LWPOLYLINE
  5
12D
330
101
100
AcDbEntity
  8
AM_9
100
AcDbPolyline
 90
        9
 70
     0
 43
0.0
 10
1.93702321589151
 20
-2.588412880043555
 10
1.942694061852866
 20
-2.622641866418458
 10
1.951407356998517
 20
-2.656123169435802
 10
1.962682210693217
 20
-2.686303304570665
 10
1.976004223568045
 20
-2.71227220416506
 10
1.990937948607801
 20
-2.733305021618226
 10
2.006868841770272
 20
-2.748773892204365
 10
2.023213149371791
 20
-2.758139576756623
 10
2.03919440459512
 20
-2.761249999955852
  0
LWPOLYLINE
  5
12E
330
101
100
AcDbEntity
  8
AM_9
100
AcDbPolyline
 90
        7
 70
     0
 43
0.0
 10
1.946007289745239
 20
-2.435475483106039
 10
1.945185159207061
 20
-2.438797731946896
 10
1.938350997133494
 20
-2.474276801485053
 10
1.934581736783259
 20
-2.51151978657478
 10
1.934090548341808
 20
-2.549313708630257
 10
1.936822596040131
 20
-2.586738102669949
 10
1.93702321589151
 20
-2.588412880043555
  0
LWPOLYLINE
  5
12F
330
101
100
AcDbEntity
  8
AM_9
100
AcDbPolyline
 90
        4
 70
     0
 43
0.0
 10
1.968002449047205
 20
-2.374816319646515
 10
1.966854928901492
 20
-2.377140845649342
 10
1.954833574156847
 20
-2.406130054160529
 10
1.946007289745239
 20
-2.435475483106039
  0
LWPOLYLINE
  5
130
330
101
100
AcDbEntity
  8
AM_9
100
AcDbPolyline
 90
        6
 70
     0
 43
0.0
 10
2.039201260130442
 20
-2.311250000950282
 10
2.028279562718299
 20
-2.312701047689892
 10
2.011989649628048
 20
-2.320127371272295
 10
1.995967266936522
 20
-2.333581329893363
 10
1.980733164539888
 20
-2.352798160063112
 10
1.968002449047205
 20
-2.374816319646515
  0
LWPOLYLINE
  5
131
330
101
100
AcDbEntity
  8
AM_9
100
AcDbPolyline
 90
       11
 70
     0
 43
0.0
 10
2.03919440459512
 20
-2.761249999955852
 10
2.039467711580971
 20
-2.76124905717911
 10
2.055064628899681
 20
-2.757949611171987
 10
2.069676047938172
 20
-2.748453677777138
 10
2.082933770355937
 20
-2.732953202308863
 10
2.094600987894599
 20
-2.711968275253186
 10
2.104496444940662
 20
-2.685895475055087
 10
2.112459014956995
 20
-2.655609686741541
 10
2.118387521002063
 20
-2.621832677330236
 10
2.122235906169265
 20
-2.585621729384564
 10
2.124060048961737
 20
-2.53625
  0
LWPOLYLINE
  5
132
330
101
100
AcDbEntity
  8
AM_9
100
AcDbPolyline
 90
        7
 70
     0
 43
0.0
 10
1.844795836755788
 20
-2.374618662750697
 10
1.842692306748146
 20
-2.369034055551404
 10
1.831659951281415
 20
-2.345869667407921
 10
1.819200506165381
 20
-2.328621882065129
 10
1.804839224151066
 20
-2.316870405652656
 10
1.789765482134061
 20
-2.311628219238126
 10
1.784302021951903
 20
-2.311250000913018
  0
LWPOLYLINE
  5
133
330
101
100
AcDbEntity
  8
AM_9
100
AcDbPolyline
 90
        6
 70
     0
 43
0.0
 10
1.867691736325404
 20
-2.53625
 10
1.866709037551394
 20
-2.49914987010527
 10
1.863647439022438
 20
-2.462049740210539
 10
1.858689022017032
 20
-2.428069940642783
 10
1.851569103940001
 20
-2.396218681006034
 10
1.844795836755788
 20
-2.374618662750697
  0
LINE
  5
134
330
101
100
AcDbEntity
  8
AM_9
100
AcDbLine
 10
1.96875
 20
-3.13
 30
0.0
 11
1.96875
 21
2.245000000000001
 31
0.0
  0
LINE
  5
135
330
101
100
AcDbEntity
  8
AM_9
100
AcDbLine
 10
-1.96875
 20
2.245000000000001
 30
0.0
 11
-1.96875
 21
-3.13
 31
0.0
  0
LWPOLYLINE
  5
136
330
101
100
AcDbEntity
  8
AM_9
100
AcDbPolyline
 90
        4
 70
     0
 43
0.0
 10
-0.1031592801619835
 20
-2.336292097139269
 10
-0.0860999921887288
 20
-2.328375539459266
 10
-0.0493733467459875
 20
-2.316734003701095
 10
0.0
 20
-2.311249999999999
  0
LWPOLYLINE
  5
137
330
101
100
AcDbEntity
  8
AM_9
100
AcDbPolyline
 90
        4
 70
     0
 43
0.0
 10
-0.1565048871265982
 20
-2.374598460243984
 10
-0.1500655131292678
 20
-2.368603521452881
 10
-0.1193609164118716
 20
-2.345519898460368
 10
-0.1031592801619835
 20
-2.336292097139269
  0
LWPOLYLINE
  5
138
330
101
100
AcDbEntity
  8
AM_9
100
AcDbPolyline
 90
        5
 70
     0
 43
0.0
 10
-0.2191739080766462
 20
-2.485379595849749
 10
-0.212203728734428
 20
-2.461453091566527
 10
-0.1969829157129518
 20
-2.427517617899615
 10
-0.1757201114683453
 20
-2.395724406510585
 10
-0.1565048871265982
 20
-2.374598460243984
  0
LWPOLYLINE
  5
139
330
101
100
AcDbEntity
  8
AM_9
100
AcDbPolyline
 90
        6
 70
     0
 43
0.0
 10
0.1563572299956661
 20
-2.374455634745575
 10
0.167330112269694
 20
-2.385831804532125
 10
0.1904771812456769
 20
-2.41648588423613
 10
0.2076919102727132
 20
-2.44971058466068
 10
0.2194111160644542
 20
-2.486412643054124
 10
0.2196452907950656
 20
-2.487455059365226
  0
LWPOLYLINE
  5
13A
330
101
100
AcDbEntity
  8
AM_9
100
AcDbPolyline
 90
        3
 70
     0
 43
0.0
 10
0.1123576721053368
 20
-2.341312180377768
 10
0.1401566134377057
 20
-2.360235444608482
 10
0.1563572299956661
 20
-2.374455634745575
  0
LWPOLYLINE
  5
13B
330
101
100
AcDbEntity
  8
AM_9
100
AcDbPolyline
 90
        5
 70
     0
 43
0.0
 10
0.0
 20
-2.311249999999999
 10
0.0371330714363115
 20
-2.314335297905465
 10
0.0742661428726229
 20
-2.323859934265222
 10
0.1082775274407912
 20
-2.339016693859001
 10
0.1123576721053368
 20
-2.341312180377768
  0
LWPOLYLINE
  5
13C
330
101
100
AcDbEntity
  8
AM_9
100
AcDbPolyline
 90
        7
 70
     0
 43
0.0
 10
2.100387476340148
 20
-2.374577461412769
 10
2.098048083358507
 20
-2.368576703956184
 10
2.086916569423544
 20
-2.345773473176541
 10
2.074054123839108
 20
-2.328369310532592
 10
2.059754958020834
 20
-2.3168391973326
 10
2.044372222161101
 20
-2.311611576113326
 10
2.039201260130442
 20
-2.311250000950282
  0
LWPOLYLINE
  5
13D
330
101
100
AcDbEntity
  8
AM_9
100
AcDbPolyline
 90
        4
 70
     0
 43
0.0
 10
2.114715383030755
 20
-2.428069746040839
 10
2.114602320148006
 20
-2.427513558525199
 10
2.107330850616346
 20
-2.396095501098758
 10
2.100387476340148
 20
-2.374577461412769
  0
LINE
  5
13E
330
101
100
AcDbEntity
  8
AM_9
100
AcDbLine
 10
2.116291974337587
 20
-2.436941184274037
 30
0.0
 11
2.114715383030755
 21
-2.428069746040839
 31
0.0
  0
LWPOLYLINE
  5
13F
330
101
100
AcDbEntity
  8
AM_9
100
AcDbPolyline
 90
        4
 70
     0
 43
0.0
 10
2.124060048961737
 20
-2.53625
 10
2.122999582499049
 20
-2.498585363636072
 10
2.119847102532797
 20
-2.461984959217297
 10
2.116291974337587
 20
-2.436941184274037
  0
LINE
  5
140
330
101
100
AcDbEntity
  8
AM_9
100
AcDbLine
 10
2.25
 20
-3.13
 30
0.0
 11
2.25
 21
-1.9425
 31
0.0
  0
LINE
  5
141
330
101
100
AcDbEntity
  8
AM_9
100
AcDbLine
 10
-2.25
 20
-1.9425
 30
0.0
 11
-2.25
 21
-3.13
 31
0.0
  0
LINE
  5
142
330
101
100
AcDbEntity
  8
AM_9
100
AcDbLine
 10
-2.5
 20
2.245000000000001
 30
0.0
 11
-2.5
 21
1.495
 31
0.0
  0
LINE
  5
143
330
101
100
AcDbEntity
  8
AM_9
100
AcDbLine
 10
2.5
 20
1.495
 30
0.0
 11
2.5
 21
2.245000000000001
 31
0.0
  0
LINE
  5
144
330
101
100
AcDbEntity
  8
AM_9
100
AcDbLine
 10
-3.076923076923077
 20
-1.9425
 30
0.0
 11
3.076923076923077
 21
-1.9425
 31
0.0
  0
LINE
  5
145
330
101
100
AcDbEntity
  8
AM_9
100
AcDbLine
 10
-3.076923076923077
 20
-1.9425
 30
0.0
 11
-3.132025258394473
 21
-2.254999999999999
 31
0.0
  0
LINE
  5
146
330
101
100
AcDbEntity
  8
AM_9
100
AcDbLine
 10
3.132025258394473
 20
-2.254999999999999
 30
0.0
 11
3.076923076923077
 21
-1.9425
 31
0.0
  0
LINE
  5
147
330
101
100
AcDbEntity
  8
AM_9
100
AcDbLine
 10
3.076923076923077
 20
1.495
 30
0.0
 11
3.209168312454426
 21
2.245000000000001
 31
0.0
  0
LINE
  5
148
330
101
100
AcDbEntity
  8
AM_9
100
AcDbLine
 10
-3.209168312454426
 20
2.245000000000001
 30
0.0
 11
-3.076923076923077
 21
1.495
 31
0.0
  0
LINE
  5
149
330
101
100
AcDbEntity
  8
AM_9
100
AcDbLine
 10
3.076923076923077
 20
1.495
 30
0.0
 11
-3.076923076923077
 21
1.495
 31
0.0
  0
LINE
  5
14A
330
101
100
AcDbEntity
  8
AM_9
100
AcDbLine
 10
-3.629416668001562
 20
-2.254999999999999
 30
0.0
 11
3.629416667991705
 21
-2.254999999999999
 31
0.0
  0
ARC
  5
14B
330
101
100
AcDbEntity
  8
AM_9
100
AcDbCircle
 10
3.629416666666665
 20
-2.165416666666665
 30
0.0
 40
0.0895833333333345
100
AcDbArc
 50
270.0
 51
0.0
  0
ARC
  5
14C
330
101
100
AcDbEntity
  8
AM_9
100
AcDbCircle
 10
-3.629416666666665
 20
-2.165416666666665
 30
0.0
 40
0.0895833333333345
100
AcDbArc
 50
180.0
 51
270.0
  0
LINE
  5
14D
330
101
100
AcDbEntity
  8
AM_9
100
AcDbLine
 10
-3.719
 20
-2.165416666666667
 30
0.0
 11
3.719
 21
-2.165416666666667
 31
0.0
  0
LINE
  5
14E
330
101
100
AcDbEntity
  8
AM_9
100
AcDbLine
 10
3.719
 20
-2.165416666666667
 30
0.0
 11
3.719
 21
-1.1925
 31
0.0
  0
LINE
  5
14F
330
101
100
AcDbEntity
  8
AM_9
100
AcDbLine
 10
-3.719
 20
-1.1925
 30
0.0
 11
-3.719
 21
-2.165416666666667
 31
0.0
  0
LINE
  5
150
330
101
100
AcDbEntity
  8
AM_9
100
AcDbLine
 10
-3.660416666666666
 20
2.245
 30
0.0
 11
3.660416666656825
 21
2.245
 31
0.0
  0
ARC
  5
151
330
101
100
AcDbEntity
  8
AM_9
100
AcDbCircle
 10
3.660416666666667
 20
2.155416666666667
 30
0.0
 40
0.0895833333333331
100
AcDbArc
 50
0.0000008537736463
 51
90.0
  0
ARC
  5
152
330
101
100
AcDbEntity
  8
AM_9
100
AcDbCircle
 10
-3.660416666666667
 20
2.155416666666667
 30
0.0
 40
0.0895833333333331
100
AcDbArc
 50
90.0
 51
179.9999991462263
  0
LINE
  5
153
330
101
100
AcDbEntity
  8
AM_9
100
AcDbLine
 10
-3.75
 20
1.1825
 30
0.0
 11
3.75
 21
1.1825
 31
0.0
  0
LINE
  5
154
330
101
100
AcDbEntity
  8
AM_9
100
AcDbLine
 10
-3.75
 20
2.155416666666667
 30
0.0
 11
3.75
 21
2.155416666666667
 31
0.0
  0
LINE
  5
155
330
101
100
AcDbEntity
  8
AM_9
100
AcDbLine
 10
3.75
 20
1.1825
 30
0.0
 11
3.75
 21
2.155416666666667
 31
0.0
  0
LINE
  5
156
330
101
100
AcDbEntity
  8
AM_9
100
AcDbLine
 10
-3.75
 20
2.155416666666667
 30
0.0
 11
-3.75
 21
1.1825
 31
0.0
  0
LINE
  5
157
330
101
100
AcDbEntity
  8
AM_9
100
AcDbLine
 10
-3.92753131750722
 20
-1.192500000000002
 30
0.0
 11
3.927531317507207
 21
-1.192500000000002
 31
0.0
  0
ARC
  5
158
330
101
100
AcDbEntity
  8
AM_9
100
AcDbCircle
 10
0.0
 20
-0.4424999999999948
 30
0.0
 40
1.084919351841413
100
AcDbArc
 50
79.8418809282881
 51
100.1581190717119
  0
ARC
  5
159
330
101
100
AcDbEntity
  8
AM_9
100
AcDbCircle
 10
-0.0000000000012101
 20
-0.4425000000001383
 30
0.0
 40
3.99850000000115
100
AcDbArc
 50
349.1889742099746
 51
23.97903869291033
  0
ARC
  5
15A
330
101
100
AcDbEntity
  8
AM_9
100
AcDbCircle
 10
0.0000000000002722
 20
-0.4425000000000301
 30
0.0
 40
3.998500000000249
100
AcDbArc
 50
156.0209613070856
 51
190.8110257900295
  0
LWPOLYLINE
  5
15B
330
101
100
AcDbEntity
  8
AM_9
100
AcDbPolyline
 90
       64
 70
     0
 43
0.0
 10
0.191342111082989
 20
0.6254130098122729
 10
0.2416972119203341
 20
0.6075183192850518
 10
0.2907186937540862
 20
0.5853725799393413
 10
0.3387101585153147
 20
0.5586334048642433
 10
0.3845634331202953
 20
0.52769832421665
 10
0.4651012327353666
 20
0.4572034045171458
 10
0.5015475925813622
 20
0.4162037532344624
 10
0.5346004626525189
 20
0.3719627773152361
 10
0.5629500418881513
 20
0.3265048870275551
 10
0.5878292740813921
 20
0.2780196300940388
 10
0.6085445291580375
 20
0.2276381912409953
 10
0.6251990493006594
 20
0.1747666222674772
 10
0.636988520454563
 20
0.1222421774390123
 10
0.6444626465619033
 20
0.0679756031649492
 10
0.6473333501152733
 20
0.0132764601249195
 10
0.6454943921872709
 20
-0.0424579081332035
 10
0.6391525422864965
 20
-0.0960790166195517
 10
0.6282743251586715
 20
-0.1493601128789239
 10
0.6125780951612059
 20
-0.2026781904546899
 10
0.5921949595975492
 20
-0.2548484776215024
 10
0.5683493274644867
 20
-0.303292460485557
 10
0.539996584399377
 20
-0.3504148634244341
 10
0.5077375340720843
 20
-0.3949884819614323
 10
0.4710927067467309
 20
-0.4374200090668633
 10
0.4325773495974113
 20
-0.4750337225998122
 10
0.3902665585455754
 20
-0.5099207410983609
 10
0.3451358060267441
 20
-0.5411237175595823
 10
0.2965975996683498
 20
-0.5688671136985106
 10
0.2479910236188834
 20
-0.5914333868699393
 10
0.1967403987479736
 20
-0.6101989084079461
 10
0.1440768339693901
 20
-0.6245914418195647
 10
0.0893779437697292
 20
-0.63463152784484
 10
0.0362654322603099
 20
-0.639816281502571
 10
-0.0180557300616158
 20
-0.6405771600501353
 10
-0.07224829830537
 20
-0.636787655194765
 10
-0.12689894578546
 20
-0.6282696200167898
 10
-0.2295150910586419
 20
-0.5987676596056031
 10
-0.2798399565893211
 20
-0.5772031337361134
 10
-0.3284873187380656
 20
-0.551271442340363
 10
-0.4157659799984599
 20
-0.4896237936839508
 10
-0.45621486376877
 20
-0.4526981529613308
 10
-0.4936359351485091
 20
-0.412206173246193
 10
-0.5265192719724244
 20
-0.3700199467168381
 10
-0.5562759575888891
 20
-0.3244724894422452
 10
-0.5821002366398067
 20
-0.2766153785599101
 10
-0.6041576680434296
 20
-0.2258709405028652
 10
-0.6213578666781737
 20
-0.1749618650353081
 10
-0.6344620358122185
 20
-0.1218831724855241
 10
-0.6430501676245731
 20
-0.0679022424488843
 10
-0.6470826528472642
 20
-0.0124124428533534
 10
-0.6464321897237988
 20
0.0415268753543127
 10
-0.6411596563418102
 20
0.0961815617775967
 10
-0.6312840751012816
 20
0.1502017552871391
 10
-0.6165573154564555
 20
0.204153502462449
 10
-0.5979662230126617
 20
0.2548699120727025
 10
-0.5750316634456487
 20
0.3042138926456971
 10
-0.5473874563990949
 20
0.3524885941789814
 10
-0.5154352066892232
 20
0.3985648442522418
 10
-0.4810626805660493
 20
0.4401036393164463
 10
-0.4426165398448783
 20
0.4793249882878396
 10
-0.4009661776804012
 20
0.5151721912037952
 10
-0.3555493460973216
 20
0.5479303567055843
 10
-0.2770320135700911
 20
0.5920535694012241
 10
-0.191342111082989
 20
0.6254130098122729
  0
ARC
  5
15C
330
101
100
AcDbEntity
  8
AM_9
100
AcDbCircle
 10
0.0
 20
-0.0049999999999988
 30
0.0
 40
0.6588113283894428
100
AcDbArc
 50
73.11597729358462
 51
106.8840227064154
  0
CIRCLE
  5
15D
330
101
100
AcDbEntity
  8
AM_9
100
AcDbCircle
 10
0.0
 20
-0.0049999999999996
 30
0.0
 40
0.430316369154144
  0
CIRCLE
  5
15E
330
101
100
AcDbEntity
  8
AM_9
100
AcDbCircle
 10
0.0
 20
-0.0049999999999996
 30
0.0
 40
0.474762344480925
  0
LINE
  5
15F
330
101
100
AcDbEntity
  8
AM_7
100
AcDbLine
 10
-0.4985004617049713
 20
-0.0049999999999996
 30
0.0
 11
0.4985004617049713
 21
-0.0049999999999996
 31
0.0
  0
LWPOLYLINE
  5
160
330
101
100
AcDbEntity
  8
AM_4
100
AcDbPolyline
 90
       23
 70
     0
 43
0.0
 10
0.2196452907950656
 20
-2.487455059365226
 10
0.2246307973330274
 20
-2.523365711524172
 10
0.2235487210753909
 20
-2.561764100132223
 10
0.2162931460988061
 20
-2.598236086750823
 10
0.2026693192641288
 20
-2.633974853691447
 10
0.1837811939093321
 20
-2.666055519009249
 10
0.1591110891962872
 20
-2.695336961422899
 10
0.1305778935402657
 20
-2.719483222202163
 10
0.0974532439461163
 20
-2.739050062239583
 10
0.0625091200708757
 20
-2.752392568477301
 10
0.0247324258149951
 20
-2.759886551380372
 10
-0.0125195855190966
 20
-2.760901418821315
 10
-0.0504867495252747
 20
-2.755512600829171
 10
-0.0859047827360651
 20
-2.744205207443982
 10
-0.1198751077874091
 20
-2.726657348946822
 10
-0.1496681061683388
 20
-2.704251363077752
 10
-0.176023379775963
 20
-2.67639553068952
 10
-0.1968112145719945
 20
-2.645292862300548
 10
-0.2125242015769837
 20
-2.610131416770833
 10
-0.2218212732568922
 20
-2.573937169311202
 10
-0.2249990505247947
 20
-2.535596346467242
 10
-0.2218131923983043
 20
-2.498515298754689
 10
-0.2191739080766462
 20
-2.485379595849749
  0
ENDBLK
  5
104
330
101
100
AcDbEntity
  8
0
100
AcDbBlockEnd
  0
BLOCK
  5
163
330
161
100
AcDbEntity
  8
0
100
AcDbBlockBegin
  2
5_P2B_K_315R_0_in_023188_4
 70
     2
 10
0.0
 20
0.0
 30
0.0
  3
5_P2B_K_315R_0_in_023188_4
  1

  0
ATTDEF
  5
165
330
161
100
AcDbEntity
  8
AM_6
100
AcDbText
 10
13.72
 20
2.985714285714286
 30
0.0
 40
0.5
  1
2 & 4 Bolt Base - Body - Inch
100
AcDbAttributeDefinition
  3

  2
NN
 70
     8
280
     0
  0
ATTDEF
  5
166
330
161
100
AcDbEntity
  8
AM_6
100
AcDbText
 10
13.72
 20
2.485714285714286
 30
0.0
 40
0.5
  1
Type K
100
AcDbAttributeDefinition
  3

  2
NT
 70
     8
280
     0
  0
ATTDEF
  5
167
330
161
100
AcDbEntity
  8
AM_6
100
AcDbText
 10
13.72
 20
1.985714285714286
 30
0.0
 40
0.5
  1
P2B-K-315R
100
AcDbAttributeDefinition
  3

  2
NB
 70
     8
280
     0
  0
ATTDEF
  5
168
330
161
100
AcDbEntity
  8
AM_6
100
AcDbText
 10
13.72
 20
1.485714285714286
 30
0.0
 40
0.5
  1
$PN.
100
AcDbAttributeDefinition
  3

  2
NBSYN
 70
     8
280
     0
  0
ATTDEF
  5
169
330
161
100
AcDbEntity
  8
AM_6
100
AcDbText
 10
13.72
 20
0.9857142857142858
 30
0.0
 40
0.5
  1
P2B-K-315R
100
AcDbAttributeDefinition
  3

  2
LINA
 70
     8
280
     0
  0
ATTDEF
  5
16A
330
161
100
AcDbEntity
  8
AM_6
100
AcDbText
 10
13.72
 20
0.4857142857142858
 30
0.0
 40
0.5
  1
3-15/16
100
AcDbAttributeDefinition
  3

  2
SS
 70
     8
280
     0
  0
ATTDEF
  5
16B
330
161
100
AcDbEntity
  8
AM_6
100
AcDbText
 10
13.72
 20
-0.0142857142857142
 30
0.0
 40
0.5
  1
3.937500
100
AcDbAttributeDefinition
  3

  2
SS1
 70
     8
280
     0
  0
ATTDEF
  5
16C
330
161
100
AcDbEntity
  8
AM_6
100
AcDbText
 10
13.72
 20
-0.5142857142857142
 30
0.0
 40
0.5
  1
7.875000
100
AcDbAttributeDefinition
  3

  2
BORE
 70
     8
280
     0
  0
ATTDEF
  5
16D
330
161
100
AcDbEntity
  8
AM_6
100
AcDbText
 10
13.72
 20
-1.014285714285714
 30
0.0
 40
0.5
  1
P2B-K-315R
100
AcDbAttributeDefinition
  3

  2
PN
 70
     8
280
     0
  0
ATTDEF
  5
16E
330
161
100
AcDbEntity
  8
AM_6
100
AcDbText
 10
13.72
 20
-1.514285714285714
 30
0.0
 40
0.5
  1
P2B-K-315R
100
AcDbAttributeDefinition
  3

  2
PNA
 70
     8
280
     0
  0
ATTDEF
  5
16F
330
161
100
AcDbEntity
  8
AM_6
100
AcDbText
 10
13.72
 20
-2.014285714285714
 30
0.0
 40
0.5
  1
106
100
AcDbAttributeDefinition
  3

  2
WEIGHT
 70
     8
280
     0
  0
ATTDEF
  5
170
330
161
100
AcDbEntity
  8
AM_6
100
AcDbText
 10
13.72
 20
-2.514285714285714
 30
0.0
 40
0.5
  1
5.41
100
AcDbAttributeDefinition
  3

  2
A
 70
     8
280
     0
  0
ATTDEF
  5
171
330
161
100
AcDbEntity
  8
AM_6
100
AcDbText
 10
13.72
 20
-3.014285714285714
 30
0.0
 40
0.5
  1
5.410000
100
AcDbAttributeDefinition
  3

  2
A1
 70
     8
280
     0
  0
ATTDEF
  5
172
330
161
100
AcDbEntity
  8
AM_6
100
AcDbText
 10
13.72
 20
-3.514285714285714
 30
0.0
 40
0.5
  1
17.44
100
AcDbAttributeDefinition
  3

  2
B
 70
     8
280
     0
  0
ATTDEF
  5
173
330
161
100
AcDbEntity
  8
AM_6
100
AcDbText
 10
13.72
 20
-4.014285714285714
 30
0.0
 40
0.5
  1
17.440000
100
AcDbAttributeDefinition
  3

  2
B1
 70
     8
280
     0
  0
ATTDEF
  5
174
330
161
100
AcDbEntity
  8
AM_6
100
AcDbText
 10
13.72
 20
-4.514285714285714
 30
0.0
 40
0.5
  1
4.75
100
AcDbAttributeDefinition
  3

  2
C
 70
     8
280
     0
  0
ATTDEF
  5
175
330
161
100
AcDbEntity
  8
AM_6
100
AcDbText
 10
13.72
 20
-5.014285714285714
 30
0.0
 40
0.5
  1
4.750000
100
AcDbAttributeDefinition
  3

  2
C1
 70
     8
280
     0
  0
ATTDEF
  5
176
330
161
100
AcDbEntity
  8
AM_6
100
AcDbText
 10
13.72
 20
-5.514285714285714
 30
0.0
 40
0.5
  1
13.12
100
AcDbAttributeDefinition
  3

  2
DMIN
 70
     8
280
     0
  0
ATTDEF
  5
177
330
161
100
AcDbEntity
  8
AM_6
100
AcDbText
 10
13.72
 20
-6.014285714285714
 30
0.0
 40
0.5
  1
13.120000
100
AcDbAttributeDefinition
  3

  2
DMIN1
 70
     8
280
     0
  0
ATTDEF
  5
178
330
161
100
AcDbEntity
  8
AM_6
100
AcDbText
 10
13.72
 20
-6.514285714285714
 30
0.0
 40
0.5
  1
14.75
100
AcDbAttributeDefinition
  3

  2
DMAX
 70
     8
280
     0
  0
ATTDEF
  5
179
330
161
100
AcDbEntity
  8
AM_6
100
AcDbText
 10
13.72
 20
-7.014285714285714
 30
0.0
 40
0.5
  1
14.750000
100
AcDbAttributeDefinition
  3

  2
DMAX1
 70
     8
280
     0
  0
ATTDEF
  5
17A
330
161
100
AcDbEntity
  8
AM_6
100
AcDbText
 10
13.72
 20
-7.514285714285714
 30
0.0
 40
0.5
  1
3/4
100
AcDbAttributeDefinition
  3

  2
F
 70
     8
280
     0
  0
ATTDEF
  5
17B
330
161
100
AcDbEntity
  8
AM_6
100
AcDbText
 10
13.72
 20
-8.014285714285714
 30
0.0
 40
0.5
  1
0.750000
100
AcDbAttributeDefinition
  3

  2
F1
 70
     8
280
     0
  0
ATTDEF
  5
17C
330
161
100
AcDbEntity
  8
AM_6
100
AcDbText
 10
13.72
 20
-8.514285714285714
 30
0.0
 40
0.5
  1
1.70
100
AcDbAttributeDefinition
  3

  2
G
 70
     8
280
     0
  0
ATTDEF
  5
17D
330
161
100
AcDbEntity
  8
AM_6
100
AcDbText
 10
13.72
 20
-9.014285714285714
 30
0.0
 40
0.5
  1
1.700000
100
AcDbAttributeDefinition
  3

  2
G1
 70
     8
280
     0
  0
ATTDEF
  5
17E
330
161
100
AcDbEntity
  8
AM_6
100
AcDbText
 10
13.72
 20
-9.514285714285714
 30
0.0
 40
0.5
  1
2.75
100
AcDbAttributeDefinition
  3

  2
H
 70
     8
280
     0
  0
ATTDEF
  5
17F
330
161
100
AcDbEntity
  8
AM_6
100
AcDbText
 10
13.72
 20
-10.01428571428571
 30
0.0
 40
0.5
  1
2.750000
100
AcDbAttributeDefinition
  3

  2
H1
 70
     8
280
     0
  0
ATTDEF
  5
180
330
161
100
AcDbEntity
  8
AM_6
100
AcDbText
 10
13.72
 20
-10.51428571428571
 30
0.0
 40
0.5
  1
10.42
100
AcDbAttributeDefinition
  3

  2
J
 70
     8
280
     0
  0
ATTDEF
  5
181
330
161
100
AcDbEntity
  8
AM_6
100
AcDbText
 10
13.72
 20
-11.01428571428571
 30
0.0
 40
0.5
  1
10.420000
100
AcDbAttributeDefinition
  3

  2
J1
 70
     8
280
     0
  0
ATTDEF
  5
182
330
161
100
AcDbEntity
  8
AM_6
100
AcDbText
 10
13.72
 20
-11.51428571428571
 30
0.0
 40
0.5
  1
6.00
100
AcDbAttributeDefinition
  3

  2
L
 70
     8
280
     0
  0
ATTDEF
  5
183
330
161
100
AcDbEntity
  8
AM_6
100
AcDbText
 10
13.72
 20
-12.01428571428571
 30
0.0
 40
0.5
  1
6.000000
100
AcDbAttributeDefinition
  3

  2
L1
 70
     8
280
     0
  0
ATTDEF
  5
184
330
161
100
AcDbEntity
  8
AM_6
100
AcDbText
 10
13.72
 20
-12.51428571428571
 30
0.0
 40
0.5
  1
5.00
100
AcDbAttributeDefinition
  3

  2
M
 70
     8
280
     0
  0
ATTDEF
  5
185
330
161
100
AcDbEntity
  8
AM_6
100
AcDbText
 10
13.72
 20
-13.01428571428571
 30
0.0
 40
0.5
  1
5.000000
100
AcDbAttributeDefinition
  3

  2
M1
 70
     8
280
     0
  0
ATTDEF
  5
186
330
161
100
AcDbEntity
  8
AM_6
100
AcDbText
 10
13.72
 20
-13.51428571428571
 30
0.0
 40
0.5
  1
10.71
100
AcDbAttributeDefinition
  3

  2
P
 70
     8
280
     0
  0
ATTDEF
  5
187
330
161
100
AcDbEntity
  8
AM_6
100
AcDbText
 10
13.72
 20
-14.01428571428571
 30
0.0
 40
0.5
  1
10.710000
100
AcDbAttributeDefinition
  3

  2
P1
 70
     8
280
     0
  0
ATTDEF
  5
188
330
161
100
AcDbEntity
  8
AM_6
100
AcDbText
 10
13.72
 20
-14.51428571428571
 30
0.0
 40
0.5
  1
2.13
100
AcDbAttributeDefinition
  3

  2
R
 70
     8
280
     0
  0
ATTDEF
  5
189
330
161
100
AcDbEntity
  8
AM_6
100
AcDbText
 10
13.72
 20
-15.01428571428571
 30
0.0
 40
0.5
  1
2.130000
100
AcDbAttributeDefinition
  3

  2
R1
 70
     8
280
     0
  0
ATTDEF
  5
18A
330
161
100
AcDbEntity
  8
AM_6
100
AcDbText
 10
13.72
 20
-15.51428571428571
 30
0.0
 40
0.5
  1
3.13
100
AcDbAttributeDefinition
  3

  2
S
 70
     8
280
     0
  0
ATTDEF
  5
18B
330
161
100
AcDbEntity
  8
AM_6
100
AcDbText
 10
13.72
 20
-16.01428571428571
 30
0.0
 40
0.5
  1
3.130000
100
AcDbAttributeDefinition
  3

  2
S1
 70
     8
280
     0
  0
ATTDEF
  5
18C
330
161
100
AcDbEntity
  8
AM_6
100
AcDbText
 10
13.72
 20
-16.51428571428571
 30
0.0
 40
0.5
  1
0.343750
100
AcDbAttributeDefinition
  3

  2
EXP1
 70
     8
280
     0
  0
ATTDEF
  5
18D
330
161
100
AcDbEntity
  8
AM_6
100
AcDbText
 10
13.72
 20
-17.01428571428571
 30
0.0
 40
0.5
  1
2
100
AcDbAttributeDefinition
  3

  2
HF
 70
     8
280
     0
  0
ATTDEF
  5
18E
330
161
100
AcDbEntity
  8
AM_6
100
AcDbText
 10
13.72
 20
-17.51428571428571
 30
0.0
 40
0.5
  1
.34
100
AcDbAttributeDefinition
  3

  2
T
 70
     8
280
     0
  0
ATTDEF
  5
18F
330
161
100
AcDbEntity
  8
AM_6
100
AcDbText
 10
13.72
 20
-18.01428571428571
 30
0.0
 40
0.5
  1
154000
100
AcDbAttributeDefinition
  3

  2
CS
 70
     8
280
     0
  0
ATTDEF
  5
190
330
161
100
AcDbEntity
  8
AM_6
100
AcDbText
 10
13.72
 20
-18.51428571428571
 30
0.0
 40
0.5
  1
21000
100
AcDbAttributeDefinition
  3

  2
CD
 70
     8
280
     0
  0
ATTDEF
  5
191
330
161
100
AcDbEntity
  8
AM_6
100
AcDbText
 10
13.72
 20
-19.01428571428571
 30
0.0
 40
0.5
  1
26
100
AcDbAttributeDefinition
  3

  2
RN
 70
     8
280
     0
  0
ATTDEF
  5
192
330
161
100
AcDbEntity
  8
AM_6
100
AcDbText
 10
13.72
 20
-19.51428571428571
 30
0.0
 40
0.5
  1
.51
100
AcDbAttributeDefinition
  3

  2
RM
 70
     8
280
     0
  0
ATTDEF
  5
193
330
161
100
AcDbEntity
  8
AM_6
100
AcDbText
 10
13.72
 20
-20.01428571428571
 30
0.0
 40
0.5
  1
5.12
100
AcDbAttributeDefinition
  3

  2
PDI
 70
     8
280
     0
  0
ATTDEF
  5
194
330
161
100
AcDbEntity
  8
AM_6
100
AcDbText
 10
13.72
 20
-20.51428571428571
 30
0.0
 40
0.5
  1
.008-.012
100
AcDbAttributeDefinition
  3

  2
EP
 70
     8
280
     0
  0
ATTDEF
  5
195
330
161
100
AcDbEntity
  8
AM_6
100
AcDbText
 10
13.72
 20
-21.01428571428571
 30
0.0
 40
0.5
  1
5/8-11*1
100
AcDbAttributeDefinition
  3

  2
CSS
 70
     8
280
     0
  0
ATTDEF
  5
196
330
161
100
AcDbEntity
  8
AM_6
100
AcDbText
 10
13.72
 20
-21.51428571428571
 30
0.0
 40
0.5
  1
1325
100
AcDbAttributeDefinition
  3

  2
CST
 70
     8
280
     0
  0
ATTDEF
  5
197
330
161
100
AcDbEntity
  8
AM_6
100
AcDbText
 10
13.72
 20
-22.01428571428571
 30
0.0
 40
0.5
  1
C.I. ASTM A48 CLASS 30
100
AcDbAttributeDefinition
  3

  2
MH
 70
     8
280
     0
  0
ATTDEF
  5
198
330
161
100
AcDbEntity
  8
AM_6
100
AcDbText
 10
13.72
 20
-22.51428571428571
 30
0.0
 40
0.5
  1
4118 CASE CARB.
100
AcDbAttributeDefinition
  3

  2
MC
 70
     8
280
     0
  0
ATTDEF
  5
199
330
161
100
AcDbEntity
  8
AM_6
100
AcDbText
 10
13.72
 20
-23.01428571428571
 30
0.0
 40
0.5
  1
4118 CASE CARB.
100
AcDbAttributeDefinition
  3

  2
MCU
 70
     8
280
     0
  0
ATTDEF
  5
19A
330
161
100
AcDbEntity
  8
AM_6
100
AcDbText
 10
13.72
 20
-23.51428571428571
 30
0.0
 40
0.5
  1
STEEL
100
AcDbAttributeDefinition
  3

  2
MR
 70
     8
280
     0
  0
ATTDEF
  5
19B
330
161
100
AcDbEntity
  8
AM_6
100
AcDbText
 10
13.72
 20
-24.01428571428571
 30
0.0
 40
0.5
  1
4118 CASE CARB.
100
AcDbAttributeDefinition
  3

  2
MRO
 70
     8
280
     0
  0
ATTDEF
  5
19C
330
161
100
AcDbEntity
  8
AM_6
100
AcDbText
 10
13.72
 20
-24.51428571428571
 30
0.0
 40
0.5
  1
3.55*
100
AcDbAttributeDefinition
  3

  2
SM
 70
     8
280
     0
  0
ATTDEF
  5
19D
330
161
100
AcDbEntity
  8
AM_6
100
AcDbText
 10
13.72
 20
-25.01428571428571
 30
0.0
 40
0.5
  1
baldor
100
AcDbAttributeDefinition
  3

  2
COMPANY
 70
     8
280
     0
  0
LINE
  5
19E
330
161
100
AcDbEntity
  8
AM_9
100
AcDbLine
 10
5.191022648956821
 20
-2.375
 30
0.0
 11
4.76125
 21
-2.375
 31
0.0
  0
LINE
  5
19F
330
161
100
AcDbEntity
  8
AM_9
100
AcDbLine
 10
5.191022648956824
 20
2.375
 30
0.0
 11
4.76125
 21
2.375
 31
0.0
  0
LINE
  5
1A0
330
161
100
AcDbEntity
  8
AM_9
100
AcDbLine
 10
-4.76125
 20
-2.375
 30
0.0
 11
-5.19102264895682
 21
-2.375
 31
0.0
  0
LINE
  5
1A1
330
161
100
AcDbEntity
  8
AM_9
100
AcDbLine
 10
-4.76125
 20
2.375
 30
0.0
 11
-5.191022648956823
 21
2.375
 31
0.0
  0
LINE
  5
1A2
330
161
100
AcDbEntity
  8
AM_9
100
AcDbLine
 10
3.9375
 20
-2.261904761904762
 30
0.0
 11
3.9375
 21
2.261904761904762
 31
0.0
  0
LINE
  5
1A3
330
161
100
AcDbEntity
  8
AM_9
100
AcDbLine
 10
-3.9375
 20
2.261904761904762
 30
0.0
 11
-3.9375
 21
-2.261904761904762
 31
0.0
  0
LINE
  5
1A4
330
161
100
AcDbEntity
  8
AM_9
100
AcDbLine
 10
-4.256756756756754
 20
-2.475
 30
0.0
 11
-4.256756756756754
 21
-2.371904761904761
 31
0.0
  0
LINE
  5
1A5
330
161
100
AcDbEntity
  8
AM_9
100
AcDbLine
 10
4.256756756756754
 20
-2.371904761904761
 30
0.0
 11
4.256756756756754
 21
-2.475
 31
0.0
  0
LINE
  5
1A6
330
161
100
AcDbEntity
  8
AM_9
100
AcDbLine
 10
-4.256756756756754
 20
-2.371904761904761
 30
0.0
 11
4.256756756756754
 21
-2.371904761904761
 31
0.0
  0
LINE
  5
1A7
330
161
100
AcDbEntity
  8
AM_9
100
AcDbLine
 10
-4.146756756756754
 20
-2.261904761904762
 30
0.0
 11
4.146756756746148
 21
-2.261904761904762
 31
0.0
  0
ARC
  5
1A8
330
161
100
AcDbEntity
  8
AM_9
100
AcDbCircle
 10
4.146756756756754
 20
-2.371904761904762
 30
0.0
 40
0.1100000000000003
100
AcDbArc
 50
0.0
 51
90.0
  0
ARC
  5
1A9
330
161
100
AcDbEntity
  8
AM_9
100
AcDbCircle
 10
-4.146756756756754
 20
-2.371904761904762
 30
0.0
 40
0.1100000000000003
100
AcDbArc
 50
90.0
 51
180.0
  0
LINE
  5
1AA
330
161
100
AcDbEntity
  8
AM_9
100
AcDbLine
 10
4.256756756756756
 20
2.475000000000001
 30
0.0
 11
4.256756756756756
 21
2.371904761904761
 31
0.0
  0
LINE
  5
1AB
330
161
100
AcDbEntity
  8
AM_9
100
AcDbLine
 10
-4.256756756756756
 20
2.371904761904761
 30
0.0
 11
-4.256756756756756
 21
2.475000000000001
 31
0.0
  0
LINE
  5
1AC
330
161
100
AcDbEntity
  8
AM_9
100
AcDbLine
 10
-4.146756756756756
 20
2.261904761904762
 30
0.0
 11
4.146756756746151
 21
2.261904761904762
 31
0.0
  0
LINE
  5
1AD
330
161
100
AcDbEntity
  8
AM_9
100
AcDbLine
 10
-4.256756756756756
 20
2.371904761904761
 30
0.0
 11
4.256756756756756
 21
2.371904761904761
 31
0.0
  0
ARC
  5
1AE
330
161
100
AcDbEntity
  8
AM_9
100
AcDbCircle
 10
4.146756756756758
 20
2.37190476190476
 30
0.0
 40
0.1099999999999981
100
AcDbArc
 50
270.0
 51
0.0000008537736463
  0
ARC
  5
1AF
330
161
100
AcDbEntity
  8
AM_9
100
AcDbCircle
 10
-4.146756756756757
 20
2.371904761904761
 30
0.0
 40
0.1099999999999994
100
AcDbArc
 50
180.0
 51
270.0
  0
CIRCLE
  5
1B0
330
161
100
AcDbEntity
  8
AM_9
100
AcDbCircle
 10
0.0
 20
0.0000000000000003
 30
0.0
 40
1.1875
  0
LINE
  5
1B1
330
161
100
AcDbEntity
  8
AM_7
100
AcDbLine
 10
3.9721875
 20
1.484375
 30
0.0
 11
4.9565625
 21
1.484375
 31
0.0
  0
LINE
  5
1B2
330
161
100
AcDbEntity
  8
AM_7
100
AcDbLine
 10
4.464375
 20
0.9921875000000002
 30
0.0
 11
4.464375
 21
1.9765625
 31
0.0
  0
LINE
  5
1B3
330
161
100
AcDbEntity
  8
AM_7
100
AcDbLine
 10
-4.9565625
 20
1.484375000000001
 30
0.0
 11
-3.9721875
 21
1.484375000000001
 31
0.0
  0
LINE
  5
1B4
330
161
100
AcDbEntity
  8
AM_7
100
AcDbLine
 10
-4.464375
 20
0.9921875000000007
 30
0.0
 11
-4.464375
 21
1.976562500000001
 31
0.0
  0
LINE
  5
1B5
330
161
100
AcDbEntity
  8
AM_7
100
AcDbLine
 10
3.9721875
 20
-1.484375
 30
0.0
 11
4.9565625
 21
-1.484375
 31
0.0
  0
LINE
  5
1B6
330
161
100
AcDbEntity
  8
AM_7
100
AcDbLine
 10
4.464375
 20
-1.9765625
 30
0.0
 11
4.464375
 21
-0.9921874999999996
 31
0.0
  0
LINE
  5
1B7
330
161
100
AcDbEntity
  8
AM_7
100
AcDbLine
 10
-4.9565625
 20
-1.484375
 30
0.0
 11
-3.9721875
 21
-1.484375
 31
0.0
  0
LINE
  5
1B8
330
161
100
AcDbEntity
  8
AM_7
100
AcDbLine
 10
-4.464375
 20
-1.9765625
 30
0.0
 11
-4.464375
 21
-0.9921874999999996
 31
0.0
  0
LINE
  5
1B9
330
161
100
AcDbEntity
  8
AM_7
100
AcDbLine
 10
-1.246875
 20
0.0000000000000003
 30
0.0
 11
1.246875
 21
0.0000000000000003
 31
0.0
  0
LINE
  5
1BA
330
161
100
AcDbEntity
  8
AM_7
100
AcDbLine
 10
0.0
 20
-3.398750000000001
 30
0.0
 11
0.0
 21
2.985714285714286
 31
0.0
  0
LINE
  5
1BB
330
161
100
AcDbEntity
  8
AM_7
100
AcDbLine
 10
-7.839624999999999
 20
-0.9999999999999992
 30
0.0
 11
-6.095375
 21
-0.9999999999999994
 31
0.0
  0
LINE
  5
1BC
330
161
100
AcDbEntity
  8
AM_7
100
AcDbLine
 10
-6.56
 20
-1.464624999999999
 30
0.0
 11
-6.56
 21
-0.5353749999999995
 31
0.0
  0
LINE
  5
1BD
330
161
100
AcDbEntity
  8
AM_7
100
AcDbLine
 10
6.095375
 20
-1.0
 30
0.0
 11
7.839624999999999
 21
-1.0
 31
0.0
  0
LINE
  5
1BE
330
161
100
AcDbEntity
  8
AM_7
100
AcDbLine
 10
6.56
 20
-1.464625
 30
0.0
 11
6.56
 21
-0.5353750000000002
 31
0.0
  0
LINE
  5
1BF
330
161
100
AcDbEntity
  8
AM_7
100
AcDbLine
 10
-7.374999999999999
 20
-1.464624999999999
 30
0.0
 11
-7.374999999999999
 21
-0.5353749999999993
 31
0.0
  0
LINE
  5
1C0
330
161
100
AcDbEntity
  8
AM_7
100
AcDbLine
 10
6.095375
 20
0.9999999999999998
 30
0.0
 11
7.839625000000001
 21
1.0
 31
0.0
  0
LINE
  5
1C1
330
161
100
AcDbEntity
  8
AM_7
100
AcDbLine
 10
6.56
 20
0.5353749999999999
 30
0.0
 11
6.56
 21
1.464625
 31
0.0
  0
LINE
  5
1C2
330
161
100
AcDbEntity
  8
AM_7
100
AcDbLine
 10
-7.839624999999999
 20
1.000000000000001
 30
0.0
 11
-6.095375
 21
1.000000000000001
 31
0.0
  0
LINE
  5
1C3
330
161
100
AcDbEntity
  8
AM_7
100
AcDbLine
 10
-6.559999999999999
 20
0.5353750000000019
 30
0.0
 11
-6.559999999999999
 21
1.464625
 31
0.0
  0
LINE
  5
1C4
330
161
100
AcDbEntity
  8
AM_7
100
AcDbLine
 10
-7.374999999999999
 20
0.535375000000001
 30
0.0
 11
-7.374999999999999
 21
1.464625000000001
 31
0.0
  0
LINE
  5
1C5
330
161
100
AcDbEntity
  8
AM_7
100
AcDbLine
 10
7.375000000000001
 20
0.5353750000000002
 30
0.0
 11
7.375000000000001
 21
1.464625
 31
0.0
  0
LINE
  5
1C6
330
161
100
AcDbEntity
  8
AM_7
100
AcDbLine
 10
7.374999999999999
 20
-1.464625
 30
0.0
 11
7.374999999999999
 21
-0.5353750000000006
 31
0.0
  0
LINE
  5
1C7
330
161
100
AcDbEntity
  8
AM_4
100
AcDbLine
 10
8.245000000000003
 20
-2.375
 30
0.0
 11
5.191022648956821
 21
-2.375
 31
0.0
  0
LINE
  5
1C8
330
161
100
AcDbEntity
  8
AM_4
100
AcDbLine
 10
8.245000000000001
 20
2.375
 30
0.0
 11
5.191022648956824
 21
2.375
 31
0.0
  0
LINE
  5
1C9
330
161
100
AcDbEntity
  8
AM_4
100
AcDbLine
 10
8.72
 20
-1.9
 30
0.0
 11
8.72
 21
1.899999999999999
 31
0.0
  0
LINE
  5
1CA
330
161
100
AcDbEntity
  8
AM_4
100
AcDbLine
 10
8.72
 20
1.899999999999999
 30
0.0
 11
8.245000000000001
 21
2.375
 31
0.0
  0
LINE
  5
1CB
330
161
100
AcDbEntity
  8
AM_4
100
AcDbLine
 10
8.245000000000003
 20
-2.375
 30
0.0
 11
8.72
 21
-1.9
 31
0.0
  0
LINE
  5
1CC
330
161
100
AcDbEntity
  8
AM_4
100
AcDbLine
 10
7.375
 20
-0.5575000000000007
 30
0.0
 11
6.559999999999999
 21
-0.5575000000000003
 31
0.0
  0
ARC
  5
1CD
330
161
100
AcDbEntity
  8
AM_4
100
AcDbCircle
 10
7.374999999999999
 20
-1.000000000000001
 30
0.0
 40
0.4424999999999997
100
AcDbArc
 50
270.0
 51
90.0
  0
LINE
  5
1CE
330
161
100
AcDbEntity
  8
AM_4
100
AcDbLine
 10
6.559999999999999
 20
-1.4425
 30
0.0
 11
7.375
 21
-1.4425
 31
0.0
  0
ARC
  5
1CF
330
161
100
AcDbEntity
  8
AM_4
100
AcDbCircle
 10
6.56
 20
-1.0
 30
0.0
 40
0.4424999999999997
100
AcDbArc
 50
90.0
 51
270.0
  0
LINE
  5
1D0
330
161
100
AcDbEntity
  8
AM_4
100
AcDbLine
 10
7.375
 20
1.4425
 30
0.0
 11
6.559999999999999
 21
1.4425
 31
0.0
  0
ARC
  5
1D1
330
161
100
AcDbEntity
  8
AM_4
100
AcDbCircle
 10
7.375000000000001
 20
1.0
 30
0.0
 40
0.4424999999999999
100
AcDbArc
 50
270.0
 51
90.0
  0
LINE
  5
1D2
330
161
100
AcDbEntity
  8
AM_4
100
AcDbLine
 10
6.559999999999999
 20
0.5574999999999999
 30
0.0
 11
7.375
 21
0.5575000000000001
 31
0.0
  0
ARC
  5
1D3
330
161
100
AcDbEntity
  8
AM_4
100
AcDbCircle
 10
6.56
 20
0.9999999999999998
 30
0.0
 40
0.4424999999999999
100
AcDbArc
 50
90.0
 51
270.0
  0
LINE
  5
1D4
330
161
100
AcDbEntity
  8
AM_4
100
AcDbLine
 10
8.169999999999998
 20
-2.375
 30
0.0
 11
8.169999999999998
 21
2.375
 31
0.0
  0
LINE
  5
1D5
330
161
100
AcDbEntity
  8
AM_4
100
AcDbLine
 10
-5.19102264895682
 20
-2.375
 30
0.0
 11
-8.245000000000001
 21
-2.375000000000001
 31
0.0
  0
LINE
  5
1D6
330
161
100
AcDbEntity
  8
AM_4
100
AcDbLine
 10
-5.191022648956823
 20
2.375
 30
0.0
 11
-8.245000000000001
 21
2.375
 31
0.0
  0
LINE
  5
1D7
330
161
100
AcDbEntity
  8
AM_4
100
AcDbLine
 10
-8.245000000000001
 20
2.375
 30
0.0
 11
-8.72
 21
1.899999999999999
 31
0.0
  0
LINE
  5
1D8
330
161
100
AcDbEntity
  8
AM_4
100
AcDbLine
 10
-8.72
 20
-1.900000000000001
 30
0.0
 11
-8.72
 21
1.9
 31
0.0
  0
LINE
  5
1D9
330
161
100
AcDbEntity
  8
AM_4
100
AcDbLine
 10
-8.72
 20
-1.9
 30
0.0
 11
-8.245000000000001
 21
-2.375000000000001
 31
0.0
  0
LINE
  5
1DA
330
161
100
AcDbEntity
  8
AM_4
100
AcDbLine
 10
-6.559999999999999
 20
-0.5574999999999999
 30
0.0
 11
-7.375
 21
-0.5574999999999994
 31
0.0
  0
ARC
  5
1DB
330
161
100
AcDbEntity
  8
AM_4
100
AcDbCircle
 10
-6.559999999999999
 20
-0.9999999999999992
 30
0.0
 40
0.4425
100
AcDbArc
 50
270.0
 51
90.0
  0
LINE
  5
1DC
330
161
100
AcDbEntity
  8
AM_4
100
AcDbLine
 10
-7.375
 20
-1.442499999999999
 30
0.0
 11
-6.56
 21
-1.442499999999999
 31
0.0
  0
ARC
  5
1DD
330
161
100
AcDbEntity
  8
AM_4
100
AcDbCircle
 10
-7.374999999999999
 20
-0.999999999999999
 30
0.0
 40
0.4424999999999996
100
AcDbArc
 50
90.0
 51
270.0
  0
LINE
  5
1DE
330
161
100
AcDbEntity
  8
AM_4
100
AcDbLine
 10
-6.559999999999999
 20
1.4425
 30
0.0
 11
-7.375
 21
1.442500000000001
 31
0.0
  0
ARC
  5
1DF
330
161
100
AcDbEntity
  8
AM_4
100
AcDbCircle
 10
-6.56
 20
1.000000000000001
 30
0.0
 40
0.4425
100
AcDbArc
 50
270.0
 51
90.0
  0
LINE
  5
1E0
330
161
100
AcDbEntity
  8
AM_4
100
AcDbLine
 10
-7.375
 20
0.557500000000001
 30
0.0
 11
-6.56
 21
0.5575000000000009
 31
0.0
  0
ARC
  5
1E1
330
161
100
AcDbEntity
  8
AM_4
100
AcDbCircle
 10
-7.374999999999999
 20
1.000000000000001
 30
0.0
 40
0.4424999999999999
100
AcDbArc
 50
90.0
 51
270.0
  0
LINE
  5
1E2
330
161
100
AcDbEntity
  8
AM_4
100
AcDbLine
 10
-8.17
 20
-2.375
 30
0.0
 11
-8.17
 21
2.375
 31
0.0
  0
LINE
  5
1E3
330
161
100
AcDbEntity
  8
AM_4
100
AcDbLine
 10
-4.861249999999996
 20
-2.475
 30
0.0
 11
-4.200871556736088
 21
-2.475
 31
0.0
  0
ARC
  5
1E4
330
161
100
AcDbEntity
  8
AM_4
100
AcDbCircle
 10
-4.861249999999996
 20
-1.881249999999998
 30
0.0
 40
0.5937500000000027
100
AcDbArc
 50
180.0
 51
270.0
  0
LINE
  5
1E5
330
161
100
AcDbEntity
  8
AM_4
100
AcDbLine
 10
-4.200871556736089
 20
2.475
 30
0.0
 11
-4.86125
 21
2.475
 31
0.0
  0
ARC
  5
1E6
330
161
100
AcDbEntity
  8
AM_4
100
AcDbCircle
 10
-4.86125
 20
1.881250000000001
 30
0.0
 40
0.5937499999999991
100
AcDbArc
 50
90.0
 51
180.0
  0
LINE
  5
1E7
330
161
100
AcDbEntity
  8
AM_4
100
AcDbLine
 10
-5.454999999999999
 20
1.88125
 30
0.0
 11
-5.454999999999999
 21
1.1875
 31
0.0
  0
ARC
  5
1E8
330
161
100
AcDbEntity
  8
AM_4
100
AcDbCircle
 10
-4.861250000000003
 20
1.187499999999998
 30
0.0
 40
0.5937499999999964
100
AcDbArc
 50
180.0
 51
245.4179442955378
  0
ARC
  5
1E9
330
161
100
AcDbEntity
  8
AM_4
100
AcDbCircle
 10
-5.191446846448867
 20
0.4656903955368852
 30
0.0
 40
0.1999999999999852
100
AcDbArc
 50
31.23966245715602
 51
65.41794026021965
  0
ARC
  5
1EA
330
161
100
AcDbEntity
  8
AM_4
100
AcDbCircle
 10
-5.959193267052678
 20
-0.0000000000000019
 30
0.0
 40
1.097943267052679
100
AcDbArc
 50
328.760341001021
 51
31.23965962891679
  0
ARC
  5
1EB
330
161
100
AcDbEntity
  8
AM_4
100
AcDbCircle
 10
-5.191446846448867
 20
-0.4656903955368811
 30
0.0
 40
0.1999999999999882
100
AcDbArc
 50
294.5820587178142
 51
328.7603410010213
  0
ARC
  5
1EC
330
161
100
AcDbEntity
  8
AM_4
100
AcDbCircle
 10
-4.861249999999999
 20
-1.187499999999999
 30
0.0
 40
0.5937499999999988
100
AcDbArc
 50
114.5820560487035
 51
180.0
  0
LINE
  5
1ED
330
161
100
AcDbEntity
  8
AM_4
100
AcDbLine
 10
-5.454999999999998
 20
-1.187500000000001
 30
0.0
 11
-5.454999999999998
 21
-1.88125
 31
0.0
  0
ARC
  5
1EE
330
161
100
AcDbEntity
  8
AM_4
100
AcDbCircle
 10
4.861249999999998
 20
-1.881250000000001
 30
0.0
 40
0.5937499999999996
100
AcDbArc
 50
270.0
 51
0.0
  0
LINE
  5
1EF
330
161
100
AcDbEntity
  8
AM_4
100
AcDbLine
 10
5.454999999999998
 20
-1.881249991152434
 30
0.0
 11
5.454999999999998
 21
-1.1875
 31
0.0
  0
ARC
  5
1F0
330
161
100
AcDbEntity
  8
AM_4
100
AcDbCircle
 10
4.861249999999998
 20
-1.187499999999999
 30
0.0
 40
0.59375
100
AcDbArc
 50
0.0
 51
65.41794327876416
  0
LINE
  5
1F1
330
161
100
AcDbEntity
  8
AM_4
100
AcDbLine
 10
4.200871556736088
 20
-2.475
 30
0.0
 11
4.86125
 21
-2.475
 31
0.0
  0
ARC
  5
1F2
330
161
100
AcDbEntity
  8
AM_4
100
AcDbCircle
 10
5.191446846448868
 20
-0.465690395536879
 30
0.0
 40
0.1999999999999907
100
AcDbArc
 50
211.2396589989789
 51
245.4179432787659
  0
ARC
  5
1F3
330
161
100
AcDbEntity
  8
AM_4
100
AcDbCircle
 10
5.959193267052677
 20
-0.0000000000000016
 30
0.0
 40
1.097943267052678
100
AcDbArc
 50
148.7603421007299
 51
211.2396589989791
  0
ARC
  5
1F4
330
161
100
AcDbEntity
  8
AM_4
100
AcDbCircle
 10
5.191446846448874
 20
0.465690395536875
 30
0.0
 40
0.1999999999999966
100
AcDbArc
 50
114.582056721235
 51
148.7603470381122
  0
ARC
  5
1F5
330
161
100
AcDbEntity
  8
AM_4
100
AcDbCircle
 10
4.861250000000003
 20
1.187499999999997
 30
0.0
 40
0.5937499999999961
100
AcDbArc
 50
294.5820567212356
 51
0.0
  0
LINE
  5
1F6
330
161
100
AcDbEntity
  8
AM_4
100
AcDbLine
 10
5.454999999999999
 20
1.187499999999999
 30
0.0
 11
5.454999999999999
 21
1.88125
 31
0.0
  0
ARC
  5
1F7
330
161
100
AcDbEntity
  8
AM_4
100
AcDbCircle
 10
4.861249999999998
 20
1.88125
 30
0.0
 40
0.5937500000000009
100
AcDbArc
 50
0.0
 51
90.0
  0
LINE
  5
1F8
330
161
100
AcDbEntity
  8
AM_4
100
AcDbLine
 10
4.861249999999997
 20
2.475000000000001
 30
0.0
 11
4.200871556736089
 21
2.475
 31
0.0
  0
LINE
  5
1F9
330
161
100
AcDbEntity
  8
AM_4
100
AcDbLine
 10
4.76125
 20
-2.375
 30
0.0
 11
-4.76125
 21
-2.375
 31
0.0
  0
LINE
  5
1FA
330
161
100
AcDbEntity
  8
AM_4
100
AcDbLine
 10
4.76125
 20
2.375
 30
0.0
 11
-4.76125
 21
2.375
 31
0.0
  0
ARC
  5
1FB
330
161
100
AcDbEntity
  8
AM_4
100
AcDbCircle
 10
4.761250000000001
 20
-1.781250000000002
 30
0.0
 40
0.5937499999999978
100
AcDbArc
 50
270.0
 51
0.0000008537736463
  0
LINE
  5
1FC
330
161
100
AcDbEntity
  8
AM_4
100
AcDbLine
 10
5.354999999999999
 20
-1.78125
 30
0.0
 11
5.355
 21
-1.1875
 31
0.0
  0
ARC
  5
1FD
330
161
100
AcDbEntity
  8
AM_4
100
AcDbCircle
 10
4.761250000000001
 20
-1.187499999999999
 30
0.0
 40
0.5937499999999991
100
AcDbArc
 50
0.0
 51
59.99999999999837
  0
ARC
  5
1FE
330
161
100
AcDbEntity
  8
AM_4
100
AcDbCircle
 10
5.673189666011949
 20
0.0000000000000011
 30
0.0
 40
0.9119396660119482
100
AcDbArc
 50
132.412046226005
 51
227.5879537739953
  0
ARC
  5
1FF
330
161
100
AcDbEntity
  8
AM_4
100
AcDbCircle
 10
4.761249999999992
 20
1.187500000000005
 30
0.0
 40
0.5937500000000088
100
AcDbArc
 50
300.0000000000017
 51
0.0
  0
LINE
  5
200
330
161
100
AcDbEntity
  8
AM_4
100
AcDbLine
 10
5.355
 20
1.1875
 30
0.0
 11
5.355
 21
1.78125
 31
0.0
  0
ARC
  5
201
330
161
100
AcDbEntity
  8
AM_4
100
AcDbCircle
 10
4.761249999999998
 20
1.781249999999998
 30
0.0
 40
0.5937500000000027
100
AcDbArc
 50
0.0
 51
90.0
  0
LINE
  5
202
330
161
100
AcDbEntity
  8
AM_4
100
AcDbLine
 10
-5.355
 20
1.1875
 30
0.0
 11
-5.355
 21
1.78125
 31
0.0
  0
ARC
  5
203
330
161
100
AcDbEntity
  8
AM_4
100
AcDbCircle
 10
-4.76125
 20
-1.781249999999999
 30
0.0
 40
0.59375
100
AcDbArc
 50
180.0
 51
270.0
  0
ARC
  5
204
330
161
100
AcDbEntity
  8
AM_4
100
AcDbCircle
 10
-4.76125
 20
1.78125
 30
0.0
 40
0.5937499999999998
100
AcDbArc
 50
90.0
 51
180.0
  0
ARC
  5
205
330
161
100
AcDbEntity
  8
AM_4
100
AcDbCircle
 10
-4.761249999999995
 20
1.187500000000004
 30
0.0
 40
0.5937500000000053
100
AcDbArc
 50
180.0
 51
239.9999999999986
  0
ARC
  5
206
330
161
100
AcDbEntity
  8
AM_4
100
AcDbCircle
 10
-5.673189666011949
 20
0.0000000000000009
 30
0.0
 40
0.9119396660119479
100
AcDbArc
 50
312.4120462260046
 51
47.58795377399496
  0
ARC
  5
207
330
161
100
AcDbEntity
  8
AM_4
100
AcDbCircle
 10
-4.761249999999997
 20
-1.187500000000001
 30
0.0
 40
0.5937500000000031
100
AcDbArc
 50
120.0000000000018
 51
180.0
  0
LINE
  5
208
330
161
100
AcDbEntity
  8
AM_4
100
AcDbLine
 10
-5.355
 20
-1.781249991152435
 30
0.0
 11
-5.355
 21
-1.1875
 31
0.0
  0
CIRCLE
  5
209
330
161
100
AcDbEntity
  8
AM_4
100
AcDbCircle
 10
4.464375
 20
1.484375
 30
0.0
 40
0.46875
  0
CIRCLE
  5
20A
330
161
100
AcDbEntity
  8
AM_4
100
AcDbCircle
 10
-4.464375
 20
1.484375000000001
 30
0.0
 40
0.46875
  0
CIRCLE
  5
20B
330
161
100
AcDbEntity
  8
AM_4
100
AcDbCircle
 10
4.464375
 20
-1.484375
 30
0.0
 40
0.46875
  0
CIRCLE
  5
20C
330
161
100
AcDbEntity
  8
AM_4
100
AcDbCircle
 10
-4.464375
 20
-1.484375
 30
0.0
 40
0.46875
  0
LINE
  5
20D
330
161
100
AcDbEntity
  8
AM_4
100
AcDbLine
 10
-4.897387701892218
 20
1.484375000000001
 30
0.0
 11
-4.68088135094611
 21
1.109375000000001
 31
0.0
  0
LINE
  5
20E
330
161
100
AcDbEntity
  8
AM_4
100
AcDbLine
 10
-4.247868649053889
 20
1.109375000000001
 30
0.0
 11
-4.031362298107781
 21
1.484375000000001
 31
0.0
  0
LINE
  5
20F
330
161
100
AcDbEntity
  8
AM_4
100
AcDbLine
 10
-4.680881350946109
 20
1.859375000000001
 30
0.0
 11
-4.897387701892218
 21
1.484375000000001
 31
0.0
  0
LINE
  5
210
330
161
100
AcDbEntity
  8
AM_4
100
AcDbLine
 10
-4.24786864905389
 20
1.859375000000001
 30
0.0
 11
-4.680881350946109
 21
1.859375000000001
 31
0.0
  0
LINE
  5
211
330
161
100
AcDbEntity
  8
AM_4
100
AcDbLine
 10
-4.68088135094611
 20
1.109375000000001
 30
0.0
 11
-4.247868649053889
 21
1.109375000000001
 31
0.0
  0
LINE
  5
212
330
161
100
AcDbEntity
  8
AM_4
100
AcDbLine
 10
-4.031362298107781
 20
1.484375000000001
 30
0.0
 11
-4.24786864905389
 21
1.859375000000001
 31
0.0
  0
LINE
  5
213
330
161
100
AcDbEntity
  8
AM_4
100
AcDbLine
 10
-4.680881350946109
 20
-1.109375
 30
0.0
 11
-4.897387701892218
 21
-1.484375
 31
0.0
  0
LINE
  5
214
330
161
100
AcDbEntity
  8
AM_4
100
AcDbLine
 10
-4.897387701892218
 20
-1.484375
 30
0.0
 11
-4.68088135094611
 21
-1.859375
 31
0.0
  0
LINE
  5
215
330
161
100
AcDbEntity
  8
AM_4
100
AcDbLine
 10
-4.68088135094611
 20
-1.859375
 30
0.0
 11
-4.247868649053889
 21
-1.859374999999999
 31
0.0
  0
LINE
  5
216
330
161
100
AcDbEntity
  8
AM_4
100
AcDbLine
 10
-4.247868649053889
 20
-1.859374999999999
 30
0.0
 11
-4.031362298107781
 21
-1.484375
 31
0.0
  0
LINE
  5
217
330
161
100
AcDbEntity
  8
AM_4
100
AcDbLine
 10
-4.031362298107781
 20
-1.484375
 30
0.0
 11
-4.24786864905389
 21
-1.109375
 31
0.0
  0
LINE
  5
218
330
161
100
AcDbEntity
  8
AM_4
100
AcDbLine
 10
-4.24786864905389
 20
-1.109375
 30
0.0
 11
-4.680881350946109
 21
-1.109375
 31
0.0
  0
LINE
  5
219
330
161
100
AcDbEntity
  8
AM_4
100
AcDbLine
 10
4.247868649053891
 20
-1.109375
 30
0.0
 11
4.031362298107782
 21
-1.484375
 31
0.0
  0
LINE
  5
21A
330
161
100
AcDbEntity
  8
AM_4
100
AcDbLine
 10
4.031362298107782
 20
-1.484375
 30
0.0
 11
4.24786864905389
 21
-1.859375
 31
0.0
  0
LINE
  5
21B
330
161
100
AcDbEntity
  8
AM_4
100
AcDbLine
 10
4.24786864905389
 20
-1.859375
 30
0.0
 11
4.680881350946111
 21
-1.859374999999999
 31
0.0
  0
LINE
  5
21C
330
161
100
AcDbEntity
  8
AM_4
100
AcDbLine
 10
4.680881350946111
 20
-1.859374999999999
 30
0.0
 11
4.897387701892219
 21
-1.484375
 31
0.0
  0
LINE
  5
21D
330
161
100
AcDbEntity
  8
AM_4
100
AcDbLine
 10
4.897387701892219
 20
-1.484375
 30
0.0
 11
4.68088135094611
 21
-1.109375
 31
0.0
  0
LINE
  5
21E
330
161
100
AcDbEntity
  8
AM_4
100
AcDbLine
 10
4.68088135094611
 20
-1.109375
 30
0.0
 11
4.247868649053891
 21
-1.109375
 31
0.0
  0
LINE
  5
21F
330
161
100
AcDbEntity
  8
AM_4
100
AcDbLine
 10
4.247868649053891
 20
1.859375
 30
0.0
 11
4.031362298107782
 21
1.484375
 31
0.0
  0
LINE
  5
220
330
161
100
AcDbEntity
  8
AM_4
100
AcDbLine
 10
4.031362298107782
 20
1.484375
 30
0.0
 11
4.24786864905389
 21
1.109375
 31
0.0
  0
LINE
  5
221
330
161
100
AcDbEntity
  8
AM_4
100
AcDbLine
 10
4.24786864905389
 20
1.109375
 30
0.0
 11
4.680881350946111
 21
1.109375000000001
 31
0.0
  0
LINE
  5
222
330
161
100
AcDbEntity
  8
AM_4
100
AcDbLine
 10
4.680881350946111
 20
1.109375000000001
 30
0.0
 11
4.897387701892219
 21
1.484375
 31
0.0
  0
LINE
  5
223
330
161
100
AcDbEntity
  8
AM_4
100
AcDbLine
 10
4.897387701892219
 20
1.484375
 30
0.0
 11
4.68088135094611
 21
1.859375
 31
0.0
  0
LINE
  5
224
330
161
100
AcDbEntity
  8
AM_4
100
AcDbLine
 10
4.68088135094611
 20
1.859375
 30
0.0
 11
4.247868649053891
 21
1.859375
 31
0.0
  0
LINE
  5
225
330
161
100
AcDbEntity
  8
AM_4
100
AcDbLine
 10
-4.200871556736088
 20
-2.475
 30
0.0
 11
-4.200871556736088
 21
-2.375
 31
0.0
  0
LINE
  5
226
330
161
100
AcDbEntity
  8
AM_4
100
AcDbLine
 10
4.200871556736088
 20
-2.375
 30
0.0
 11
4.200871556736088
 21
-2.475
 31
0.0
  0
LINE
  5
227
330
161
100
AcDbEntity
  8
AM_4
100
AcDbLine
 10
-4.200871556736089
 20
2.375
 30
0.0
 11
-4.200871556736089
 21
2.475
 31
0.0
  0
LINE
  5
228
330
161
100
AcDbEntity
  8
AM_4
100
AcDbLine
 10
4.200871556736089
 20
2.475
 30
0.0
 11
4.200871556736089
 21
2.375
 31
0.0
  0
LWPOLYLINE
  5
229
330
161
100
AcDbEntity
  8
AM_4
100
AcDbPolyline
 90
       12
 70
     0
 43
0.0
 10
-3.782647920208304
 20
-1.79702206727984
 10
-3.756719275905305
 20
-1.732745457337425
 10
-3.736058534935135
 20
-1.663321257878757
 10
-3.721767459983346
 20
-1.589418045987897
 10
-3.71562319364567
 20
-1.526979597151162
 10
-3.714740637423574
 20
-1.462166433237929
 10
-3.71959881111019
 20
-1.396009687445983
 10
-3.730824983453579
 20
-1.328543890930196
 10
-3.74845816206533
 20
-1.261121676272278
 10
-3.772244915852399
 20
-1.195487571028376
 10
-3.796820408215182
 20
-1.142535005744439
 10
-3.825136205946787
 20
-1.092107534898198
  0
LINE
  5
22A
330
161
100
AcDbEntity
  8
AM_4
100
AcDbLine
 10
-3.782647920208304
 20
-1.79702206727984
 30
0.0
 11
-3.565408273137936
 21
-2.375
 31
0.0
  0
LWPOLYLINE
  5
22B
330
161
100
AcDbEntity
  8
AM_4
100
AcDbPolyline
 90
        6
 70
     0
 43
0.0
 10
3.825136205946787
 20
1.092107534898199
 10
3.861469086812468
 20
1.038275840794889
 10
3.901179459095403
 20
0.9890864147235201
 10
3.944319363343432
 20
0.9439657710061466
 10
3.989585786184732
 20
0.9037932207090209
 10
4.039829463190302
 20
0.866102335898663
  0
LWPOLYLINE
  5
22C
330
161
100
AcDbEntity
  8
AM_4
100
AcDbPolyline
 90
        6
 70
     0
 43
0.0
 10
4.039829463190302
 20
-0.8661023358986625
 10
3.994781959466015
 20
-0.8995824074665045
 10
3.950646703687626
 20
-0.9379472942895506
 10
3.907398340221659
 20
-0.982103160791229
 10
3.866193304631837
 20
-1.03196074367459
 10
3.825136205946787
 20
-1.092107534898198
  0
LINE
  5
22D
330
161
100
AcDbEntity
  8
AM_4
100
AcDbLine
 10
4.039829479349621
 20
-0.866102324802642
 30
0.0
 11
4.039829479349621
 21
0.8661023248026426
 31
0.0
  0
LWPOLYLINE
  5
22E
330
161
100
AcDbEntity
  8
AM_4
100
AcDbPolyline
 90
       10
 70
     0
 43
0.0
 10
3.825136205946787
 20
-1.092107534898198
 10
3.782761998983624
 20
-1.171633464596845
 10
3.749874453901262
 20
-1.256364101960885
 10
3.727745372179465
 20
-1.343660624943044
 10
3.716268566873139
 20
-1.431113712799962
 10
3.715136355958285
 20
-1.517596173501674
 10
3.723402985252132
 20
-1.600394280123969
 10
3.737786865928892
 20
-1.670233976773603
 10
3.757850740038124
 20
-1.735961346410263
 10
3.782647905392963
 20
-1.797022060687958
  0
LINE
  5
22F
330
161
100
AcDbEntity
  8
AM_4
100
AcDbLine
 10
1.782388217871576
 20
-1.092107534898198
 30
0.0
 11
3.825136205946787
 21
-1.092107534898198
 31
0.0
  0
LINE
  5
230
330
161
100
AcDbEntity
  8
AM_4
100
AcDbLine
 10
3.565408273137936
 20
-2.375
 30
0.0
 11
3.782647905392963
 21
-1.797022060687958
 31
0.0
  0
LWPOLYLINE
  5
231
330
161
100
AcDbEntity
  8
AM_4
100
AcDbPolyline
 90
       11
 70
     0
 43
0.0
 10
-3.825136205946777
 20
1.092107534898217
 10
-3.783297166389475
 20
1.170316112903339
 10
-3.749874453901262
 20
1.256364101960886
 10
-3.727926992134591
 20
1.342444271434725
 10
-3.716268566873139
 20
1.431113712799963
 10
-3.715074274821586
 20
1.516754364525917
 10
-3.723402985252132
 20
1.60039428012397
 10
-3.733499805465998
 20
1.652655913263674
 10
-3.746824415467154
 20
1.702597727131181
 10
-3.76341716661707
 20
1.751127185394618
 10
-3.782647920208303
 20
1.797022067279839
  0
LINE
  5
232
330
161
100
AcDbEntity
  8
AM_4
100
AcDbLine
 10
-3.565408273137936
 20
2.375
 30
0.0
 11
-3.782647920208303
 21
1.797022067279839
 31
0.0
  0
LWPOLYLINE
  5
233
330
161
100
AcDbEntity
  8
AM_4
100
AcDbPolyline
 90
        6
 70
     0
 43
0.0
 10
-3.825136205946787
 20
-1.092107534898198
 10
-3.861469086812468
 20
-1.038275840794888
 10
-3.901179459095403
 20
-0.9890864147235191
 10
-3.944319363343432
 20
-0.9439657710061459
 10
-3.989585786184732
 20
-0.9037932207090202
 10
-4.039829463190302
 20
-0.866102335898662
  0
LINE
  5
234
330
161
100
AcDbEntity
  8
AM_4
100
AcDbLine
 10
-3.825136205946787
 20
-1.092107534898198
 30
0.0
 11
-1.782388217871576
 21
-1.092107534898198
 31
0.0
  0
LINE
  5
235
330
161
100
AcDbEntity
  8
AM_4
100
AcDbLine
 10
-3.825136205946777
 20
1.092107534898217
 30
0.0
 11
-1.782388217871576
 21
1.092107534898199
 31
0.0
  0
LWPOLYLINE
  5
236
330
161
100
AcDbEntity
  8
AM_4
100
AcDbPolyline
 90
        6
 70
     0
 43
0.0
 10
-4.039829463190302
 20
0.8661023358986636
 10
-3.994781959466016
 20
0.8995824074665048
 10
-3.950646703687628
 20
0.9379472942895504
 10
-3.907398340221661
 20
0.9821031607912277
 10
-3.86619330463184
 20
1.031960743674587
 10
-3.825136205946777
 20
1.092107534898216
  0
LINE
  5
237
330
161
100
AcDbEntity
  8
AM_4
100
AcDbLine
 10
-4.039829479349621
 20
0.8661023248026433
 30
0.0
 11
-4.039829479349621
 21
-0.8661023248026417
 31
0.0
  0
LWPOLYLINE
  5
238
330
161
100
AcDbEntity
  8
AM_4
100
AcDbPolyline
 90
       14
 70
     0
 43
0.0
 10
3.782647920208303
 20
1.79702206727984
 10
3.762934974509704
 20
1.749856311881196
 10
3.74601383593217
 20
1.69991441161447
 10
3.73199837966304
 20
1.645992725884848
 10
3.721767459983347
 20
1.589418045987897
 10
3.714467137852635
 20
1.496130776859395
 10
3.715337345535745
 20
1.446470624355215
 10
3.71959881111019
 20
1.396009687445984
 10
3.727192206979708
 20
1.346339977194255
 10
3.738240508601006
 20
1.296681898366715
 10
3.753419684751472
 20
1.245563151594181
 10
3.772244915852399
 20
1.195487571028377
 10
3.796820408215182
 20
1.14253500574444
 10
3.825136205946787
 20
1.092107534898199
  0
LINE
  5
239
330
161
100
AcDbEntity
  8
AM_4
100
AcDbLine
 10
3.782647920208303
 20
1.79702206727984
 30
0.0
 11
3.565408273137936
 21
2.375
 31
0.0
  0
LINE
  5
23A
330
161
100
AcDbEntity
  8
AM_4
100
AcDbLine
 10
1.782388217871576
 20
1.092107534898199
 30
0.0
 11
3.825136205946787
 21
1.092107534898199
 31
0.0
  0
LINE
  5
23B
330
161
100
AcDbEntity
  8
AM_4
100
AcDbLine
 10
-1.785
 20
-2.375
 30
0.0
 11
-1.785
 21
-1.23787319329481
 31
0.0
  0
LINE
  5
23C
330
161
100
AcDbEntity
  8
AM_4
100
AcDbLine
 10
-1.785
 20
1.237873193294811
 30
0.0
 11
-1.785
 21
2.375
 31
0.0
  0
LINE
  5
23D
330
161
100
AcDbEntity
  8
AM_4
100
AcDbLine
 10
-1.782388217871576
 20
1.092107534898199
 30
0.0
 11
-1.785
 21
1.237873193294811
 31
0.0
  0
LINE
  5
23E
330
161
100
AcDbEntity
  8
AM_4
100
AcDbLine
 10
-1.782388217871576
 20
-1.092107534898198
 30
0.0
 11
-1.782388217871576
 21
1.092107534898199
 31
0.0
  0
LINE
  5
23F
330
161
100
AcDbEntity
  8
AM_4
100
AcDbLine
 10
-1.785
 20
-1.23787319329481
 30
0.0
 11
-1.782388217871576
 21
-1.092107534898198
 31
0.0
  0
LINE
  5
240
330
161
100
AcDbEntity
  8
AM_4
100
AcDbLine
 10
-1.784999999999999
 20
-2.375
 30
0.0
 11
-1.441250000000001
 21
-2.031250000000002
 31
0.0
  0
LINE
  5
241
330
161
100
AcDbEntity
  8
AM_4
100
AcDbLine
 10
-1.441249999999999
 20
2.031250000000001
 30
0.0
 11
-1.784999999999999
 21
2.375000000000001
 31
0.0
  0
LINE
  5
242
330
161
100
AcDbEntity
  8
AM_4
100
AcDbLine
 10
1.441250000000001
 20
-2.031250000000002
 30
0.0
 11
1.784999999999999
 21
-2.375
 31
0.0
  0
LINE
  5
243
330
161
100
AcDbEntity
  8
AM_4
100
AcDbLine
 10
1.785
 20
-2.375
 30
0.0
 11
1.785
 21
-1.237873193294814
 31
0.0
  0
LINE
  5
244
330
161
100
AcDbEntity
  8
AM_4
100
AcDbLine
 10
1.782388217871576
 20
-1.092107534898198
 30
0.0
 11
1.785
 21
-1.237873193294814
 31
0.0
  0
LINE
  5
245
330
161
100
AcDbEntity
  8
AM_4
100
AcDbLine
 10
1.782388217871576
 20
1.092107534898199
 30
0.0
 11
1.782388217871576
 21
-1.092107534898198
 31
0.0
  0
LINE
  5
246
330
161
100
AcDbEntity
  8
AM_4
100
AcDbLine
 10
1.785
 20
1.237873193294815
 30
0.0
 11
1.782388217871576
 21
1.092107534898199
 31
0.0
  0
LINE
  5
247
330
161
100
AcDbEntity
  8
AM_4
100
AcDbLine
 10
1.785
 20
1.237873193294815
 30
0.0
 11
1.785
 21
2.375
 31
0.0
  0
LINE
  5
248
330
161
100
AcDbEntity
  8
AM_4
100
AcDbLine
 10
1.784999999999999
 20
2.375000000000001
 30
0.0
 11
1.441250000000001
 21
2.031250000000003
 31
0.0
  0
LINE
  5
249
330
161
100
AcDbEntity
  8
AM_4
100
AcDbLine
 10
-1.44125
 20
-2.03125
 30
0.0
 11
-1.44125
 21
2.031250000000001
 31
0.0
  0
LINE
  5
24A
330
161
100
AcDbEntity
  8
AM_4
100
AcDbLine
 10
-1.44125
 20
-2.03125
 30
0.0
 11
1.441250000000001
 21
-2.031250000000002
 31
0.0
  0
LINE
  5
24B
330
161
100
AcDbEntity
  8
AM_4
100
AcDbLine
 10
1.441250000000001
 20
-2.031250000000002
 30
0.0
 11
1.441250000000001
 21
2.031250000000002
 31
0.0
  0
LINE
  5
24C
330
161
100
AcDbEntity
  8
AM_4
100
AcDbLine
 10
-1.44125
 20
2.031250000000001
 30
0.0
 11
1.441250000000001
 21
2.031250000000002
 31
0.0
  0
ARC
  5
24D
330
161
100
AcDbEntity
  8
AM_4
100
AcDbCircle
 10
-0.2677500000000005
 20
0.2677500000000006
 30
0.0
 40
1.071
100
AcDbArc
 50
90.0
 51
180.0
  0
LINE
  5
24E
330
161
100
AcDbEntity
  8
AM_4
100
AcDbLine
 10
-1.33875
 20
0.2677500000000009
 30
0.0
 11
-1.33875
 21
-1.12455
 31
0.0
  0
ARC
  5
24F
330
161
100
AcDbEntity
  8
AM_4
100
AcDbCircle
 10
-1.124550000000001
 20
-1.12455
 30
0.0
 40
0.2141999999999995
100
AcDbArc
 50
180.0
 51
270.0
  0
LINE
  5
250
330
161
100
AcDbEntity
  8
AM_4
100
AcDbLine
 10
-1.12455
 20
-1.33875
 30
0.0
 11
0.2677500000000002
 21
-1.33875
 31
0.0
  0
ARC
  5
251
330
161
100
AcDbEntity
  8
AM_4
100
AcDbCircle
 10
0.2677499999999998
 20
-0.2677499999999998
 30
0.0
 40
1.071
100
AcDbArc
 50
270.0
 51
0.0000008537736463
  0
LINE
  5
252
330
161
100
AcDbEntity
  8
AM_4
100
AcDbLine
 10
1.33875
 20
-0.2677499840408551
 30
0.0
 11
1.33875
 21
1.12455
 31
0.0
  0
ARC
  5
253
330
161
100
AcDbEntity
  8
AM_4
100
AcDbCircle
 10
1.12455
 20
1.12455
 30
0.0
 40
0.2141999999999999
100
AcDbArc
 50
0.0
 51
90.0
  0
LINE
  5
254
330
161
100
AcDbEntity
  8
AM_4
100
AcDbLine
 10
1.12455
 20
1.33875
 30
0.0
 11
-0.2677500000000002
 21
1.33875
 31
0.0
  0
LINE
  5
255
330
161
100
AcDbEntity
  8
AM_4
100
AcDbLine
 10
-1.23875
 20
-1.081014973081037
 30
0.0
 11
-1.23875
 21
-1.196485026918962
 31
0.0
  0
LINE
  5
256
330
161
100
AcDbEntity
  8
AM_4
100
AcDbLine
 10
-1.23875
 20
-1.196485026918962
 30
0.0
 11
-1.13875
 21
-1.254220053837925
 31
0.0
  0
LINE
  5
257
330
161
100
AcDbEntity
  8
AM_4
100
AcDbLine
 10
-1.13875
 20
-1.254220053837925
 30
0.0
 11
-1.03875
 21
-1.196485026918962
 31
0.0
  0
LINE
  5
258
330
161
100
AcDbEntity
  8
AM_4
100
AcDbLine
 10
-1.03875
 20
-1.196485026918962
 30
0.0
 11
-1.03875
 21
-1.081014973081037
 31
0.0
  0
LINE
  5
259
330
161
100
AcDbEntity
  8
AM_4
100
AcDbLine
 10
-1.03875
 20
-1.081014973081037
 30
0.0
 11
-1.13875
 21
-1.023279946162075
 31
0.0
  0
LINE
  5
25A
330
161
100
AcDbEntity
  8
AM_4
100
AcDbLine
 10
-1.13875
 20
-1.023279946162075
 30
0.0
 11
-1.23875
 21
-1.081014973081037
 31
0.0
  0
LINE
  5
25B
330
161
100
AcDbEntity
  8
AM_4
100
AcDbLine
 10
1.23875
 20
1.196485026918963
 30
0.0
 11
1.13875
 21
1.254220053837926
 31
0.0
  0
LINE
  5
25C
330
161
100
AcDbEntity
  8
AM_4
100
AcDbLine
 10
1.13875
 20
1.254220053837926
 30
0.0
 11
1.03875
 21
1.196485026918963
 31
0.0
  0
LINE
  5
25D
330
161
100
AcDbEntity
  8
AM_4
100
AcDbLine
 10
1.03875
 20
1.196485026918963
 30
0.0
 11
1.03875
 21
1.081014973081038
 31
0.0
  0
LINE
  5
25E
330
161
100
AcDbEntity
  8
AM_4
100
AcDbLine
 10
1.03875
 20
1.081014973081038
 30
0.0
 11
1.13875
 21
1.023279946162075
 31
0.0
  0
LINE
  5
25F
330
161
100
AcDbEntity
  8
AM_4
100
AcDbLine
 10
1.13875
 20
1.023279946162075
 30
0.0
 11
1.23875
 21
1.081014973081038
 31
0.0
  0
LINE
  5
260
330
161
100
AcDbEntity
  8
AM_4
100
AcDbLine
 10
1.23875
 20
1.081014973081038
 30
0.0
 11
1.23875
 21
1.196485026918963
 31
0.0
  0
ENDBLK
  5
164
330
161
100
AcDbEntity
  8
0
100
AcDbBlockEnd
  0
ENDSEC
  0
SECTION
  2
ENTITIES
  0
INSERT
  5
6F
330
1F
100
AcDbEntity
  8
0
100
AcDbBlockReference
  2
1_023188_4
 10
0.0
 20
0.0
 30
0.0
  0
POINT
  5
262
330
1F
100
AcDbEntity
  8
ConnectionPoints
100
AcDbPoint
 10
0.0
 20
-0.0049999999999996
 30
5.0485
  0
POINT
  5
263
330
1F
100
AcDbEntity
  8
ConnectionPoints
100
AcDbPoint
 10
0.0
 20
-0.0049999999999996
 30
5.0485
  0
POINT
  5
264
330
1F
100
AcDbEntity
  8
ConnectionPoints
100
AcDbPoint
 10
0.0
 20
-0.0049999999999999
 30
0.0
  0
POINT
  5
265
330
1F
100
AcDbEntity
  8
ConnectionPoints
100
AcDbPoint
 10
0.0
 20
-3.13
 30
0.0000000000000002
  0
POINT
  5
266
330
1F
100
AcDbEntity
  8
ConnectionPoints
100
AcDbPoint
 10
0.0
 20
2.6835
 30
-0.0000000000000002
  0
POINT
  5
267
330
1F
100
AcDbEntity
  8
ConnectionPoints
100
AcDbPoint
 10
0.0
 20
0.0
 30
0.0
  0
POINT
  5
268
330
1F
100
AcDbEntity
  8
ConnectionPoints
100
AcDbPoint
 10
0.0
 20
-3.13
 30
0.0000000000000002
  0
ENDSEC
  0
SECTION
  2
OBJECTS
  0
DICTIONARY
  5
C
330
0
100
AcDbDictionary
281
     1
  3
ACAD_DETAILVIEWSTYLE
350
270
  3
ACAD_GROUP
350
D
  3
ACAD_LAYOUT
350
1A
  3
ACAD_MATERIAL
350
43
  3
ACAD_MLEADERSTYLE
350
6B
  3
ACAD_MLINESTYLE
350
17
  3
ACAD_PLOTSETTINGS
350
19
  3
ACAD_PLOTSTYLENAME
350
E
  3
ACAD_SCALELIST
350
47
  3
ACAD_SECTIONVIEWSTYLE
350
271
  3
ACAD_TABLESTYLE
350
69
  3
ACAD_VISUALSTYLE
350
2A
  3
ACDB_RECOMPOSE_DATA
350
26D
  3
AcDbVariableDictionary
350
269
  0
SUN
  5
6D
330
29
100
AcDbSun
 90
        1
290
     0
 63
     7
421
 16777215
 40
1.0
291
     1
 91
  2455826
 92
 54000000
292
     0
 70
     2
 71
   256
280
     1
  0
DICTIONARY
  5
270
102
{ACAD_REACTORS
330
C
102
}
330
C
100
AcDbDictionary
281
     1
  0
DICTIONARY
  5
D
102
{ACAD_REACTORS
330
C
102
}
330
C
100
AcDbDictionary
281
     1
  0
DICTIONARY
  5
1A
102
{ACAD_REACTORS
330
C
102
}
330
C
100
AcDbDictionary
281
     1
  3
Layout1
350
1E
  3
Layout2
350
26
  3
Model
350
22
  0
DICTIONARY
  5
43
102
{ACAD_REACTORS
330
C
102
}
330
C
100
AcDbDictionary
281
     1
  3
ByBlock
350
45
  3
ByLayer
350
44
  3
Global
350
46
  0
DICTIONARY
  5
6B
102
{ACAD_REACTORS
330
C
102
}
330
C
100
AcDbDictionary
281
     1
  3
Standard
350
6C
  0
DICTIONARY
  5
17
102
{ACAD_REACTORS
330
C
102
}
330
C
100
AcDbDictionary
281
     1
  3
Standard
350
18
  0
DICTIONARY
  5
19
102
{ACAD_REACTORS
330
C
102
}
330
C
100
AcDbDictionary
281
     1
  0
ACDBDICTIONARYWDFLT
  5
E
102
{ACAD_REACTORS
330
C
102
}
330
C
100
AcDbDictionary
281
     1
  3
Normal
350
F
100
AcDbDictionaryWithDefault
340
F
  0
DICTIONARY
  5
47
102
{ACAD_REACTORS
330
C
102
}
330
C
100
AcDbDictionary
281
     1
  3
A0
350
48
  3
A1
350
49
  3
A2
350
4A
  3
A3
350
4B
  3
A4
350
4C
  3
A5
350
4D
  3
A6
350
4E
  3
A7
350
4F
  3
A8
350
50
  3
A9
350
51
  3
B0
350
52
  3
B1
350
53
  3
B2
350
54
  3
B3
350
55
  3
B4
350
56
  3
B5
350
57
  3
B6
350
58
  3
B7
350
59
  3
B8
350
5A
  3
B9
350
5B
  3
C0
350
5C
  3
C1
350
5D
  3
C2
350
5E
  3
C3
350
5F
  3
C4
350
60
  3
C5
350
61
  3
C6
350
62
  3
C7
350
63
  3
C8
350
64
  3
C9
350
65
  3
D0
350
66
  3
D1
350
67
  3
D2
350
68
  0
DICTIONARY
  5
271
102
{ACAD_REACTORS
330
C
102
}
330
C
100
AcDbDictionary
281
     1
  0
DICTIONARY
  5
69
102
{ACAD_REACTORS
330
C
102
}
330
C
100
AcDbDictionary
281
     1
  3
Standard
350
6A
  0
DICTIONARY
  5
2A
102
{ACAD_REACTORS
330
C
102
}
330
C
100
AcDbDictionary
281
     1
  3
2dWireframe
350
2F
  3
Basic
350
32
  3
Brighten
350
36
  3
ColorChange
350
3A
  3
Conceptual
350
34
  3
Dim
350
35
  3
EdgeColorOff
350
3D
  3
Facepattern
350
39
  3
Flat
350
2B
  3
FlatWithEdges
350
2C
  3
Gouraud
350
2D
  3
GouraudWithEdges
350
2E
  3
Hidden
350
31
  3
JitterOff
350
3B
  3
Linepattern
350
38
  3
OverhangOff
350
3C
  3
Realistic
350
33
  3
Shaded
350
42
  3
Shaded with edges
350
41
  3
Shades of Gray
350
3E
  3
Sketchy
350
3F
  3
Thicken
350
37
  3
Wireframe
350
30
  3
X-Ray
350
40
  0
XRECORD
  5
26D
102
{ACAD_REACTORS
330
C
102
}
330
C
100
AcDbXrecord
280
     1
 90
        1
330
6A
  0
DICTIONARY
  5
269
102
{ACAD_REACTORS
330
C
102
}
330
C
100
AcDbDictionary
281
     1
  3
CANNOSCALE
350
26A
  3
CMLEADERSTYLE
350
26F
  3
CTABLESTYLE
350
26E
  0
LAYOUT
  5
1E
102
{ACAD_REACTORS
330
1A
102
}
330
1A
100
AcDbPlotSettings
  1

  2
none_device
  4

  6

 40
0.0
 41
0.0
 42
0.0
 43
0.0
 44
0.0
 45
0.0
 46
0.0
 47
0.0
 48
0.0
 49
0.0
140
0.0
141
0.0
142
1.0
143
1.0
 70
   688
 72
     0
 73
     0
 74
     5
  7

 75
    16
 76
     0
 77
     2
 78
   300
147
1.0
148
0.0
149
0.0
100
AcDbLayout
  1
Layout1
 70
     1
 71
     1
 10
0.0
 20
0.0
 11
12.0
 21
9.0
 12
0.0
 22
0.0
 32
0.0
 14
1.000000000000000E+20
 24
1.000000000000000E+20
 34
1.000000000000000E+20
 15
-1.000000000000000E+20
 25
-1.000000000000000E+20
 35
-1.000000000000000E+20
146
0.0
 13
0.0
 23
0.0
 33
0.0
 16
1.0
 26
0.0
 36
0.0
 17
0.0
 27
1.0
 37
0.0
 76
     0
330
1B
  0
LAYOUT
  5
26
102
{ACAD_REACTORS
330
1A
102
}
330
1A
100
AcDbPlotSettings
  1

  2
none_device
  4

  6

 40
0.0
 41
0.0
 42
0.0
 43
0.0
 44
0.0
 45
0.0
 46
0.0
 47
0.0
 48
0.0
 49
0.0
140
0.0
141
0.0
142
1.0
143
1.0
 70
   688
 72
     0
 73
     0
 74
     5
  7

 75
    16
 76
     0
 77
     2
 78
   300
147
1.0
148
0.0
149
0.0
100
AcDbLayout
  1
Layout2
 70
     1
 71
     2
 10
0.0
 20
0.0
 11
0.0
 21
0.0
 12
0.0
 22
0.0
 32
0.0
 14
0.0
 24
0.0
 34
0.0
 15
0.0
 25
0.0
 35
0.0
146
0.0
 13
0.0
 23
0.0
 33
0.0
 16
1.0
 26
0.0
 36
0.0
 17
0.0
 27
1.0
 37
0.0
 76
     0
330
23
  0
LAYOUT
  5
22
102
{ACAD_REACTORS
330
1A
102
}
330
1A
100
AcDbPlotSettings
  1

  2
none_device
  4
Letter_(8.50_x_11.00_Inches)
  6

 40
6.35
 41
6.35
 42
6.35000508
 43
6.35000508
 44
215.9
 45
279.4
 46
0.0
 47
0.0
 48
0.0
 49
0.0
140
0.0
141
0.0
142
1.0
143
1.0
 70
  1712
 72
     0
 73
     0
 74
     0
  7

 75
     0
 76
     0
 77
     2
 78
   300
147
1.0
148
0.0
149
0.0
100
AcDbLayout
  1
Model
 70
     1
 71
     0
 10
0.0
 20
0.0
 11
12.0
 21
9.0
 12
0.0
 22
0.0
 32
0.0
 14
1.000000000000000E+20
 24
1.000000000000000E+20
 34
1.000000000000000E+20
 15
-1.000000000000000E+20
 25
-1.000000000000000E+20
 35
-1.000000000000000E+20
146
0.0
 13
0.0
 23
0.0
 33
0.0
 16
1.0
 26
0.0
 36
0.0
 17
0.0
 27
1.0
 37
0.0
 76
     0
330
1F
331
29
  0
MATERIAL
  5
45
102
{ACAD_REACTORS
330
43
102
}
330
43
100
AcDbMaterial
  1
ByBlock
 72
     1
 94
      127
  0
MATERIAL
  5
44
102
{ACAD_REACTORS
330
43
102
}
330
43
100
AcDbMaterial
  1
ByLayer
 72
     1
 94
      127
  0
MATERIAL
  5
46
102
{ACAD_REACTORS
330
43
102
}
330
43
100
AcDbMaterial
  1
Global
 72
     1
 94
      127
  0
MLEADERSTYLE
  5
6C
102
{ACAD_REACTORS
330
6B
102
}
330
6B
100
AcDbMLeaderStyle
179
     2
170
     2
171
     1
172
     0
 90
        2
 40
0.0
 41
0.0
173
     1
 91
-1056964608
340
14
 92
       -2
290
     1
 42
0.09
291
     1
 43
0.36
  3
Standard
341
0
 44
0.18
300

342
11
174
     1
178
     6
175
     1
176
     0
 93
-1056964608
 45
0.18
292
     0
297
     0
 46
0.18
343
0
 94
-1056964608
 47
1.0
 49
1.0
140
1.0
293
     1
141
0.0
294
     1
177
     0
142
1.0
295
     0
296
     0
143
0.125
271
     0
272
     9
273
     9
298
     0
  0
MLINESTYLE
  5
18
102
{ACAD_REACTORS
330
17
102
}
330
17
100
AcDbMlineStyle
  2
Standard
 70
     0
  3

 62
   256
 51
90.0
 52
90.0
 71
     2
 49
0.5
 62
   256
  6
BYLAYER
 49
-0.5
 62
   256
  6
BYLAYER
  0
ACDBPLACEHOLDER
  5
F
102
{ACAD_REACTORS
330
E
102
}
330
E
  0
SCALE
  5
48
102
{ACAD_REACTORS
330
47
102
}
330
47
100
AcDbScale
 70
     0
300
1:1
140
1.0
141
1.0
290
     1
  0
SCALE
  5
49
102
{ACAD_REACTORS
330
47
102
}
330
47
100
AcDbScale
 70
     0
300
1:2
140
1.0
141
2.0
290
     0
  0
SCALE
  5
4A
102
{ACAD_REACTORS
330
47
102
}
330
47
100
AcDbScale
 70
     0
300
1:4
140
1.0
141
4.0
290
     0
  0
SCALE
  5
4B
102
{ACAD_REACTORS
330
47
102
}
330
47
100
AcDbScale
 70
     0
300
1:5
140
1.0
141
5.0
290
     0
  0
SCALE
  5
4C
102
{ACAD_REACTORS
330
47
102
}
330
47
100
AcDbScale
 70
     0
300
1:8
140
1.0
141
8.0
290
     0
  0
SCALE
  5
4D
102
{ACAD_REACTORS
330
47
102
}
330
47
100
AcDbScale
 70
     0
300
1:10
140
1.0
141
10.0
290
     0
  0
SCALE
  5
4E
102
{ACAD_REACTORS
330
47
102
}
330
47
100
AcDbScale
 70
     0
300
1:16
140
1.0
141
16.0
290
     0
  0
SCALE
  5
4F
102
{ACAD_REACTORS
330
47
102
}
330
47
100
AcDbScale
 70
     0
300
1:20
140
1.0
141
20.0
290
     0
  0
SCALE
  5
50
102
{ACAD_REACTORS
330
47
102
}
330
47
100
AcDbScale
 70
     0
300
1:30
140
1.0
141
30.0
290
     0
  0
SCALE
  5
51
102
{ACAD_REACTORS
330
47
102
}
330
47
100
AcDbScale
 70
     0
300
1:40
140
1.0
141
40.0
290
     0
  0
SCALE
  5
52
102
{ACAD_REACTORS
330
47
102
}
330
47
100
AcDbScale
 70
     0
300
1:50
140
1.0
141
50.0
290
     0
  0
SCALE
  5
53
102
{ACAD_REACTORS
330
47
102
}
330
47
100
AcDbScale
 70
     0
300
1:100
140
1.0
141
100.0
290
     0
  0
SCALE
  5
54
102
{ACAD_REACTORS
330
47
102
}
330
47
100
AcDbScale
 70
     0
300
2:1
140
2.0
141
1.0
290
     0
  0
SCALE
  5
55
102
{ACAD_REACTORS
330
47
102
}
330
47
100
AcDbScale
 70
     0
300
4:1
140
4.0
141
1.0
290
     0
  0
SCALE
  5
56
102
{ACAD_REACTORS
330
47
102
}
330
47
100
AcDbScale
 70
     0
300
8:1
140
8.0
141
1.0
290
     0
  0
SCALE
  5
57
102
{ACAD_REACTORS
330
47
102
}
330
47
100
AcDbScale
 70
     0
300
10:1
140
10.0
141
1.0
290
     0
  0
SCALE
  5
58
102
{ACAD_REACTORS
330
47
102
}
330
47
100
AcDbScale
 70
     0
300
100:1
140
100.0
141
1.0
290
     0
  0
SCALE
  5
59
102
{ACAD_REACTORS
330
47
102
}
330
47
100
AcDbScale
 70
     0
300
1/128" = 1'-0"
140
0.0078125
141
12.0
290
     0
  0
SCALE
  5
5A
102
{ACAD_REACTORS
330
47
102
}
330
47
100
AcDbScale
 70
     0
300
1/64" = 1'-0"
140
0.015625
141
12.0
290
     0
  0
SCALE
  5
5B
102
{ACAD_REACTORS
330
47
102
}
330
47
100
AcDbScale
 70
     0
300
1/32" = 1'-0"
140
0.03125
141
12.0
290
     0
  0
SCALE
  5
5C
102
{ACAD_REACTORS
330
47
102
}
330
47
100
AcDbScale
 70
     0
300
1/16" = 1'-0"
140
0.0625
141
12.0
290
     0
  0
SCALE
  5
5D
102
{ACAD_REACTORS
330
47
102
}
330
47
100
AcDbScale
 70
     0
300
3/32" = 1'-0"
140
0.09375
141
12.0
290
     0
  0
SCALE
  5
5E
102
{ACAD_REACTORS
330
47
102
}
330
47
100
AcDbScale
 70
     0
300
1/8" = 1'-0"
140
0.125
141
12.0
290
     0
  0
SCALE
  5
5F
102
{ACAD_REACTORS
330
47
102
}
330
47
100
AcDbScale
 70
     0
300
3/16" = 1'-0"
140
0.1875
141
12.0
290
     0
  0
SCALE
  5
60
102
{ACAD_REACTORS
330
47
102
}
330
47
100
AcDbScale
 70
     0
300
1/4" = 1'-0"
140
0.25
141
12.0
290
     0
  0
SCALE
  5
61
102
{ACAD_REACTORS
330
47
102
}
330
47
100
AcDbScale
 70
     0
300
3/8" = 1'-0"
140
0.375
141
12.0
290
     0
  0
SCALE
  5
62
102
{ACAD_REACTORS
330
47
102
}
330
47
100
AcDbScale
 70
     0
300
1/2" = 1'-0"
140
0.5
141
12.0
290
     0
  0
SCALE
  5
63
102
{ACAD_REACTORS
330
47
102
}
330
47
100
AcDbScale
 70
     0
300
3/4" = 1'-0"
140
0.75
141
12.0
290
     0
  0
SCALE
  5
64
102
{ACAD_REACTORS
330
47
102
}
330
47
100
AcDbScale
 70
     0
300
1" = 1'-0"
140
1.0
141
12.0
290
     0
  0
SCALE
  5
65
102
{ACAD_REACTORS
330
47
102
}
330
47
100
AcDbScale
 70
     0
300
1-1/2" = 1'-0"
140
1.5
141
12.0
290
     0
  0
SCALE
  5
66
102
{ACAD_REACTORS
330
47
102
}
330
47
100
AcDbScale
 70
     0
300
3" = 1'-0"
140
3.0
141
12.0
290
     0
  0
SCALE
  5
67
102
{ACAD_REACTORS
330
47
102
}
330
47
100
AcDbScale
 70
     0
300
6" = 1'-0"
140
6.0
141
12.0
290
     0
  0
SCALE
  5
68
102
{ACAD_REACTORS
330
47
102
}
330
47
100
AcDbScale
 70
     0
300
1'-0" = 1'-0"
140
12.0
141
12.0
290
     0
  0
TABLESTYLE
  5
6A
102
{ACAD_REACTORS
330
69
102
}
102
{ACAD_XDICTIONARY
360
26B
102
}
330
69
100
AcDbTableStyle
  3
Standard
 70
     0
 71
     0
 40
0.06
 41
0.06
280
     0
281
     0
  7
Standard
140
0.18
170
     2
 62
     0
 63
   257
283
     0
 90
        4
 91
        0
  1

274
    -2
284
     1
 64
     0
275
    -2
285
     1
 65
     0
276
    -2
286
     1
 66
     0
277
    -2
287
     1
 67
     0
278
    -2
288
     1
 68
     0
279
    -2
289
     1
 69
     0
  7
Standard
140
0.25
170
     5
 62
     0
 63
   257
283
     0
 90
        4
 91
        0
  1

274
    -2
284
     1
 64
     0
275
    -2
285
     1
 65
     0
276
    -2
286
     1
 66
     0
277
    -2
287
     1
 67
     0
278
    -2
288
     1
 68
     0
279
    -2
289
     1
 69
     0
  7
Standard
140
0.18
170
     5
 62
     0
 63
   257
283
     0
 90
        4
 91
        0
  1

274
    -2
284
     1
 64
     0
275
    -2
285
     1
 65
     0
276
    -2
286
     1
 66
     0
277
    -2
287
     1
 67
     0
278
    -2
288
     1
 68
     0
279
    -2
289
     1
 69
     0
  0
VISUALSTYLE
  5
2F
102
{ACAD_REACTORS
330
2A
102
}
330
2A
100
AcDbVisualStyle
  2
2dWireframe
 70
     4
177
     3
291
     0
 70
    58
 90
        0
176
     1
 90
        2
176
     1
 90
        0
176
     1
 90
        0
176
     1
 40
0.6
176
     1
 40
30.0
176
     1
 62
     7
420
 16777215
176
     1
 90
        1
176
     1
 90
        4
176
     1
 62
     7
176
     1
 62
   257
176
     1
 90
        1
176
     1
 90
        1
176
     1
 40
1.0
176
     1
 90
        0
176
     1
 62
   257
176
     1
 40
1.0
176
     1
 90
        1
176
     1
 90
        6
176
     1
 90
        2
176
     1
 62
     7
176
     1
 90
        5
176
     1
 90
        0
176
     1
 90
        0
176
     1
290
     0
176
     1
 90
        1
176
     1
 40
0.0
176
     1
 90
        0
176
     1
290
     1
176
     1
290
     1
176
     1
290
     0
176
     1
290
     0
176
     1
290
     0
176
     1
290
     0
176
     1
290
     0
176
     1
290
     0
176
     1
290
     0
176
     1
 90
       50
176
     1
 40
0.0
176
     1
 40
1.0
176
     1
 90
        0
176
     1
 62
    18
420
        0
176
     1
 90
       50
176
     1
 90
        3
176
     1
 62
     5
420
      255
176
     1
290
     0
176
     1
 90
       50
176
     1
 90
       50
176
     1
 90
       50
176
     1
290
     0
176
     1
 90
       50
176
     1
 62
   256
176
     0
 40
1.0
176
     0
 90
        2
176
     1
  1
strokes_ogs.tif
176
     1
290
     0
176
     1
 40
1.0
176
     1
 40
1.0
176
     1
  0
VISUALSTYLE
  5
32
102
{ACAD_REACTORS
330
2A
102
}
330
2A
100
AcDbVisualStyle
  2
Basic
 70
     7
177
     3
291
     1
 70
    58
 90
        1
176
     1
 90
        0
176
     1
 90
        1
176
     1
 90
        0
176
     1
 40
0.6
176
     1
 40
30.0
176
     1
 62
     7
420
 16777215
176
     1
 90
        0
176
     1
 90
        4
176
     1
 62
     7
176
     1
 62
   257
176
     1
 90
        1
176
     1
 90
        1
176
     1
 40
1.0
176
     1
 90
        8
176
     1
 62
     7
176
     1
 40
1.0
176
     1
 90
        1
176
     1
 90
        6
176
     1
 90
        2
176
     1
 62
     7
176
     1
 90
        5
176
     1
 90
        0
176
     1
 90
        0
176
     1
290
     0
176
     1
 90
        1
176
     1
 40
0.0
176
     1
 90
        0
176
     1
290
     0
176
     1
290
     1
176
     1
290
     1
176
     1
290
     0
176
     1
290
     0
176
     1
290
     0
176
     1
290
     0
176
     1
290
     0
176
     1
290
     0
176
     1
 90
       50
176
     1
 40
0.0
176
     1
 40
1.0
176
     1
 90
        0
176
     1
 62
    18
420
        0
176
     1
 90
       50
176
     1
 90
        3
176
     1
 62
     5
420
      255
176
     1
290
     0
176
     1
 90
       50
176
     1
 90
       50
176
     1
 90
       50
176
     1
290
     0
176
     1
 90
       50
176
     1
 62
   256
176
     0
 40
1.0
176
     0
 90
        2
176
     1
  1
strokes_ogs.tif
176
     1
290
     0
176
     1
 40
1.0
176
     1
 40
1.0
176
     1
  0
VISUALSTYLE
  5
36
102
{ACAD_REACTORS
330
2A
102
}
330
2A
100
AcDbVisualStyle
  2
Brighten
 70
    12
177
     3
291
     1
 70
    58
 90
        2
176
     1
 90
        2
176
     1
 90
        0
176
     1
 90
        0
176
     1
 40
0.6
176
     1
 40
30.0
176
     1
 62
     7
420
 16777215
176
     1
 90
        1
176
     1
 90
        4
176
     1
 62
     7
176
     1
 62
   257
176
     1
 90
        1
176
     1
 90
        1
176
     1
 40
1.0
176
     1
 90
        8
176
     1
 62
     7
176
     1
 40
1.0
176
     1
 90
        1
176
     1
 90
        6
176
     1
 90
        2
176
     1
 62
     7
176
     1
 90
        5
176
     1
 90
        0
176
     1
 90
        0
176
     1
290
     0
176
     1
 90
        1
176
     1
 40
50.0
176
     1
 90
        0
176
     1
290
     0
176
     1
290
     1
176
     1
290
     1
176
     1
290
     0
176
     1
290
     0
176
     1
290
     0
176
     1
290
     0
176
     1
290
     0
176
     1
290
     0
176
     1
 90
       50
176
     1
 40
0.0
176
     1
 40
1.0
176
     1
 90
        0
176
     1
 62
    18
420
        0
176
     1
 90
       50
176
     1
 90
        3
176
     1
 62
     5
420
      255
176
     1
290
     0
176
     1
 90
       50
176
     1
 90
       50
176
     1
 90
       50
176
     1
290
     0
176
     1
 90
       50
176
     1
 62
   256
176
     0
 40
1.0
176
     0
 90
        2
176
     1
  1
strokes_ogs.tif
176
     1
290
     0
176
     1
 40
1.0
176
     1
 40
1.0
176
     1
  0
VISUALSTYLE
  5
3A
102
{ACAD_REACTORS
330
2A
102
}
330
2A
100
AcDbVisualStyle
  2
ColorChange
 70
    16
177
     3
291
     1
 70
    58
 90
        2
176
     1
 90
        2
176
     1
 90
        3
176
     1
 90
        0
176
     1
 40
0.6
176
     1
 40
30.0
176
     1
 62
     8
420
  8421504
176
     1
 90
        1
176
     1
 90
        4
176
     1
 62
     7
176
     1
 62
   257
176
     1
 90
        1
176
     1
 90
        1
176
     1
 40
1.0
176
     1
 90
        8
176
     1
 62
     8
420
  8421504
176
     1
 40
1.0
176
     1
 90
        1
176
     1
 90
        6
176
     1
 90
        2
176
     1
 62
     7
176
     1
 90
        5
176
     1
 90
        0
176
     1
 90
        0
176
     1
290
     0
176
     1
 90
        1
176
     1
 40
0.0
176
     1
 90
        0
176
     1
290
     0
176
     1
290
     1
176
     1
290
     1
176
     1
290
     0
176
     1
290
     0
176
     1
290
     0
176
     1
290
     0
176
     1
290
     0
176
     1
290
     0
176
     1
 90
       50
176
     1
 40
0.0
176
     1
 40
1.0
176
     1
 90
        0
176
     1
 62
    18
420
        0
176
     1
 90
       50
176
     1
 90
        3
176
     1
 62
     5
420
      255
176
     1
290
     0
176
     1
 90
       50
176
     1
 90
       50
176
     1
 90
       50
176
     1
290
     0
176
     1
 90
       50
176
     1
 62
   256
176
     0
 40
1.0
176
     0
 90
        2
176
     1
  1
strokes_ogs.tif
176
     1
290
     0
176
     1
 40
1.0
176
     1
 40
1.0
176
     1
  0
VISUALSTYLE
  5
34
102
{ACAD_REACTORS
330
2A
102
}
330
2A
100
AcDbVisualStyle
  2
Conceptual
 70
     9
177
     3
291
     0
 70
    58
 90
        3
176
     1
 90
        2
176
     1
 90
        0
176
     1
 90
        0
176
     1
 40
0.6
176
     1
 40
30.0
176
     1
 62
     7
420
 16777215
176
     1
 90
        2
176
     1
 90
        2
176
     1
 62
     7
176
     1
 62
   257
176
     1
 90
        1
176
     1
 90
        1
176
     1
 40
179.0
176
     1
 90
        8
176
     1
 62
     7
176
     1
 40
1.0
176
     1
 90
        1
176
     1
 90
        6
176
     1
 90
        2
176
     1
 62
     7
176
     1
 90
        3
176
     1
 90
        0
176
     1
 90
        0
176
     1
290
     0
176
     1
 90
        1
176
     1
 40
0.0
176
     1
 90
        0
176
     1
290
     0
176
     1
290
     1
176
     1
290
     1
176
     1
290
     0
176
     1
290
     0
176
     1
290
     0
176
     1
290
     0
176
     1
290
     0
176
     1
290
     0
176
     1
 90
       50
176
     1
 40
0.0
176
     1
 40
1.0
176
     1
 90
        0
176
     1
 62
    18
420
        0
176
     1
 90
       50
176
     1
 90
        3
176
     1
 62
     5
420
      255
176
     1
290
     0
176
     1
 90
       50
176
     1
 90
       50
176
     1
 90
       50
176
     1
290
     0
176
     1
 90
       50
176
     1
 62
   256
176
     0
 40
1.0
176
     0
 90
        2
176
     1
  1
strokes_ogs.tif
176
     1
290
     0
176
     1
 40
1.0
176
     1
 40
1.0
176
     1
  0
VISUALSTYLE
  5
35
102
{ACAD_REACTORS
330
2A
102
}
330
2A
100
AcDbVisualStyle
  2
Dim
 70
    11
177
     3
291
     1
 70
    58
 90
        2
176
     1
 90
        2
176
     1
 90
        0
176
     1
 90
        0
176
     1
 40
0.6
176
     1
 40
30.0
176
     1
 62
     7
420
 16777215
176
     1
 90
        1
176
     1
 90
        4
176
     1
 62
     7
176
     1
 62
   257
176
     1
 90
        1
176
     1
 90
        1
176
     1
 40
1.0
176
     1
 90
        8
176
     1
 62
     7
176
     1
 40
1.0
176
     1
 90
        1
176
     1
 90
        6
176
     1
 90
        2
176
     1
 62
     7
176
     1
 90
        5
176
     1
 90
        0
176
     1
 90
        0
176
     1
290
     0
176
     1
 90
        1
176
     1
 40
-50.0
176
     1
 90
        0
176
     1
290
     0
176
     1
290
     1
176
     1
290
     1
176
     1
290
     0
176
     1
290
     0
176
     1
290
     0
176
     1
290
     0
176
     1
290
     0
176
     1
290
     0
176
     1
 90
       50
176
     1
 40
0.0
176
     1
 40
1.0
176
     1
 90
        0
176
     1
 62
    18
420
        0
176
     1
 90
       50
176
     1
 90
        3
176
     1
 62
     5
420
      255
176
     1
290
     0
176
     1
 90
       50
176
     1
 90
       50
176
     1
 90
       50
176
     1
290
     0
176
     1
 90
       50
176
     1
 62
   256
176
     0
 40
1.0
176
     0
 90
        2
176
     1
  1
strokes_ogs.tif
176
     1
290
     0
176
     1
 40
1.0
176
     1
 40
1.0
176
     1
  0
VISUALSTYLE
  5
3D
102
{ACAD_REACTORS
330
2A
102
}
330
2A
100
AcDbVisualStyle
  2
EdgeColorOff
 70
    22
177
     3
291
     1
 70
    58
 90
        2
176
     0
 90
        2
176
     0
 90
        0
176
     0
 90
        0
176
     0
 40
0.6
176
     0
 40
30.0
176
     0
 62
     7
420
 16777215
176
     0
 90
        1
176
     0
 90
        4
176
     0
 62
     7
176
     0
 62
   257
176
     0
 90
        1
176
     0
 90
        1
176
     0
 40
1.0
176
     0
 90
        8
176
     2
 62
     7
176
     0
 40
1.0
176
     0
 90
        1
176
     0
 90
        6
176
     0
 90
        2
176
     0
 62
     7
176
     0
 90
        5
176
     0
 90
        0
176
     0
 90
        0
176
     0
290
     0
176
     0
 90
        1
176
     0
 40
0.0
176
     0
 90
        0
176
     0
290
     0
176
     0
290
     1
176
     0
290
     1
176
     0
290
     0
176
     0
290
     0
176
     0
290
     0
176
     0
290
     0
176
     0
290
     0
176
     0
290
     0
176
     0
 90
       50
176
     0
 40
0.0
176
     0
 40
1.0
176
     0
 90
        0
176
     0
 62
    18
420
        0
176
     0
 90
       50
176
     0
 90
        3
176
     0
 62
     5
420
      255
176
     0
290
     0
176
     0
 90
       50
176
     0
 90
       50
176
     0
 90
       50
176
     0
290
     0
176
     0
 90
       50
176
     0
 62
   256
176
     0
 40
1.0
176
     0
 90
        2
176
     0
  1
strokes_ogs.tif
176
     0
290
     0
176
     0
 40
1.0
176
     0
 40
1.0
176
     0
  0
VISUALSTYLE
  5
39
102
{ACAD_REACTORS
330
2A
102
}
330
2A
100
AcDbVisualStyle
  2
Facepattern
 70
    15
177
     3
291
     1
 70
    58
 90
        2
176
     1
 90
        2
176
     1
 90
        0
176
     1
 90
        0
176
     1
 40
0.6
176
     1
 40
30.0
176
     1
 62
     7
420
 16777215
176
     1
 90
        1
176
     1
 90
        4
176
     1
 62
     7
176
     1
 62
   257
176
     1
 90
        1
176
     1
 90
        1
176
     1
 40
1.0
176
     1
 90
        8
176
     1
 62
     7
176
     1
 40
1.0
176
     1
 90
        1
176
     1
 90
        6
176
     1
 90
        2
176
     1
 62
     7
176
     1
 90
        5
176
     1
 90
        0
176
     1
 90
        0
176
     1
290
     0
176
     1
 90
        1
176
     1
 40
0.0
176
     1
 90
        0
176
     1
290
     0
176
     1
290
     1
176
     1
290
     1
176
     1
290
     0
176
     1
290
     0
176
     1
290
     0
176
     1
290
     0
176
     1
290
     0
176
     1
290
     0
176
     1
 90
       50
176
     1
 40
0.0
176
     1
 40
1.0
176
     1
 90
        0
176
     1
 62
    18
420
        0
176
     1
 90
       50
176
     1
 90
        3
176
     1
 62
     5
420
      255
176
     1
290
     0
176
     1
 90
       50
176
     1
 90
       50
176
     1
 90
       50
176
     1
290
     0
176
     1
 90
       50
176
     1
 62
   256
176
     0
 40
1.0
176
     0
 90
        2
176
     1
  1
strokes_ogs.tif
176
     1
290
     0
176
     1
 40
1.0
176
     1
 40
1.0
176
     1
  0
VISUALSTYLE
  5
2B
102
{ACAD_REACTORS
330
2A
102
}
330
2A
100
AcDbVisualStyle
  2
Flat
 70
     0
177
     3
291
     1
 70
    58
 90
        2
176
     1
 90
        1
176
     1
 90
        1
176
     1
 90
        2
176
     1
 40
0.6
176
     1
 40
30.0
176
     1
 62
     7
420
 16777215
176
     1
 90
        0
176
     1
 90
        0
176
     1
 62
     7
176
     1
 62
   257
176
     1
 90
        1
176
     1
 90
        1
176
     1
 40
1.0
176
     1
 90
        8
176
     1
 62
     7
176
     1
 40
1.0
176
     1
 90
        1
176
     1
 90
        6
176
     1
 90
        2
176
     1
 62
     7
176
     1
 90
        5
176
     1
 90
        0
176
     1
 90
        0
176
     1
290
     0
176
     1
 90
       13
176
     1
 40
0.0
176
     1
 90
        0
176
     1
290
     0
176
     1
290
     1
176
     1
290
     1
176
     1
290
     0
176
     1
290
     0
176
     1
290
     0
176
     1
290
     0
176
     1
290
     0
176
     1
290
     0
176
     1
 90
       50
176
     1
 40
0.0
176
     1
 40
1.0
176
     1
 90
        0
176
     1
 62
    18
420
        0
176
     1
 90
       50
176
     1
 90
        3
176
     1
 62
     5
420
      255
176
     1
290
     0
176
     1
 90
       50
176
     1
 90
       50
176
     1
 90
       50
176
     1
290
     0
176
     1
 90
       50
176
     1
 62
   256
176
     0
 40
1.0
176
     0
 90
        2
176
     1
  1
strokes_ogs.tif
176
     1
290
     0
176
     1
 40
1.0
176
     1
 40
1.0
176
     1
  0
VISUALSTYLE
  5
2C
102
{ACAD_REACTORS
330
2A
102
}
330
2A
100
AcDbVisualStyle
  2
FlatWithEdges
 70
     1
177
     3
291
     1
 70
    58
 90
        2
176
     1
 90
        1
176
     1
 90
        1
176
     1
 90
        2
176
     1
 40
0.6
176
     1
 40
30.0
176
     1
 62
     7
420
 16777215
176
     1
 90
        1
176
     1
 90
        0
176
     1
 62
     7
176
     1
 62
   257
176
     1
 90
        1
176
     1
 90
        1
176
     1
 40
1.0
176
     1
 90
        0
176
     1
 62
   257
176
     1
 40
1.0
176
     1
 90
        1
176
     1
 90
        6
176
     1
 90
        2
176
     1
 62
     7
176
     1
 90
        5
176
     1
 90
        0
176
     1
 90
        0
176
     1
290
     0
176
     1
 90
       13
176
     1
 40
0.0
176
     1
 90
        0
176
     1
290
     0
176
     1
290
     1
176
     1
290
     1
176
     1
290
     0
176
     1
290
     0
176
     1
290
     0
176
     1
290
     0
176
     1
290
     0
176
     1
290
     0
176
     1
 90
       50
176
     1
 40
0.0
176
     1
 40
1.0
176
     1
 90
        0
176
     1
 62
    18
420
        0
176
     1
 90
       50
176
     1
 90
        3
176
     1
 62
     5
420
      255
176
     1
290
     0
176
     1
 90
       50
176
     1
 90
       50
176
     1
 90
       50
176
     1
290
     0
176
     1
 90
       50
176
     1
 62
   256
176
     0
 40
1.0
176
     0
 90
        2
176
     1
  1
strokes_ogs.tif
176
     1
290
     0
176
     1
 40
1.0
176
     1
 40
1.0
176
     1
  0
VISUALSTYLE
  5
2D
102
{ACAD_REACTORS
330
2A
102
}
330
2A
100
AcDbVisualStyle
  2
Gouraud
 70
     2
177
     3
291
     1
 70
    58
 90
        2
176
     1
 90
        2
176
     1
 90
        1
176
     1
 90
        2
176
     1
 40
0.6
176
     1
 40
30.0
176
     1
 62
     7
420
 16777215
176
     1
 90
        0
176
     1
 90
        0
176
     1
 62
     7
176
     1
 62
   257
176
     1
 90
        1
176
     1
 90
        1
176
     1
 40
1.0
176
     1
 90
        0
176
     1
 62
     7
176
     1
 40
1.0
176
     1
 90
        1
176
     1
 90
        6
176
     1
 90
        2
176
     1
 62
     7
176
     1
 90
        5
176
     1
 90
        0
176
     1
 90
        0
176
     1
290
     0
176
     1
 90
       13
176
     1
 40
0.0
176
     1
 90
        0
176
     1
290
     0
176
     1
290
     1
176
     1
290
     1
176
     1
290
     0
176
     1
290
     0
176
     1
290
     0
176
     1
290
     0
176
     1
290
     0
176
     1
290
     0
176
     1
 90
       50
176
     1
 40
0.0
176
     1
 40
1.0
176
     1
 90
        0
176
     1
 62
    18
420
        0
176
     1
 90
       50
176
     1
 90
        3
176
     1
 62
     5
420
      255
176
     1
290
     0
176
     1
 90
       50
176
     1
 90
       50
176
     1
 90
       50
176
     1
290
     0
176
     1
 90
       50
176
     1
 62
   256
176
     0
 40
1.0
176
     0
 90
        2
176
     1
  1
strokes_ogs.tif
176
     1
290
     0
176
     1
 40
1.0
176
     1
 40
1.0
176
     1
  0
VISUALSTYLE
  5
2E
102
{ACAD_REACTORS
330
2A
102
}
330
2A
100
AcDbVisualStyle
  2
GouraudWithEdges
 70
     3
177
     3
291
     1
 70
    58
 90
        2
176
     1
 90
        2
176
     1
 90
        1
176
     1
 90
        2
176
     1
 40
0.6
176
     1
 40
30.0
176
     1
 62
     7
420
 16777215
176
     1
 90
        1
176
     1
 90
        0
176
     1
 62
     7
176
     1
 62
   257
176
     1
 90
        1
176
     1
 90
        1
176
     1
 40
1.0
176
     1
 90
        0
176
     1
 62
   257
176
     1
 40
1.0
176
     1
 90
        1
176
     1
 90
        6
176
     1
 90
        2
176
     1
 62
     7
176
     1
 90
        5
176
     1
 90
        0
176
     1
 90
        0
176
     1
290
     0
176
     1
 90
       13
176
     1
 40
0.0
176
     1
 90
        0
176
     1
290
     0
176
     1
290
     1
176
     1
290
     1
176
     1
290
     0
176
     1
290
     0
176
     1
290
     0
176
     1
290
     0
176
     1
290
     0
176
     1
290
     0
176
     1
 90
       50
176
     1
 40
0.0
176
     1
 40
1.0
176
     1
 90
        0
176
     1
 62
    18
420
        0
176
     1
 90
       50
176
     1
 90
        3
176
     1
 62
     5
420
      255
176
     1
290
     0
176
     1
 90
       50
176
     1
 90
       50
176
     1
 90
       50
176
     1
290
     0
176
     1
 90
       50
176
     1
 62
   256
176
     0
 40
1.0
176
     0
 90
        2
176
     1
  1
strokes_ogs.tif
176
     1
290
     0
176
     1
 40
1.0
176
     1
 40
1.0
176
     1
  0
VISUALSTYLE
  5
31
102
{ACAD_REACTORS
330
2A
102
}
330
2A
100
AcDbVisualStyle
  2
Hidden
 70
     6
177
     3
291
     0
 70
    58
 90
        1
176
     1
 90
        2
176
     1
 90
        2
176
     1
 90
        0
176
     1
 40
0.6
176
     1
 40
30.0
176
     1
 62
     7
420
 16777215
176
     1
 90
        2
176
     1
 90
        2
176
     1
 62
     7
176
     1
 62
   257
176
     1
 90
        2
176
     1
 90
        1
176
     1
 40
40.0
176
     1
 90
        0
176
     1
 62
   257
176
     1
 40
1.0
176
     1
 90
        1
176
     1
 90
        6
176
     1
 90
        2
176
     1
 62
     7
176
     1
 90
        3
176
     1
 90
        0
176
     1
 90
        0
176
     1
290
     0
176
     1
 90
        1
176
     1
 40
0.0
176
     1
 90
        0
176
     1
290
     0
176
     1
290
     1
176
     1
290
     1
176
     1
290
     0
176
     1
290
     0
176
     1
290
     0
176
     1
290
     0
176
     1
290
     0
176
     1
290
     0
176
     1
 90
       50
176
     1
 40
0.0
176
     1
 40
1.0
176
     1
 90
        0
176
     1
 62
    18
420
        0
176
     1
 90
       50
176
     1
 90
        3
176
     1
 62
     5
420
      255
176
     1
290
     0
176
     1
 90
       50
176
     1
 90
       50
176
     1
 90
       50
176
     1
290
     0
176
     1
 90
       50
176
     1
 62
   256
176
     0
 40
1.0
176
     0
 90
        2
176
     1
  1
strokes_ogs.tif
176
     1
290
     0
176
     1
 40
1.0
176
     1
 40
1.0
176
     1
  0
VISUALSTYLE
  5
3B
102
{ACAD_REACTORS
330
2A
102
}
330
2A
100
AcDbVisualStyle
  2
JitterOff
 70
    20
177
     3
291
     1
 70
    58
 90
        2
176
     0
 90
        2
176
     0
 90
        0
176
     0
 90
        0
176
     0
 40
0.6
176
     0
 40
30.0
176
     0
 62
     7
420
 16777215
176
     0
 90
        1
176
     0
 90
        4
176
     0
 62
     7
176
     0
 62
   257
176
     0
 90
        1
176
     0
 90
        1
176
     0
 40
1.0
176
     0
 90
       10
176
     2
 62
     7
176
     0
 40
1.0
176
     0
 90
        1
176
     0
 90
        6
176
     0
 90
        2
176
     0
 62
     7
176
     0
 90
        5
176
     0
 90
        0
176
     0
 90
        0
176
     0
290
     0
176
     0
 90
        1
176
     0
 40
0.0
176
     0
 90
        0
176
     0
290
     0
176
     0
290
     1
176
     0
290
     1
176
     0
290
     0
176
     0
290
     0
176
     0
290
     0
176
     0
290
     0
176
     0
290
     0
176
     0
290
     0
176
     0
 90
       50
176
     0
 40
0.0
176
     0
 40
1.0
176
     0
 90
        0
176
     0
 62
    18
420
        0
176
     0
 90
       50
176
     0
 90
        3
176
     0
 62
     5
420
      255
176
     0
290
     0
176
     0
 90
       50
176
     0
 90
       50
176
     0
 90
       50
176
     0
290
     0
176
     0
 90
       50
176
     0
 62
   256
176
     0
 40
1.0
176
     0
 90
        2
176
     0
  1
strokes_ogs.tif
176
     0
290
     0
176
     0
 40
1.0
176
     0
 40
1.0
176
     0
  0
VISUALSTYLE
  5
38
102
{ACAD_REACTORS
330
2A
102
}
330
2A
100
AcDbVisualStyle
  2
Linepattern
 70
    14
177
     3
291
     1
 70
    58
 90
        2
176
     1
 90
        2
176
     1
 90
        0
176
     1
 90
        0
176
     1
 40
0.6
176
     1
 40
30.0
176
     1
 62
     7
420
 16777215
176
     1
 90
        1
176
     1
 90
        4
176
     1
 62
     7
176
     1
 62
   257
176
     1
 90
        7
176
     1
 90
        7
176
     1
 40
1.0
176
     1
 90
        8
176
     1
 62
     7
176
     1
 40
1.0
176
     1
 90
        1
176
     1
 90
        6
176
     1
 90
        2
176
     1
 62
     7
176
     1
 90
        5
176
     1
 90
        0
176
     1
 90
        0
176
     1
290
     0
176
     1
 90
        1
176
     1
 40
0.0
176
     1
 90
        0
176
     1
290
     0
176
     1
290
     1
176
     1
290
     1
176
     1
290
     0
176
     1
290
     0
176
     1
290
     0
176
     1
290
     0
176
     1
290
     0
176
     1
290
     0
176
     1
 90
       50
176
     1
 40
0.0
176
     1
 40
1.0
176
     1
 90
        0
176
     1
 62
    18
420
        0
176
     1
 90
       50
176
     1
 90
        3
176
     1
 62
     5
420
      255
176
     1
290
     0
176
     1
 90
       50
176
     1
 90
       50
176
     1
 90
       50
176
     1
290
     0
176
     1
 90
       50
176
     1
 62
   256
176
     0
 40
1.0
176
     0
 90
        2
176
     1
  1
strokes_ogs.tif
176
     1
290
     0
176
     1
 40
1.0
176
     1
 40
1.0
176
     1
  0
VISUALSTYLE
  5
3C
102
{ACAD_REACTORS
330
2A
102
}
330
2A
100
AcDbVisualStyle
  2
OverhangOff
 70
    21
177
     3
291
     1
 70
    58
 90
        2
176
     0
 90
        2
176
     0
 90
        0
176
     0
 90
        0
176
     0
 40
0.6
176
     0
 40
30.0
176
     0
 62
     7
420
 16777215
176
     0
 90
        1
176
     0
 90
        4
176
     0
 62
     7
176
     0
 62
   257
176
     0
 90
        1
176
     0
 90
        1
176
     0
 40
1.0
176
     0
 90
        9
176
     2
 62
     7
176
     0
 40
1.0
176
     0
 90
        1
176
     0
 90
        6
176
     0
 90
        2
176
     0
 62
     7
176
     0
 90
        5
176
     0
 90
        0
176
     0
 90
        0
176
     0
290
     0
176
     0
 90
        1
176
     0
 40
0.0
176
     0
 90
        0
176
     0
290
     0
176
     0
290
     1
176
     0
290
     1
176
     0
290
     0
176
     0
290
     0
176
     0
290
     0
176
     0
290
     0
176
     0
290
     0
176
     0
290
     0
176
     0
 90
       50
176
     0
 40
0.0
176
     0
 40
1.0
176
     0
 90
        0
176
     0
 62
    18
420
        0
176
     0
 90
       50
176
     0
 90
        3
176
     0
 62
     5
420
      255
176
     0
290
     0
176
     0
 90
       50
176
     0
 90
       50
176
     0
 90
       50
176
     0
290
     0
176
     0
 90
       50
176
     0
 62
   256
176
     0
 40
1.0
176
     0
 90
        2
176
     0
  1
strokes_ogs.tif
176
     0
290
     0
176
     0
 40
1.0
176
     0
 40
1.0
176
     0
  0
VISUALSTYLE
  5
33
102
{ACAD_REACTORS
330
2A
102
}
330
2A
100
AcDbVisualStyle
  2
Realistic
 70
     8
177
     3
291
     0
 70
    58
 90
        2
176
     1
 90
        3
176
     1
 90
        0
176
     1
 90
        2
176
     1
 40
0.6
176
     1
 40
30.0
176
     1
 62
     7
420
 16777215
176
     1
 90
        0
176
     1
 90
        0
176
     1
 62
     7
176
     1
 62
   257
176
     1
 90
        1
176
     1
 90
        1
176
     1
 40
1.0
176
     1
 90
        8
176
     1
 62
   257
176
     1
 40
1.0
176
     1
 90
        1
176
     1
 90
        6
176
     1
 90
        2
176
     1
 62
     7
176
     1
 90
        3
176
     1
 90
        0
176
     1
 90
        0
176
     1
290
     0
176
     1
 90
       13
176
     1
 40
0.0
176
     1
 90
        0
176
     1
290
     0
176
     1
290
     1
176
     1
290
     1
176
     1
290
     0
176
     1
290
     0
176
     1
290
     0
176
     1
290
     0
176
     1
290
     0
176
     1
290
     0
176
     1
 90
       50
176
     1
 40
0.0
176
     1
 40
1.0
176
     1
 90
        0
176
     1
 62
    18
420
        0
176
     1
 90
       50
176
     1
 90
        3
176
     1
 62
     5
420
      255
176
     1
290
     0
176
     1
 90
       50
176
     1
 90
       50
176
     1
 90
       50
176
     1
290
     0
176
     1
 90
       50
176
     1
 62
   256
176
     0
 40
1.0
176
     0
 90
        2
176
     1
  1
strokes_ogs.tif
176
     1
290
     0
176
     1
 40
1.0
176
     1
 40
1.0
176
     1
  0
VISUALSTYLE
  5
42
102
{ACAD_REACTORS
330
2A
102
}
330
2A
100
AcDbVisualStyle
  2
Shaded
 70
    27
177
     3
291
     0
 70
    58
 90
        2
176
     1
 90
        2
176
     1
 90
        1
176
     1
 90
        2
176
     1
 40
0.6
176
     1
 40
30.0
176
     1
 62
     7
420
 16777215
176
     1
 90
        0
176
     1
 90
        4
176
     1
 62
     7
176
     1
 62
   257
176
     1
 90
        1
176
     1
 90
        1
176
     1
 40
1.0
176
     1
 90
        8
176
     1
 62
   257
176
     1
 40
1.0
176
     1
 90
        1
176
     1
 90
        6
176
     1
 90
        2
176
     1
 62
     8
420
  7895160
176
     1
 90
        3
176
     1
 90
        0
176
     1
 90
        0
176
     1
290
     0
176
     1
 90
        5
176
     1
 40
0.0
176
     1
 90
        0
176
     1
290
     0
176
     1
290
     1
176
     1
290
     1
176
     1
290
     0
176
     1
290
     0
176
     1
290
     0
176
     1
290
     0
176
     1
290
     0
176
     1
290
     0
176
     1
 90
       50
176
     1
 40
0.0
176
     1
 40
1.0
176
     1
 90
        0
176
     1
 62
    18
420
        0
176
     1
 90
       50
176
     1
 90
        3
176
     1
 62
     5
420
      255
176
     1
290
     0
176
     1
 90
       50
176
     1
 90
       50
176
     1
 90
       50
176
     1
290
     0
176
     1
 90
       50
176
     1
 62
   256
176
     0
 40
1.0
176
     0
 90
        2
176
     1
  1
strokes_ogs.tif
176
     1
290
     0
176
     1
 40
1.0
176
     1
 40
1.0
176
     1
  0
VISUALSTYLE
  5
41
102
{ACAD_REACTORS
330
2A
102
}
330
2A
100
AcDbVisualStyle
  2
Shaded with edges
 70
    26
177
     3
291
     0
 70
    58
 90
        2
176
     1
 90
        2
176
     1
 90
        1
176
     1
 90
        2
176
     1
 40
0.6
176
     1
 40
30.0
176
     1
 62
     7
420
 16777215
176
     1
 90
        1
176
     1
 90
       10
176
     1
 62
     7
176
     1
 62
   257
176
     1
 90
        2
176
     1
 90
        1
176
     1
 40
1.0
176
     1
 90
        8
176
     1
 62
   257
176
     1
 40
1.0
176
     1
 90
        1
176
     1
 90
        6
176
     1
 90
        2
176
     1
 62
     7
176
     1
 90
        3
176
     1
 90
        0
176
     1
 90
        0
176
     1
290
     0
176
     1
 90
        5
176
     1
 40
0.0
176
     1
 90
        0
176
     1
290
     0
176
     1
290
     1
176
     1
290
     1
176
     1
290
     0
176
     1
290
     0
176
     1
290
     0
176
     1
290
     0
176
     1
290
     0
176
     1
290
     0
176
     1
 90
       50
176
     1
 40
0.0
176
     1
 40
1.0
176
     1
 90
        0
176
     1
 62
    18
420
        0
176
     1
 90
       50
176
     1
 90
        3
176
     1
 62
     5
420
      255
176
     1
290
     0
176
     1
 90
       50
176
     1
 90
       50
176
     1
 90
       50
176
     1
290
     0
176
     1
 90
       50
176
     1
 62
   256
176
     0
 40
1.0
176
     0
 90
        2
176
     1
  1
strokes_ogs.tif
176
     1
290
     0
176
     1
 40
1.0
176
     1
 40
1.0
176
     1
  0
VISUALSTYLE
  5
3E
102
{ACAD_REACTORS
330
2A
102
}
330
2A
100
AcDbVisualStyle
  2
Shades of Gray
 70
    23
177
     3
291
     0
 70
    58
 90
        2
176
     1
 90
        2
176
     1
 90
        3
176
     1
 90
        0
176
     1
 40
0.6
176
     1
 40
30.0
176
     1
 62
     7
420
 16777215
176
     1
 90
        2
176
     1
 90
        2
176
     1
 62
     7
176
     1
 62
     7
176
     1
 90
        1
176
     1
 90
        1
176
     1
 40
40.0
176
     1
 90
        8
176
     1
 62
     7
176
     1
 40
1.0
176
     1
 90
        1
176
     1
 90
        6
176
     1
 90
        2
176
     1
 62
     7
176
     1
 90
        3
176
     1
 90
        0
176
     1
 90
        0
176
     1
290
     0
176
     1
 90
        1
176
     1
 40
0.0
176
     1
 90
        0
176
     1
290
     0
176
     1
290
     1
176
     1
290
     1
176
     1
290
     0
176
     1
290
     0
176
     1
290
     0
176
     1
290
     0
176
     1
290
     0
176
     1
290
     0
176
     1
 90
       50
176
     1
 40
0.0
176
     1
 40
1.0
176
     1
 90
        0
176
     1
 62
    18
420
        0
176
     1
 90
       50
176
     1
 90
        3
176
     1
 62
     5
420
      255
176
     1
290
     0
176
     1
 90
       50
176
     1
 90
       50
176
     1
 90
       50
176
     1
290
     0
176
     1
 90
       50
176
     1
 62
   256
176
     0
 40
1.0
176
     0
 90
        2
176
     1
  1
strokes_ogs.tif
176
     1
290
     0
176
     1
 40
1.0
176
     1
 40
1.0
176
     1
  0
VISUALSTYLE
  5
3F
102
{ACAD_REACTORS
330
2A
102
}
330
2A
100
AcDbVisualStyle
  2
Sketchy
 70
    24
177
     3
291
     0
 70
    58
 90
        1
176
     1
 90
        2
176
     1
 90
        2
176
     1
 90
        0
176
     1
 40
0.6
176
     1
 40
30.0
176
     1
 62
     7
420
 16777215
176
     1
 90
        2
176
     1
 90
        2
176
     1
 62
     7
176
     1
 62
     7
176
     1
 90
        1
176
     1
 90
        1
176
     1
 40
40.0
176
     1
 90
       11
176
     1
 62
     7
176
     1
 40
1.0
176
     1
 90
        1
176
     1
 90
        6
176
     1
 90
        2
176
     1
 62
     7
176
     1
 90
        6
176
     1
 90
        0
176
     1
 90
        0
176
     1
290
     0
176
     1
 90
        1
176
     1
 40
0.0
176
     1
 90
        0
176
     1
290
     0
176
     1
290
     1
176
     1
290
     1
176
     1
290
     0
176
     1
290
     0
176
     1
290
     0
176
     1
290
     0
176
     1
290
     0
176
     1
290
     0
176
     1
 90
       50
176
     1
 40
0.0
176
     1
 40
1.0
176
     1
 90
        0
176
     1
 62
    18
420
        0
176
     1
 90
       50
176
     1
 90
        3
176
     1
 62
     5
420
      255
176
     1
290
     0
176
     1
 90
       50
176
     1
 90
       50
176
     1
 90
       50
176
     1
290
     0
176
     1
 90
       50
176
     1
 62
   256
176
     0
 40
1.0
176
     0
 90
        2
176
     1
  1
strokes_ogs.tif
176
     1
290
     0
176
     1
 40
1.0
176
     1
 40
1.0
176
     1
  0
VISUALSTYLE
  5
37
102
{ACAD_REACTORS
330
2A
102
}
330
2A
100
AcDbVisualStyle
  2
Thicken
 70
    13
177
     3
291
     1
 70
    58
 90
        2
176
     1
 90
        2
176
     1
 90
        0
176
     1
 90
        0
176
     1
 40
0.6
176
     1
 40
30.0
176
     1
 62
     7
420
 16777215
176
     1
 90
        1
176
     1
 90
        4
176
     1
 62
     7
176
     1
 62
   257
176
     1
 90
        1
176
     1
 90
        1
176
     1
 40
1.0
176
     1
 90
       12
176
     1
 62
     7
176
     1
 40
1.0
176
     1
 90
        1
176
     1
 90
        6
176
     1
 90
        2
176
     1
 62
     7
176
     1
 90
        5
176
     1
 90
        0
176
     1
 90
        0
176
     1
290
     0
176
     1
 90
        1
176
     1
 40
0.0
176
     1
 90
        0
176
     1
290
     0
176
     1
290
     1
176
     1
290
     1
176
     1
290
     0
176
     1
290
     0
176
     1
290
     0
176
     1
290
     0
176
     1
290
     0
176
     1
290
     0
176
     1
 90
       50
176
     1
 40
0.0
176
     1
 40
1.0
176
     1
 90
        0
176
     1
 62
    18
420
        0
176
     1
 90
       50
176
     1
 90
        3
176
     1
 62
     5
420
      255
176
     1
290
     0
176
     1
 90
       50
176
     1
 90
       50
176
     1
 90
       50
176
     1
290
     0
176
     1
 90
       50
176
     1
 62
   256
176
     0
 40
1.0
176
     0
 90
        2
176
     1
  1
strokes_ogs.tif
176
     1
290
     0
176
     1
 40
1.0
176
     1
 40
1.0
176
     1
  0
VISUALSTYLE
  5
30
102
{ACAD_REACTORS
330
2A
102
}
330
2A
100
AcDbVisualStyle
  2
Wireframe
 70
     5
177
     3
291
     0
 70
    58
 90
        0
176
     1
 90
        2
176
     1
 90
        0
176
     1
 90
        0
176
     1
 40
0.6
176
     1
 40
30.0
176
     1
 62
     7
420
 16777215
176
     1
 90
        1
176
     1
 90
        4
176
     1
 62
     7
176
     1
 62
   257
176
     1
 90
        1
176
     1
 90
        1
176
     1
 40
1.0
176
     1
 90
        0
176
     1
 62
   257
176
     1
 40
1.0
176
     1
 90
        1
176
     1
 90
        6
176
     1
 90
        2
176
     1
 62
     7
176
     1
 90
        3
176
     1
 90
        0
176
     1
 90
        0
176
     1
290
     0
176
     1
 90
        1
176
     1
 40
0.0
176
     1
 90
        0
176
     1
290
     0
176
     1
290
     1
176
     1
290
     1
176
     1
290
     0
176
     1
290
     0
176
     1
290
     0
176
     1
290
     0
176
     1
290
     0
176
     1
290
     0
176
     1
 90
       50
176
     1
 40
0.0
176
     1
 40
1.0
176
     1
 90
        0
176
     1
 62
    18
420
        0
176
     1
 90
       50
176
     1
 90
        3
176
     1
 62
     5
420
      255
176
     1
290
     0
176
     1
 90
       50
176
     1
 90
       50
176
     1
 90
       50
176
     1
290
     0
176
     1
 90
       50
176
     1
 62
   256
176
     0
 40
1.0
176
     0
 90
        2
176
     1
  1
strokes_ogs.tif
176
     1
290
     0
176
     1
 40
1.0
176
     1
 40
1.0
176
     1
  0
VISUALSTYLE
  5
40
102
{ACAD_REACTORS
330
2A
102
}
330
2A
100
AcDbVisualStyle
  2
X-Ray
 70
    25
177
     3
291
     0
 70
    58
 90
        2
176
     1
 90
        2
176
     1
 90
        1
176
     1
 90
        1
176
     1
 40
0.5
176
     1
 40
30.0
176
     1
 62
     7
420
 16777215
176
     1
 90
        1
176
     1
 90
        0
176
     1
 62
     7
176
     1
 62
   257
176
     1
 90
        1
176
     1
 90
        1
176
     1
 40
1.0
176
     1
 90
        8
176
     1
 62
     7
176
     1
 40
1.0
176
     1
 90
        1
176
     1
 90
        6
176
     1
 90
        2
176
     1
 62
     7
176
     1
 90
        3
176
     1
 90
        0
176
     1
 90
        0
176
     1
290
     0
176
     1
 90
       13
176
     1
 40
0.0
176
     1
 90
        0
176
     1
290
     0
176
     1
290
     1
176
     1
290
     1
176
     1
290
     0
176
     1
290
     0
176
     1
290
     0
176
     1
290
     0
176
     1
290
     0
176
     1
290
     0
176
     1
 90
       50
176
     1
 40
0.0
176
     1
 40
1.0
176
     1
 90
        0
176
     1
 62
    18
420
        0
176
     1
 90
       50
176
     1
 90
        3
176
     1
 62
     5
420
      255
176
     1
290
     0
176
     1
 90
       50
176
     1
 90
       50
176
     1
 90
       50
176
     1
290
     0
176
     1
 90
       50
176
     1
 62
   256
176
     0
 40
1.0
176
     0
 90
        2
176
     1
  1
strokes_ogs.tif
176
     1
290
     0
176
     1
 40
1.0
176
     1
 40
1.0
176
     1
  0
DICTIONARYVAR
  5
26A
102
{ACAD_REACTORS
330
269
102
}
330
269
100
DictionaryVariables
280
     0
  1
1:1
  0
DICTIONARYVAR
  5
26F
102
{ACAD_REACTORS
330
269
102
}
330
269
100
DictionaryVariables
280
     0
  1
Standard
  0
DICTIONARYVAR
  5
26E
102
{ACAD_REACTORS
330
269
102
}
330
269
100
DictionaryVariables
280
     0
  1
Standard
  0
DICTIONARY
  5
26B
330
6A
100
AcDbDictionary
280
     1
281
     1
  3
ACAD_ROUNDTRIP_2008_TABLESTYLE_CELLSTYLEMAP
360
26C
  0
CELLSTYLEMAP
  5
26C
102
{ACAD_REACTORS
330
26B
102
}
330
26B
100
AcDbCellStyleMap
 90
        3
300
CELLSTYLE
  1
TABLEFORMAT_BEGIN
 90
        5
170
     1
 91
        0
 92
    32768
 62
   257
 93
        1
300
CONTENTFORMAT
  1
CONTENTFORMAT_BEGIN
 90
        0
 91
        0
 92
        4
 93
        0
300

 40
0.0
140
1.0
 94
        5
 62
     0
340
11
144
0.25
309
CONTENTFORMAT_END
171
     1
301
MARGIN
  1
CELLMARGIN_BEGIN
 40
0.06
 40
0.06
 40
0.06
 40
0.06
 40
0.06
 40
0.06
309
CELLMARGIN_END
 94
        6
 95
        1
302
GRIDFORMAT
  1
GRIDFORMAT_BEGIN
 90
        0
 91
        1
 62
     0
 92
       -2
340
14
 93
        0
 40
0.045
309
GRIDFORMAT_END
 95
        2
302
GRIDFORMAT
  1
GRIDFORMAT_BEGIN
 90
        0
 91
        1
 62
     0
 92
       -2
340
14
 93
        0
 40
0.045
309
GRIDFORMAT_END
 95
        4
302
GRIDFORMAT
  1
GRIDFORMAT_BEGIN
 90
        0
 91
        1
 62
     0
 92
       -2
340
14
 93
        0
 40
0.045
309
GRIDFORMAT_END
 95
        8
302
GRIDFORMAT
  1
GRIDFORMAT_BEGIN
 90
        0
 91
        1
 62
     0
 92
       -2
340
14
 93
        0
 40
0.045
309
GRIDFORMAT_END
 95
       16
302
GRIDFORMAT
  1
GRIDFORMAT_BEGIN
 90
        0
 91
        1
 62
     0
 92
       -2
340
14
 93
        0
 40
0.045
309
GRIDFORMAT_END
 95
       32
302
GRIDFORMAT
  1
GRIDFORMAT_BEGIN
 90
        0
 91
        1
 62
     0
 92
       -2
340
14
 93
        0
 40
0.045
309
GRIDFORMAT_END
309
TABLEFORMAT_END
  1
CELLSTYLE_BEGIN
 90
        1
 91
        1
300
_TITLE
309
CELLSTYLE_END
300
CELLSTYLE
  1
TABLEFORMAT_BEGIN
 90
        5
170
     1
 91
        0
 92
        0
 62
   257
 93
        1
300
CONTENTFORMAT
  1
CONTENTFORMAT_BEGIN
 90
        0
 91
        0
 92
        4
 93
        0
300

 40
0.0
140
1.0
 94
        5
 62
     0
340
11
144
0.18
309
CONTENTFORMAT_END
171
     1
301
MARGIN
  1
CELLMARGIN_BEGIN
 40
0.06
 40
0.06
 40
0.06
 40
0.06
 40
0.06
 40
0.06
309
CELLMARGIN_END
 94
        6
 95
        1
302
GRIDFORMAT
  1
GRIDFORMAT_BEGIN
 90
        0
 91
        1
 62
     0
 92
       -2
340
14
 93
        0
 40
0.045
309
GRIDFORMAT_END
 95
        2
302
GRIDFORMAT
  1
GRIDFORMAT_BEGIN
 90
        0
 91
        1
 62
     0
 92
       -2
340
14
 93
        0
 40
0.045
309
GRIDFORMAT_END
 95
        4
302
GRIDFORMAT
  1
GRIDFORMAT_BEGIN
 90
        0
 91
        1
 62
     0
 92
       -2
340
14
 93
        0
 40
0.045
309
GRIDFORMAT_END
 95
        8
302
GRIDFORMAT
  1
GRIDFORMAT_BEGIN
 90
        0
 91
        1
 62
     0
 92
       -2
340
14
 93
        0
 40
0.045
309
GRIDFORMAT_END
 95
       16
302
GRIDFORMAT
  1
GRIDFORMAT_BEGIN
 90
        0
 91
        1
 62
     0
 92
       -2
340
14
 93
        0
 40
0.045
309
GRIDFORMAT_END
 95
       32
302
GRIDFORMAT
  1
GRIDFORMAT_BEGIN
 90
        0
 91
        1
 62
     0
 92
       -2
340
14
 93
        0
 40
0.045
309
GRIDFORMAT_END
309
TABLEFORMAT_END
  1
CELLSTYLE_BEGIN
 90
        2
 91
        1
300
_HEADER
309
CELLSTYLE_END
300
CELLSTYLE
  1
TABLEFORMAT_BEGIN
 90
        5
170
     1
 91
        0
 92
        0
 62
   257
 93
        1
300
CONTENTFORMAT
  1
CONTENTFORMAT_BEGIN
 90
        0
 91
        0
 92
        4
 93
        0
300

 40
0.0
140
1.0
 94
        2
 62
     0
340
11
144
0.18
309
CONTENTFORMAT_END
171
     1
301
MARGIN
  1
CELLMARGIN_BEGIN
 40
0.06
 40
0.06
 40
0.06
 40
0.06
 40
0.06
 40
0.06
309
CELLMARGIN_END
 94
        6
 95
        1
302
GRIDFORMAT
  1
GRIDFORMAT_BEGIN
 90
        0
 91
        1
 62
     0
 92
       -2
340
14
 93
        0
 40
0.045
309
GRIDFORMAT_END
 95
        2
302
GRIDFORMAT
  1
GRIDFORMAT_BEGIN
 90
        0
 91
        1
 62
     0
 92
       -2
340
14
 93
        0
 40
0.045
309
GRIDFORMAT_END
 95
        4
302
GRIDFORMAT
  1
GRIDFORMAT_BEGIN
 90
        0
 91
        1
 62
     0
 92
       -2
340
14
 93
        0
 40
0.045
309
GRIDFORMAT_END
 95
        8
302
GRIDFORMAT
  1
GRIDFORMAT_BEGIN
 90
        0
 91
        1
 62
     0
 92
       -2
340
14
 93
        0
 40
0.045
309
GRIDFORMAT_END
 95
       16
302
GRIDFORMAT
  1
GRIDFORMAT_BEGIN
 90
        0
 91
        1
 62
     0
 92
       -2
340
14
 93
        0
 40
0.045
309
GRIDFORMAT_END
 95
       32
302
GRIDFORMAT
  1
GRIDFORMAT_BEGIN
 90
        0
 91
        1
 62
     0
 92
       -2
340
14
 93
        0
 40
0.045
309
GRIDFORMAT_END
309
TABLEFORMAT_END
  1
CELLSTYLE_BEGIN
 90
        3
 91
        2
300
_DATA
309
CELLSTYLE_END
  0
ENDSEC
  0
EOF