0
SECTION
  2
HEADER
  9
$ACADVER
  1
AC1027
  9
$ACADMAINTVER
 70
     8
  9
$DWGCODEPAGE
  3
ANSI_1252
  9
$REQUIREDVERSIONS
160
                 0
  9
$COMMENTS
  1
File was created by Cadenas
  9
$CUSTOMPROPERTYTAG
  1
NN
  9
$CUSTOMPROPERTY
  1
Type K Pillow Block 2&4-Bolt Base Non-Expansion Inch Bore
  9
$CUSTOMPROPERTYTAG
  1
NT
  9
$CUSTOMPROPERTY
  1
Type K
  9
$CUSTOMPROPERTYTAG
  1
NB
  9
$CUSTOMPROPERTY
  1
023186
  9
$CUSTOMPROPERTYTAG
  1
NBSYN
  9
$CUSTOMPROPERTY
  1
$PN.
  9
$CUSTOMPROPERTYTAG
  1
LINA
  9
$CUSTOMPROPERTY
  1
023186
  9
$CUSTOMPROPERTYTAG
  1
SS
  9
$CUSTOMPROPERTY
  1
3-7/16
  9
$CUSTOMPROPERTYTAG
  1
PN
  9
$CUSTOMPROPERTY
  1
023186
  9
$CUSTOMPROPERTYTAG
  1
PNA
  9
$CUSTOMPROPERTY
  1
P2B-K-307R
  9
$CUSTOMPROPERTYTAG
  1
WEIGHT
  9
$CUSTOMPROPERTY
  1
67
  9
$CUSTOMPROPERTYTAG
  1
A
  9
$CUSTOMPROPERTY
  1
4.26
  9
$CUSTOMPROPERTYTAG
  1
B
  9
$CUSTOMPROPERTY
  1
16
  9
$CUSTOMPROPERTYTAG
  1
C
  9
$CUSTOMPROPERTY
  1
3.44
  9
$CUSTOMPROPERTYTAG
  1
DMIN
  9
$CUSTOMPROPERTY
  1
12.81
  9
$CUSTOMPROPERTYTAG
  1
DMAX
  9
$CUSTOMPROPERTY
  1
13.81
  9
$CUSTOMPROPERTYTAG
  1
E
  9
$CUSTOMPROPERTY
  1
N/A
  9
$CUSTOMPROPERTYTAG
  1
F
  9
$CUSTOMPROPERTY
  1
7/8
  9
$CUSTOMPROPERTYTAG
  1
G
  9
$CUSTOMPROPERTY
  1
1.50
  9
$CUSTOMPROPERTYTAG
  1
H
  9
$CUSTOMPROPERTY
  1
2.25
  9
$CUSTOMPROPERTYTAG
  1
J
  9
$CUSTOMPROPERTY
  1
9.42
  9
$CUSTOMPROPERTYTAG
  1
L
  9
$CUSTOMPROPERTY
  1
5.50
  9
$CUSTOMPROPERTYTAG
  1
M
  9
$CUSTOMPROPERTY
  1
4.50
  9
$CUSTOMPROPERTYTAG
  1
P
  9
$CUSTOMPROPERTY
  1
10.10
  9
$CUSTOMPROPERTYTAG
  1
R
  9
$CUSTOMPROPERTY
  1
1.68
  9
$CUSTOMPROPERTYTAG
  1
S
  9
$CUSTOMPROPERTY
  1
2.50
  9
$CUSTOMPROPERTYTAG
  1
T
  9
$CUSTOMPROPERTY
  1
.28
  9
$CUSTOMPROPERTYTAG
  1
CS
  9
$CUSTOMPROPERTY
  1
108600
  9
$CUSTOMPROPERTYTAG
  1
CD
  9
$CUSTOMPROPERTY
  1
15300
  9
$CUSTOMPROPERTYTAG
  1
RN
  9
$CUSTOMPROPERTY
  1
26
  9
$CUSTOMPROPERTYTAG
  1
RM
  9
$CUSTOMPROPERTY
  1
.46
  9
$CUSTOMPROPERTYTAG
  1
PDI
  9
$CUSTOMPROPERTY
  1
4.780
  9
$CUSTOMPROPERTYTAG
  1
EP
  9
$CUSTOMPROPERTY
  1
.008-.012
  9
$CUSTOMPROPERTYTAG
  1
CSS
  9
$CUSTOMPROPERTY
  1
1/2-13*1
  9
$CUSTOMPROPERTYTAG
  1
CST
  9
$CUSTOMPROPERTY
  1
620
  9
$CUSTOMPROPERTYTAG
  1
MH
  9
$CUSTOMPROPERTY
  1
C.I. ASTM A48 CLASS 30
  9
$CUSTOMPROPERTYTAG
  1
MC
  9
$CUSTOMPROPERTY
  1
4118 CASE CARB.
  9
$CUSTOMPROPERTYTAG
  1
MCU
  9
$CUSTOMPROPERTY
  1
4118 CASE CARB.
  9
$CUSTOMPROPERTYTAG
  1
MR
  9
$CUSTOMPROPERTY
  1
STEEL
  9
$CUSTOMPROPERTYTAG
  1
MRO
  9
$CUSTOMPROPERTY
  1
4118 CASE CARB.
  9
$CUSTOMPROPERTYTAG
  1
SM
  9
$CUSTOMPROPERTY
  1
4.08*
  9
$CUSTOMPROPERTYTAG
  1
COMPANY
  9
$CUSTOMPROPERTY
  1
baldor
  9
$INSBASE
 10
0.0
 20
0.0
 30
0.0
  9
$EXTMIN
 10
1.000000000000000E+20
 20
1.000000000000000E+20
 30
1.000000000000000E+20
  9
$EXTMAX
 10
-1.000000000000000E+20
 20
-1.000000000000000E+20
 30
-1.000000000000000E+20
  9
$LIMMIN
 10
0.0
 20
0.0
  9
$LIMMAX
 10
12.0
 20
9.0
  9
$ORTHOMODE
 70
     0
  9
$REGENMODE
 70
     1
  9
$FILLMODE
 70
     1
  9
$QTEXTMODE
 70
     0
  9
$MIRRTEXT
 70
     1
  9
$LTSCALE
 40
1.0
  9
$ATTMODE
 70
     1
  9
$TEXTSIZE
 40
0.2
  9
$TRACEWID
 40
0.05
  9
$TEXTSTYLE
  7
Standard
  9
$CLAYER
  8
0
  9
$CELTYPE
  6
ByLayer
  9
$CECOLOR
 62
   256
  9
$CELTSCALE
 40
1.0
  9
$DISPSILH
 70
     0
  9
$DIMSCALE
 40
1.0
  9
$DIMASZ
 40
0.18
  9
$DIMEXO
 40
0.0625
  9
$DIMDLI
 40
0.38
  9
$DIMRND
 40
0.0
  9
$DIMDLE
 40
0.0
  9
$DIMEXE
 40
0.18
  9
$DIMTP
 40
0.0
  9
$DIMTM
 40
0.0
  9
$DIMTXT
 40
0.18
  9
$DIMCEN
 40
0.09
  9
$DIMTSZ
 40
0.0
  9
$DIMTOL
 70
     0
  9
$DIMLIM
 70
     0
  9
$DIMTIH
 70
     1
  9
$DIMTOH
 70
     1
  9
$DIMSE1
 70
     0
  9
$DIMSE2
 70
     0
  9
$DIMTAD
 70
     0
  9
$DIMZIN
 70
     0
  9
$DIMBLK
  1

  9
$DIMASO
 70
     1
  9
$DIMSHO
 70
     1
  9
$DIMPOST
  1

  9
$DIMAPOST
  1

  9
$DIMALT
 70
     0
  9
$DIMALTD
 70
     2
  9
$DIMALTF
 40
25.4
  9
$DIMLFAC
 40
1.0
  9
$DIMTOFL
 70
     0
  9
$DIMTVP
 40
0.0
  9
$DIMTIX
 70
     0
  9
$DIMSOXD
 70
     0
  9
$DIMSAH
 70
     0
  9
$DIMBLK1
  1

  9
$DIMBLK2
  1

  9
$DIMSTYLE
  2
Standard
  9
$DIMCLRD
 70
     0
  9
$DIMCLRE
 70
     0
  9
$DIMCLRT
 70
     0
  9
$DIMTFAC
 40
1.0
  9
$DIMGAP
 40
0.09
  9
$DIMJUST
 70
     0
  9
$DIMSD1
 70
     0
  9
$DIMSD2
 70
     0
  9
$DIMTOLJ
 70
     1
  9
$DIMTZIN
 70
     0
  9
$DIMALTZ
 70
     0
  9
$DIMALTTZ
 70
     0
  9
$DIMUPT
 70
     0
  9
$DIMDEC
 70
     4
  9
$DIMTDEC
 70
     4
  9
$DIMALTU
 70
     2
  9
$DIMALTTD
 70
     2
  9
$DIMTXSTY
  7
Standard
  9
$DIMAUNIT
 70
     0
  9
$DIMADEC
 70
     0
  9
$DIMALTRND
 40
0.0
  9
$DIMAZIN
 70
     0
  9
$DIMDSEP
 70
    46
  9
$DIMATFIT
 70
     3
  9
$DIMFRAC
 70
     0
  9
$DIMLDRBLK
  1

  9
$DIMLUNIT
 70
     2
  9
$DIMLWD
 70
    -2
  9
$DIMLWE
 70
    -2
  9
$DIMTMOVE
 70
     0
  9
$DIMFXL
 40
1.0
  9
$DIMFXLON
 70
     0
  9
$DIMJOGANG
 40
0.7853981633974483
  9
$DIMTFILL
 70
     0
  9
$DIMTFILLCLR
 70
     0
  9
$DIMARCSYM
 70
     0
  9
$DIMLTYPE
  6

  9
$DIMLTEX1
  6

  9
$DIMLTEX2
  6

  9
$DIMTXTDIRECTION
 70
     0
  9
$LUNITS
 70
     2
  9
$LUPREC
 70
     4
  9
$SKETCHINC
 40
0.1
  9
$FILLETRAD
 40
0.5
  9
$AUNITS
 70
     0
  9
$AUPREC
 70
     0
  9
$MENU
  1
.
  9
$ELEVATION
 40
0.0
  9
$PELEVATION
 40
0.0
  9
$THICKNESS
 40
0.0
  9
$LIMCHECK
 70
     0
  9
$CHAMFERA
 40
0.0
  9
$CHAMFERB
 40
0.0
  9
$CHAMFERC
 40
0.0
  9
$CHAMFERD
 40
0.0
  9
$SKPOLY
 70
     0
  9
$TDCREATE
 40
2458169.004953275
  9
$TDUCREATE
 40
2458168.963286609
  9
$TDUPDATE
 40
2458169.004953461
  9
$TDUUPDATE
 40
2458168.963286794
  9
$TDINDWG
 40
0.0000000116
  9
$TDUSRTIMER
 40
0.0000000116
  9
$USRTIMER
 70
     1
  9
$ANGBASE
 50
0.0
  9
$ANGDIR
 70
     0
  9
$PDMODE
 70
     0
  9
$PDSIZE
 40
0.0
  9
$PLINEWID
 40
0.0
  9
$SPLFRAME
 70
     0
  9
$SPLINETYPE
 70
     6
  9
$SPLINESEGS
 70
     8
  9
$HANDSEED
  5
24E
  9
$SURFTAB1
 70
     6
  9
$SURFTAB2
 70
     6
  9
$SURFTYPE
 70
     6
  9
$SURFU
 70
     6
  9
$SURFV
 70
     6
  9
$UCSBASE
  2

  9
$UCSNAME
  2

  9
$UCSORG
 10
0.0
 20
0.0
 30
0.0
  9
$UCSXDIR
 10
1.0
 20
0.0
 30
0.0
  9
$UCSYDIR
 10
0.0
 20
1.0
 30
0.0
  9
$UCSORTHOREF
  2

  9
$UCSORTHOVIEW
 70
     0
  9
$UCSORGTOP
 10
0.0
 20
0.0
 30
0.0
  9
$UCSORGBOTTOM
 10
0.0
 20
0.0
 30
0.0
  9
$UCSORGLEFT
 10
0.0
 20
0.0
 30
0.0
  9
$UCSORGRIGHT
 10
0.0
 20
0.0
 30
0.0
  9
$UCSORGFRONT
 10
0.0
 20
0.0
 30
0.0
  9
$UCSORGBACK
 10
0.0
 20
0.0
 30
0.0
  9
$PUCSBASE
  2

  9
$PUCSNAME
  2

  9
$PUCSORG
 10
0.0
 20
0.0
 30
0.0
  9
$PUCSXDIR
 10
1.0
 20
0.0
 30
0.0
  9
$PUCSYDIR
 10
0.0
 20
1.0
 30
0.0
  9
$PUCSORTHOREF
  2

  9
$PUCSORTHOVIEW
 70
     0
  9
$PUCSORGTOP
 10
0.0
 20
0.0
 30
0.0
  9
$PUCSORGBOTTOM
 10
0.0
 20
0.0
 30
0.0
  9
$PUCSORGLEFT
 10
0.0
 20
0.0
 30
0.0
  9
$PUCSORGRIGHT
 10
0.0
 20
0.0
 30
0.0
  9
$PUCSORGFRONT
 10
0.0
 20
0.0
 30
0.0
  9
$PUCSORGBACK
 10
0.0
 20
0.0
 30
0.0
  9
$USERI1
 70
     0
  9
$USERI2
 70
     0
  9
$USERI3
 70
     0
  9
$USERI4
 70
     0
  9
$USERI5
 70
     0
  9
$USERR1
 40
0.0
  9
$USERR2
 40
0.0
  9
$USERR3
 40
0.0
  9
$USERR4
 40
0.0
  9
$USERR5
 40
0.0
  9
$WORLDVIEW
 70
     1
  9
$SHADEDGE
 70
     3
  9
$SHADEDIF
 70
    70
  9
$TILEMODE
 70
     1
  9
$MAXACTVP
 70
    64
  9
$PINSBASE
 10
0.0
 20
0.0
 30
0.0
  9
$PLIMCHECK
 70
     0
  9
$PEXTMIN
 10
1.000000000000000E+20
 20
1.000000000000000E+20
 30
1.000000000000000E+20
  9
$PEXTMAX
 10
-1.000000000000000E+20
 20
-1.000000000000000E+20
 30
-1.000000000000000E+20
  9
$PLIMMIN
 10
0.0
 20
0.0
  9
$PLIMMAX
 10
12.0
 20
9.0
  9
$UNITMODE
 70
     0
  9
$VISRETAIN
 70
     1
  9
$PLINEGEN
 70
     0
  9
$PSLTSCALE
 70
     1
  9
$TREEDEPTH
 70
  3020
  9
$CMLSTYLE
  2
Standard
  9
$CMLJUST
 70
     0
  9
$CMLSCALE
 40
1.0
  9
$PROXYGRAPHICS
 70
     1
  9
$MEASUREMENT
 70
     0
  9
$CELWEIGHT
370
    -1
  9
$ENDCAPS
280
     0
  9
$JOINSTYLE
280
     0
  9
$LWDISPLAY
290
     0
  9
$INSUNITS
 70
     1
  9
$HYPERLINKBASE
  1

  9
$STYLESHEET
  1

  9
$XEDIT
290
     1
  9
$CEPSNTYPE
380
     0
  9
$PSTYLEMODE
290
     1
  9
$FINGERPRINTGUID
  2
{8C8B922A-3980-4EF8-B2AC-40B71DDCA8DE}
  9
$VERSIONGUID
  2
{FAEB1C32-E019-11D5-929B-00C0DF256EC4}
  9
$EXTNAMES
290
     1
  9
$PSVPSCALE
 40
0.0
  9
$OLESTARTUP
290
     0
  9
$SORTENTS
280
   127
  9
$INDEXCTL
280
     0
  9
$HIDETEXT
280
     1
  9
$XCLIPFRAME
280
     2
  9
$HALOGAP
280
     0
  9
$OBSCOLOR
 70
   257
  9
$OBSLTYPE
280
     0
  9
$INTERSECTIONDISPLAY
280
     0
  9
$INTERSECTIONCOLOR
 70
   257
  9
$DIMASSOC
280
     2
  9
$PROJECTNAME
  1

  9
$CAMERADISPLAY
290
     0
  9
$LENSLENGTH
 40
50.0
  9
$CAMERAHEIGHT
 40
0.0
  9
$STEPSPERSEC
 40
2.0
  9
$STEPSIZE
 40
6.0
  9
$3DDWFPREC
 40
2.0
  9
$PSOLWIDTH
 40
0.25
  9
$PSOLHEIGHT
 40
4.0
  9
$LOFTANG1
 40
1.570796326794897
  9
$LOFTANG2
 40
1.570796326794897
  9
$LOFTMAG1
 40
0.0
  9
$LOFTMAG2
 40
0.0
  9
$LOFTPARAM
 70
     7
  9
$LOFTNORMALS
280
     1
  9
$LATITUDE
 40
37.795
  9
$LONGITUDE
 40
-122.394
  9
$NORTHDIRECTION
 40
0.0
  9
$TIMEZONE
 70
 -8000
  9
$LIGHTGLYPHDISPLAY
280
     1
  9
$TILEMODELIGHTSYNCH
280
     1
  9
$CMATERIAL
347
44
  9
$SOLIDHIST
280
     0
  9
$SHOWHIST
280
     1
  9
$DWFFRAME
280
     2
  9
$DGNFRAME
280
     2
  9
$REALWORLDSCALE
290
     1
  9
$INTERFERECOLOR
 62
   256
  9
$CSHADOW
280
     0
  9
$SHADOWPLANELOCATION
 40
0.0
  0
ENDSEC
  0
SECTION
  2
CLASSES
  0
CLASS
  1
ACDBDICTIONARYWDFLT
  2
AcDbDictionaryWithDefault
  3
ObjectDBX Classes
 90
        0
 91
        4
280
     0
281
     0
  0
CLASS
  1
VISUALSTYLE
  2
AcDbVisualStyle
  3
ObjectDBX Classes
 90
     4095
 91
        4
280
     0
281
     0
  0
CLASS
  1
MATERIAL
  2
AcDbMaterial
  3
ObjectDBX Classes
 90
     1153
 91
        4
280
     0
281
     0
  0
CLASS
  1
SCALE
  2
AcDbScale
  3
ObjectDBX Classes
 90
     1153
 91
        4
280
     0
281
     0
  0
CLASS
  1
TABLESTYLE
  2
AcDbTableStyle
  3
ObjectDBX Classes
 90
     4095
 91
        4
280
     0
281
     0
  0
CLASS
  1
MLEADERSTYLE
  2
AcDbMLeaderStyle
  3
ACDB_MLEADERSTYLE_CLASS
 90
     4095
 91
        4
280
     0
281
     0
  0
CLASS
  1
SUN
  2
AcDbSun
  3
SCENEOE
 90
     1153
 91
        4
280
     0
281
     0
  0
CLASS
  1
DICTIONARYVAR
  2
AcDbDictionaryVar
  3
ObjectDBX Classes
 90
        0
 91
        4
280
     0
281
     0
  0
CLASS
  1
CELLSTYLEMAP
  2
AcDbCellStyleMap
  3
ObjectDBX Classes
 90
     1152
 91
        4
280
     0
281
     0
  0
ENDSEC
  0
SECTION
  2
TABLES
  0
TABLE
  2
VPORT
  5
8
330
0
100
AcDbSymbolTable
 70
     1
  0
VPORT
  5
29
330
8
100
AcDbSymbolTableRecord
100
AcDbViewportTableRecord
  2
*Active
 70
     0
 10
0.0
 20
0.0
 11
1.0
 21
1.0
 12
0.0
 22
-0.2687500000000007
 13
0.0
 23
0.0
 14
0.5
 24
0.5
 15
0.5
 25
0.5
 16
0.0
 26
0.0
 36
1.0
 17
0.0
 27
0.0
 37
0.0
 40
4.98525
 41
3.273657289002558
 42
50.0
 43
0.0
 44
0.0
 50
0.0
 51
0.0
 71
     0
 72
   100
 73
     1
 74
     3
 75
     0
 76
     0
 77
     0
 78
     0
281
     0
 65
     1
110
0.0
120
0.0
130
0.0
111
1.0
121
0.0
131
0.0
112
0.0
122
1.0
132
0.0
 79
     0
146
0.0
348
2F
 60
     3
 61
     5
292
     1
282
     1
141
0.0
142
0.0
 63
   250
361
6D
  0
ENDTAB
  0
TABLE
  2
LTYPE
  5
5
330
0
100
AcDbSymbolTable
 70
     3
  0
LTYPE
  5
14
330
5
100
AcDbSymbolTableRecord
100
AcDbLinetypeTableRecord
  2
ByBlock
 70
     0
  3

 72
    65
 73
     0
 40
0.0
  0
LTYPE
  5
15
330
5
100
AcDbSymbolTableRecord
100
AcDbLinetypeTableRecord
  2
ByLayer
 70
     0
  3

 72
    65
 73
     0
 40
0.0
  0
LTYPE
  5
16
330
5
100
AcDbSymbolTableRecord
100
AcDbLinetypeTableRecord
  2
Continuous
 70
     0
  3
Solid line
 72
    65
 73
     0
 40
0.0
  0
LTYPE
  5
B0
330
5
100
AcDbSymbolTableRecord
100
AcDbLinetypeTableRecord
  2
Dashed
 70
     0
  3

 72
    65
 73
     2
 40
2.0
 49
1.0
 74
     0
 49
-1.0
 74
     0
  0
LTYPE
  5
C7
330
5
100
AcDbSymbolTableRecord
100
AcDbLinetypeTableRecord
  2
Center
 70
     0
  3

 72
    65
 73
     4
 40
1.5
 49
0.45
 74
     0
 49
-0.5
 74
     0
 49
0.05
 74
     0
 49
-0.5
 74
     0
  0
ENDTAB
  0
TABLE
  2
LAYER
  5
2
330
0
100
AcDbSymbolTable
 70
     7
  0
LAYER
  5
10
330
2
100
AcDbSymbolTableRecord
100
AcDbLayerTableRecord
  2
0
 70
     0
 62
     7
  6
Continuous
370
    -3
390
F
347
46
348
0
  0
LAYER
  5
72
330
2
100
AcDbSymbolTableRecord
100
AcDbLayerTableRecord
  2
AM_6
 70
     0
 62
    -2
  6
Continuous
370
    35
390
F
347
46
348
0
  0
LAYER
  5
B1
330
2
100
AcDbSymbolTableRecord
100
AcDbLayerTableRecord
  2
AM_9
 70
     0
 62
     6
  6
Dashed
370
    25
390
F
347
46
348
0
  0
LAYER
  5
C8
330
2
100
AcDbSymbolTableRecord
100
AcDbLayerTableRecord
  2
AM_7
 70
     0
 62
     7
  6
Center
370
    25
390
F
347
46
348
0
  0
LAYER
  5
CA
330
2
100
AcDbSymbolTableRecord
100
AcDbLayerTableRecord
  2
AM_4
 70
     0
 62
     7
  6
Continuous
370
    50
390
F
347
46
348
0
  0
LAYER
  5
D7
330
2
100
AcDbSymbolTableRecord
100
AcDbLayerTableRecord
  2
AM_5
 70
     0
 62
     3
  6
Continuous
370
    25
390
F
347
46
348
0
  0
LAYER
  5
23D
330
2
100
AcDbSymbolTableRecord
100
AcDbLayerTableRecord
  2
ConnectionPoints
 70
     0
 62
     7
  6
Continuous
370
    50
390
F
347
46
348
0
  0
ENDTAB
  0
TABLE
  2
STYLE
  5
3
330
0
100
AcDbSymbolTable
 70
     1
  0
STYLE
  5
11
330
3
100
AcDbSymbolTableRecord
100
AcDbTextStyleTableRecord
  2
Standard
 70
     0
 40
0.0
 41
1.0
 50
0.0
 71
     0
 42
0.2
  3
txt
  4

  0
ENDTAB
  0
TABLE
  2
VIEW
  5
6
330
0
100
AcDbSymbolTable
 70
     0
  0
ENDTAB
  0
TABLE
  2
UCS
  5
7
330
0
100
AcDbSymbolTable
 70
     0
  0
ENDTAB
  0
TABLE
  2
APPID
  5
9
330
0
100
AcDbSymbolTable
 70
     1
  0
APPID
  5
12
330
9
100
AcDbSymbolTableRecord
100
AcDbRegAppTableRecord
  2
ACAD
 70
     0
  0
ENDTAB
  0
TABLE
  2
DIMSTYLE
  5
A
330
0
100
AcDbSymbolTable
 70
     1
100
AcDbDimStyleTable
  0
DIMSTYLE
105
27
330
A
100
AcDbSymbolTableRecord
100
AcDbDimStyleTableRecord
  2
Standard
 70
     0
178
     0
340
11
  0
ENDTAB
  0
TABLE
  2
BLOCK_RECORD
  5
1
330
0
100
AcDbSymbolTable
 70
     6
  0
BLOCK_RECORD
  5
1F
330
1
100
AcDbSymbolTableRecord
100
AcDbBlockTableRecord
  2
*Model_Space
340
22
 70
     0
280
     1
281
     0
  0
BLOCK_RECORD
  5
1B
330
1
100
AcDbSymbolTableRecord
100
AcDbBlockTableRecord
  2
*Paper_Space
340
1E
 70
     0
280
     1
281
     0
  0
BLOCK_RECORD
  5
23
330
1
100
AcDbSymbolTableRecord
100
AcDbBlockTableRecord
  2
*Paper_Space0
340
26
 70
     0
280
     1
281
     0
  0
BLOCK_RECORD
  5
6E
330
1
100
AcDbSymbolTableRecord
100
AcDbBlockTableRecord
  2
1_023186_4
340
0
102
{BLKREFS
331
6F
102
}
 70
     0
280
     1
281
     0
  0
BLOCK_RECORD
  5
9B
330
1
100
AcDbSymbolTableRecord
100
AcDbBlockTableRecord
  2
2_3_3_16C_0_in_023186_4
340
0
102
{BLKREFS
331
9C
102
}
 70
     0
280
     1
281
     0
  0
BLOCK_RECORD
  5
D9
330
1
100
AcDbSymbolTableRecord
100
AcDbBlockTableRecord
  2
3_405020c_Inch_0_in_023186_4
340
0
102
{BLKREFS
331
DA
102
}
 70
     0
280
     1
281
     0
  0
BLOCK_RECORD
  5
FB
330
1
100
AcDbSymbolTableRecord
100
AcDbBlockTableRecord
  2
4_S1U_K_303R_0_in_023186_4
340
0
102
{BLKREFS
331
FC
102
}
 70
     0
280
     1
281
     0
  0
BLOCK_RECORD
  5
156
330
1
100
AcDbSymbolTableRecord
100
AcDbBlockTableRecord
  2
5_P2B_K_307R_0_in_023186_4
340
0
102
{BLKREFS
331
157
102
}
 70
     0
280
     1
281
     0
  0
ENDTAB
  0
ENDSEC
  0
SECTION
  2
BLOCKS
  0
BLOCK
  5
20
330
1F
100
AcDbEntity
  8
0
100
AcDbBlockBegin
  2
*Model_Space
 70
     0
 10
0.0
 20
0.0
 30
0.0
  3
*Model_Space
  1

  0
ENDBLK
  5
21
330
1F
100
AcDbEntity
  8
0
100
AcDbBlockEnd
  0
BLOCK
  5
1C
330
1B
100
AcDbEntity
 67
     1
  8
0
100
AcDbBlockBegin
  2
*Paper_Space
 70
     0
 10
0.0
 20
0.0
 30
0.0
  3
*Paper_Space
  1

  0
ENDBLK
  5
1D
330
1B
100
AcDbEntity
 67
     1
  8
0
100
AcDbBlockEnd
  0
BLOCK
  5
24
330
23
100
AcDbEntity
  8
0
100
AcDbBlockBegin
  2
*Paper_Space0
 70
     0
 10
0.0
 20
0.0
 30
0.0
  3
*Paper_Space0
  1

  0
ENDBLK
  5
25
330
23
100
AcDbEntity
  8
0
100
AcDbBlockEnd
  0
BLOCK
  5
70
330
6E
100
AcDbEntity
  8
0
100
AcDbBlockBegin
  2
1_023186_4
 70
     2
 10
0.0
 20
0.0
 30
0.0
  3
1_023186_4
  1

  0
ATTDEF
  5
73
330
6E
100
AcDbEntity
  8
AM_6
100
AcDbText
 10
13.0
 20
2.175
 30
0.0
 40
0.5
  1
Type K Pillow Block 2&4-Bolt Base Non-Expansion Inch Bore
100
AcDbAttributeDefinition
  3

  2
NN
 70
     8
280
     0
  0
ATTDEF
  5
74
330
6E
100
AcDbEntity
  8
AM_6
100
AcDbText
 10
13.0
 20
1.675
 30
0.0
 40
0.5
  1
Type K
100
AcDbAttributeDefinition
  3

  2
NT
 70
     8
280
     0
  0
ATTDEF
  5
75
330
6E
100
AcDbEntity
  8
AM_6
100
AcDbText
 10
13.0
 20
1.175
 30
0.0
 40
0.5
  1
023186
100
AcDbAttributeDefinition
  3

  2
NB
 70
     8
280
     0
  0
ATTDEF
  5
76
330
6E
100
AcDbEntity
  8
AM_6
100
AcDbText
 10
13.0
 20
0.6749999999999998
 30
0.0
 40
0.5
  1
$PN.
100
AcDbAttributeDefinition
  3

  2
NBSYN
 70
     8
280
     0
  0
ATTDEF
  5
77
330
6E
100
AcDbEntity
  8
AM_6
100
AcDbText
 10
13.0
 20
0.1749999999999998
 30
0.0
 40
0.5
  1
023186
100
AcDbAttributeDefinition
  3

  2
LINA
 70
     8
280
     0
  0
ATTDEF
  5
78
330
6E
100
AcDbEntity
  8
AM_6
100
AcDbText
 10
13.0
 20
-0.3250000000000002
 30
0.0
 40
0.5
  1
3-7/16
100
AcDbAttributeDefinition
  3

  2
SS
 70
     8
280
     0
  0
ATTDEF
  5
79
330
6E
100
AcDbEntity
  8
AM_6
100
AcDbText
 10
13.0
 20
-0.8250000000000002
 30
0.0
 40
0.5
  1
023186
100
AcDbAttributeDefinition
  3

  2
PN
 70
     8
280
     0
  0
ATTDEF
  5
7A
330
6E
100
AcDbEntity
  8
AM_6
100
AcDbText
 10
13.0
 20
-1.325
 30
0.0
 40
0.5
  1
P2B-K-307R
100
AcDbAttributeDefinition
  3

  2
PNA
 70
     8
280
     0
  0
ATTDEF
  5
7B
330
6E
100
AcDbEntity
  8
AM_6
100
AcDbText
 10
13.0
 20
-1.825
 30
0.0
 40
0.5
  1
67
100
AcDbAttributeDefinition
  3

  2
WEIGHT
 70
     8
280
     0
  0
ATTDEF
  5
7C
330
6E
100
AcDbEntity
  8
AM_6
100
AcDbText
 10
13.0
 20
-2.325
 30
0.0
 40
0.5
  1
4.26
100
AcDbAttributeDefinition
  3

  2
A
 70
     8
280
     0
  0
ATTDEF
  5
7D
330
6E
100
AcDbEntity
  8
AM_6
100
AcDbText
 10
13.0
 20
-2.825
 30
0.0
 40
0.5
  1
16
100
AcDbAttributeDefinition
  3

  2
B
 70
     8
280
     0
  0
ATTDEF
  5
7E
330
6E
100
AcDbEntity
  8
AM_6
100
AcDbText
 10
13.0
 20
-3.325
 30
0.0
 40
0.5
  1
3.44
100
AcDbAttributeDefinition
  3

  2
C
 70
     8
280
     0
  0
ATTDEF
  5
7F
330
6E
100
AcDbEntity
  8
AM_6
100
AcDbText
 10
13.0
 20
-3.825
 30
0.0
 40
0.5
  1
12.81
100
AcDbAttributeDefinition
  3

  2
DMIN
 70
     8
280
     0
  0
ATTDEF
  5
80
330
6E
100
AcDbEntity
  8
AM_6
100
AcDbText
 10
13.0
 20
-4.325
 30
0.0
 40
0.5
  1
13.81
100
AcDbAttributeDefinition
  3

  2
DMAX
 70
     8
280
     0
  0
ATTDEF
  5
81
330
6E
100
AcDbEntity
  8
AM_6
100
AcDbText
 10
13.0
 20
-4.825
 30
0.0
 40
0.5
  1
N/A
100
AcDbAttributeDefinition
  3

  2
E
 70
     8
280
     0
  0
ATTDEF
  5
82
330
6E
100
AcDbEntity
  8
AM_6
100
AcDbText
 10
13.0
 20
-5.325
 30
0.0
 40
0.5
  1
7/8
100
AcDbAttributeDefinition
  3

  2
F
 70
     8
280
     0
  0
ATTDEF
  5
83
330
6E
100
AcDbEntity
  8
AM_6
100
AcDbText
 10
13.0
 20
-5.825
 30
0.0
 40
0.5
  1
1.50
100
AcDbAttributeDefinition
  3

  2
G
 70
     8
280
     0
  0
ATTDEF
  5
84
330
6E
100
AcDbEntity
  8
AM_6
100
AcDbText
 10
13.0
 20
-6.325
 30
0.0
 40
0.5
  1
2.25
100
AcDbAttributeDefinition
  3

  2
H
 70
     8
280
     0
  0
ATTDEF
  5
85
330
6E
100
AcDbEntity
  8
AM_6
100
AcDbText
 10
13.0
 20
-6.825
 30
0.0
 40
0.5
  1
9.42
100
AcDbAttributeDefinition
  3

  2
J
 70
     8
280
     0
  0
ATTDEF
  5
86
330
6E
100
AcDbEntity
  8
AM_6
100
AcDbText
 10
13.0
 20
-7.325
 30
0.0
 40
0.5
  1
5.50
100
AcDbAttributeDefinition
  3

  2
L
 70
     8
280
     0
  0
ATTDEF
  5
87
330
6E
100
AcDbEntity
  8
AM_6
100
AcDbText
 10
13.0
 20
-7.825
 30
0.0
 40
0.5
  1
4.50
100
AcDbAttributeDefinition
  3

  2
M
 70
     8
280
     0
  0
ATTDEF
  5
88
330
6E
100
AcDbEntity
  8
AM_6
100
AcDbText
 10
13.0
 20
-8.325
 30
0.0
 40
0.5
  1
10.10
100
AcDbAttributeDefinition
  3

  2
P
 70
     8
280
     0
  0
ATTDEF
  5
89
330
6E
100
AcDbEntity
  8
AM_6
100
AcDbText
 10
13.0
 20
-8.825
 30
0.0
 40
0.5
  1
1.68
100
AcDbAttributeDefinition
  3

  2
R
 70
     8
280
     0
  0
ATTDEF
  5
8A
330
6E
100
AcDbEntity
  8
AM_6
100
AcDbText
 10
13.0
 20
-9.325
 30
0.0
 40
0.5
  1
2.50
100
AcDbAttributeDefinition
  3

  2
S
 70
     8
280
     0
  0
ATTDEF
  5
8B
330
6E
100
AcDbEntity
  8
AM_6
100
AcDbText
 10
13.0
 20
-9.825
 30
0.0
 40
0.5
  1
.28
100
AcDbAttributeDefinition
  3

  2
T
 70
     8
280
     0
  0
ATTDEF
  5
8C
330
6E
100
AcDbEntity
  8
AM_6
100
AcDbText
 10
13.0
 20
-10.325
 30
0.0
 40
0.5
  1
108600
100
AcDbAttributeDefinition
  3

  2
CS
 70
     8
280
     0
  0
ATTDEF
  5
8D
330
6E
100
AcDbEntity
  8
AM_6
100
AcDbText
 10
13.0
 20
-10.825
 30
0.0
 40
0.5
  1
15300
100
AcDbAttributeDefinition
  3

  2
CD
 70
     8
280
     0
  0
ATTDEF
  5
8E
330
6E
100
AcDbEntity
  8
AM_6
100
AcDbText
 10
13.0
 20
-11.325
 30
0.0
 40
0.5
  1
26
100
AcDbAttributeDefinition
  3

  2
RN
 70
     8
280
     0
  0
ATTDEF
  5
8F
330
6E
100
AcDbEntity
  8
AM_6
100
AcDbText
 10
13.0
 20
-11.825
 30
0.0
 40
0.5
  1
.46
100
AcDbAttributeDefinition
  3

  2
RM
 70
     8
280
     0
  0
ATTDEF
  5
90
330
6E
100
AcDbEntity
  8
AM_6
100
AcDbText
 10
13.0
 20
-12.325
 30
0.0
 40
0.5
  1
4.780
100
AcDbAttributeDefinition
  3

  2
PDI
 70
     8
280
     0
  0
ATTDEF
  5
91
330
6E
100
AcDbEntity
  8
AM_6
100
AcDbText
 10
13.0
 20
-12.825
 30
0.0
 40
0.5
  1
.008-.012
100
AcDbAttributeDefinition
  3

  2
EP
 70
     8
280
     0
  0
ATTDEF
  5
92
330
6E
100
AcDbEntity
  8
AM_6
100
AcDbText
 10
13.0
 20
-13.325
 30
0.0
 40
0.5
  1
1/2-13*1
100
AcDbAttributeDefinition
  3

  2
CSS
 70
     8
280
     0
  0
ATTDEF
  5
93
330
6E
100
AcDbEntity
  8
AM_6
100
AcDbText
 10
13.0
 20
-13.825
 30
0.0
 40
0.5
  1
620
100
AcDbAttributeDefinition
  3

  2
CST
 70
     8
280
     0
  0
ATTDEF
  5
94
330
6E
100
AcDbEntity
  8
AM_6
100
AcDbText
 10
13.0
 20
-14.325
 30
0.0
 40
0.5
  1
C.I. ASTM A48 CLASS 30
100
AcDbAttributeDefinition
  3

  2
MH
 70
     8
280
     0
  0
ATTDEF
  5
95
330
6E
100
AcDbEntity
  8
AM_6
100
AcDbText
 10
13.0
 20
-14.825
 30
0.0
 40
0.5
  1
4118 CASE CARB.
100
AcDbAttributeDefinition
  3

  2
MC
 70
     8
280
     0
  0
ATTDEF
  5
96
330
6E
100
AcDbEntity
  8
AM_6
100
AcDbText
 10
13.0
 20
-15.325
 30
0.0
 40
0.5
  1
4118 CASE CARB.
100
AcDbAttributeDefinition
  3

  2
MCU
 70
     8
280
     0
  0
ATTDEF
  5
97
330
6E
100
AcDbEntity
  8
AM_6
100
AcDbText
 10
13.0
 20
-15.825
 30
0.0
 40
0.5
  1
STEEL
100
AcDbAttributeDefinition
  3

  2
MR
 70
     8
280
     0
  0
ATTDEF
  5
98
330
6E
100
AcDbEntity
  8
AM_6
100
AcDbText
 10
13.0
 20
-16.325
 30
0.0
 40
0.5
  1
4118 CASE CARB.
100
AcDbAttributeDefinition
  3

  2
MRO
 70
     8
280
     0
  0
ATTDEF
  5
99
330
6E
100
AcDbEntity
  8
AM_6
100
AcDbText
 10
13.0
 20
-16.825
 30
0.0
 40
0.5
  1
4.08*
100
AcDbAttributeDefinition
  3

  2
SM
 70
     8
280
     0
  0
ATTDEF
  5
9A
330
6E
100
AcDbEntity
  8
AM_6
100
AcDbText
 10
13.0
 20
-17.325
 30
0.0
 40
0.5
  1
baldor
100
AcDbAttributeDefinition
  3

  2
COMPANY
 70
     8
280
     0
  0
INSERT
  5
9C
330
6E
100
AcDbEntity
  8
0
100
AcDbBlockReference
  2
2_3_3_16C_0_in_023186_4
 10
0.0
 20
0.0
 30
0.0
  0
INSERT
  5
DA
330
6E
100
AcDbEntity
  8
0
100
AcDbBlockReference
  2
3_405020c_Inch_0_in_023186_4
 10
0.0
 20
0.0
 30
0.0
  0
INSERT
  5
FC
330
6E
100
AcDbEntity
  8
0
100
AcDbBlockReference
  2
4_S1U_K_303R_0_in_023186_4
 10
0.0
 20
0.0
 30
0.0
  0
INSERT
  5
157
330
6E
100
AcDbEntity
  8
0
100
AcDbBlockReference
  2
5_P2B_K_307R_0_in_023186_4
 10
0.0
 20
0.0
 30
0.0
  0
ENDBLK
  5
71
330
6E
100
AcDbEntity
  8
0
100
AcDbBlockEnd
  0
BLOCK
  5
9D
330
9B
100
AcDbEntity
  8
0
100
AcDbBlockBegin
  2
2_3_3_16C_0_in_023186_4
 70
     2
 10
0.0
 20
0.0
 30
0.0
  3
2_3_3_16C_0_in_023186_4
  1

  0
ATTDEF
  5
9F
330
9B
100
AcDbEntity
  8
AM_6
100
AcDbText
 10
7.765625
 20
-1.62
 30
0.0
 40
0.5
  1
E-Type Collar -Inch
100
AcDbAttributeDefinition
  3

  2
NN
 70
     8
280
     0
  0
ATTDEF
  5
A0
330
9B
100
AcDbEntity
  8
AM_6
100
AcDbText
 10
7.765625
 20
-2.12
 30
0.0
 40
0.5
  1
E-Type Bearings
100
AcDbAttributeDefinition
  3

  2
NT
 70
     8
280
     0
  0
ATTDEF
  5
A1
330
9B
100
AcDbEntity
  8
AM_6
100
AcDbText
 10
7.765625
 20
-2.62
 30
0.0
 40
0.5
  1
3-3/16C
100
AcDbAttributeDefinition
  3

  2
NB
 70
     8
280
     0
  0
ATTDEF
  5
A2
330
9B
100
AcDbEntity
  8
AM_6
100
AcDbText
 10
7.765625
 20
-3.12
 30
0.0
 40
0.5
  1
$BORE.C
100
AcDbAttributeDefinition
  3

  2
NBSYN
 70
     8
280
     0
  0
ATTDEF
  5
A3
330
9B
100
AcDbEntity
  8
AM_6
100
AcDbText
 10
7.765625
 20
-3.62
 30
0.0
 40
0.5
  1
3-3/16C
100
AcDbAttributeDefinition
  3

  2
LINA
 70
     8
280
     0
  0
ATTDEF
  5
A4
330
9B
100
AcDbEntity
  8
AM_6
100
AcDbText
 10
7.765625
 20
-4.12
 30
0.0
 40
0.5
  1
3-3/16
100
AcDbAttributeDefinition
  3

  2
BORE
 70
     8
280
     0
  0
ATTDEF
  5
A5
330
9B
100
AcDbEntity
  8
AM_6
100
AcDbText
 10
7.765625
 20
-4.62
 30
0.0
 40
0.5
  1
5.53125
100
AcDbAttributeDefinition
  3

  2
L
 70
     8
280
     0
  0
ATTDEF
  5
A6
330
9B
100
AcDbEntity
  8
AM_6
100
AcDbText
 10
7.765625
 20
-5.12
 30
0.0
 40
0.5
  1
5.00
100
AcDbAttributeDefinition
  3

  2
A
 70
     8
280
     0
  0
ATTDEF
  5
A7
330
9B
100
AcDbEntity
  8
AM_6
100
AcDbText
 10
7.765625
 20
-5.62
 30
0.0
 40
0.5
  1
2.25
100
AcDbAttributeDefinition
  3

  2
B
 70
     8
280
     0
  0
ATTDEF
  5
A8
330
9B
100
AcDbEntity
  8
AM_6
100
AcDbText
 10
7.765625
 20
-6.12
 30
0.0
 40
0.5
  1
4.24
100
AcDbAttributeDefinition
  3

  2
C
 70
     8
280
     0
  0
ATTDEF
  5
A9
330
9B
100
AcDbEntity
  8
AM_6
100
AcDbText
 10
7.765625
 20
-6.62
 30
0.0
 40
0.5
  1
5.84
100
AcDbAttributeDefinition
  3

  2
D
 70
     8
280
     0
  0
ATTDEF
  5
AA
330
9B
100
AcDbEntity
  8
AM_6
100
AcDbText
 10
7.765625
 20
-7.12
 30
0.0
 40
0.5
  1
0.54
100
AcDbAttributeDefinition
  3

  2
E
 70
     8
280
     0
  0
ATTDEF
  5
AB
330
9B
100
AcDbEntity
  8
AM_6
100
AcDbText
 10
7.765625
 20
-7.62
 30
0.0
 40
0.5
  1
0.44
100
AcDbAttributeDefinition
  3

  2
F
 70
     8
280
     0
  0
ATTDEF
  5
AC
330
9B
100
AcDbEntity
  8
AM_6
100
AcDbText
 10
7.765625
 20
-8.120000000000001
 30
0.0
 40
0.5
  1
1/2-13
100
AcDbAttributeDefinition
  3

  2
CS
 70
     8
280
     0
  0
ATTDEF
  5
AD
330
9B
100
AcDbEntity
  8
AM_6
100
AcDbText
 10
7.765625
 20
-8.620000000000001
 30
0.0
 40
0.5
  1
0.5000
100
AcDbAttributeDefinition
  3

  2
NDM
 70
     8
280
     0
  0
ATTDEF
  5
AE
330
9B
100
AcDbEntity
  8
AM_6
100
AcDbText
 10
7.765625
 20
-9.120000000000001
 30
0.0
 40
0.5
  1
0.4170
100
AcDbAttributeDefinition
  3

  2
KDM
 70
     8
280
     0
  0
ATTDEF
  5
AF
330
9B
100
AcDbEntity
  8
AM_6
100
AcDbText
 10
7.765625
 20
-9.620000000000001
 30
0.0
 40
0.5
  1
baldor
100
AcDbAttributeDefinition
  3

  2
COMPANY
 70
     8
280
     0
  0
LINE
  5
B2
330
9B
100
AcDbEntity
  8
AM_9
100
AcDbLine
 10
1.969969530266636
 20
-1.875688878520796
 30
0.0
 11
1.962436053441967
 21
-1.866292473933726
 31
0.0
  0
LINE
  5
B3
330
9B
100
AcDbEntity
  8
AM_9
100
AcDbLine
 10
1.96249472472746
 20
-2.253634346158913
 30
0.0
 11
1.969969530266636
 21
-2.244311121479204
 31
0.0
  0
LWPOLYLINE
  5
B4
330
9B
100
AcDbEntity
  8
AM_9
100
AcDbPolyline
 90
       15
 70
     0
 43
0.0
 10
1.815623183790881
 20
-2.017581510976509
 10
1.813839003546537
 20
-2.039950344360223
 10
1.813621110897539
 20
-2.075628263858183
 10
1.816484086818899
 20
-2.109512587883563
 10
1.822159288106486
 20
-2.14202260781982
 10
1.830487206545547
 20
-2.172517053153456
 10
1.841014215827946
 20
-2.200020869556716
 10
1.853934568965852
 20
-2.224898641905716
 10
1.868274295838921
 20
-2.245319014011168
 10
1.884395058555988
 20
-2.261534341330013
 10
1.900971393890077
 20
-2.27201166016802
 10
1.918124926796097
 20
-2.276524871196479
 10
1.934706143552195
 20
-2.274525336237965
 10
1.950480021138408
 20
-2.26579246465159
 10
1.96232196053999
 20
-2.253849832561349
  0
LWPOLYLINE
  5
B5
330
9B
100
AcDbEntity
  8
AM_9
100
AcDbPolyline
 90
       13
 70
     0
 43
0.0
 10
1.962315731194076
 20
-1.866142398927413
 10
1.96031657946436
 20
-1.863735721553158
 10
1.946014882870694
 20
-1.850981308949331
 10
1.930483893718179
 20
-1.844320148061696
 10
1.913578400786142
 20
-1.844046838535621
 10
1.896223688997207
 20
-1.850371643799554
 10
1.878825935204822
 20
-1.86336464503481
 10
1.862143516095993
 20
-1.882630222958654
 10
1.84710905846286
 20
-1.907329963640261
 10
1.83409008481678
 20
-1.937054845632422
 10
1.824179144847845
 20
-1.969493259689729
 10
1.817237921763321
 20
-2.004880521281622
 10
1.815623183790881
 20
-2.017581510976509
  0
LWPOLYLINE
  5
B6
330
9B
100
AcDbEntity
  8
AM_9
100
AcDbPolyline
 90
        5
 70
     0
 43
0.0
 10
2.005296879983517
 20
-2.014882780682679
 10
2.00388304802168
 20
-1.998801935484985
 10
1.999610670500976
 20
-1.966994881265923
 10
1.993586491174249
 20
-1.937677427931419
 10
1.980876747911817
 20
-1.898527269720325
  0
LINE
  5
B7
330
9B
100
AcDbEntity
  8
AM_9
100
AcDbLine
 10
2.005412872050184
 20
-2.016486735390168
 30
0.0
 11
2.005296879983517
 21
-2.014882780682679
 31
0.0
  0
LWPOLYLINE
  5
B8
330
9B
100
AcDbEntity
  8
AM_9
100
AcDbPolyline
 90
        9
 70
     0
 43
0.0
 10
1.967242344285978
 20
-2.24715715214476
 10
1.97731140244859
 20
-2.229361093349508
 10
1.987842815470787
 20
-2.20260832287007
 10
1.99593854063961
 20
-2.172130238998791
 10
2.001894853762626
 20
-2.137961439144591
 10
2.005425651105265
 20
-2.103226657961343
 10
2.006895193392169
 20
-2.067142861238747
 10
2.006329904540799
 20
-2.032581780542767
 10
2.005412872050184
 20
-2.016486735390168
  0
LWPOLYLINE
  5
B9
330
9B
100
AcDbEntity
  8
AM_9
100
AcDbPolyline
 90
        3
 70
     0
 43
0.0
 10
1.96232196053999
 20
-2.253849832561349
 10
1.964829367174535
 20
-2.250581458022958
 10
1.967242344285978
 20
-2.24715715214476
  0
LINE
  5
BA
330
9B
100
AcDbEntity
  8
AM_9
100
AcDbLine
 10
1.928909968279886
 20
-2.26835
 30
0.0
 11
2.468759754193158
 21
-2.26835
 31
0.0
  0
LINE
  5
BB
330
9B
100
AcDbEntity
  8
AM_9
100
AcDbLine
 10
2.468759754193158
 20
-1.85165
 30
0.0
 11
1.928909968279886
 21
-1.85165
 31
0.0
  0
ELLIPSE
  5
BC
330
9B
100
AcDbEntity
  8
AM_9
100
AcDbEllipse
 10
2.468759754193159
 20
-2.060000000000001
 30
0.0
 11
-3.827327409035254E-17
 21
-0.2083499999999994
 31
0.0
210
0.0
220
0.0
230
1.0
 40
0.4226182617407065
 41
3.480202670457414
 42
5.962656566199387
  0
LINE
  5
BD
330
9B
100
AcDbEntity
  8
AM_9
100
AcDbLine
 10
2.42770019220641
 20
-2.244311121479205
 30
0.0
 11
2.455238400430553
 21
-2.278659159191317
 31
0.0
  0
LINE
  5
BE
330
9B
100
AcDbEntity
  8
AM_9
100
AcDbLine
 10
2.455417582961736
 20
-1.841117348841147
 30
0.0
 11
2.42770019220641
 21
-1.875688878520796
 31
0.0
  0
LWPOLYLINE
  5
BF
330
9B
100
AcDbEntity
  8
AM_9
100
AcDbPolyline
 90
       39
 70
     0
 43
0.0
 10
-0.159986555811746
 20
-1.905064722724611
 10
-0.182281888037872
 20
-1.928921760141794
 10
-0.2011604523234221
 20
-1.956484825746909
 10
-0.2165671828156271
 20
-1.989487237530668
 10
-0.2262049663605153
 20
-2.025842931974717
 10
-0.2290795232288547
 20
-2.060328885050799
 10
-0.2259108595954708
 20
-2.09585032082609
 10
-0.2172904772749014
 20
-2.128499192500931
 10
-0.203064894497397
 20
-2.16014053645612
 10
-0.1840077830173843
 20
-2.188905203869766
 10
-0.1599992104012865
 20
-2.214923585882261
 10
-0.1314413405763095
 20
-2.237346179249616
 10
-0.0988315880532858
 20
-2.255399301159092
 10
-0.0628452739432501
 20
-2.268325513416767
 10
-0.0242007993715099
 20
-2.275449863970397
 10
0.0152712729049052
 20
-2.276182956173145
 10
0.0554285413922742
 20
-2.270206316388949
 10
0.0932081860078283
 20
-2.257861595767471
 10
0.1293621007158061
 20
-2.238710338956809
 10
0.1601727600496683
 20
-2.214763064002312
 10
0.187109775992516
 20
-2.184851475392248
 10
0.2067655250673396
 20
-2.153136256702722
 10
0.220903184276739
 20
-2.117273549354084
 10
0.2278064170443369
 20
-2.082772149730406
 10
0.2286320082509655
 20
-2.046484095318382
 10
0.2236043142561953
 20
-2.01299329392418
 10
0.21279329893227
 20
-1.979890231451797
 10
0.1970406545663652
 20
-1.949636014858393
 10
0.1761067969000716
 20
-1.921581632183136
 10
0.150490749802942
 20
-1.896772845840065
 10
0.1204884042803835
 20
-1.875816305205841
 10
0.0865736510791597
 20
-1.85945351547205
 10
0.0494815543811856
 20
-1.848466031346461
 10
0.0106098402656726
 20
-1.843566681920977
 10
-0.029642325508354
 20
-1.845161397225979
 10
-0.0685666345133421
 20
-1.853299965631897
 10
-0.1066302390272933
 20
-1.868311707043657
 10
-0.1343473742913629
 20
-1.884615013553354
 10
-0.159986555811746
 20
-1.905064722724611
  0
LWPOLYLINE
  5
C0
330
9B
100
AcDbEntity
  8
AM_9
100
AcDbPolyline
 90
        3
 70
     0
 43
0.0
 10
1.980876747911817
 20
-1.898527269720325
 10
1.971220258317906
 20
-1.879156530532244
 10
1.962315731194076
 20
-1.866142398927413
  0
LINE
  5
C1
330
9B
100
AcDbEntity
  8
AM_9
100
AcDbLine
 10
2.12
 20
-2.5
 30
0.0
 11
2.12
 21
-1.62
 31
0.0
  0
LINE
  5
C2
330
9B
100
AcDbEntity
  8
AM_9
100
AcDbLine
 10
-2.12
 20
-1.62
 30
0.0
 11
-2.12
 21
-2.5
 31
0.0
  0
LINE
  5
C3
330
9B
100
AcDbEntity
  8
AM_9
100
AcDbLine
 10
-2.765625
 20
-1.62
 30
0.0
 11
2.765625
 21
-1.62
 31
0.0
  0
LINE
  5
C4
330
9B
100
AcDbEntity
  8
AM_9
100
AcDbLine
 10
2.765625
 20
-1.75
 30
0.0
 11
2.765625
 21
-1.62
 31
0.0
  0
LINE
  5
C5
330
9B
100
AcDbEntity
  8
AM_9
100
AcDbLine
 10
-2.765625
 20
-1.62
 30
0.0
 11
-2.765625
 21
-1.75
 31
0.0
  0
ELLIPSE
  5
C6
330
9B
100
AcDbEntity
  8
AM_9
100
AcDbEllipse
 10
1.928909968279886
 20
-2.06
 30
0.0
 11
-3.827327409035270E-17
 21
-0.2083500000000003
 31
0.0
210
0.0
220
0.0
230
1.0
 40
0.4226182617406972
 41
0.0
 42
6.283185307179586
  0
LINE
  5
C9
330
9B
100
AcDbEntity
  8
AM_7
100
AcDbLine
 10
-0.2187675
 20
-2.06
 30
0.0
 11
0.2187675
 21
-2.06
 31
0.0
  0
ELLIPSE
  5
CB
330
9B
100
AcDbEntity
  8
AM_4
100
AcDbEllipse
 10
2.468759754193158
 20
-2.06
 30
0.0
 11
-3.827327409035270E-17
 21
-0.2083500000000003
 31
0.0
210
0.0
220
0.0
230
1.0
 40
0.4226182617406983
 41
5.962656566199398
 42
9.763387977636995
  0
LWPOLYLINE
  5
CC
330
9B
100
AcDbEntity
  8
AM_4
100
AcDbPolyline
 90
       15
 70
     0
 43
0.0
 10
2.455516714671396
 20
-2.279006294264277
 10
2.448822987244066
 20
-2.269992761535575
 10
2.434350196667221
 20
-2.24532565185167
 10
2.421674022543416
 20
-2.216043588687772
 10
2.410848127008145
 20
-2.181505497673463
 10
2.402758375290724
 20
-2.143837169016963
 10
2.397584453112596
 20
-2.10248355305022
 10
2.39582323828733
 20
-2.059981881092285
 10
2.397664023572559
 20
-2.01658008263652
 10
2.403060653872013
 20
-1.974402289691657
 10
2.411876320240033
 20
-1.934662822324092
 10
2.423729514258
 20
-1.898562444813533
 10
2.437892931360194
 20
-1.867915814673118
 10
2.454021752565456
 20
-1.842891104021224
 10
2.455521581612547
 20
-1.840987633746642
  0
LWPOLYLINE
  5
CD
330
9B
100
AcDbEntity
  8
AM_4
100
AcDbPolyline
 90
        8
 70
     0
 43
0.0
 10
2.455521581612547
 20
-1.840987633746642
 10
2.470828216591896
 20
-1.825081310450273
 10
2.488302698187129
 20
-1.81394777968995
 10
2.505118275031466
 20
-1.810050537462284
 10
2.521479350183621
 20
-1.812830771049182
 10
2.536617447875447
 20
-1.822041235355647
 10
2.550520426500118
 20
-1.837258966098944
 10
2.568088496355109
 20
-1.869456148857068
  0
CIRCLE
  5
CE
330
9B
100
AcDbEntity
  8
AM_4
100
AcDbCircle
 10
0.0
 20
-2.06
 30
0.0
 40
0.20835
  0
LWPOLYLINE
  5
CF
330
9B
100
AcDbEntity
  8
AM_4
100
AcDbPolyline
 90
       39
 70
     0
 43
0.0
 10
-0.1727888099394485
 20
-1.886876531480668
 10
-0.1466151085990734
 20
-1.86232696986577
 10
-0.1163791247903692
 20
-1.841511939567762
 10
-0.0800685494273319
 20
-1.824392854716465
 10
-0.0401075660036862
 20
-1.813532865482273
 10
-0.0015910917863086
 20
-1.810005520892252
 10
0.0381242237546716
 20
-1.813189910085175
 10
0.0749440761204486
 20
-1.822562414249223
 10
0.1106839500356834
 20
-1.838310804003541
 10
0.1429491919906712
 20
-1.859423890105265
 10
0.1721400476344461
 20
-1.886174387082822
 10
0.196896618873888
 20
-1.917620076383417
 10
0.2167835486013565
 20
-1.953592237731818
 10
0.2307768560049755
 20
-1.992825692305774
 10
0.2383941113182138
 20
-2.034954074112151
 10
0.2389979822378551
 20
-2.077718291680144
 10
0.2323018541289049
 20
-2.121193298617139
 10
0.2187179161544784
 20
-2.16201189771363
 10
0.1977813592424338
 20
-2.201039362641246
 10
0.1716479714717849
 20
-2.234354545975526
 10
0.1391290631863576
 20
-2.263480912538765
 10
0.1043925105882328
 20
-2.284990278917517
 10
0.0652079837590481
 20
-2.300549553365496
 10
0.0268770278015247
 20
-2.308419688210409
 10
-0.0134419435199896
 20
-2.309605652863203
 10
-0.0511383608301642
 20
-2.304230782875941
 10
-0.0884484157510986
 20
-2.292317720695634
 10
-0.1224699899371711
 20
-2.274830081559216
 10
-0.1540304933083627
 20
-2.251433278534374
 10
-0.1815368421344609
 20
-2.223087997504319
 10
-0.2047254909735529
 20
-2.189811943954918
 10
-0.2225016106036312
 20
-2.152687282490252
 10
-0.2343362195250159
 20
-2.112082466723259
 10
-0.2394136169842785
 20
-2.069889342403728
 10
-0.2374028479375772
 20
-2.026236460859731
 10
-0.2282971011500161
 20
-1.98417059397395
 10
-0.2117489816435712
 20
-1.943084660893379
 10
-0.1943800210082332
 20
-1.913905885719618
 10
-0.1727888099974723
 20
-1.886876531444414
  0
LWPOLYLINE
  5
D0
330
9B
100
AcDbEntity
  8
AM_4
100
AcDbPolyline
 90
       19
 70
     0
 43
0.0
 10
2.568088496355109
 20
-1.869456148857068
 10
2.577418204676445
 20
-1.895595106237953
 10
2.585082250319259
 20
-1.925168227803887
 10
2.591724972279837
 20
-1.962363309203199
 10
2.596094628666732
 20
-2.002120924653908
 10
2.598182949068788
 20
-2.044714561147385
 10
2.597833758752223
 20
-2.087727338148771
 10
2.594963032873581
 20
-2.130591772637654
 10
2.589589177443513
 20
-2.171444182224608
 10
2.581760634177392
 20
-2.208817166659082
 10
2.571536738313013
 20
-2.241844775217019
 10
2.559368565260038
 20
-2.268674417529128
 10
2.545224910501124
 20
-2.289425905261161
 10
2.530060604781306
 20
-2.302781924176859
 10
2.51370278901504
 20
-2.309358550585322
 10
2.497222195244605
 20
-2.308937410158271
 10
2.480527711377978
 20
-2.302002634740324
 10
2.464277718773783
 20
-2.288855825897105
 10
2.455516714671396
 20
-2.279006294264277
  0
LINE
  5
D1
330
9B
100
AcDbEntity
  8
AM_4
100
AcDbLine
 10
2.765625
 20
-2.353333333333333
 30
0.0
 11
2.765625
 21
-1.75
 31
0.0
  0
LINE
  5
D2
330
9B
100
AcDbEntity
  8
AM_4
100
AcDbLine
 10
-2.765625
 20
-1.75
 30
0.0
 11
-2.765625
 21
-2.353333333333333
 31
0.0
  0
LINE
  5
D3
330
9B
100
AcDbEntity
  8
AM_4
100
AcDbLine
 10
-2.618958333333333
 20
-2.5
 30
0.0
 11
2.618958333321266
 21
-2.5
 31
0.0
  0
LINE
  5
D4
330
9B
100
AcDbEntity
  8
AM_4
100
AcDbLine
 10
-2.765625
 20
-2.353333333333333
 30
0.0
 11
2.765625
 21
-2.353333333333333
 31
0.0
  0
ARC
  5
D5
330
9B
100
AcDbEntity
  8
AM_4
100
AcDbCircle
 10
2.618958333333333
 20
-2.353333333333333
 30
0.0
 40
0.1466666666666665
100
AcDbArc
 50
270.0
 51
0.0000008537736463
  0
ARC
  5
D6
330
9B
100
AcDbEntity
  8
AM_4
100
AcDbCircle
 10
-2.618958333333333
 20
-2.353333333333333
 30
0.0
 40
0.1466666666666665
100
AcDbArc
 50
179.9999991462263
 51
270.0
  0
CIRCLE
  5
D8
330
9B
100
AcDbEntity
  8
AM_5
100
AcDbCircle
 10
0.0000000000000003
 20
-2.06
 30
0.0
 40
0.2500000000000002
  0
ENDBLK
  5
9E
330
9B
100
AcDbEntity
  8
0
100
AcDbBlockEnd
  0
BLOCK
  5
DB
330
D9
100
AcDbEntity
  8
0
100
AcDbBlockBegin
  2
3_405020c_Inch_0_in_023186_4
 70
     2
 10
0.0
 20
0.0
 30
0.0
  3
3_405020c_Inch_0_in_023186_4
  1

  0
ATTDEF
  5
DD
330
D9
100
AcDbEntity
  8
AM_6
100
AcDbText
 10
5.14065
 20
0.162408630723042
 30
0.0
 40
0.5
  1
405020C -Inch
100
AcDbAttributeDefinition
  3

  2
NN
 70
     8
280
     0
  0
ATTDEF
  5
DE
330
D9
100
AcDbEntity
  8
AM_6
100
AcDbText
 10
5.14065
 20
-0.337591369276958
 30
0.0
 40
0.5
  1
Grease fitting
100
AcDbAttributeDefinition
  3

  2
NT
 70
     8
280
     0
  0
ATTDEF
  5
DF
330
D9
100
AcDbEntity
  8
AM_6
100
AcDbText
 10
5.14065
 20
-0.837591369276958
 30
0.0
 40
0.5
  1
405020c-Inch
100
AcDbAttributeDefinition
  3

  2
NB
 70
     8
280
     0
  0
ATTDEF
  5
E0
330
D9
100
AcDbEntity
  8
AM_6
100
AcDbText
 10
5.14065
 20
-1.337591369276958
 30
0.0
 40
0.5
  1
$MN.-Inch
100
AcDbAttributeDefinition
  3

  2
NBSYN
 70
     8
280
     0
  0
ATTDEF
  5
E1
330
D9
100
AcDbEntity
  8
AM_6
100
AcDbText
 10
5.14065
 20
-1.837591369276958
 30
0.0
 40
0.5
  1
405020c
100
AcDbAttributeDefinition
  3

  2
LINA
 70
     8
280
     0
  0
ATTDEF
  5
E2
330
D9
100
AcDbEntity
  8
AM_6
100
AcDbText
 10
5.14065
 20
-2.337591369276958
 30
0.0
 40
0.5
  1
405020c
100
AcDbAttributeDefinition
  3

  2
MN
 70
     8
280
     0
  0
ATTDEF
  5
E3
330
D9
100
AcDbEntity
  8
AM_6
100
AcDbText
 10
5.14065
 20
-2.837591369276958
 30
0.0
 40
0.5
  1
0.230
100
AcDbAttributeDefinition
  3

  2
NDR
 70
     8
280
     0
  0
ATTDEF
  5
E4
330
D9
100
AcDbEntity
  8
AM_6
100
AcDbText
 10
5.14065
 20
-3.337591369276958
 30
0.0
 40
0.5
  1
0.210
100
AcDbAttributeDefinition
  3

  2
KDR
 70
     8
280
     0
  0
ATTDEF
  5
E5
330
D9
100
AcDbEntity
  8
AM_6
100
AcDbText
 10
5.14065
 20
-3.837591369276958
 30
0.0
 40
0.5
  1
0.157
100
AcDbAttributeDefinition
  3

  2
BZE
 70
     8
280
     0
  0
ATTDEF
  5
E6
330
D9
100
AcDbEntity
  8
AM_6
100
AcDbText
 10
5.14065
 20
-4.337591369276958
 30
0.0
 40
0.5
  1
9/32
100
AcDbAttributeDefinition
  3

  2
WAF
 70
     8
280
     0
  0
ATTDEF
  5
E7
330
D9
100
AcDbEntity
  8
AM_6
100
AcDbText
 10
5.14065
 20
-4.837591369276958
 30
0.0
 40
0.5
  1
0.2813
100
AcDbAttributeDefinition
  3

  2
WAF1
 70
     8
280
     0
  0
ATTDEF
  5
E8
330
D9
100
AcDbEntity
  8
AM_6
100
AcDbText
 10
5.14065
 20
-5.337591369276958
 30
0.0
 40
0.5
  1
0.545
100
AcDbAttributeDefinition
  3

  2
BL
 70
     8
280
     0
  0
ATTDEF
  5
E9
330
D9
100
AcDbEntity
  8
AM_6
100
AcDbText
 10
5.14065
 20
-5.837591369276958
 30
0.0
 40
0.5
  1
0.200
100
AcDbAttributeDefinition
  3

  2
TL
 70
     8
280
     0
  0
ATTDEF
  5
EA
330
D9
100
AcDbEntity
  8
AM_6
100
AcDbText
 10
5.14065
 20
-6.337591369276958
 30
0.0
 40
0.5
  1
baldor
100
AcDbAttributeDefinition
  3

  2
COMPANY
 70
     8
280
     0
  0
CIRCLE
  5
EB
330
D9
100
AcDbEntity
  8
AM_9
100
AcDbCircle
 10
0.0
 20
0.0000000000000003
 30
0.0
 40
0.1000886227036577
  0
CIRCLE
  5
EC
330
D9
100
AcDbEntity
  8
AM_9
100
AcDbCircle
 10
0.0
 20
0.0000000000000003
 30
0.0
 40
0.1104162595939891
  0
CIRCLE
  5
ED
330
D9
100
AcDbEntity
  8
AM_9
100
AcDbCircle
 10
0.0
 20
0.0000000000000003
 30
0.0
 40
0.1163438171532771
  0
LINE
  5
EE
330
D9
100
AcDbEntity
  8
AM_9
100
AcDbLine
 10
0.14065
 20
-0.0812043153615206
 30
0.0
 11
0.14065
 21
0.0812043153615211
 31
0.0
  0
LINE
  5
EF
330
D9
100
AcDbEntity
  8
AM_9
100
AcDbLine
 10
0.0
 20
-0.1624086307230415
 30
0.0
 11
0.14065
 21
-0.0812043153615206
 31
0.0
  0
LINE
  5
F0
330
D9
100
AcDbEntity
  8
AM_9
100
AcDbLine
 10
-0.14065
 20
0.0812043153615211
 30
0.0
 11
-0.14065
 21
-0.0812043153615206
 31
0.0
  0
LINE
  5
F1
330
D9
100
AcDbEntity
  8
AM_9
100
AcDbLine
 10
0.0
 20
0.162408630723042
 30
0.0
 11
-0.14065
 21
0.0812043153615211
 31
0.0
  0
LINE
  5
F2
330
D9
100
AcDbEntity
  8
AM_9
100
AcDbLine
 10
-0.14065
 20
-0.0812043153615206
 30
0.0
 11
0.0
 21
-0.1624086307230415
 31
0.0
  0
LINE
  5
F3
330
D9
100
AcDbEntity
  8
AM_9
100
AcDbLine
 10
0.14065
 20
0.0812043153615211
 30
0.0
 11
0.0
 21
0.162408630723042
 31
0.0
  0
CIRCLE
  5
F4
330
D9
100
AcDbEntity
  8
AM_9
100
AcDbCircle
 10
0.0
 20
0.0000000000000003
 30
0.0
 40
0.1093294505797714
  0
CIRCLE
  5
F5
330
D9
100
AcDbEntity
  8
AM_9
100
AcDbCircle
 10
0.0
 20
0.0000000000000003
 30
0.0
 40
0.0946847896390988
  0
CIRCLE
  5
F6
330
D9
100
AcDbEntity
  8
AM_9
100
AcDbCircle
 10
0.0
 20
0.0000000000000003
 30
0.0
 40
0.135926521995058
  0
CIRCLE
  5
F7
330
D9
100
AcDbEntity
  8
AM_9
100
AcDbCircle
 10
0.0
 20
0.0000000000000003
 30
0.0
 40
0.13195176466768
  0
CIRCLE
  5
F8
330
D9
100
AcDbEntity
  8
AM_9
100
AcDbCircle
 10
0.0
 20
0.0000000000000003
 30
0.0
 40
0.080806429716728
  0
CIRCLE
  5
F9
330
D9
100
AcDbEntity
  8
AM_9
100
AcDbCircle
 10
0.0
 20
0.0000000000000003
 30
0.0
 40
0.1038190510530391
  0
CIRCLE
  5
FA
330
D9
100
AcDbEntity
  8
AM_9
100
AcDbCircle
 10
0.0000000000000001
 20
0.0000000000000003
 30
0.0
 40
0.1406499999999999
  0
ENDBLK
  5
DC
330
D9
100
AcDbEntity
  8
0
100
AcDbBlockEnd
  0
BLOCK
  5
FD
330
FB
100
AcDbEntity
  8
0
100
AcDbBlockBegin
  2
4_S1U_K_303R_0_in_023186_4
 70
     2
 10
0.0
 20
0.0
 30
0.0
  3
4_S1U_K_303R_0_in_023186_4
  1

  0
ATTDEF
  5
FF
330
FB
100
AcDbEntity
  8
AM_6
100
AcDbText
 10
8.686212923651041
 20
2.175
 30
0.0
 40
0.5
  1
Type K Units - Inch
100
AcDbAttributeDefinition
  3

  2
NN
 70
     8
280
     0
  0
ATTDEF
  5
100
330
FB
100
AcDbEntity
  8
AM_6
100
AcDbText
 10
8.686212923651041
 20
1.675
 30
0.0
 40
0.5
  1
Type K
100
AcDbAttributeDefinition
  3

  2
NT
 70
     8
280
     0
  0
ATTDEF
  5
101
330
FB
100
AcDbEntity
  8
AM_6
100
AcDbText
 10
8.686212923651041
 20
1.175
 30
0.0
 40
0.5
  1
S1U-K-303R
100
AcDbAttributeDefinition
  3

  2
NB
 70
     8
280
     0
  0
ATTDEF
  5
102
330
FB
100
AcDbEntity
  8
AM_6
100
AcDbText
 10
8.686212923651041
 20
0.6749999999999998
 30
0.0
 40
0.5
  1
$PN.
100
AcDbAttributeDefinition
  3

  2
NBSYN
 70
     8
280
     0
  0
ATTDEF
  5
103
330
FB
100
AcDbEntity
  8
AM_6
100
AcDbText
 10
8.686212923651041
 20
0.1749999999999998
 30
0.0
 40
0.5
  1
S1U-K-303R
100
AcDbAttributeDefinition
  3

  2
LINA
 70
     8
280
     0
  0
ATTDEF
  5
104
330
FB
100
AcDbEntity
  8
AM_6
100
AcDbText
 10
8.686212923651041
 20
-0.3250000000000002
 30
0.0
 40
0.5
  1
3-3/16
100
AcDbAttributeDefinition
  3

  2
SS
 70
     8
280
     0
  0
ATTDEF
  5
105
330
FB
100
AcDbEntity
  8
AM_6
100
AcDbText
 10
8.686212923651041
 20
-0.8250000000000002
 30
0.0
 40
0.5
  1
3.187500
100
AcDbAttributeDefinition
  3

  2
SS1
 70
     8
280
     0
  0
ATTDEF
  5
106
330
FB
100
AcDbEntity
  8
AM_6
100
AcDbText
 10
8.686212923651041
 20
-1.325
 30
0.0
 40
0.5
  1
S1U-K-303R
100
AcDbAttributeDefinition
  3

  2
PN
 70
     8
280
     0
  0
ATTDEF
  5
107
330
FB
100
AcDbEntity
  8
AM_6
100
AcDbText
 10
8.686212923651041
 20
-1.825
 30
0.0
 40
0.5
  1
S1U-K-303R
100
AcDbAttributeDefinition
  3

  2
PNA
 70
     8
280
     0
  0
ATTDEF
  5
108
330
FB
100
AcDbEntity
  8
AM_6
100
AcDbText
 10
8.686212923651041
 20
-2.325
 30
0.0
 40
0.5
  1
28
100
AcDbAttributeDefinition
  3

  2
WEIGHT
 70
     8
280
     0
  0
ATTDEF
  5
109
330
FB
100
AcDbEntity
  8
AM_6
100
AcDbText
 10
8.686212923651041
 20
-2.825
 30
0.0
 40
0.5
  1
4-1/4
100
AcDbAttributeDefinition
  3

  2
A
 70
     8
280
     0
  0
ATTDEF
  5
10A
330
FB
100
AcDbEntity
  8
AM_6
100
AcDbText
 10
8.686212923651041
 20
-3.325
 30
0.0
 40
0.5
  1
4.250000
100
AcDbAttributeDefinition
  3

  2
A1
 70
     8
280
     0
  0
ATTDEF
  5
10B
330
FB
100
AcDbEntity
  8
AM_6
100
AcDbText
 10
8.686212923651041
 20
-3.825
 30
0.0
 40
0.5
  1
3-1/2
100
AcDbAttributeDefinition
  3

  2
B
 70
     8
280
     0
  0
ATTDEF
  5
10C
330
FB
100
AcDbEntity
  8
AM_6
100
AcDbText
 10
8.686212923651041
 20
-4.325
 30
0.0
 40
0.5
  1
3.500000
100
AcDbAttributeDefinition
  3

  2
B1
 70
     8
280
     0
  0
ATTDEF
  5
10D
330
FB
100
AcDbEntity
  8
AM_6
100
AcDbText
 10
8.686212923651041
 20
-4.825
 30
0.0
 40
0.5
  1
2
100
AcDbAttributeDefinition
  3

  2
C
 70
     8
280
     0
  0
ATTDEF
  5
10E
330
FB
100
AcDbEntity
  8
AM_6
100
AcDbText
 10
8.686212923651041
 20
-5.325
 30
0.0
 40
0.5
  1
2.000000
100
AcDbAttributeDefinition
  3

  2
C1
 70
     8
280
     0
  0
ATTDEF
  5
10F
330
FB
100
AcDbEntity
  8
AM_6
100
AcDbText
 10
8.686212923651041
 20
-5.825
 30
0.0
 40
0.5
  1
7-1/8
100
AcDbAttributeDefinition
  3

  2
D
 70
     8
280
     0
  0
ATTDEF
  5
110
330
FB
100
AcDbEntity
  8
AM_6
100
AcDbText
 10
8.686212923651041
 20
-6.325
 30
0.0
 40
0.5
  1
7.125000
100
AcDbAttributeDefinition
  3

  2
D1
 70
     8
280
     0
  0
ATTDEF
  5
111
330
FB
100
AcDbEntity
  8
AM_6
100
AcDbText
 10
8.686212923651041
 20
-6.825
 30
0.0
 40
0.5
  1
0.450
100
AcDbAttributeDefinition
  3

  2
E
 70
     8
280
     0
  0
ATTDEF
  5
112
330
FB
100
AcDbEntity
  8
AM_6
100
AcDbText
 10
8.686212923651041
 20
-7.325
 30
0.0
 40
0.5
  1
6.813
100
AcDbAttributeDefinition
  3

  2
EM
 70
     8
280
     0
  0
ATTDEF
  5
113
330
FB
100
AcDbEntity
  8
AM_6
100
AcDbText
 10
8.686212923651041
 20
-7.825
 30
0.0
 40
0.5
  1
6.880
100
AcDbAttributeDefinition
  3

  2
EC
 70
     8
280
     0
  0
ATTDEF
  5
114
330
FB
100
AcDbEntity
  8
AM_6
100
AcDbText
 10
8.686212923651041
 20
-8.325
 30
0.0
 40
0.5
  1
11/16
100
AcDbAttributeDefinition
  3

  2
H
 70
     8
280
     0
  0
ATTDEF
  5
115
330
FB
100
AcDbEntity
  8
AM_6
100
AcDbText
 10
8.686212923651041
 20
-8.825
 30
0.0
 40
0.5
  1
0.687500
100
AcDbAttributeDefinition
  3

  2
H1
 70
     8
280
     0
  0
ATTDEF
  5
116
330
FB
100
AcDbEntity
  8
AM_6
100
AcDbText
 10
8.686212923651041
 20
-9.325
 30
0.0
 40
0.5
  1
4-1/2
100
AcDbAttributeDefinition
  3

  2
J
 70
     8
280
     0
  0
ATTDEF
  5
117
330
FB
100
AcDbEntity
  8
AM_6
100
AcDbText
 10
8.686212923651041
 20
-9.825
 30
0.0
 40
0.5
  1
4.500000
100
AcDbAttributeDefinition
  3

  2
J1
 70
     8
280
     0
  0
ATTDEF
  5
118
330
FB
100
AcDbEntity
  8
AM_6
100
AcDbText
 10
8.686212923651041
 20
-10.325
 30
0.0
 40
0.5
  1
7.373
100
AcDbAttributeDefinition
  3

  2
K
 70
     8
280
     0
  0
ATTDEF
  5
119
330
FB
100
AcDbEntity
  8
AM_6
100
AcDbText
 10
8.686212923651041
 20
-10.825
 30
0.0
 40
0.5
  1
5-1/2
100
AcDbAttributeDefinition
  3

  2
L
 70
     8
280
     0
  0
ATTDEF
  5
11A
330
FB
100
AcDbEntity
  8
AM_6
100
AcDbText
 10
8.686212923651041
 20
-11.325
 30
0.0
 40
0.5
  1
5.500000
100
AcDbAttributeDefinition
  3

  2
L1
 70
     8
280
     0
  0
ATTDEF
  5
11B
330
FB
100
AcDbEntity
  8
AM_6
100
AcDbText
 10
8.686212923651041
 20
-11.825
 30
0.0
 40
0.5
  1
4-1/2
100
AcDbAttributeDefinition
  3

  2
M
 70
     8
280
     0
  0
ATTDEF
  5
11C
330
FB
100
AcDbEntity
  8
AM_6
100
AcDbText
 10
8.686212923651041
 20
-12.325
 30
0.0
 40
0.5
  1
4.500000
100
AcDbAttributeDefinition
  3

  2
M1
 70
     8
280
     0
  0
ATTDEF
  5
11D
330
FB
100
AcDbEntity
  8
AM_6
100
AcDbText
 10
8.686212923651041
 20
-12.825
 30
0.0
 40
0.5
  1
1-11/16
100
AcDbAttributeDefinition
  3

  2
R
 70
     8
280
     0
  0
ATTDEF
  5
11E
330
FB
100
AcDbEntity
  8
AM_6
100
AcDbText
 10
8.686212923651041
 20
-13.325
 30
0.0
 40
0.5
  1
1.687500
100
AcDbAttributeDefinition
  3

  2
R1
 70
     8
280
     0
  0
ATTDEF
  5
11F
330
FB
100
AcDbEntity
  8
AM_6
100
AcDbText
 10
8.686212923651041
 20
-13.825
 30
0.0
 40
0.5
  1
2-1/2
100
AcDbAttributeDefinition
  3

  2
S
 70
     8
280
     0
  0
ATTDEF
  5
120
330
FB
100
AcDbEntity
  8
AM_6
100
AcDbText
 10
8.686212923651041
 20
-14.325
 30
0.0
 40
0.5
  1
2.500000
100
AcDbAttributeDefinition
  3

  2
S1
 70
     8
280
     0
  0
ATTDEF
  5
121
330
FB
100
AcDbEntity
  8
AM_6
100
AcDbText
 10
8.686212923651041
 20
-14.825
 30
0.0
 40
0.5
  1
4.2400
100
AcDbAttributeDefinition
  3

  2
CC
 70
     8
280
     0
  0
ATTDEF
  5
122
330
FB
100
AcDbEntity
  8
AM_6
100
AcDbText
 10
8.686212923651041
 20
-15.325
 30
0.0
 40
0.5
  1
baldor
100
AcDbAttributeDefinition
  3

  2
COMPANY
 70
     8
280
     0
  0
LINE
  5
123
330
FB
100
AcDbEntity
  8
AM_9
100
AcDbLine
 10
1.921302214312391
 20
-1.775
 30
0.0
 11
1.444333016379757
 21
-1.775
 31
0.0
  0
LINE
  5
124
330
FB
100
AcDbEntity
  8
AM_9
100
AcDbLine
 10
1.444416872394044
 20
-2.225
 30
0.0
 11
1.92136906778999
 21
-2.225
 31
0.0
  0
LWPOLYLINE
  5
125
330
FB
100
AcDbEntity
  8
AM_9
100
AcDbPolyline
 90
       21
 70
     0
 43
0.0
 10
1.44443619790138
 20
-1.775000000828951
 10
1.433694330540766
 20
-1.776390779581927
 10
1.417452312279033
 20
-1.783511655067225
 10
1.400800878655688
 20
-1.796938216531851
 10
1.385195979003998
 20
-1.81561719886186
 10
1.370420732499361
 20
-1.840036757794607
 10
1.357781566870322
 20
-1.868444960993265
 10
1.347258052995182
 20
-1.901477402302414
 10
1.339912876060803
 20
-1.936390588518577
 10
1.335690849063912
 20
-1.974195304271246
 10
1.335030099291842
 20
-2.01134496106045
 10
1.337873893699616
 20
-2.049244395893163
 10
1.343892558068008
 20
-2.084548102468447
 10
1.35313806249157
 20
-2.118445303205046
 10
1.364768160062216
 20
-2.148334178208883
 10
1.37886345493306
 20
-2.174840158228726
 10
1.394177037855745
 20
-2.195908810630436
 10
1.410866753624569
 20
-2.211930154465601
 10
1.427316484288168
 20
-2.221515879406909
 10
1.443962328824025
 20
-2.224997305517162
 10
1.444425149964584
 20
-2.224999999896399
  0
LWPOLYLINE
  5
126
330
FB
100
AcDbEntity
  8
AM_9
100
AcDbPolyline
 90
       10
 70
     0
 43
0.0
 10
1.444425149964584
 20
-2.224999999896399
 10
1.459219899003088
 20
-2.222122990859787
 10
1.473711766855734
 20
-2.212874784541242
 10
1.486311512096549
 20
-2.19804524023693
 10
1.49754030254537
 20
-2.177220693893136
 10
1.506723820356862
 20
-2.151892935722832
 10
1.514230906977373
 20
-2.121485779196465
 10
1.519650469683004
 20
-2.088369783584668
 10
1.523273753413579
 20
-2.051697538173363
 10
1.525050398097493
 20
-2.0
  0
LWPOLYLINE
  5
127
330
FB
100
AcDbEntity
  8
AM_9
100
AcDbPolyline
 90
       10
 70
     0
 43
0.0
 10
1.815796239228326
 20
-2.017764403828284
 10
1.818385409152453
 20
-2.050329037577345
 10
1.824300563044554
 20
-2.086218086747909
 10
1.833079273661429
 20
-2.119691134007446
 10
1.844438587818095
 20
-2.149883809415829
 10
1.857850168140485
 20
-2.175872403363124
 10
1.872875589867644
 20
-2.196941704661684
 10
1.888883843381986
 20
-2.212449145275964
 10
1.905278117811425
 20
-2.221852106425148
 10
1.92137376827413
 20
-2.224999999980258
  0
LWPOLYLINE
  5
128
330
FB
100
AcDbEntity
  8
AM_9
100
AcDbPolyline
 90
       12
 70
     0
 43
0.0
 10
1.921381179072325
 20
-1.775000000935392
 10
1.910481030990179
 20
-1.776443287058736
 10
1.894160685823294
 20
-1.783851922377962
 10
1.878077766601437
 20
-1.797280863148026
 10
1.862755580079822
 20
-1.816470097904889
 10
1.848774755371563
 20
-1.840781598600497
 10
1.836639836682685
 20
-1.869754900034256
 10
1.826887307550604
 20
-1.902411446405506
 10
1.819969824311286
 20
-1.937887040894517
 10
1.816147033223117
 20
-1.975132706545042
 10
1.815638185677323
 20
-2.012913598279236
 10
1.815796239228326
 20
-2.017764403828284
  0
LINE
  5
129
330
FB
100
AcDbEntity
  8
AM_9
100
AcDbLine
 10
2.005413799105948
 20
-2.016436541547572
 30
0.0
 11
2.005609785334967
 21
-2.0
 31
0.0
  0
LWPOLYLINE
  5
12A
330
FB
100
AcDbEntity
  8
AM_9
100
AcDbPolyline
 90
       11
 70
     0
 43
0.0
 10
1.92137376827413
 20
-2.224999999980258
 10
1.921553275590574
 20
-2.224999593258973
 10
1.937129375905391
 20
-2.221740650789217
 10
1.951690436132015
 20
-2.212290531393664
 10
1.964872466592633
 20
-2.196841295995029
 10
1.976448669239177
 20
-2.175911403357186
 10
1.986252767643218
 20
-2.149880615805409
 10
1.99412915440569
 20
-2.119631143010497
 10
1.999989503385742
 20
-2.085872063164234
 10
2.003794268345366
 20
-2.049668120315408
 10
2.005413799105948
 20
-2.016436541547572
  0
LWPOLYLINE
  5
12B
330
FB
100
AcDbEntity
  8
AM_9
100
AcDbPolyline
 90
       11
 70
     0
 43
0.0
 10
1.525050398097493
 20
-2.0
 10
1.524147676383342
 20
-1.96297266161229
 10
1.521326621092292
 20
-1.925945323224581
 10
1.516732025989886
 20
-1.892035285571795
 10
1.510081891129355
 20
-1.860245631917338
 10
1.50168739239669
 20
-1.833037914001279
 10
1.491134657651801
 20
-1.809836513087277
 10
1.479054592032372
 20
-1.792514632951741
 10
1.464959979930999
 20
-1.780690879855819
 10
1.450034787704664
 20
-1.775398618390627
 10
1.44443619790138
 20
-1.775000000828951
  0
LINE
  5
12C
330
FB
100
AcDbEntity
  8
AM_9
100
AcDbLine
 10
1.59375
 20
-2.5
 30
0.0
 11
1.59375
 21
1.75
 31
0.0
  0
LINE
  5
12D
330
FB
100
AcDbEntity
  8
AM_9
100
AcDbLine
 10
-1.59375
 20
1.75
 30
0.0
 11
-1.59375
 21
-2.5
 31
0.0
  0
LWPOLYLINE
  5
12E
330
FB
100
AcDbEntity
  8
AM_9
100
AcDbPolyline
 90
       13
 70
     0
 43
0.0
 10
-0.2060010646830812
 20
-2.090490669957941
 10
-0.2124495370063969
 20
-2.07409584486169
 10
-0.2217832605432072
 20
-2.037910227417201
 10
-0.2249995877081288
 20
-1.999569266704243
 10
-0.2218535692420064
 20
-1.962503415961154
 10
-0.2122905907433684
 20
-1.925449982683894
 10
-0.1971201013228026
 20
-1.89151651897875
 10
-0.1759137282122074
 20
-1.859716856941108
 10
-0.1503003058142449
 20
-1.832563988126376
 10
-0.1196327080752825
 20
-1.809440258295268
 10
-0.086390066789806
 20
-1.79224592336117
 10
-0.0496701614209702
 20
-1.780550973881371
 10
0.0
 20
-1.775
  0
LWPOLYLINE
  5
12F
330
FB
100
AcDbEntity
  8
AM_9
100
AcDbPolyline
 90
        5
 70
     0
 43
0.0
 10
0.2227024017428943
 20
-1.967927577922044
 10
0.2246271517324749
 20
-1.987052308910245
 10
0.2235564203139342
 20
-2.025446550579982
 10
0.2163181657776141
 20
-2.061898716905996
 10
0.2038161016065194
 20
-2.095310003283609
  0
LWPOLYLINE
  5
130
330
FB
100
AcDbEntity
  8
AM_9
100
AcDbPolyline
 90
       10
 70
     0
 43
0.0
 10
0.0
 20
-1.775
 10
0.0371198483799416
 20
-1.778083085691401
 10
0.0742396967598832
 20
-1.787600688736991
 10
0.1082384271115717
 20
-1.802745233526759
 10
0.1401063364534302
 20
-1.823945421855613
 10
0.1672839417205174
 20
-1.849530458755114
 10
0.1904376703867282
 20
-1.880173067728178
 10
0.2076659343687235
 20
-1.913398269631808
 10
0.2193983282625684
 20
-1.950106377606048
 10
0.2227024017428943
 20
-1.967927577922044
  0
LWPOLYLINE
  5
131
330
FB
100
AcDbEntity
  8
AM_9
100
AcDbPolyline
 90
       10
 70
     0
 43
0.0
 10
2.003986146634515
 20
-1.952989799142456
 10
2.001469090785033
 20
-1.925761701096777
 10
1.996307819727625
 20
-1.891303654511932
 10
1.989140383020439
 20
-1.859896346081044
 10
1.979967806262552
 20
-1.832373318644877
 10
1.968942438995952
 20
-1.809563160428534
 10
1.95616637265774
 20
-1.79214505175453
 10
1.941926983604095
 20
-1.780602069003363
 10
1.926576543452791
 20
-1.775365108696086
 10
1.921381179072325
 20
-1.775000000935392
  0
LWPOLYLINE
  5
132
330
FB
100
AcDbEntity
  8
AM_9
100
AcDbPolyline
 90
        3
 70
     0
 43
0.0
 10
2.005609785334967
 20
-2.0
 10
2.004568100700811
 20
-1.962348762060701
 10
2.003986146634515
 20
-1.952989799142456
  0
LINE
  5
133
330
FB
100
AcDbEntity
  8
AM_9
100
AcDbLine
 10
2.120000000000001
 20
-2.5
 30
0.0
 11
2.120000000000001
 21
-1.500000000000001
 31
0.0
  0
LINE
  5
134
330
FB
100
AcDbEntity
  8
AM_9
100
AcDbLine
 10
-2.120000000000001
 20
-1.500000000000001
 30
0.0
 11
-2.120000000000001
 21
-2.5
 31
0.0
  0
LINE
  5
135
330
FB
100
AcDbEntity
  8
AM_9
100
AcDbLine
 10
-2.291666666666667
 20
1.75
 30
0.0
 11
-2.291666666666667
 21
1.125
 31
0.0
  0
LINE
  5
136
330
FB
100
AcDbEntity
  8
AM_9
100
AcDbLine
 10
2.291666666666667
 20
1.125
 30
0.0
 11
2.291666666666667
 21
1.75
 31
0.0
  0
LINE
  5
137
330
FB
100
AcDbEntity
  8
AM_9
100
AcDbLine
 10
-2.820512820512821
 20
-1.5
 30
0.0
 11
2.820512820512821
 21
-1.5
 31
0.0
  0
LINE
  5
138
330
FB
100
AcDbEntity
  8
AM_9
100
AcDbLine
 10
-2.820512820512821
 20
-1.5
 30
0.0
 11
-2.864594565689937
 21
-1.75
 31
0.0
  0
LINE
  5
139
330
FB
100
AcDbEntity
  8
AM_9
100
AcDbLine
 10
2.864594565689937
 20
-1.75
 30
0.0
 11
2.820512820512821
 21
-1.5
 31
0.0
  0
LINE
  5
13A
330
FB
100
AcDbEntity
  8
AM_9
100
AcDbLine
 10
2.820512820512821
 20
1.125
 30
0.0
 11
2.930717183455612
 21
1.75
 31
0.0
  0
LINE
  5
13B
330
FB
100
AcDbEntity
  8
AM_9
100
AcDbLine
 10
-2.930717183455612
 20
1.75
 30
0.0
 11
-2.820512820512821
 21
1.125
 31
0.0
  0
LINE
  5
13C
330
FB
100
AcDbEntity
  8
AM_9
100
AcDbLine
 10
2.820512820512821
 20
1.125
 30
0.0
 11
-2.820512820512821
 21
1.125
 31
0.0
  0
LINE
  5
13D
330
FB
100
AcDbEntity
  8
AM_9
100
AcDbLine
 10
3.4065
 20
-1.679166666666666
 30
0.0
 11
3.4065
 21
-1.0
 31
0.0
  0
LINE
  5
13E
330
FB
100
AcDbEntity
  8
AM_9
100
AcDbLine
 10
-3.4065
 20
-1.0
 30
0.0
 11
-3.4065
 21
-1.679166666666666
 31
0.0
  0
LINE
  5
13F
330
FB
100
AcDbEntity
  8
AM_9
100
AcDbLine
 10
-3.4065
 20
-1.679166666666666
 30
0.0
 11
3.4065
 21
-1.679166666666666
 31
0.0
  0
ARC
  5
140
330
FB
100
AcDbEntity
  8
AM_9
100
AcDbCircle
 10
3.335666666666663
 20
-1.679166666666664
 30
0.0
 40
0.0708333333333373
100
AcDbArc
 50
324.7973164318127
 51
0.0
  0
ARC
  5
141
330
FB
100
AcDbEntity
  8
AM_9
100
AcDbCircle
 10
-3.335666666666663
 20
-1.679166666666664
 30
0.0
 40
0.0708333333333373
100
AcDbArc
 50
180.0
 51
215.2026835681872
  0
LINE
  5
142
330
FB
100
AcDbEntity
  8
AM_9
100
AcDbLine
 10
-3.44
 20
1.0
 30
0.0
 11
3.44
 21
1.0
 31
0.0
  0
LINE
  5
143
330
FB
100
AcDbEntity
  8
AM_9
100
AcDbLine
 10
3.44
 20
1.0
 30
0.0
 11
3.44
 21
1.679166666666667
 31
0.0
  0
LINE
  5
144
330
FB
100
AcDbEntity
  8
AM_9
100
AcDbLine
 10
-3.44
 20
1.679166666666667
 30
0.0
 11
-3.44
 21
1.0
 31
0.0
  0
LINE
  5
145
330
FB
100
AcDbEntity
  8
AM_9
100
AcDbLine
 10
-3.44
 20
1.679166666666667
 30
0.0
 11
3.44
 21
1.679166666666667
 31
0.0
  0
ARC
  5
146
330
FB
100
AcDbEntity
  8
AM_9
100
AcDbCircle
 10
3.369166666666676
 20
1.679166666666669
 30
0.0
 40
0.0708333333333244
100
AcDbArc
 50
0.0
 51
35.2026835681895
  0
ARC
  5
147
330
FB
100
AcDbEntity
  8
AM_9
100
AcDbCircle
 10
-3.369166666666676
 20
1.679166666666669
 30
0.0
 40
0.0708333333333245
100
AcDbArc
 50
144.7973164318105
 51
180.0
  0
LINE
  5
148
330
FB
100
AcDbEntity
  8
AM_9
100
AcDbLine
 10
-3.633133255194475
 20
-1.0
 30
0.0
 11
3.633133255194475
 21
-1.0
 31
0.0
  0
ARC
  5
149
330
FB
100
AcDbEntity
  8
AM_9
100
AcDbCircle
 10
-0.0000000000000182
 20
-0.3750000000000016
 30
0.0
 40
3.686500000000018
100
AcDbArc
 50
350.239070474829
 51
21.89967402087543
  0
ARC
  5
14A
330
FB
100
AcDbEntity
  8
AM_9
100
AcDbCircle
 10
0.0000000000000111
 20
-0.3750000000000008
 30
0.0
 40
3.686500000000011
100
AcDbArc
 50
158.1003259791246
 51
189.7609295251711
  0
LWPOLYLINE
  5
14B
330
FB
100
AcDbEntity
  8
AM_9
100
AcDbPolyline
 90
       75
 70
     0
 43
0.0
 10
-0.3603120133407604
 20
0.3591890412375477
 10
-0.3301593519702913
 20
0.3877208558100648
 10
-0.2975091576526327
 20
0.4138496504089147
 10
-0.2620098711164381
 20
0.4376588783228706
 10
-0.2243182254406974
 20
0.4585156025991519
 10
-0.1863683279018498
 20
0.4755170909922438
 10
-0.1464116459000383
 20
0.4895438730995912
 10
-0.1054067508109188
 20
0.5001665019377176
 10
-0.0628722170994042
 20
0.507394992466417
 10
-0.0215561331822809
 20
0.5108800705933633
 10
0.0206525838823186
 20
0.5109148405801643
 10
0.0627142947919022
 20
0.5074148761504178
 10
0.1050826708089235
 20
0.5002358937390111
 10
0.1451653705180899
 20
0.4899249352925624
 10
0.1849393877516385
 20
0.4760816113147051
 10
0.2234054681187572
 20
0.4589695837377396
 10
0.2609414162260445
 20
0.4383095841157498
 10
0.2954355965346516
 20
0.415363907767546
 10
0.3284643366617672
 20
0.3891862862997961
 10
0.3591755772419621
 20
0.3603532176224424
 10
0.3878335994563275
 20
0.3284798211144896
 10
0.4129349841924657
 20
0.2953481303994168
 10
0.4355713598164283
 20
0.2596329612875227
 10
0.4551262228909799
 20
0.2221606311150854
 10
0.4717213944315591
 20
0.182478865995234
 10
0.4845271541949582
 20
0.1427529269428696
 10
0.4941283462870239
 20
0.101381569527829
 10
0.5002111267730699
 20
0.0593552266880238
 10
0.5027371876893972
 20
0.0162017999740656
 10
0.501643118615563
 20
-0.0256534943353059
 10
0.4969553657386252
 20
-0.0680162827216701
 10
0.4887031600954893
 20
-0.1098377286332891
 10
0.4766873546275431
 20
-0.1515550186295698
 10
0.4617200003461014
 20
-0.1906927342973263
 10
0.4434024910704097
 20
-0.2287195687413773
 10
0.4214483670095293
 20
-0.2658666424466994
 10
0.3961819612165967
 20
-0.30126292185551
 10
0.369085633985634
 20
-0.3331223306682065
 10
0.338860732852397
 20
-0.3631409045197025
 10
0.306192225790284
 20
-0.390510372112657
 10
0.27064331388672
 20
-0.4154463705370606
 10
0.2346271507033249
 20
-0.4364065586885518
 10
0.1962898020192199
 20
-0.4546099423434123
 10
0.1565428343287685
 20
-0.4695253223030183
 10
0.1149058758687801
 20
-0.4812127556326997
 10
0.0741358683552218
 20
-0.4890251677626665
 10
0.0321090203974218
 20
-0.4934923939305145
 10
-0.0101468321792755
 20
-0.4944197542586888
 10
-0.0530997530059447
 20
-0.4917096879764647
 10
-0.0940661568728226
 20
-0.4856422859044577
 10
-0.1350999988220129
 20
-0.4760236340106109
 10
-0.1751766514484391
 20
-0.4630109417209616
 10
-0.2147022053359366
 20
-0.4463639812411195
 10
-0.2513902239096655
 20
-0.4271474701535284
 10
-0.2869617221163172
 20
-0.404563399692457
 10
-0.3205073873638734
 20
-0.3790966317363693
 10
-0.3523305305423999
 20
-0.3503910286855662
 10
-0.3807199839902451
 20
-0.3200959768223968
 10
-0.406932691673641
 20
-0.2869804330522903
 10
-0.4302700646973283
 20
-0.2518015325172533
 10
-0.4509008434770139
 20
-0.2141231843437133
 10
-0.4677735334102644
 20
-0.1760137870148597
 10
-0.4816393773269149
 20
-0.1359417639881852
 10
-0.4920848005513244
 20
-0.0948567765269917
 10
-0.4991226201672888
 20
-0.0522876178002358
 10
-0.5024386474959864
 20
-0.0105915923287081
 10
-0.5022418870243246
 20
0.0319793420148159
 10
-0.4984526423262265
 20
0.0743830043791289
 10
-0.490921227163105
 20
0.1170731034266599
 10
-0.4801737560634606
 20
0.1575741993488018
 10
-0.4659792604468719
 20
0.1973206309872303
 10
-0.4480789611312628
 20
0.2365718882419644
 10
-0.426703450406847
 20
0.2744302269335912
 10
-0.3959831070789889
 20
0.3183350472837025
 10
-0.3603120133407606
 20
0.3591890412375476
  0
CIRCLE
  5
14C
330
FB
100
AcDbEntity
  8
AM_9
100
AcDbCircle
 10
0.0
 20
0.0000000000000003
 30
0.0
 40
0.3497623444809251
  0
CIRCLE
  5
14D
330
FB
100
AcDbEntity
  8
AM_9
100
AcDbCircle
 10
0.0
 20
0.0000000000000003
 30
0.0
 40
0.3053163691541439
  0
LINE
  5
14E
330
FB
100
AcDbEntity
  8
AM_7
100
AcDbLine
 10
0.0
 20
-2.7125
 30
0.0
 11
0.0
 21
2.175
 31
0.0
  0
LWPOLYLINE
  5
14F
330
FB
100
AcDbEntity
  8
AM_4
100
AcDbPolyline
 90
       16
 70
     0
 43
0.0
 10
0.2038161016065194
 20
-2.095310003283609
 10
0.202719957584971
 20
-2.097619766424365
 10
0.1838587538341104
 20
-2.129695638471647
 10
0.1592208563909083
 20
-2.158977101779299
 10
0.1307032653967865
 20
-2.183143813476233
 10
0.0975897907741244
 20
-2.202734389625102
 10
0.0626499192803221
 20
-2.216101799192346
 10
0.0248700956436072
 20
-2.223621283295392
 10
-0.0123688385884995
 20
-2.22465976905528
 10
-0.0503273137447276
 20
-2.21929925100474
 10
-0.0857316691107537
 20
-2.208026635101095
 10
-0.1196935890918767
 20
-2.190521507264416
 10
-0.1494991409093135
 20
-2.168151737628182
 10
-0.1758739011333274
 20
-2.140333071298766
 10
-0.1966974082682933
 20
-2.109248018657257
 10
-0.2060010646830812
 20
-2.090490669957941
  0
LINE
  5
150
330
FB
100
AcDbEntity
  8
AM_4
100
AcDbLine
 10
-3.335666667722163
 20
-1.75
 30
0.0
 11
3.335666667714552
 21
-1.75
 31
0.0
  0
ARC
  5
151
330
FB
100
AcDbEntity
  8
AM_4
100
AcDbCircle
 10
3.335666666666665
 20
-1.679166666666666
 30
0.0
 40
0.0708333333333346
100
AcDbArc
 50
270.0
 51
324.7973164318125
  0
ARC
  5
152
330
FB
100
AcDbEntity
  8
AM_4
100
AcDbCircle
 10
-3.335666666666665
 20
-1.679166666666666
 30
0.0
 40
0.0708333333333342
100
AcDbArc
 50
215.2026835681875
 51
270.0
  0
LINE
  5
153
330
FB
100
AcDbEntity
  8
AM_4
100
AcDbLine
 10
-3.369166666666666
 20
1.75
 30
0.0
 11
3.36916666666553
 21
1.75
 31
0.0
  0
ARC
  5
154
330
FB
100
AcDbEntity
  8
AM_4
100
AcDbCircle
 10
3.369166666666666
 20
1.679166666666666
 30
0.0
 40
0.0708333333333337
100
AcDbArc
 50
35.20268356818691
 51
90.0
  0
ARC
  5
155
330
FB
100
AcDbEntity
  8
AM_4
100
AcDbCircle
 10
-3.369166666666666
 20
1.679166666666666
 30
0.0
 40
0.0708333333333335
100
AcDbArc
 50
90.0
 51
144.7973164318131
  0
ENDBLK
  5
FE
330
FB
100
AcDbEntity
  8
0
100
AcDbBlockEnd
  0
BLOCK
  5
158
330
156
100
AcDbEntity
  8
0
100
AcDbBlockBegin
  2
5_P2B_K_307R_0_in_023186_4
 70
     2
 10
0.0
 20
0.0
 30
0.0
  3
5_P2B_K_307R_0_in_023186_4
  1

  0
ATTDEF
  5
15A
330
156
100
AcDbEntity
  8
AM_6
100
AcDbText
 10
13.0
 20
1.820000000000001
 30
0.0
 40
0.5
  1
2 & 4 Bolt Base - Body - Inch
100
AcDbAttributeDefinition
  3

  2
NN
 70
     8
280
     0
  0
ATTDEF
  5
15B
330
156
100
AcDbEntity
  8
AM_6
100
AcDbText
 10
13.0
 20
1.320000000000001
 30
0.0
 40
0.5
  1
Type K
100
AcDbAttributeDefinition
  3

  2
NT
 70
     8
280
     0
  0
ATTDEF
  5
15C
330
156
100
AcDbEntity
  8
AM_6
100
AcDbText
 10
13.0
 20
0.8200000000000005
 30
0.0
 40
0.5
  1
P2B-K-307R
100
AcDbAttributeDefinition
  3

  2
NB
 70
     8
280
     0
  0
ATTDEF
  5
15D
330
156
100
AcDbEntity
  8
AM_6
100
AcDbText
 10
13.0
 20
0.3200000000000005
 30
0.0
 40
0.5
  1
$PN.
100
AcDbAttributeDefinition
  3

  2
NBSYN
 70
     8
280
     0
  0
ATTDEF
  5
15E
330
156
100
AcDbEntity
  8
AM_6
100
AcDbText
 10
13.0
 20
-0.1799999999999995
 30
0.0
 40
0.5
  1
P2B-K-307R
100
AcDbAttributeDefinition
  3

  2
LINA
 70
     8
280
     0
  0
ATTDEF
  5
15F
330
156
100
AcDbEntity
  8
AM_6
100
AcDbText
 10
13.0
 20
-0.6799999999999995
 30
0.0
 40
0.5
  1
3-3/16
100
AcDbAttributeDefinition
  3

  2
SS
 70
     8
280
     0
  0
ATTDEF
  5
160
330
156
100
AcDbEntity
  8
AM_6
100
AcDbText
 10
13.0
 20
-1.179999999999999
 30
0.0
 40
0.5
  1
3.437500
100
AcDbAttributeDefinition
  3

  2
SS1
 70
     8
280
     0
  0
ATTDEF
  5
161
330
156
100
AcDbEntity
  8
AM_6
100
AcDbText
 10
13.0
 20
-1.679999999999999
 30
0.0
 40
0.5
  1
7.125000
100
AcDbAttributeDefinition
  3

  2
BORE
 70
     8
280
     0
  0
ATTDEF
  5
162
330
156
100
AcDbEntity
  8
AM_6
100
AcDbText
 10
13.0
 20
-2.18
 30
0.0
 40
0.5
  1
P2B-K-307R
100
AcDbAttributeDefinition
  3

  2
PN
 70
     8
280
     0
  0
ATTDEF
  5
163
330
156
100
AcDbEntity
  8
AM_6
100
AcDbText
 10
13.0
 20
-2.68
 30
0.0
 40
0.5
  1
P2B-K-307R
100
AcDbAttributeDefinition
  3

  2
PNA
 70
     8
280
     0
  0
ATTDEF
  5
164
330
156
100
AcDbEntity
  8
AM_6
100
AcDbText
 10
13.0
 20
-3.18
 30
0.0
 40
0.5
  1
67
100
AcDbAttributeDefinition
  3

  2
WEIGHT
 70
     8
280
     0
  0
ATTDEF
  5
165
330
156
100
AcDbEntity
  8
AM_6
100
AcDbText
 10
13.0
 20
-3.68
 30
0.0
 40
0.5
  1
4.26
100
AcDbAttributeDefinition
  3

  2
A
 70
     8
280
     0
  0
ATTDEF
  5
166
330
156
100
AcDbEntity
  8
AM_6
100
AcDbText
 10
13.0
 20
-4.18
 30
0.0
 40
0.5
  1
4.260000
100
AcDbAttributeDefinition
  3

  2
A1
 70
     8
280
     0
  0
ATTDEF
  5
167
330
156
100
AcDbEntity
  8
AM_6
100
AcDbText
 10
13.0
 20
-4.68
 30
0.0
 40
0.5
  1
16
100
AcDbAttributeDefinition
  3

  2
B
 70
     8
280
     0
  0
ATTDEF
  5
168
330
156
100
AcDbEntity
  8
AM_6
100
AcDbText
 10
13.0
 20
-5.18
 30
0.0
 40
0.5
  1
16.000000
100
AcDbAttributeDefinition
  3

  2
B1
 70
     8
280
     0
  0
ATTDEF
  5
169
330
156
100
AcDbEntity
  8
AM_6
100
AcDbText
 10
13.0
 20
-5.68
 30
0.0
 40
0.5
  1
3.44
100
AcDbAttributeDefinition
  3

  2
C
 70
     8
280
     0
  0
ATTDEF
  5
16A
330
156
100
AcDbEntity
  8
AM_6
100
AcDbText
 10
13.0
 20
-6.18
 30
0.0
 40
0.5
  1
3.440000
100
AcDbAttributeDefinition
  3

  2
C1
 70
     8
280
     0
  0
ATTDEF
  5
16B
330
156
100
AcDbEntity
  8
AM_6
100
AcDbText
 10
13.0
 20
-6.68
 30
0.0
 40
0.5
  1
12.81
100
AcDbAttributeDefinition
  3

  2
DMIN
 70
     8
280
     0
  0
ATTDEF
  5
16C
330
156
100
AcDbEntity
  8
AM_6
100
AcDbText
 10
13.0
 20
-7.18
 30
0.0
 40
0.5
  1
12.810000
100
AcDbAttributeDefinition
  3

  2
DMIN1
 70
     8
280
     0
  0
ATTDEF
  5
16D
330
156
100
AcDbEntity
  8
AM_6
100
AcDbText
 10
13.0
 20
-7.68
 30
0.0
 40
0.5
  1
13.81
100
AcDbAttributeDefinition
  3

  2
DMAX
 70
     8
280
     0
  0
ATTDEF
  5
16E
330
156
100
AcDbEntity
  8
AM_6
100
AcDbText
 10
13.0
 20
-8.18
 30
0.0
 40
0.5
  1
13.810000
100
AcDbAttributeDefinition
  3

  2
DMAX1
 70
     8
280
     0
  0
ATTDEF
  5
16F
330
156
100
AcDbEntity
  8
AM_6
100
AcDbText
 10
13.0
 20
-8.68
 30
0.0
 40
0.5
  1
7/8
100
AcDbAttributeDefinition
  3

  2
F
 70
     8
280
     0
  0
ATTDEF
  5
170
330
156
100
AcDbEntity
  8
AM_6
100
AcDbText
 10
13.0
 20
-9.18
 30
0.0
 40
0.5
  1
0.875000
100
AcDbAttributeDefinition
  3

  2
F1
 70
     8
280
     0
  0
ATTDEF
  5
171
330
156
100
AcDbEntity
  8
AM_6
100
AcDbText
 10
13.0
 20
-9.68
 30
0.0
 40
0.5
  1
1.50
100
AcDbAttributeDefinition
  3

  2
G
 70
     8
280
     0
  0
ATTDEF
  5
172
330
156
100
AcDbEntity
  8
AM_6
100
AcDbText
 10
13.0
 20
-10.18
 30
0.0
 40
0.5
  1
1.500000
100
AcDbAttributeDefinition
  3

  2
G1
 70
     8
280
     0
  0
ATTDEF
  5
173
330
156
100
AcDbEntity
  8
AM_6
100
AcDbText
 10
13.0
 20
-10.68
 30
0.0
 40
0.5
  1
2.25
100
AcDbAttributeDefinition
  3

  2
H
 70
     8
280
     0
  0
ATTDEF
  5
174
330
156
100
AcDbEntity
  8
AM_6
100
AcDbText
 10
13.0
 20
-11.18
 30
0.0
 40
0.5
  1
2.250000
100
AcDbAttributeDefinition
  3

  2
H1
 70
     8
280
     0
  0
ATTDEF
  5
175
330
156
100
AcDbEntity
  8
AM_6
100
AcDbText
 10
13.0
 20
-11.68
 30
0.0
 40
0.5
  1
9.42
100
AcDbAttributeDefinition
  3

  2
J
 70
     8
280
     0
  0
ATTDEF
  5
176
330
156
100
AcDbEntity
  8
AM_6
100
AcDbText
 10
13.0
 20
-12.18
 30
0.0
 40
0.5
  1
9.420000
100
AcDbAttributeDefinition
  3

  2
J1
 70
     8
280
     0
  0
ATTDEF
  5
177
330
156
100
AcDbEntity
  8
AM_6
100
AcDbText
 10
13.0
 20
-12.68
 30
0.0
 40
0.5
  1
5.50
100
AcDbAttributeDefinition
  3

  2
L
 70
     8
280
     0
  0
ATTDEF
  5
178
330
156
100
AcDbEntity
  8
AM_6
100
AcDbText
 10
13.0
 20
-13.18
 30
0.0
 40
0.5
  1
5.500000
100
AcDbAttributeDefinition
  3

  2
L1
 70
     8
280
     0
  0
ATTDEF
  5
179
330
156
100
AcDbEntity
  8
AM_6
100
AcDbText
 10
13.0
 20
-13.68
 30
0.0
 40
0.5
  1
4.50
100
AcDbAttributeDefinition
  3

  2
M
 70
     8
280
     0
  0
ATTDEF
  5
17A
330
156
100
AcDbEntity
  8
AM_6
100
AcDbText
 10
13.0
 20
-14.18
 30
0.0
 40
0.5
  1
4.500000
100
AcDbAttributeDefinition
  3

  2
M1
 70
     8
280
     0
  0
ATTDEF
  5
17B
330
156
100
AcDbEntity
  8
AM_6
100
AcDbText
 10
13.0
 20
-14.68
 30
0.0
 40
0.5
  1
10.10
100
AcDbAttributeDefinition
  3

  2
P
 70
     8
280
     0
  0
ATTDEF
  5
17C
330
156
100
AcDbEntity
  8
AM_6
100
AcDbText
 10
13.0
 20
-15.18
 30
0.0
 40
0.5
  1
10.100000
100
AcDbAttributeDefinition
  3

  2
P1
 70
     8
280
     0
  0
ATTDEF
  5
17D
330
156
100
AcDbEntity
  8
AM_6
100
AcDbText
 10
13.0
 20
-15.68
 30
0.0
 40
0.5
  1
1.68
100
AcDbAttributeDefinition
  3

  2
R
 70
     8
280
     0
  0
ATTDEF
  5
17E
330
156
100
AcDbEntity
  8
AM_6
100
AcDbText
 10
13.0
 20
-16.18
 30
0.0
 40
0.5
  1
1.680000
100
AcDbAttributeDefinition
  3

  2
R1
 70
     8
280
     0
  0
ATTDEF
  5
17F
330
156
100
AcDbEntity
  8
AM_6
100
AcDbText
 10
13.0
 20
-16.68
 30
0.0
 40
0.5
  1
2.50
100
AcDbAttributeDefinition
  3

  2
S
 70
     8
280
     0
  0
ATTDEF
  5
180
330
156
100
AcDbEntity
  8
AM_6
100
AcDbText
 10
13.0
 20
-17.18
 30
0.0
 40
0.5
  1
2.500000
100
AcDbAttributeDefinition
  3

  2
S1
 70
     8
280
     0
  0
ATTDEF
  5
181
330
156
100
AcDbEntity
  8
AM_6
100
AcDbText
 10
13.0
 20
-17.68
 30
0.0
 40
0.5
  1
0.281250
100
AcDbAttributeDefinition
  3

  2
EXP1
 70
     8
280
     0
  0
ATTDEF
  5
182
330
156
100
AcDbEntity
  8
AM_6
100
AcDbText
 10
13.0
 20
-18.18
 30
0.0
 40
0.5
  1
3
100
AcDbAttributeDefinition
  3

  2
HF
 70
     8
280
     0
  0
ATTDEF
  5
183
330
156
100
AcDbEntity
  8
AM_6
100
AcDbText
 10
13.0
 20
-18.68
 30
0.0
 40
0.5
  1
.28
100
AcDbAttributeDefinition
  3

  2
T
 70
     8
280
     0
  0
ATTDEF
  5
184
330
156
100
AcDbEntity
  8
AM_6
100
AcDbText
 10
13.0
 20
-19.18
 30
0.0
 40
0.5
  1
108600
100
AcDbAttributeDefinition
  3

  2
CS
 70
     8
280
     0
  0
ATTDEF
  5
185
330
156
100
AcDbEntity
  8
AM_6
100
AcDbText
 10
13.0
 20
-19.68
 30
0.0
 40
0.5
  1
15300
100
AcDbAttributeDefinition
  3

  2
CD
 70
     8
280
     0
  0
ATTDEF
  5
186
330
156
100
AcDbEntity
  8
AM_6
100
AcDbText
 10
13.0
 20
-20.18
 30
0.0
 40
0.5
  1
26
100
AcDbAttributeDefinition
  3

  2
RN
 70
     8
280
     0
  0
ATTDEF
  5
187
330
156
100
AcDbEntity
  8
AM_6
100
AcDbText
 10
13.0
 20
-20.68
 30
0.0
 40
0.5
  1
.46
100
AcDbAttributeDefinition
  3

  2
RM
 70
     8
280
     0
  0
ATTDEF
  5
188
330
156
100
AcDbEntity
  8
AM_6
100
AcDbText
 10
13.0
 20
-21.18
 30
0.0
 40
0.5
  1
4.780
100
AcDbAttributeDefinition
  3

  2
PDI
 70
     8
280
     0
  0
ATTDEF
  5
189
330
156
100
AcDbEntity
  8
AM_6
100
AcDbText
 10
13.0
 20
-21.68
 30
0.0
 40
0.5
  1
.008-.012
100
AcDbAttributeDefinition
  3

  2
EP
 70
     8
280
     0
  0
ATTDEF
  5
18A
330
156
100
AcDbEntity
  8
AM_6
100
AcDbText
 10
13.0
 20
-22.18
 30
0.0
 40
0.5
  1
1/2-13*1
100
AcDbAttributeDefinition
  3

  2
CSS
 70
     8
280
     0
  0
ATTDEF
  5
18B
330
156
100
AcDbEntity
  8
AM_6
100
AcDbText
 10
13.0
 20
-22.68
 30
0.0
 40
0.5
  1
620
100
AcDbAttributeDefinition
  3

  2
CST
 70
     8
280
     0
  0
ATTDEF
  5
18C
330
156
100
AcDbEntity
  8
AM_6
100
AcDbText
 10
13.0
 20
-23.18
 30
0.0
 40
0.5
  1
C.I. ASTM A48 CLASS 30
100
AcDbAttributeDefinition
  3

  2
MH
 70
     8
280
     0
  0
ATTDEF
  5
18D
330
156
100
AcDbEntity
  8
AM_6
100
AcDbText
 10
13.0
 20
-23.68
 30
0.0
 40
0.5
  1
4118 CASE CARB.
100
AcDbAttributeDefinition
  3

  2
MC
 70
     8
280
     0
  0
ATTDEF
  5
18E
330
156
100
AcDbEntity
  8
AM_6
100
AcDbText
 10
13.0
 20
-24.18
 30
0.0
 40
0.5
  1
4118 CASE CARB.
100
AcDbAttributeDefinition
  3

  2
MCU
 70
     8
280
     0
  0
ATTDEF
  5
18F
330
156
100
AcDbEntity
  8
AM_6
100
AcDbText
 10
13.0
 20
-24.68
 30
0.0
 40
0.5
  1
STEEL
100
AcDbAttributeDefinition
  3

  2
MR
 70
     8
280
     0
  0
ATTDEF
  5
190
330
156
100
AcDbEntity
  8
AM_6
100
AcDbText
 10
13.0
 20
-25.18
 30
0.0
 40
0.5
  1
4118 CASE CARB.
100
AcDbAttributeDefinition
  3

  2
MRO
 70
     8
280
     0
  0
ATTDEF
  5
191
330
156
100
AcDbEntity
  8
AM_6
100
AcDbText
 10
13.0
 20
-25.68
 30
0.0
 40
0.5
  1
4.08*
100
AcDbAttributeDefinition
  3

  2
SM
 70
     8
280
     0
  0
ATTDEF
  5
192
330
156
100
AcDbEntity
  8
AM_6
100
AcDbText
 10
13.0
 20
-26.18
 30
0.0
 40
0.5
  1
baldor
100
AcDbAttributeDefinition
  3

  2
COMPANY
 70
     8
280
     0
  0
LINE
  5
193
330
156
100
AcDbEntity
  8
AM_9
100
AcDbLine
 10
-4.619999999999999
 20
-1.72
 30
0.0
 11
-4.995680975041805
 21
-1.72
 31
0.0
  0
LINE
  5
194
330
156
100
AcDbEntity
  8
AM_9
100
AcDbLine
 10
-4.619999999999999
 20
1.72
 30
0.0
 11
-4.995680975041805
 21
1.72
 31
0.0
  0
LINE
  5
195
330
156
100
AcDbEntity
  8
AM_9
100
AcDbLine
 10
4.995680975041805
 20
-1.72
 30
0.0
 11
4.619999999999999
 21
-1.72
 31
0.0
  0
LINE
  5
196
330
156
100
AcDbEntity
  8
AM_9
100
AcDbLine
 10
4.995680975041805
 20
1.72
 30
0.0
 11
4.619999999999997
 21
1.72
 31
0.0
  0
LINE
  5
197
330
156
100
AcDbEntity
  8
AM_9
100
AcDbLine
 10
-3.851351351351352
 20
1.728095238095239
 30
0.0
 11
-3.851351351351352
 21
1.820000000000001
 31
0.0
  0
LINE
  5
198
330
156
100
AcDbEntity
  8
AM_9
100
AcDbLine
 10
3.851351351351352
 20
1.820000000000001
 30
0.0
 11
3.851351351351352
 21
1.728095238095239
 31
0.0
  0
LINE
  5
199
330
156
100
AcDbEntity
  8
AM_9
100
AcDbLine
 10
3.851351351351351
 20
-1.72809523809524
 30
0.0
 11
3.851351351351351
 21
-1.82
 31
0.0
  0
LINE
  5
19A
330
156
100
AcDbEntity
  8
AM_9
100
AcDbLine
 10
-3.851351351351351
 20
-1.82
 30
0.0
 11
-3.851351351351351
 21
-1.72809523809524
 31
0.0
  0
LINE
  5
19B
330
156
100
AcDbEntity
  8
AM_9
100
AcDbLine
 10
3.5625
 20
-1.638095238095238
 30
0.0
 11
3.5625
 21
1.638095238095238
 31
0.0
  0
LINE
  5
19C
330
156
100
AcDbEntity
  8
AM_9
100
AcDbLine
 10
-3.5625
 20
1.638095238095238
 30
0.0
 11
-3.5625
 21
-1.638095238095238
 31
0.0
  0
LINE
  5
19D
330
156
100
AcDbEntity
  8
AM_9
100
AcDbLine
 10
-3.851351351351351
 20
-1.72809523809524
 30
0.0
 11
-3.810052621888034
 21
-1.72809523809524
 31
0.0
  0
ARC
  5
19E
330
156
100
AcDbEntity
  8
AM_9
100
AcDbCircle
 10
-3.761351351351625
 20
-1.728095238094964
 30
0.0
 40
0.0899999999997263
100
AcDbArc
 50
90.0
 51
179.9999991462263
  0
ARC
  5
19F
330
156
100
AcDbEntity
  8
AM_9
100
AcDbCircle
 10
3.761351351351625
 20
-1.728095238094964
 30
0.0
 40
0.0899999999997263
100
AcDbArc
 50
0.0000008537736463
 51
90.0
  0
LINE
  5
1A0
330
156
100
AcDbEntity
  8
AM_9
100
AcDbLine
 10
3.810052621888034
 20
-1.72809523809524
 30
0.0
 11
3.851351351351351
 21
-1.72809523809524
 31
0.0
  0
LINE
  5
1A1
330
156
100
AcDbEntity
  8
AM_9
100
AcDbLine
 10
-3.761351351351351
 20
-1.638095238095238
 30
0.0
 11
3.761351351345548
 21
-1.638095238095238
 31
0.0
  0
LINE
  5
1A2
330
156
100
AcDbEntity
  8
AM_9
100
AcDbLine
 10
-3.761351351351351
 20
1.638095238095238
 30
0.0
 11
3.761351351345549
 21
1.638095238095238
 31
0.0
  0
LINE
  5
1A3
330
156
100
AcDbEntity
  8
AM_9
100
AcDbLine
 10
3.810052621888036
 20
1.728095238095239
 30
0.0
 11
3.851351351351352
 21
1.728095238095239
 31
0.0
  0
ARC
  5
1A4
330
156
100
AcDbEntity
  8
AM_9
100
AcDbCircle
 10
3.761351351351339
 20
1.728095238095251
 30
0.0
 40
0.0900000000000132
100
AcDbArc
 50
270.0
 51
0.0
  0
ARC
  5
1A5
330
156
100
AcDbEntity
  8
AM_9
100
AcDbCircle
 10
-3.761351351351339
 20
1.728095238095251
 30
0.0
 40
0.0900000000000127
100
AcDbArc
 50
180.0
 51
270.0
  0
LINE
  5
1A6
330
156
100
AcDbEntity
  8
AM_9
100
AcDbLine
 10
-3.851351351351352
 20
1.728095238095239
 30
0.0
 11
-3.810052621888036
 21
1.728095238095239
 31
0.0
  0
CIRCLE
  5
1A7
330
156
100
AcDbEntity
  8
AM_9
100
AcDbCircle
 10
0.0
 20
0.0000000000000003
 30
0.0
 40
0.86
  0
LINE
  5
1A8
330
156
100
AcDbEntity
  8
AM_7
100
AcDbLine
 10
3.830781249999999
 20
1.075
 30
0.0
 11
4.979218749999999
 21
1.075
 31
0.0
  0
LINE
  5
1A9
330
156
100
AcDbEntity
  8
AM_7
100
AcDbLine
 10
4.404999999999999
 20
0.5007812500000002
 30
0.0
 11
4.404999999999999
 21
1.64921875
 31
0.0
  0
LINE
  5
1AA
330
156
100
AcDbEntity
  8
AM_7
100
AcDbLine
 10
-4.979218749999999
 20
1.075000000000001
 30
0.0
 11
-3.830781249999999
 21
1.075000000000001
 31
0.0
  0
LINE
  5
1AB
330
156
100
AcDbEntity
  8
AM_7
100
AcDbLine
 10
-4.404999999999999
 20
0.5007812500000006
 30
0.0
 11
-4.404999999999999
 21
1.649218750000001
 31
0.0
  0
LINE
  5
1AC
330
156
100
AcDbEntity
  8
AM_7
100
AcDbLine
 10
-4.979218749999999
 20
-1.075
 30
0.0
 11
-3.830781249999999
 21
-1.075
 31
0.0
  0
LINE
  5
1AD
330
156
100
AcDbEntity
  8
AM_7
100
AcDbLine
 10
-4.404999999999999
 20
-1.64921875
 30
0.0
 11
-4.404999999999999
 21
-0.5007812499999997
 31
0.0
  0
LINE
  5
1AE
330
156
100
AcDbEntity
  8
AM_7
100
AcDbLine
 10
3.830781249999999
 20
-1.075
 30
0.0
 11
4.979218749999999
 21
-1.075
 31
0.0
  0
LINE
  5
1AF
330
156
100
AcDbEntity
  8
AM_7
100
AcDbLine
 10
4.404999999999999
 20
-1.64921875
 30
0.0
 11
4.404999999999999
 21
-0.5007812499999997
 31
0.0
  0
LINE
  5
1B0
330
156
100
AcDbEntity
  8
AM_7
100
AcDbLine
 10
-0.903
 20
0.0000000000000003
 30
0.0
 11
0.903
 21
0.0000000000000003
 31
0.0
  0
LINE
  5
1B1
330
156
100
AcDbEntity
  8
AM_7
100
AcDbLine
 10
-7.43
 20
0.0000000000000008
 30
0.0
 11
-5.88
 21
0.0000000000000005
 31
0.0
  0
LINE
  5
1B2
330
156
100
AcDbEntity
  8
AM_7
100
AcDbLine
 10
-6.405
 20
-0.5249999999999995
 30
0.0
 11
-6.405
 21
0.5250000000000006
 31
0.0
  0
LINE
  5
1B3
330
156
100
AcDbEntity
  8
AM_7
100
AcDbLine
 10
-6.904999999999999
 20
-0.5249999999999992
 30
0.0
 11
-6.904999999999999
 21
0.5250000000000008
 31
0.0
  0
LINE
  5
1B4
330
156
100
AcDbEntity
  8
AM_7
100
AcDbLine
 10
5.88
 20
-0.0000000000000003
 30
0.0
 11
7.43
 21
-0.0000000000000002
 31
0.0
  0
LINE
  5
1B5
330
156
100
AcDbEntity
  8
AM_7
100
AcDbLine
 10
6.904999999999999
 20
-0.5250000000000002
 30
0.0
 11
6.904999999999999
 21
0.5249999999999998
 31
0.0
  0
LINE
  5
1B6
330
156
100
AcDbEntity
  8
AM_7
100
AcDbLine
 10
6.405
 20
-0.5250000000000004
 30
0.0
 11
6.405
 21
0.5249999999999997
 31
0.0
  0
LINE
  5
1B7
330
156
100
AcDbEntity
  8
AM_4
100
AcDbLine
 10
-4.995680975041805
 20
-1.72
 30
0.0
 11
-7.656
 21
-1.72
 31
0.0
  0
LINE
  5
1B8
330
156
100
AcDbEntity
  8
AM_4
100
AcDbLine
 10
-4.995680975041805
 20
1.72
 30
0.0
 11
-7.656
 21
1.72
 31
0.0
  0
LINE
  5
1B9
330
156
100
AcDbEntity
  8
AM_4
100
AcDbLine
 10
-7.656
 20
1.719999999999999
 30
0.0
 11
-8.0
 21
1.375999999999999
 31
0.0
  0
LINE
  5
1BA
330
156
100
AcDbEntity
  8
AM_4
100
AcDbLine
 10
-8.0
 20
-1.376000000000001
 30
0.0
 11
-8.0
 21
1.375999999999999
 31
0.0
  0
LINE
  5
1BB
330
156
100
AcDbEntity
  8
AM_4
100
AcDbLine
 10
-8.0
 20
-1.376000000000001
 30
0.0
 11
-7.656
 21
-1.72
 31
0.0
  0
LINE
  5
1BC
330
156
100
AcDbEntity
  8
AM_4
100
AcDbLine
 10
-6.405
 20
0.5000000000000006
 30
0.0
 11
-6.904999999999999
 21
0.5000000000000008
 31
0.0
  0
ARC
  5
1BD
330
156
100
AcDbEntity
  8
AM_4
100
AcDbCircle
 10
-6.405
 20
0.0000000000000005
 30
0.0
 40
0.4999999999999999
100
AcDbArc
 50
270.0
 51
90.0
  0
LINE
  5
1BE
330
156
100
AcDbEntity
  8
AM_4
100
AcDbLine
 10
-6.904999999999999
 20
-0.4999999999999992
 30
0.0
 11
-6.405
 21
-0.4999999999999994
 31
0.0
  0
ARC
  5
1BF
330
156
100
AcDbEntity
  8
AM_4
100
AcDbCircle
 10
-6.904999999999999
 20
0.0000000000000008
 30
0.0
 40
0.5
100
AcDbArc
 50
90.0
 51
270.0
  0
LINE
  5
1C0
330
156
100
AcDbEntity
  8
AM_4
100
AcDbLine
 10
-7.55
 20
-1.72
 30
0.0
 11
-7.55
 21
1.72
 31
0.0
  0
LINE
  5
1C1
330
156
100
AcDbEntity
  8
AM_4
100
AcDbLine
 10
7.656000000000001
 20
-1.72
 30
0.0
 11
4.995680975041805
 21
-1.72
 31
0.0
  0
LINE
  5
1C2
330
156
100
AcDbEntity
  8
AM_4
100
AcDbLine
 10
7.656
 20
1.72
 30
0.0
 11
4.995680975041805
 21
1.72
 31
0.0
  0
LINE
  5
1C3
330
156
100
AcDbEntity
  8
AM_4
100
AcDbLine
 10
8.0
 20
-1.376
 30
0.0
 11
8.0
 21
1.375999999999999
 31
0.0
  0
LINE
  5
1C4
330
156
100
AcDbEntity
  8
AM_4
100
AcDbLine
 10
8.0
 20
1.375999999999999
 30
0.0
 11
7.656
 21
1.719999999999999
 31
0.0
  0
LINE
  5
1C5
330
156
100
AcDbEntity
  8
AM_4
100
AcDbLine
 10
7.656000000000001
 20
-1.72
 30
0.0
 11
8.0
 21
-1.376
 31
0.0
  0
LINE
  5
1C6
330
156
100
AcDbEntity
  8
AM_4
100
AcDbLine
 10
6.904999999999999
 20
0.4999999999999997
 30
0.0
 11
6.405
 21
0.4999999999999998
 31
0.0
  0
ARC
  5
1C7
330
156
100
AcDbEntity
  8
AM_4
100
AcDbCircle
 10
6.904999999999999
 20
-0.0000000000000002
 30
0.0
 40
0.4999999999999999
100
AcDbArc
 50
270.0
 51
90.0
  0
LINE
  5
1C8
330
156
100
AcDbEntity
  8
AM_4
100
AcDbLine
 10
6.405
 20
-0.5000000000000001
 30
0.0
 11
6.904999999999999
 21
-0.5000000000000001
 31
0.0
  0
ARC
  5
1C9
330
156
100
AcDbEntity
  8
AM_4
100
AcDbCircle
 10
6.405
 20
-0.0000000000000002
 30
0.0
 40
0.5
100
AcDbArc
 50
90.0
 51
270.0
  0
LINE
  5
1CA
330
156
100
AcDbEntity
  8
AM_4
100
AcDbLine
 10
7.550000000000002
 20
-1.72
 30
0.0
 11
7.550000000000002
 21
1.72
 31
0.0
  0
LINE
  5
1CB
330
156
100
AcDbEntity
  8
AM_4
100
AcDbLine
 10
3.810052621888034
 20
-1.72809523809524
 30
0.0
 11
3.810052621888034
 21
-1.82
 31
0.0
  0
LINE
  5
1CC
330
156
100
AcDbEntity
  8
AM_4
100
AcDbLine
 10
3.810052621888034
 20
-1.82
 30
0.0
 11
4.72
 21
-1.82
 31
0.0
  0
ARC
  5
1CD
330
156
100
AcDbEntity
  8
AM_4
100
AcDbCircle
 10
4.720000000000003
 20
-1.390000000000004
 30
0.0
 40
0.4299999999999964
100
AcDbArc
 50
270.0
 51
0.0000008537736463
  0
LINE
  5
1CE
330
156
100
AcDbEntity
  8
AM_4
100
AcDbLine
 10
5.149999999999999
 20
-1.390000000000002
 30
0.0
 11
5.149999999999999
 21
-0.8599999999999993
 31
0.0
  0
ARC
  5
1CF
330
156
100
AcDbEntity
  8
AM_4
100
AcDbCircle
 10
4.719999999999997
 20
-0.8600000000000003
 30
0.0
 40
0.4300000000000024
100
AcDbArc
 50
0.0
 51
65.72321800211738
  0
ARC
  5
1D0
330
156
100
AcDbEntity
  8
AM_4
100
AcDbCircle
 10
4.979021340662174
 20
-0.2857109220248316
 30
0.0
 40
0.1999999999999987
100
AcDbArc
 50
203.3436360573577
 51
245.7232202133777
  0
ARC
  5
1D1
330
156
100
AcDbEntity
  8
AM_4
100
AcDbCircle
 10
5.641046393244562
 20
0.0000000000000001
 30
0.0
 40
0.9210463932445621
100
AcDbArc
 50
156.6563640828986
 51
203.3436352218809
  0
ARC
  5
1D2
330
156
100
AcDbEntity
  8
AM_4
100
AcDbCircle
 10
4.979021340662168
 20
0.2857109220248365
 30
0.0
 40
0.1999999999999926
100
AcDbArc
 50
114.2767812958941
 51
156.6563607409918
  0
ARC
  5
1D3
330
156
100
AcDbEntity
  8
AM_4
100
AcDbCircle
 10
4.719999999999998
 20
0.860000000000001
 30
0.0
 40
0.4300000000000015
100
AcDbArc
 50
294.2767812958952
 51
0.0
  0
LINE
  5
1D4
330
156
100
AcDbEntity
  8
AM_4
100
AcDbLine
 10
5.149999999999999
 20
0.8600000000000007
 30
0.0
 11
5.149999999999999
 21
1.39
 31
0.0
  0
ARC
  5
1D5
330
156
100
AcDbEntity
  8
AM_4
100
AcDbCircle
 10
4.720000000000002
 20
1.390000000000002
 30
0.0
 40
0.4299999999999979
100
AcDbArc
 50
0.0
 51
90.0
  0
LINE
  5
1D6
330
156
100
AcDbEntity
  8
AM_4
100
AcDbLine
 10
4.72
 20
1.820000000000001
 30
0.0
 11
3.810052621888034
 21
1.82
 31
0.0
  0
LINE
  5
1D7
330
156
100
AcDbEntity
  8
AM_4
100
AcDbLine
 10
3.810052621888034
 20
1.82
 30
0.0
 11
3.810052621888036
 21
1.728095238095239
 31
0.0
  0
LINE
  5
1D8
330
156
100
AcDbEntity
  8
AM_4
100
AcDbLine
 10
-4.72
 20
-1.820000000000001
 30
0.0
 11
-3.810052621888034
 21
-1.82
 31
0.0
  0
LINE
  5
1D9
330
156
100
AcDbEntity
  8
AM_4
100
AcDbLine
 10
-3.810052621888034
 20
-1.82
 30
0.0
 11
-3.810052621888034
 21
-1.72809523809524
 31
0.0
  0
LINE
  5
1DA
330
156
100
AcDbEntity
  8
AM_4
100
AcDbLine
 10
-3.810052621888036
 20
1.728095238095239
 30
0.0
 11
-3.810052621888034
 21
1.82
 31
0.0
  0
LINE
  5
1DB
330
156
100
AcDbEntity
  8
AM_4
100
AcDbLine
 10
-3.810052621888034
 20
1.82
 30
0.0
 11
-4.72
 21
1.82
 31
0.0
  0
ARC
  5
1DC
330
156
100
AcDbEntity
  8
AM_4
100
AcDbCircle
 10
-4.719999999999998
 20
1.389999999999999
 30
0.0
 40
0.4300000000000013
100
AcDbArc
 50
90.0
 51
180.0
  0
LINE
  5
1DD
330
156
100
AcDbEntity
  8
AM_4
100
AcDbLine
 10
-5.149999999999999
 20
1.390000000000001
 30
0.0
 11
-5.149999999999999
 21
0.8599999999999999
 31
0.0
  0
ARC
  5
1DE
330
156
100
AcDbEntity
  8
AM_4
100
AcDbCircle
 10
-4.719999999999994
 20
0.8600000000000037
 30
0.0
 40
0.4300000000000059
100
AcDbArc
 50
179.9999991462263
 51
245.7232194060917
  0
ARC
  5
1DF
330
156
100
AcDbEntity
  8
AM_4
100
AcDbCircle
 10
-4.979021340662178
 20
0.2857109220248271
 30
0.0
 40
0.2000000000000048
100
AcDbArc
 50
23.34363771102173
 51
65.7232171948317
  0
ARC
  5
1E0
330
156
100
AcDbEntity
  8
AM_4
100
AcDbCircle
 10
-5.64104639324456
 20
0.0000000000000004
 30
0.0
 40
0.9210463932445601
100
AcDbArc
 50
336.656365009859
 51
23.34363558096461
  0
ARC
  5
1E1
330
156
100
AcDbEntity
  8
AM_4
100
AcDbCircle
 10
-4.979021340662167
 20
-0.2857109220248391
 30
0.0
 40
0.1999999999999897
100
AcDbArc
 50
294.2767812958941
 51
336.6563650098606
  0
ARC
  5
1E2
330
156
100
AcDbEntity
  8
AM_4
100
AcDbCircle
 10
-4.720000000000001
 20
-0.859999999999999
 30
0.0
 40
0.4299999999999988
100
AcDbArc
 50
114.276781295895
 51
180.0
  0
LINE
  5
1E3
330
156
100
AcDbEntity
  8
AM_4
100
AcDbLine
 10
-5.149999999999999
 20
-0.8599999999999988
 30
0.0
 11
-5.149999999999999
 21
-1.389999993592502
 31
0.0
  0
ARC
  5
1E4
330
156
100
AcDbEntity
  8
AM_4
100
AcDbCircle
 10
-4.72
 20
-1.390000000000001
 30
0.0
 40
0.4299999999999998
100
AcDbArc
 50
179.9999987925817
 51
270.0
  0
LINE
  5
1E5
330
156
100
AcDbEntity
  8
AM_4
100
AcDbLine
 10
4.619999999999997
 20
1.720000000000001
 30
0.0
 11
-4.62
 21
1.72
 31
0.0
  0
ARC
  5
1E6
330
156
100
AcDbEntity
  8
AM_4
100
AcDbCircle
 10
5.280436305490767
 20
-0.0000000000000004
 30
0.0
 40
0.660436305490766
100
AcDbArc
 50
132.4120462260062
 51
227.5879537739939
  0
ARC
  5
1E7
330
156
100
AcDbEntity
  8
AM_4
100
AcDbCircle
 10
4.620000000000004
 20
0.8599999999999977
 30
0.0
 40
0.4299999999999964
100
AcDbArc
 50
300.0
 51
0.0000008537736463
  0
LINE
  5
1E8
330
156
100
AcDbEntity
  8
AM_4
100
AcDbLine
 10
5.05
 20
0.8599999999999982
 30
0.0
 11
5.05
 21
1.29
 31
0.0
  0
ARC
  5
1E9
330
156
100
AcDbEntity
  8
AM_4
100
AcDbCircle
 10
4.619999999999997
 20
1.289999999999997
 30
0.0
 40
0.4300000000000033
100
AcDbArc
 50
0.0
 51
90.0
  0
ARC
  5
1EA
330
156
100
AcDbEntity
  8
AM_4
100
AcDbCircle
 10
4.619999999999999
 20
-1.289999999999999
 30
0.0
 40
0.4300000000000006
100
AcDbArc
 50
270.0
 51
0.0000008537736463
  0
LINE
  5
1EB
330
156
100
AcDbEntity
  8
AM_4
100
AcDbLine
 10
5.05
 20
-1.289999999999999
 30
0.0
 11
5.05
 21
-0.8600000000000001
 31
0.0
  0
ARC
  5
1EC
330
156
100
AcDbEntity
  8
AM_4
100
AcDbCircle
 10
4.620000000000003
 20
-0.8599999999999985
 30
0.0
 40
0.4299999999999971
100
AcDbArc
 50
0.0
 51
59.99999999999978
  0
LINE
  5
1ED
330
156
100
AcDbEntity
  8
AM_4
100
AcDbLine
 10
4.619999999999998
 20
-1.72
 30
0.0
 11
-4.619999999999999
 21
-1.72
 31
0.0
  0
ARC
  5
1EE
330
156
100
AcDbEntity
  8
AM_4
100
AcDbCircle
 10
-4.619999999999998
 20
1.289999999999998
 30
0.0
 40
0.4300000000000017
100
AcDbArc
 50
90.0
 51
180.0
  0
ARC
  5
1EF
330
156
100
AcDbEntity
  8
AM_4
100
AcDbCircle
 10
-5.280436305490769
 20
-0.0000000000000004
 30
0.0
 40
0.6604363054907677
100
AcDbArc
 50
312.4120462260064
 51
47.5879537739938
  0
LINE
  5
1F0
330
156
100
AcDbEntity
  8
AM_4
100
AcDbLine
 10
-5.05
 20
-1.289999999999999
 30
0.0
 11
-5.05
 21
-0.8599999999999981
 31
0.0
  0
ARC
  5
1F1
330
156
100
AcDbEntity
  8
AM_4
100
AcDbCircle
 10
-4.620000000000003
 20
-0.8599999999999988
 30
0.0
 40
0.4299999999999972
100
AcDbArc
 50
119.9999999999998
 51
180.0
  0
ARC
  5
1F2
330
156
100
AcDbEntity
  8
AM_4
100
AcDbCircle
 10
-4.619999999999997
 20
-1.289999999999998
 30
0.0
 40
0.4300000000000024
100
AcDbArc
 50
180.0
 51
270.0
  0
LINE
  5
1F3
330
156
100
AcDbEntity
  8
AM_4
100
AcDbLine
 10
-5.05
 20
0.8600000000000002
 30
0.0
 11
-5.05
 21
1.289999999999999
 31
0.0
  0
ARC
  5
1F4
330
156
100
AcDbEntity
  8
AM_4
100
AcDbCircle
 10
-4.619999999999996
 20
0.8600000000000029
 30
0.0
 40
0.4300000000000042
100
AcDbArc
 50
180.0
 51
239.9999999999994
  0
CIRCLE
  5
1F5
330
156
100
AcDbEntity
  8
AM_4
100
AcDbCircle
 10
4.404999999999999
 20
1.075
 30
0.0
 40
0.546875
  0
CIRCLE
  5
1F6
330
156
100
AcDbEntity
  8
AM_4
100
AcDbCircle
 10
-4.404999999999999
 20
1.075000000000001
 30
0.0
 40
0.546875
  0
CIRCLE
  5
1F7
330
156
100
AcDbEntity
  8
AM_4
100
AcDbCircle
 10
-4.404999999999999
 20
-1.075
 30
0.0
 40
0.546875
  0
CIRCLE
  5
1F8
330
156
100
AcDbEntity
  8
AM_4
100
AcDbCircle
 10
4.404999999999999
 20
-1.075
 30
0.0
 40
0.546875
  0
LINE
  5
1F9
330
156
100
AcDbEntity
  8
AM_4
100
AcDbLine
 10
4.910181485540923
 20
1.075
 30
0.0
 11
4.657590742770461
 21
1.5125
 31
0.0
  0
LINE
  5
1FA
330
156
100
AcDbEntity
  8
AM_4
100
AcDbLine
 10
4.657590742770461
 20
1.5125
 30
0.0
 11
4.152409257229539
 21
1.5125
 31
0.0
  0
LINE
  5
1FB
330
156
100
AcDbEntity
  8
AM_4
100
AcDbLine
 10
4.152409257229538
 20
0.637500000000001
 30
0.0
 11
4.657590742770461
 21
0.637500000000001
 31
0.0
  0
LINE
  5
1FC
330
156
100
AcDbEntity
  8
AM_4
100
AcDbLine
 10
4.152409257229539
 20
1.5125
 30
0.0
 11
3.899818514459077
 21
1.075000000000001
 31
0.0
  0
LINE
  5
1FD
330
156
100
AcDbEntity
  8
AM_4
100
AcDbLine
 10
3.899818514459077
 20
1.075000000000001
 30
0.0
 11
4.152409257229538
 21
0.637500000000001
 31
0.0
  0
LINE
  5
1FE
330
156
100
AcDbEntity
  8
AM_4
100
AcDbLine
 10
4.657590742770461
 20
0.637500000000001
 30
0.0
 11
4.910181485540923
 21
1.075
 31
0.0
  0
LINE
  5
1FF
330
156
100
AcDbEntity
  8
AM_4
100
AcDbLine
 10
4.910181485540923
 20
-1.075
 30
0.0
 11
4.657590742770461
 21
-0.6375
 31
0.0
  0
LINE
  5
200
330
156
100
AcDbEntity
  8
AM_4
100
AcDbLine
 10
4.657590742770461
 20
-1.5125
 30
0.0
 11
4.910181485540923
 21
-1.075
 31
0.0
  0
LINE
  5
201
330
156
100
AcDbEntity
  8
AM_4
100
AcDbLine
 10
4.152409257229539
 20
-0.6375
 30
0.0
 11
3.899818514459077
 21
-1.075
 31
0.0
  0
LINE
  5
202
330
156
100
AcDbEntity
  8
AM_4
100
AcDbLine
 10
3.899818514459077
 20
-1.075
 30
0.0
 11
4.152409257229538
 21
-1.5125
 31
0.0
  0
LINE
  5
203
330
156
100
AcDbEntity
  8
AM_4
100
AcDbLine
 10
4.152409257229538
 20
-1.5125
 30
0.0
 11
4.657590742770461
 21
-1.5125
 31
0.0
  0
LINE
  5
204
330
156
100
AcDbEntity
  8
AM_4
100
AcDbLine
 10
4.657590742770461
 20
-0.6375
 30
0.0
 11
4.152409257229539
 21
-0.6375
 31
0.0
  0
LINE
  5
205
330
156
100
AcDbEntity
  8
AM_4
100
AcDbLine
 10
-4.152409257229537
 20
-1.5125
 30
0.0
 11
-3.899818514459076
 21
-1.075
 31
0.0
  0
LINE
  5
206
330
156
100
AcDbEntity
  8
AM_4
100
AcDbLine
 10
-4.152409257229537
 20
-0.6375
 30
0.0
 11
-4.657590742770459
 21
-0.6375
 31
0.0
  0
LINE
  5
207
330
156
100
AcDbEntity
  8
AM_4
100
AcDbLine
 10
-3.899818514459076
 20
-1.075
 30
0.0
 11
-4.152409257229537
 21
-0.6375
 31
0.0
  0
LINE
  5
208
330
156
100
AcDbEntity
  8
AM_4
100
AcDbLine
 10
-4.657590742770459
 20
-0.6375
 30
0.0
 11
-4.910181485540921
 21
-1.075
 31
0.0
  0
LINE
  5
209
330
156
100
AcDbEntity
  8
AM_4
100
AcDbLine
 10
-4.910181485540921
 20
-1.075
 30
0.0
 11
-4.657590742770461
 21
-1.5125
 31
0.0
  0
LINE
  5
20A
330
156
100
AcDbEntity
  8
AM_4
100
AcDbLine
 10
-4.657590742770461
 20
-1.5125
 30
0.0
 11
-4.152409257229537
 21
-1.5125
 31
0.0
  0
LINE
  5
20B
330
156
100
AcDbEntity
  8
AM_4
100
AcDbLine
 10
-4.657590742770461
 20
0.6375000000000012
 30
0.0
 11
-4.152409257229537
 21
0.6375000000000012
 31
0.0
  0
LINE
  5
20C
330
156
100
AcDbEntity
  8
AM_4
100
AcDbLine
 10
-4.910181485540921
 20
1.075000000000001
 30
0.0
 11
-4.657590742770461
 21
0.6375000000000012
 31
0.0
  0
LINE
  5
20D
330
156
100
AcDbEntity
  8
AM_4
100
AcDbLine
 10
-4.657590742770459
 20
1.512500000000001
 30
0.0
 11
-4.910181485540921
 21
1.075000000000001
 31
0.0
  0
LINE
  5
20E
330
156
100
AcDbEntity
  8
AM_4
100
AcDbLine
 10
-4.152409257229537
 20
0.6375000000000012
 30
0.0
 11
-3.899818514459076
 21
1.075000000000001
 31
0.0
  0
LINE
  5
20F
330
156
100
AcDbEntity
  8
AM_4
100
AcDbLine
 10
-3.899818514459076
 20
1.075000000000001
 30
0.0
 11
-4.152409257229537
 21
1.512500000000001
 31
0.0
  0
LINE
  5
210
330
156
100
AcDbEntity
  8
AM_4
100
AcDbLine
 10
-4.152409257229537
 20
1.512500000000001
 30
0.0
 11
-4.657590742770459
 21
1.512500000000001
 31
0.0
  0
LINE
  5
211
330
156
100
AcDbEntity
  8
AM_4
100
AcDbLine
 10
3.810052621888034
 20
-1.72809523809524
 30
0.0
 11
3.809683856244605
 21
-1.72
 31
0.0
  0
LINE
  5
212
330
156
100
AcDbEntity
  8
AM_4
100
AcDbLine
 10
-3.809683856244604
 20
-1.72
 30
0.0
 11
-3.810052621888034
 21
-1.72809523809524
 31
0.0
  0
LINE
  5
213
330
156
100
AcDbEntity
  8
AM_4
100
AcDbLine
 10
-3.810052621888036
 20
1.728095238095239
 30
0.0
 11
-3.809683856244605
 21
1.72
 31
0.0
  0
LINE
  5
214
330
156
100
AcDbEntity
  8
AM_4
100
AcDbLine
 10
3.809683856244593
 20
1.719999999999867
 30
0.0
 11
3.810052621888036
 21
1.728095238095239
 31
0.0
  0
LINE
  5
215
330
156
100
AcDbEntity
  8
AM_4
100
AcDbLine
 10
3.667151468431049
 20
-0.6703607103712527
 30
0.0
 11
3.667151468431049
 21
0.6703607103712531
 31
0.0
  0
LINE
  5
216
330
156
100
AcDbEntity
  8
AM_4
100
AcDbLine
 10
-3.280183143502203
 20
1.72
 30
0.0
 11
-3.667151468431046
 21
0.6703607103712622
 31
0.0
  0
LINE
  5
217
330
156
100
AcDbEntity
  8
AM_4
100
AcDbLine
 10
-3.667151468431046
 20
0.6703607103712622
 30
0.0
 11
-1.683333333333333
 21
0.6703607103712532
 31
0.0
  0
LINE
  5
218
330
156
100
AcDbEntity
  8
AM_4
100
AcDbLine
 10
-3.667151468431046
 20
0.6703607103712622
 30
0.0
 11
-3.667151468431049
 21
-0.6703607103712527
 31
0.0
  0
LINE
  5
219
330
156
100
AcDbEntity
  8
AM_4
100
AcDbLine
 10
1.683333333333333
 20
0.6703607103712532
 30
0.0
 11
3.667151468431049
 21
0.6703607103712531
 31
0.0
  0
LINE
  5
21A
330
156
100
AcDbEntity
  8
AM_4
100
AcDbLine
 10
3.667151468431049
 20
0.6703607103712531
 30
0.0
 11
3.280183143502203
 21
1.72
 31
0.0
  0
LINE
  5
21B
330
156
100
AcDbEntity
  8
AM_4
100
AcDbLine
 10
3.280183143502204
 20
-1.72
 30
0.0
 11
3.667151468431049
 21
-0.6703607103712527
 31
0.0
  0
LINE
  5
21C
330
156
100
AcDbEntity
  8
AM_4
100
AcDbLine
 10
1.683333333333333
 20
-0.6703607103712526
 30
0.0
 11
3.667151468431049
 21
-0.6703607103712527
 31
0.0
  0
LINE
  5
21D
330
156
100
AcDbEntity
  8
AM_4
100
AcDbLine
 10
-3.667151468431049
 20
-0.6703607103712527
 30
0.0
 11
-1.683333333333333
 21
-0.6703607103712526
 31
0.0
  0
LINE
  5
21E
330
156
100
AcDbEntity
  8
AM_4
100
AcDbLine
 10
-3.667151468431049
 20
-0.6703607103712527
 30
0.0
 11
-3.280183143502204
 21
-1.72
 31
0.0
  0
LINE
  5
21F
330
156
100
AcDbEntity
  8
AM_4
100
AcDbLine
 10
-1.683333333333333
 20
-1.72
 30
0.0
 11
-1.683333333333334
 21
1.72
 31
0.0
  0
LINE
  5
220
330
156
100
AcDbEntity
  8
AM_4
100
AcDbLine
 10
1.683333333333333
 20
-1.72
 30
0.0
 11
1.683333333333333
 21
1.72
 31
0.0
  0
LINE
  5
221
330
156
100
AcDbEntity
  8
AM_4
100
AcDbLine
 10
-1.402083333333334
 20
1.43875
 30
0.0
 11
-1.683333333333334
 21
1.72
 31
0.0
  0
LINE
  5
222
330
156
100
AcDbEntity
  8
AM_4
100
AcDbLine
 10
1.683333333333334
 20
1.72
 30
0.0
 11
1.402083333333334
 21
1.438750000000001
 31
0.0
  0
LINE
  5
223
330
156
100
AcDbEntity
  8
AM_4
100
AcDbLine
 10
-1.402083333333333
 20
-1.43875
 30
0.0
 11
-1.402083333333334
 21
1.43875
 31
0.0
  0
LINE
  5
224
330
156
100
AcDbEntity
  8
AM_4
100
AcDbLine
 10
1.402083333333334
 20
-1.43875
 30
0.0
 11
1.402083333333334
 21
1.43875
 31
0.0
  0
LINE
  5
225
330
156
100
AcDbEntity
  8
AM_4
100
AcDbLine
 10
1.402083333333334
 20
1.43875
 30
0.0
 11
-1.402083333333334
 21
1.43875
 31
0.0
  0
LINE
  5
226
330
156
100
AcDbEntity
  8
AM_4
100
AcDbLine
 10
1.402083333333334
 20
-1.43875
 30
0.0
 11
-1.402083333333333
 21
-1.43875
 31
0.0
  0
LINE
  5
227
330
156
100
AcDbEntity
  8
AM_4
100
AcDbLine
 10
-1.683333333333334
 20
-1.719999999999999
 30
0.0
 11
-1.402083345906189
 21
-1.438750012572855
 31
0.0
  0
LINE
  5
228
330
156
100
AcDbEntity
  8
AM_4
100
AcDbLine
 10
1.402083333333334
 20
-1.43875
 30
0.0
 11
1.683333333333334
 21
-1.719999999999999
 31
0.0
  0
LINE
  5
229
330
156
100
AcDbEntity
  8
AM_4
100
AcDbLine
 10
-1.2625
 20
0.2525000150501724
 30
0.0
 11
-1.2625
 21
-1.0605
 31
0.0
  0
ARC
  5
22A
330
156
100
AcDbEntity
  8
AM_4
100
AcDbCircle
 10
-1.0605
 20
-1.0605
 30
0.0
 40
0.202
100
AcDbArc
 50
180.0
 51
270.0
  0
LINE
  5
22B
330
156
100
AcDbEntity
  8
AM_4
100
AcDbLine
 10
-1.0605
 20
-1.2625
 30
0.0
 11
0.2525000000000002
 21
-1.2625
 31
0.0
  0
ARC
  5
22C
330
156
100
AcDbEntity
  8
AM_4
100
AcDbCircle
 10
0.2525
 20
-0.2524999999999999
 30
0.0
 40
1.01
100
AcDbArc
 50
270.0
 51
0.0
  0
LINE
  5
22D
330
156
100
AcDbEntity
  8
AM_4
100
AcDbLine
 10
1.2625
 20
-0.2524999999999994
 30
0.0
 11
1.2625
 21
1.0605
 31
0.0
  0
ARC
  5
22E
330
156
100
AcDbEntity
  8
AM_4
100
AcDbCircle
 10
1.0605
 20
1.0605
 30
0.0
 40
0.2020000000000004
100
AcDbArc
 50
0.0
 51
90.0
  0
LINE
  5
22F
330
156
100
AcDbEntity
  8
AM_4
100
AcDbLine
 10
1.0605
 20
1.2625
 30
0.0
 11
-0.2525000000000002
 21
1.2625
 31
0.0
  0
ARC
  5
230
330
156
100
AcDbEntity
  8
AM_4
100
AcDbCircle
 10
-0.2524999999999991
 20
0.2524999999999995
 30
0.0
 40
1.010000000000001
100
AcDbArc
 50
90.0
 51
180.0
  0
LINE
  5
231
330
156
100
AcDbEntity
  8
AM_4
100
AcDbLine
 10
-1.1625
 20
-1.004764973081037
 30
0.0
 11
-1.1625
 21
-1.120235026918962
 31
0.0
  0
LINE
  5
232
330
156
100
AcDbEntity
  8
AM_4
100
AcDbLine
 10
-1.1625
 20
-1.120235026918962
 30
0.0
 11
-1.0625
 21
-1.177970053837925
 31
0.0
  0
LINE
  5
233
330
156
100
AcDbEntity
  8
AM_4
100
AcDbLine
 10
-1.0625
 20
-1.177970053837925
 30
0.0
 11
-0.9625
 21
-1.120235026918962
 31
0.0
  0
LINE
  5
234
330
156
100
AcDbEntity
  8
AM_4
100
AcDbLine
 10
-0.9625
 20
-1.120235026918962
 30
0.0
 11
-0.9625
 21
-1.004764973081037
 31
0.0
  0
LINE
  5
235
330
156
100
AcDbEntity
  8
AM_4
100
AcDbLine
 10
-0.9625
 20
-1.004764973081037
 30
0.0
 11
-1.0625
 21
-0.9470299461620745
 31
0.0
  0
LINE
  5
236
330
156
100
AcDbEntity
  8
AM_4
100
AcDbLine
 10
-1.0625
 20
-0.9470299461620745
 30
0.0
 11
-1.1625
 21
-1.004764973081037
 31
0.0
  0
LINE
  5
237
330
156
100
AcDbEntity
  8
AM_4
100
AcDbLine
 10
0.9625
 20
1.120235026918963
 30
0.0
 11
0.9625
 21
1.004764973081038
 31
0.0
  0
LINE
  5
238
330
156
100
AcDbEntity
  8
AM_4
100
AcDbLine
 10
0.9625
 20
1.004764973081038
 30
0.0
 11
1.0625
 21
0.947029946162075
 31
0.0
  0
LINE
  5
239
330
156
100
AcDbEntity
  8
AM_4
100
AcDbLine
 10
1.0625
 20
0.947029946162075
 30
0.0
 11
1.1625
 21
1.004764973081038
 31
0.0
  0
LINE
  5
23A
330
156
100
AcDbEntity
  8
AM_4
100
AcDbLine
 10
1.1625
 20
1.004764973081038
 30
0.0
 11
1.1625
 21
1.120235026918963
 31
0.0
  0
LINE
  5
23B
330
156
100
AcDbEntity
  8
AM_4
100
AcDbLine
 10
1.1625
 20
1.120235026918963
 30
0.0
 11
1.0625
 21
1.177970053837925
 31
0.0
  0
LINE
  5
23C
330
156
100
AcDbEntity
  8
AM_4
100
AcDbLine
 10
1.0625
 20
1.177970053837925
 30
0.0
 11
0.9625
 21
1.120235026918963
 31
0.0
  0
ENDBLK
  5
159
330
156
100
AcDbEntity
  8
0
100
AcDbBlockEnd
  0
ENDSEC
  0
SECTION
  2
ENTITIES
  0
INSERT
  5
6F
330
1F
100
AcDbEntity
  8
0
100
AcDbBlockReference
  2
1_023186_4
 10
0.0
 20
0.0
 30
0.0
  0
POINT
  5
23E
330
1F
100
AcDbEntity
  8
ConnectionPoints
100
AcDbPoint
 10
0.0
 20
0.0000000000000003
 30
4.6365
  0
POINT
  5
23F
330
1F
100
AcDbEntity
  8
ConnectionPoints
100
AcDbPoint
 10
0.0
 20
0.0000000000000003
 30
4.6365
  0
POINT
  5
240
330
1F
100
AcDbEntity
  8
ConnectionPoints
100
AcDbPoint
 10
0.0
 20
0.0
 30
0.0
  0
POINT
  5
241
330
1F
100
AcDbEntity
  8
ConnectionPoints
100
AcDbPoint
 10
0.0
 20
-2.5
 30
0.0000000000000002
  0
POINT
  5
242
330
1F
100
AcDbEntity
  8
ConnectionPoints
100
AcDbPoint
 10
0.0
 20
2.126
 30
-0.0000000000000001
  0
POINT
  5
243
330
1F
100
AcDbEntity
  8
ConnectionPoints
100
AcDbPoint
 10
0.0
 20
0.0
 30
0.0
  0
POINT
  5
244
330
1F
100
AcDbEntity
  8
ConnectionPoints
100
AcDbPoint
 10
0.0
 20
-2.5
 30
0.0000000000000002
  0
ENDSEC
  0
SECTION
  2
OBJECTS
  0
DICTIONARY
  5
C
330
0
100
AcDbDictionary
281
     1
  3
ACAD_DETAILVIEWSTYLE
350
24C
  3
ACAD_GROUP
350
D
  3
ACAD_LAYOUT
350
1A
  3
ACAD_MATERIAL
350
43
  3
ACAD_MLEADERSTYLE
350
6B
  3
ACAD_MLINESTYLE
350
17
  3
ACAD_PLOTSETTINGS
350
19
  3
ACAD_PLOTSTYLENAME
350
E
  3
ACAD_SCALELIST
350
47
  3
ACAD_SECTIONVIEWSTYLE
350
24D
  3
ACAD_TABLESTYLE
350
69
  3
ACAD_VISUALSTYLE
350
2A
  3
ACDB_RECOMPOSE_DATA
350
249
  3
AcDbVariableDictionary
350
245
  0
SUN
  5
6D
330
29
100
AcDbSun
 90
        1
290
     0
 63
     7
421
 16777215
 40
1.0
291
     1
 91
  2455826
 92
 54000000
292
     0
 70
     2
 71
   256
280
     1
  0
DICTIONARY
  5
24C
102
{ACAD_REACTORS
330
C
102
}
330
C
100
AcDbDictionary
281
     1
  0
DICTIONARY
  5
D
102
{ACAD_REACTORS
330
C
102
}
330
C
100
AcDbDictionary
281
     1
  0
DICTIONARY
  5
1A
102
{ACAD_REACTORS
330
C
102
}
330
C
100
AcDbDictionary
281
     1
  3
Layout1
350
1E
  3
Layout2
350
26
  3
Model
350
22
  0
DICTIONARY
  5
43
102
{ACAD_REACTORS
330
C
102
}
330
C
100
AcDbDictionary
281
     1
  3
ByBlock
350
45
  3
ByLayer
350
44
  3
Global
350
46
  0
DICTIONARY
  5
6B
102
{ACAD_REACTORS
330
C
102
}
330
C
100
AcDbDictionary
281
     1
  3
Standard
350
6C
  0
DICTIONARY
  5
17
102
{ACAD_REACTORS
330
C
102
}
330
C
100
AcDbDictionary
281
     1
  3
Standard
350
18
  0
DICTIONARY
  5
19
102
{ACAD_REACTORS
330
C
102
}
330
C
100
AcDbDictionary
281
     1
  0
ACDBDICTIONARYWDFLT
  5
E
102
{ACAD_REACTORS
330
C
102
}
330
C
100
AcDbDictionary
281
     1
  3
Normal
350
F
100
AcDbDictionaryWithDefault
340
F
  0
DICTIONARY
  5
47
102
{ACAD_REACTORS
330
C
102
}
330
C
100
AcDbDictionary
281
     1
  3
A0
350
48
  3
A1
350
49
  3
A2
350
4A
  3
A3
350
4B
  3
A4
350
4C
  3
A5
350
4D
  3
A6
350
4E
  3
A7
350
4F
  3
A8
350
50
  3
A9
350
51
  3
B0
350
52
  3
B1
350
53
  3
B2
350
54
  3
B3
350
55
  3
B4
350
56
  3
B5
350
57
  3
B6
350
58
  3
B7
350
59
  3
B8
350
5A
  3
B9
350
5B
  3
C0
350
5C
  3
C1
350
5D
  3
C2
350
5E
  3
C3
350
5F
  3
C4
350
60
  3
C5
350
61
  3
C6
350
62
  3
C7
350
63
  3
C8
350
64
  3
C9
350
65
  3
D0
350
66
  3
D1
350
67
  3
D2
350
68
  0
DICTIONARY
  5
24D
102
{ACAD_REACTORS
330
C
102
}
330
C
100
AcDbDictionary
281
     1
  0
DICTIONARY
  5
69
102
{ACAD_REACTORS
330
C
102
}
330
C
100
AcDbDictionary
281
     1
  3
Standard
350
6A
  0
DICTIONARY
  5
2A
102
{ACAD_REACTORS
330
C
102
}
330
C
100
AcDbDictionary
281
     1
  3
2dWireframe
350
2F
  3
Basic
350
32
  3
Brighten
350
36
  3
ColorChange
350
3A
  3
Conceptual
350
34
  3
Dim
350
35
  3
EdgeColorOff
350
3D
  3
Facepattern
350
39
  3
Flat
350
2B
  3
FlatWithEdges
350
2C
  3
Gouraud
350
2D
  3
GouraudWithEdges
350
2E
  3
Hidden
350
31
  3
JitterOff
350
3B
  3
Linepattern
350
38
  3
OverhangOff
350
3C
  3
Realistic
350
33
  3
Shaded
350
42
  3
Shaded with edges
350
41
  3
Shades of Gray
350
3E
  3
Sketchy
350
3F
  3
Thicken
350
37
  3
Wireframe
350
30
  3
X-Ray
350
40
  0
XRECORD
  5
249
102
{ACAD_REACTORS
330
C
102
}
330
C
100
AcDbXrecord
280
     1
 90
        1
330
6A
  0
DICTIONARY
  5
245
102
{ACAD_REACTORS
330
C
102
}
330
C
100
AcDbDictionary
281
     1
  3
CANNOSCALE
350
246
  3
CMLEADERSTYLE
350
24B
  3
CTABLESTYLE
350
24A
  0
LAYOUT
  5
1E
102
{ACAD_REACTORS
330
1A
102
}
330
1A
100
AcDbPlotSettings
  1

  2
none_device
  4

  6

 40
0.0
 41
0.0
 42
0.0
 43
0.0
 44
0.0
 45
0.0
 46
0.0
 47
0.0
 48
0.0
 49
0.0
140
0.0
141
0.0
142
1.0
143
1.0
 70
   688
 72
     0
 73
     0
 74
     5
  7

 75
    16
 76
     0
 77
     2
 78
   300
147
1.0
148
0.0
149
0.0
100
AcDbLayout
  1
Layout1
 70
     1
 71
     1
 10
0.0
 20
0.0
 11
12.0
 21
9.0
 12
0.0
 22
0.0
 32
0.0
 14
1.000000000000000E+20
 24
1.000000000000000E+20
 34
1.000000000000000E+20
 15
-1.000000000000000E+20
 25
-1.000000000000000E+20
 35
-1.000000000000000E+20
146
0.0
 13
0.0
 23
0.0
 33
0.0
 16
1.0
 26
0.0
 36
0.0
 17
0.0
 27
1.0
 37
0.0
 76
     0
330
1B
  0
LAYOUT
  5
26
102
{ACAD_REACTORS
330
1A
102
}
330
1A
100
AcDbPlotSettings
  1

  2
none_device
  4

  6

 40
0.0
 41
0.0
 42
0.0
 43
0.0
 44
0.0
 45
0.0
 46
0.0
 47
0.0
 48
0.0
 49
0.0
140
0.0
141
0.0
142
1.0
143
1.0
 70
   688
 72
     0
 73
     0
 74
     5
  7

 75
    16
 76
     0
 77
     2
 78
   300
147
1.0
148
0.0
149
0.0
100
AcDbLayout
  1
Layout2
 70
     1
 71
     2
 10
0.0
 20
0.0
 11
0.0
 21
0.0
 12
0.0
 22
0.0
 32
0.0
 14
0.0
 24
0.0
 34
0.0
 15
0.0
 25
0.0
 35
0.0
146
0.0
 13
0.0
 23
0.0
 33
0.0
 16
1.0
 26
0.0
 36
0.0
 17
0.0
 27
1.0
 37
0.0
 76
     0
330
23
  0
LAYOUT
  5
22
102
{ACAD_REACTORS
330
1A
102
}
330
1A
100
AcDbPlotSettings
  1

  2
none_device
  4
Letter_(8.50_x_11.00_Inches)
  6

 40
6.35
 41
6.35
 42
6.35000508
 43
6.35000508
 44
215.9
 45
279.4
 46
0.0
 47
0.0
 48
0.0
 49
0.0
140
0.0
141
0.0
142
1.0
143
1.0
 70
  1712
 72
     0
 73
     0
 74
     0
  7

 75
     0
 76
     0
 77
     2
 78
   300
147
1.0
148
0.0
149
0.0
100
AcDbLayout
  1
Model
 70
     1
 71
     0
 10
0.0
 20
0.0
 11
12.0
 21
9.0
 12
0.0
 22
0.0
 32
0.0
 14
1.000000000000000E+20
 24
1.000000000000000E+20
 34
1.000000000000000E+20
 15
-1.000000000000000E+20
 25
-1.000000000000000E+20
 35
-1.000000000000000E+20
146
0.0
 13
0.0
 23
0.0
 33
0.0
 16
1.0
 26
0.0
 36
0.0
 17
0.0
 27
1.0
 37
0.0
 76
     0
330
1F
331
29
  0
MATERIAL
  5
45
102
{ACAD_REACTORS
330
43
102
}
330
43
100
AcDbMaterial
  1
ByBlock
 72
     1
 94
      127
  0
MATERIAL
  5
44
102
{ACAD_REACTORS
330
43
102
}
330
43
100
AcDbMaterial
  1
ByLayer
 72
     1
 94
      127
  0
MATERIAL
  5
46
102
{ACAD_REACTORS
330
43
102
}
330
43
100
AcDbMaterial
  1
Global
 72
     1
 94
      127
  0
MLEADERSTYLE
  5
6C
102
{ACAD_REACTORS
330
6B
102
}
330
6B
100
AcDbMLeaderStyle
179
     2
170
     2
171
     1
172
     0
 90
        2
 40
0.0
 41
0.0
173
     1
 91
-1056964608
340
14
 92
       -2
290
     1
 42
0.09
291
     1
 43
0.36
  3
Standard
341
0
 44
0.18
300

342
11
174
     1
178
     6
175
     1
176
     0
 93
-1056964608
 45
0.18
292
     0
297
     0
 46
0.18
343
0
 94
-1056964608
 47
1.0
 49
1.0
140
1.0
293
     1
141
0.0
294
     1
177
     0
142
1.0
295
     0
296
     0
143
0.125
271
     0
272
     9
273
     9
298
     0
  0
MLINESTYLE
  5
18
102
{ACAD_REACTORS
330
17
102
}
330
17
100
AcDbMlineStyle
  2
Standard
 70
     0
  3

 62
   256
 51
90.0
 52
90.0
 71
     2
 49
0.5
 62
   256
  6
BYLAYER
 49
-0.5
 62
   256
  6
BYLAYER
  0
ACDBPLACEHOLDER
  5
F
102
{ACAD_REACTORS
330
E
102
}
330
E
  0
SCALE
  5
48
102
{ACAD_REACTORS
330
47
102
}
330
47
100
AcDbScale
 70
     0
300
1:1
140
1.0
141
1.0
290
     1
  0
SCALE
  5
49
102
{ACAD_REACTORS
330
47
102
}
330
47
100
AcDbScale
 70
     0
300
1:2
140
1.0
141
2.0
290
     0
  0
SCALE
  5
4A
102
{ACAD_REACTORS
330
47
102
}
330
47
100
AcDbScale
 70
     0
300
1:4
140
1.0
141
4.0
290
     0
  0
SCALE
  5
4B
102
{ACAD_REACTORS
330
47
102
}
330
47
100
AcDbScale
 70
     0
300
1:5
140
1.0
141
5.0
290
     0
  0
SCALE
  5
4C
102
{ACAD_REACTORS
330
47
102
}
330
47
100
AcDbScale
 70
     0
300
1:8
140
1.0
141
8.0
290
     0
  0
SCALE
  5
4D
102
{ACAD_REACTORS
330
47
102
}
330
47
100
AcDbScale
 70
     0
300
1:10
140
1.0
141
10.0
290
     0
  0
SCALE
  5
4E
102
{ACAD_REACTORS
330
47
102
}
330
47
100
AcDbScale
 70
     0
300
1:16
140
1.0
141
16.0
290
     0
  0
SCALE
  5
4F
102
{ACAD_REACTORS
330
47
102
}
330
47
100
AcDbScale
 70
     0
300
1:20
140
1.0
141
20.0
290
     0
  0
SCALE
  5
50
102
{ACAD_REACTORS
330
47
102
}
330
47
100
AcDbScale
 70
     0
300
1:30
140
1.0
141
30.0
290
     0
  0
SCALE
  5
51
102
{ACAD_REACTORS
330
47
102
}
330
47
100
AcDbScale
 70
     0
300
1:40
140
1.0
141
40.0
290
     0
  0
SCALE
  5
52
102
{ACAD_REACTORS
330
47
102
}
330
47
100
AcDbScale
 70
     0
300
1:50
140
1.0
141
50.0
290
     0
  0
SCALE
  5
53
102
{ACAD_REACTORS
330
47
102
}
330
47
100
AcDbScale
 70
     0
300
1:100
140
1.0
141
100.0
290
     0
  0
SCALE
  5
54
102
{ACAD_REACTORS
330
47
102
}
330
47
100
AcDbScale
 70
     0
300
2:1
140
2.0
141
1.0
290
     0
  0
SCALE
  5
55
102
{ACAD_REACTORS
330
47
102
}
330
47
100
AcDbScale
 70
     0
300
4:1
140
4.0
141
1.0
290
     0
  0
SCALE
  5
56
102
{ACAD_REACTORS
330
47
102
}
330
47
100
AcDbScale
 70
     0
300
8:1
140
8.0
141
1.0
290
     0
  0
SCALE
  5
57
102
{ACAD_REACTORS
330
47
102
}
330
47
100
AcDbScale
 70
     0
300
10:1
140
10.0
141
1.0
290
     0
  0
SCALE
  5
58
102
{ACAD_REACTORS
330
47
102
}
330
47
100
AcDbScale
 70
     0
300
100:1
140
100.0
141
1.0
290
     0
  0
SCALE
  5
59
102
{ACAD_REACTORS
330
47
102
}
330
47
100
AcDbScale
 70
     0
300
1/128" = 1'-0"
140
0.0078125
141
12.0
290
     0
  0
SCALE
  5
5A
102
{ACAD_REACTORS
330
47
102
}
330
47
100
AcDbScale
 70
     0
300
1/64" = 1'-0"
140
0.015625
141
12.0
290
     0
  0
SCALE
  5
5B
102
{ACAD_REACTORS
330
47
102
}
330
47
100
AcDbScale
 70
     0
300
1/32" = 1'-0"
140
0.03125
141
12.0
290
     0
  0
SCALE
  5
5C
102
{ACAD_REACTORS
330
47
102
}
330
47
100
AcDbScale
 70
     0
300
1/16" = 1'-0"
140
0.0625
141
12.0
290
     0
  0
SCALE
  5
5D
102
{ACAD_REACTORS
330
47
102
}
330
47
100
AcDbScale
 70
     0
300
3/32" = 1'-0"
140
0.09375
141
12.0
290
     0
  0
SCALE
  5
5E
102
{ACAD_REACTORS
330
47
102
}
330
47
100
AcDbScale
 70
     0
300
1/8" = 1'-0"
140
0.125
141
12.0
290
     0
  0
SCALE
  5
5F
102
{ACAD_REACTORS
330
47
102
}
330
47
100
AcDbScale
 70
     0
300
3/16" = 1'-0"
140
0.1875
141
12.0
290
     0
  0
SCALE
  5
60
102
{ACAD_REACTORS
330
47
102
}
330
47
100
AcDbScale
 70
     0
300
1/4" = 1'-0"
140
0.25
141
12.0
290
     0
  0
SCALE
  5
61
102
{ACAD_REACTORS
330
47
102
}
330
47
100
AcDbScale
 70
     0
300
3/8" = 1'-0"
140
0.375
141
12.0
290
     0
  0
SCALE
  5
62
102
{ACAD_REACTORS
330
47
102
}
330
47
100
AcDbScale
 70
     0
300
1/2" = 1'-0"
140
0.5
141
12.0
290
     0
  0
SCALE
  5
63
102
{ACAD_REACTORS
330
47
102
}
330
47
100
AcDbScale
 70
     0
300
3/4" = 1'-0"
140
0.75
141
12.0
290
     0
  0
SCALE
  5
64
102
{ACAD_REACTORS
330
47
102
}
330
47
100
AcDbScale
 70
     0
300
1" = 1'-0"
140
1.0
141
12.0
290
     0
  0
SCALE
  5
65
102
{ACAD_REACTORS
330
47
102
}
330
47
100
AcDbScale
 70
     0
300
1-1/2" = 1'-0"
140
1.5
141
12.0
290
     0
  0
SCALE
  5
66
102
{ACAD_REACTORS
330
47
102
}
330
47
100
AcDbScale
 70
     0
300
3" = 1'-0"
140
3.0
141
12.0
290
     0
  0
SCALE
  5
67
102
{ACAD_REACTORS
330
47
102
}
330
47
100
AcDbScale
 70
     0
300
6" = 1'-0"
140
6.0
141
12.0
290
     0
  0
SCALE
  5
68
102
{ACAD_REACTORS
330
47
102
}
330
47
100
AcDbScale
 70
     0
300
1'-0" = 1'-0"
140
12.0
141
12.0
290
     0
  0
TABLESTYLE
  5
6A
102
{ACAD_REACTORS
330
69
102
}
102
{ACAD_XDICTIONARY
360
247
102
}
330
69
100
AcDbTableStyle
  3
Standard
 70
     0
 71
     0
 40
0.06
 41
0.06
280
     0
281
     0
  7
Standard
140
0.18
170
     2
 62
     0
 63
   257
283
     0
 90
        4
 91
        0
  1

274
    -2
284
     1
 64
     0
275
    -2
285
     1
 65
     0
276
    -2
286
     1
 66
     0
277
    -2
287
     1
 67
     0
278
    -2
288
     1
 68
     0
279
    -2
289
     1
 69
     0
  7
Standard
140
0.25
170
     5
 62
     0
 63
   257
283
     0
 90
        4
 91
        0
  1

274
    -2
284
     1
 64
     0
275
    -2
285
     1
 65
     0
276
    -2
286
     1
 66
     0
277
    -2
287
     1
 67
     0
278
    -2
288
     1
 68
     0
279
    -2
289
     1
 69
     0
  7
Standard
140
0.18
170
     5
 62
     0
 63
   257
283
     0
 90
        4
 91
        0
  1

274
    -2
284
     1
 64
     0
275
    -2
285
     1
 65
     0
276
    -2
286
     1
 66
     0
277
    -2
287
     1
 67
     0
278
    -2
288
     1
 68
     0
279
    -2
289
     1
 69
     0
  0
VISUALSTYLE
  5
2F
102
{ACAD_REACTORS
330
2A
102
}
330
2A
100
AcDbVisualStyle
  2
2dWireframe
 70
     4
177
     3
291
     0
 70
    58
 90
        0
176
     1
 90
        2
176
     1
 90
        0
176
     1
 90
        0
176
     1
 40
0.6
176
     1
 40
30.0
176
     1
 62
     7
420
 16777215
176
     1
 90
        1
176
     1
 90
        4
176
     1
 62
     7
176
     1
 62
   257
176
     1
 90
        1
176
     1
 90
        1
176
     1
 40
1.0
176
     1
 90
        0
176
     1
 62
   257
176
     1
 40
1.0
176
     1
 90
        1
176
     1
 90
        6
176
     1
 90
        2
176
     1
 62
     7
176
     1
 90
        5
176
     1
 90
        0
176
     1
 90
        0
176
     1
290
     0
176
     1
 90
        1
176
     1
 40
0.0
176
     1
 90
        0
176
     1
290
     1
176
     1
290
     1
176
     1
290
     0
176
     1
290
     0
176
     1
290
     0
176
     1
290
     0
176
     1
290
     0
176
     1
290
     0
176
     1
290
     0
176
     1
 90
       50
176
     1
 40
0.0
176
     1
 40
1.0
176
     1
 90
        0
176
     1
 62
    18
420
        0
176
     1
 90
       50
176
     1
 90
        3
176
     1
 62
     5
420
      255
176
     1
290
     0
176
     1
 90
       50
176
     1
 90
       50
176
     1
 90
       50
176
     1
290
     0
176
     1
 90
       50
176
     1
 62
   256
176
     0
 40
1.0
176
     0
 90
        2
176
     1
  1
strokes_ogs.tif
176
     1
290
     0
176
     1
 40
1.0
176
     1
 40
1.0
176
     1
  0
VISUALSTYLE
  5
32
102
{ACAD_REACTORS
330
2A
102
}
330
2A
100
AcDbVisualStyle
  2
Basic
 70
     7
177
     3
291
     1
 70
    58
 90
        1
176
     1
 90
        0
176
     1
 90
        1
176
     1
 90
        0
176
     1
 40
0.6
176
     1
 40
30.0
176
     1
 62
     7
420
 16777215
176
     1
 90
        0
176
     1
 90
        4
176
     1
 62
     7
176
     1
 62
   257
176
     1
 90
        1
176
     1
 90
        1
176
     1
 40
1.0
176
     1
 90
        8
176
     1
 62
     7
176
     1
 40
1.0
176
     1
 90
        1
176
     1
 90
        6
176
     1
 90
        2
176
     1
 62
     7
176
     1
 90
        5
176
     1
 90
        0
176
     1
 90
        0
176
     1
290
     0
176
     1
 90
        1
176
     1
 40
0.0
176
     1
 90
        0
176
     1
290
     0
176
     1
290
     1
176
     1
290
     1
176
     1
290
     0
176
     1
290
     0
176
     1
290
     0
176
     1
290
     0
176
     1
290
     0
176
     1
290
     0
176
     1
 90
       50
176
     1
 40
0.0
176
     1
 40
1.0
176
     1
 90
        0
176
     1
 62
    18
420
        0
176
     1
 90
       50
176
     1
 90
        3
176
     1
 62
     5
420
      255
176
     1
290
     0
176
     1
 90
       50
176
     1
 90
       50
176
     1
 90
       50
176
     1
290
     0
176
     1
 90
       50
176
     1
 62
   256
176
     0
 40
1.0
176
     0
 90
        2
176
     1
  1
strokes_ogs.tif
176
     1
290
     0
176
     1
 40
1.0
176
     1
 40
1.0
176
     1
  0
VISUALSTYLE
  5
36
102
{ACAD_REACTORS
330
2A
102
}
330
2A
100
AcDbVisualStyle
  2
Brighten
 70
    12
177
     3
291
     1
 70
    58
 90
        2
176
     1
 90
        2
176
     1
 90
        0
176
     1
 90
        0
176
     1
 40
0.6
176
     1
 40
30.0
176
     1
 62
     7
420
 16777215
176
     1
 90
        1
176
     1
 90
        4
176
     1
 62
     7
176
     1
 62
   257
176
     1
 90
        1
176
     1
 90
        1
176
     1
 40
1.0
176
     1
 90
        8
176
     1
 62
     7
176
     1
 40
1.0
176
     1
 90
        1
176
     1
 90
        6
176
     1
 90
        2
176
     1
 62
     7
176
     1
 90
        5
176
     1
 90
        0
176
     1
 90
        0
176
     1
290
     0
176
     1
 90
        1
176
     1
 40
50.0
176
     1
 90
        0
176
     1
290
     0
176
     1
290
     1
176
     1
290
     1
176
     1
290
     0
176
     1
290
     0
176
     1
290
     0
176
     1
290
     0
176
     1
290
     0
176
     1
290
     0
176
     1
 90
       50
176
     1
 40
0.0
176
     1
 40
1.0
176
     1
 90
        0
176
     1
 62
    18
420
        0
176
     1
 90
       50
176
     1
 90
        3
176
     1
 62
     5
420
      255
176
     1
290
     0
176
     1
 90
       50
176
     1
 90
       50
176
     1
 90
       50
176
     1
290
     0
176
     1
 90
       50
176
     1
 62
   256
176
     0
 40
1.0
176
     0
 90
        2
176
     1
  1
strokes_ogs.tif
176
     1
290
     0
176
     1
 40
1.0
176
     1
 40
1.0
176
     1
  0
VISUALSTYLE
  5
3A
102
{ACAD_REACTORS
330
2A
102
}
330
2A
100
AcDbVisualStyle
  2
ColorChange
 70
    16
177
     3
291
     1
 70
    58
 90
        2
176
     1
 90
        2
176
     1
 90
        3
176
     1
 90
        0
176
     1
 40
0.6
176
     1
 40
30.0
176
     1
 62
     8
420
  8421504
176
     1
 90
        1
176
     1
 90
        4
176
     1
 62
     7
176
     1
 62
   257
176
     1
 90
        1
176
     1
 90
        1
176
     1
 40
1.0
176
     1
 90
        8
176
     1
 62
     8
420
  8421504
176
     1
 40
1.0
176
     1
 90
        1
176
     1
 90
        6
176
     1
 90
        2
176
     1
 62
     7
176
     1
 90
        5
176
     1
 90
        0
176
     1
 90
        0
176
     1
290
     0
176
     1
 90
        1
176
     1
 40
0.0
176
     1
 90
        0
176
     1
290
     0
176
     1
290
     1
176
     1
290
     1
176
     1
290
     0
176
     1
290
     0
176
     1
290
     0
176
     1
290
     0
176
     1
290
     0
176
     1
290
     0
176
     1
 90
       50
176
     1
 40
0.0
176
     1
 40
1.0
176
     1
 90
        0
176
     1
 62
    18
420
        0
176
     1
 90
       50
176
     1
 90
        3
176
     1
 62
     5
420
      255
176
     1
290
     0
176
     1
 90
       50
176
     1
 90
       50
176
     1
 90
       50
176
     1
290
     0
176
     1
 90
       50
176
     1
 62
   256
176
     0
 40
1.0
176
     0
 90
        2
176
     1
  1
strokes_ogs.tif
176
     1
290
     0
176
     1
 40
1.0
176
     1
 40
1.0
176
     1
  0
VISUALSTYLE
  5
34
102
{ACAD_REACTORS
330
2A
102
}
330
2A
100
AcDbVisualStyle
  2
Conceptual
 70
     9
177
     3
291
     0
 70
    58
 90
        3
176
     1
 90
        2
176
     1
 90
        0
176
     1
 90
        0
176
     1
 40
0.6
176
     1
 40
30.0
176
     1
 62
     7
420
 16777215
176
     1
 90
        2
176
     1
 90
        2
176
     1
 62
     7
176
     1
 62
   257
176
     1
 90
        1
176
     1
 90
        1
176
     1
 40
179.0
176
     1
 90
        8
176
     1
 62
     7
176
     1
 40
1.0
176
     1
 90
        1
176
     1
 90
        6
176
     1
 90
        2
176
     1
 62
     7
176
     1
 90
        3
176
     1
 90
        0
176
     1
 90
        0
176
     1
290
     0
176
     1
 90
        1
176
     1
 40
0.0
176
     1
 90
        0
176
     1
290
     0
176
     1
290
     1
176
     1
290
     1
176
     1
290
     0
176
     1
290
     0
176
     1
290
     0
176
     1
290
     0
176
     1
290
     0
176
     1
290
     0
176
     1
 90
       50
176
     1
 40
0.0
176
     1
 40
1.0
176
     1
 90
        0
176
     1
 62
    18
420
        0
176
     1
 90
       50
176
     1
 90
        3
176
     1
 62
     5
420
      255
176
     1
290
     0
176
     1
 90
       50
176
     1
 90
       50
176
     1
 90
       50
176
     1
290
     0
176
     1
 90
       50
176
     1
 62
   256
176
     0
 40
1.0
176
     0
 90
        2
176
     1
  1
strokes_ogs.tif
176
     1
290
     0
176
     1
 40
1.0
176
     1
 40
1.0
176
     1
  0
VISUALSTYLE
  5
35
102
{ACAD_REACTORS
330
2A
102
}
330
2A
100
AcDbVisualStyle
  2
Dim
 70
    11
177
     3
291
     1
 70
    58
 90
        2
176
     1
 90
        2
176
     1
 90
        0
176
     1
 90
        0
176
     1
 40
0.6
176
     1
 40
30.0
176
     1
 62
     7
420
 16777215
176
     1
 90
        1
176
     1
 90
        4
176
     1
 62
     7
176
     1
 62
   257
176
     1
 90
        1
176
     1
 90
        1
176
     1
 40
1.0
176
     1
 90
        8
176
     1
 62
     7
176
     1
 40
1.0
176
     1
 90
        1
176
     1
 90
        6
176
     1
 90
        2
176
     1
 62
     7
176
     1
 90
        5
176
     1
 90
        0
176
     1
 90
        0
176
     1
290
     0
176
     1
 90
        1
176
     1
 40
-50.0
176
     1
 90
        0
176
     1
290
     0
176
     1
290
     1
176
     1
290
     1
176
     1
290
     0
176
     1
290
     0
176
     1
290
     0
176
     1
290
     0
176
     1
290
     0
176
     1
290
     0
176
     1
 90
       50
176
     1
 40
0.0
176
     1
 40
1.0
176
     1
 90
        0
176
     1
 62
    18
420
        0
176
     1
 90
       50
176
     1
 90
        3
176
     1
 62
     5
420
      255
176
     1
290
     0
176
     1
 90
       50
176
     1
 90
       50
176
     1
 90
       50
176
     1
290
     0
176
     1
 90
       50
176
     1
 62
   256
176
     0
 40
1.0
176
     0
 90
        2
176
     1
  1
strokes_ogs.tif
176
     1
290
     0
176
     1
 40
1.0
176
     1
 40
1.0
176
     1
  0
VISUALSTYLE
  5
3D
102
{ACAD_REACTORS
330
2A
102
}
330
2A
100
AcDbVisualStyle
  2
EdgeColorOff
 70
    22
177
     3
291
     1
 70
    58
 90
        2
176
     0
 90
        2
176
     0
 90
        0
176
     0
 90
        0
176
     0
 40
0.6
176
     0
 40
30.0
176
     0
 62
     7
420
 16777215
176
     0
 90
        1
176
     0
 90
        4
176
     0
 62
     7
176
     0
 62
   257
176
     0
 90
        1
176
     0
 90
        1
176
     0
 40
1.0
176
     0
 90
        8
176
     2
 62
     7
176
     0
 40
1.0
176
     0
 90
        1
176
     0
 90
        6
176
     0
 90
        2
176
     0
 62
     7
176
     0
 90
        5
176
     0
 90
        0
176
     0
 90
        0
176
     0
290
     0
176
     0
 90
        1
176
     0
 40
0.0
176
     0
 90
        0
176
     0
290
     0
176
     0
290
     1
176
     0
290
     1
176
     0
290
     0
176
     0
290
     0
176
     0
290
     0
176
     0
290
     0
176
     0
290
     0
176
     0
290
     0
176
     0
 90
       50
176
     0
 40
0.0
176
     0
 40
1.0
176
     0
 90
        0
176
     0
 62
    18
420
        0
176
     0
 90
       50
176
     0
 90
        3
176
     0
 62
     5
420
      255
176
     0
290
     0
176
     0
 90
       50
176
     0
 90
       50
176
     0
 90
       50
176
     0
290
     0
176
     0
 90
       50
176
     0
 62
   256
176
     0
 40
1.0
176
     0
 90
        2
176
     0
  1
strokes_ogs.tif
176
     0
290
     0
176
     0
 40
1.0
176
     0
 40
1.0
176
     0
  0
VISUALSTYLE
  5
39
102
{ACAD_REACTORS
330
2A
102
}
330
2A
100
AcDbVisualStyle
  2
Facepattern
 70
    15
177
     3
291
     1
 70
    58
 90
        2
176
     1
 90
        2
176
     1
 90
        0
176
     1
 90
        0
176
     1
 40
0.6
176
     1
 40
30.0
176
     1
 62
     7
420
 16777215
176
     1
 90
        1
176
     1
 90
        4
176
     1
 62
     7
176
     1
 62
   257
176
     1
 90
        1
176
     1
 90
        1
176
     1
 40
1.0
176
     1
 90
        8
176
     1
 62
     7
176
     1
 40
1.0
176
     1
 90
        1
176
     1
 90
        6
176
     1
 90
        2
176
     1
 62
     7
176
     1
 90
        5
176
     1
 90
        0
176
     1
 90
        0
176
     1
290
     0
176
     1
 90
        1
176
     1
 40
0.0
176
     1
 90
        0
176
     1
290
     0
176
     1
290
     1
176
     1
290
     1
176
     1
290
     0
176
     1
290
     0
176
     1
290
     0
176
     1
290
     0
176
     1
290
     0
176
     1
290
     0
176
     1
 90
       50
176
     1
 40
0.0
176
     1
 40
1.0
176
     1
 90
        0
176
     1
 62
    18
420
        0
176
     1
 90
       50
176
     1
 90
        3
176
     1
 62
     5
420
      255
176
     1
290
     0
176
     1
 90
       50
176
     1
 90
       50
176
     1
 90
       50
176
     1
290
     0
176
     1
 90
       50
176
     1
 62
   256
176
     0
 40
1.0
176
     0
 90
        2
176
     1
  1
strokes_ogs.tif
176
     1
290
     0
176
     1
 40
1.0
176
     1
 40
1.0
176
     1
  0
VISUALSTYLE
  5
2B
102
{ACAD_REACTORS
330
2A
102
}
330
2A
100
AcDbVisualStyle
  2
Flat
 70
     0
177
     3
291
     1
 70
    58
 90
        2
176
     1
 90
        1
176
     1
 90
        1
176
     1
 90
        2
176
     1
 40
0.6
176
     1
 40
30.0
176
     1
 62
     7
420
 16777215
176
     1
 90
        0
176
     1
 90
        0
176
     1
 62
     7
176
     1
 62
   257
176
     1
 90
        1
176
     1
 90
        1
176
     1
 40
1.0
176
     1
 90
        8
176
     1
 62
     7
176
     1
 40
1.0
176
     1
 90
        1
176
     1
 90
        6
176
     1
 90
        2
176
     1
 62
     7
176
     1
 90
        5
176
     1
 90
        0
176
     1
 90
        0
176
     1
290
     0
176
     1
 90
       13
176
     1
 40
0.0
176
     1
 90
        0
176
     1
290
     0
176
     1
290
     1
176
     1
290
     1
176
     1
290
     0
176
     1
290
     0
176
     1
290
     0
176
     1
290
     0
176
     1
290
     0
176
     1
290
     0
176
     1
 90
       50
176
     1
 40
0.0
176
     1
 40
1.0
176
     1
 90
        0
176
     1
 62
    18
420
        0
176
     1
 90
       50
176
     1
 90
        3
176
     1
 62
     5
420
      255
176
     1
290
     0
176
     1
 90
       50
176
     1
 90
       50
176
     1
 90
       50
176
     1
290
     0
176
     1
 90
       50
176
     1
 62
   256
176
     0
 40
1.0
176
     0
 90
        2
176
     1
  1
strokes_ogs.tif
176
     1
290
     0
176
     1
 40
1.0
176
     1
 40
1.0
176
     1
  0
VISUALSTYLE
  5
2C
102
{ACAD_REACTORS
330
2A
102
}
330
2A
100
AcDbVisualStyle
  2
FlatWithEdges
 70
     1
177
     3
291
     1
 70
    58
 90
        2
176
     1
 90
        1
176
     1
 90
        1
176
     1
 90
        2
176
     1
 40
0.6
176
     1
 40
30.0
176
     1
 62
     7
420
 16777215
176
     1
 90
        1
176
     1
 90
        0
176
     1
 62
     7
176
     1
 62
   257
176
     1
 90
        1
176
     1
 90
        1
176
     1
 40
1.0
176
     1
 90
        0
176
     1
 62
   257
176
     1
 40
1.0
176
     1
 90
        1
176
     1
 90
        6
176
     1
 90
        2
176
     1
 62
     7
176
     1
 90
        5
176
     1
 90
        0
176
     1
 90
        0
176
     1
290
     0
176
     1
 90
       13
176
     1
 40
0.0
176
     1
 90
        0
176
     1
290
     0
176
     1
290
     1
176
     1
290
     1
176
     1
290
     0
176
     1
290
     0
176
     1
290
     0
176
     1
290
     0
176
     1
290
     0
176
     1
290
     0
176
     1
 90
       50
176
     1
 40
0.0
176
     1
 40
1.0
176
     1
 90
        0
176
     1
 62
    18
420
        0
176
     1
 90
       50
176
     1
 90
        3
176
     1
 62
     5
420
      255
176
     1
290
     0
176
     1
 90
       50
176
     1
 90
       50
176
     1
 90
       50
176
     1
290
     0
176
     1
 90
       50
176
     1
 62
   256
176
     0
 40
1.0
176
     0
 90
        2
176
     1
  1
strokes_ogs.tif
176
     1
290
     0
176
     1
 40
1.0
176
     1
 40
1.0
176
     1
  0
VISUALSTYLE
  5
2D
102
{ACAD_REACTORS
330
2A
102
}
330
2A
100
AcDbVisualStyle
  2
Gouraud
 70
     2
177
     3
291
     1
 70
    58
 90
        2
176
     1
 90
        2
176
     1
 90
        1
176
     1
 90
        2
176
     1
 40
0.6
176
     1
 40
30.0
176
     1
 62
     7
420
 16777215
176
     1
 90
        0
176
     1
 90
        0
176
     1
 62
     7
176
     1
 62
   257
176
     1
 90
        1
176
     1
 90
        1
176
     1
 40
1.0
176
     1
 90
        0
176
     1
 62
     7
176
     1
 40
1.0
176
     1
 90
        1
176
     1
 90
        6
176
     1
 90
        2
176
     1
 62
     7
176
     1
 90
        5
176
     1
 90
        0
176
     1
 90
        0
176
     1
290
     0
176
     1
 90
       13
176
     1
 40
0.0
176
     1
 90
        0
176
     1
290
     0
176
     1
290
     1
176
     1
290
     1
176
     1
290
     0
176
     1
290
     0
176
     1
290
     0
176
     1
290
     0
176
     1
290
     0
176
     1
290
     0
176
     1
 90
       50
176
     1
 40
0.0
176
     1
 40
1.0
176
     1
 90
        0
176
     1
 62
    18
420
        0
176
     1
 90
       50
176
     1
 90
        3
176
     1
 62
     5
420
      255
176
     1
290
     0
176
     1
 90
       50
176
     1
 90
       50
176
     1
 90
       50
176
     1
290
     0
176
     1
 90
       50
176
     1
 62
   256
176
     0
 40
1.0
176
     0
 90
        2
176
     1
  1
strokes_ogs.tif
176
     1
290
     0
176
     1
 40
1.0
176
     1
 40
1.0
176
     1
  0
VISUALSTYLE
  5
2E
102
{ACAD_REACTORS
330
2A
102
}
330
2A
100
AcDbVisualStyle
  2
GouraudWithEdges
 70
     3
177
     3
291
     1
 70
    58
 90
        2
176
     1
 90
        2
176
     1
 90
        1
176
     1
 90
        2
176
     1
 40
0.6
176
     1
 40
30.0
176
     1
 62
     7
420
 16777215
176
     1
 90
        1
176
     1
 90
        0
176
     1
 62
     7
176
     1
 62
   257
176
     1
 90
        1
176
     1
 90
        1
176
     1
 40
1.0
176
     1
 90
        0
176
     1
 62
   257
176
     1
 40
1.0
176
     1
 90
        1
176
     1
 90
        6
176
     1
 90
        2
176
     1
 62
     7
176
     1
 90
        5
176
     1
 90
        0
176
     1
 90
        0
176
     1
290
     0
176
     1
 90
       13
176
     1
 40
0.0
176
     1
 90
        0
176
     1
290
     0
176
     1
290
     1
176
     1
290
     1
176
     1
290
     0
176
     1
290
     0
176
     1
290
     0
176
     1
290
     0
176
     1
290
     0
176
     1
290
     0
176
     1
 90
       50
176
     1
 40
0.0
176
     1
 40
1.0
176
     1
 90
        0
176
     1
 62
    18
420
        0
176
     1
 90
       50
176
     1
 90
        3
176
     1
 62
     5
420
      255
176
     1
290
     0
176
     1
 90
       50
176
     1
 90
       50
176
     1
 90
       50
176
     1
290
     0
176
     1
 90
       50
176
     1
 62
   256
176
     0
 40
1.0
176
     0
 90
        2
176
     1
  1
strokes_ogs.tif
176
     1
290
     0
176
     1
 40
1.0
176
     1
 40
1.0
176
     1
  0
VISUALSTYLE
  5
31
102
{ACAD_REACTORS
330
2A
102
}
330
2A
100
AcDbVisualStyle
  2
Hidden
 70
     6
177
     3
291
     0
 70
    58
 90
        1
176
     1
 90
        2
176
     1
 90
        2
176
     1
 90
        0
176
     1
 40
0.6
176
     1
 40
30.0
176
     1
 62
     7
420
 16777215
176
     1
 90
        2
176
     1
 90
        2
176
     1
 62
     7
176
     1
 62
   257
176
     1
 90
        2
176
     1
 90
        1
176
     1
 40
40.0
176
     1
 90
        0
176
     1
 62
   257
176
     1
 40
1.0
176
     1
 90
        1
176
     1
 90
        6
176
     1
 90
        2
176
     1
 62
     7
176
     1
 90
        3
176
     1
 90
        0
176
     1
 90
        0
176
     1
290
     0
176
     1
 90
        1
176
     1
 40
0.0
176
     1
 90
        0
176
     1
290
     0
176
     1
290
     1
176
     1
290
     1
176
     1
290
     0
176
     1
290
     0
176
     1
290
     0
176
     1
290
     0
176
     1
290
     0
176
     1
290
     0
176
     1
 90
       50
176
     1
 40
0.0
176
     1
 40
1.0
176
     1
 90
        0
176
     1
 62
    18
420
        0
176
     1
 90
       50
176
     1
 90
        3
176
     1
 62
     5
420
      255
176
     1
290
     0
176
     1
 90
       50
176
     1
 90
       50
176
     1
 90
       50
176
     1
290
     0
176
     1
 90
       50
176
     1
 62
   256
176
     0
 40
1.0
176
     0
 90
        2
176
     1
  1
strokes_ogs.tif
176
     1
290
     0
176
     1
 40
1.0
176
     1
 40
1.0
176
     1
  0
VISUALSTYLE
  5
3B
102
{ACAD_REACTORS
330
2A
102
}
330
2A
100
AcDbVisualStyle
  2
JitterOff
 70
    20
177
     3
291
     1
 70
    58
 90
        2
176
     0
 90
        2
176
     0
 90
        0
176
     0
 90
        0
176
     0
 40
0.6
176
     0
 40
30.0
176
     0
 62
     7
420
 16777215
176
     0
 90
        1
176
     0
 90
        4
176
     0
 62
     7
176
     0
 62
   257
176
     0
 90
        1
176
     0
 90
        1
176
     0
 40
1.0
176
     0
 90
       10
176
     2
 62
     7
176
     0
 40
1.0
176
     0
 90
        1
176
     0
 90
        6
176
     0
 90
        2
176
     0
 62
     7
176
     0
 90
        5
176
     0
 90
        0
176
     0
 90
        0
176
     0
290
     0
176
     0
 90
        1
176
     0
 40
0.0
176
     0
 90
        0
176
     0
290
     0
176
     0
290
     1
176
     0
290
     1
176
     0
290
     0
176
     0
290
     0
176
     0
290
     0
176
     0
290
     0
176
     0
290
     0
176
     0
290
     0
176
     0
 90
       50
176
     0
 40
0.0
176
     0
 40
1.0
176
     0
 90
        0
176
     0
 62
    18
420
        0
176
     0
 90
       50
176
     0
 90
        3
176
     0
 62
     5
420
      255
176
     0
290
     0
176
     0
 90
       50
176
     0
 90
       50
176
     0
 90
       50
176
     0
290
     0
176
     0
 90
       50
176
     0
 62
   256
176
     0
 40
1.0
176
     0
 90
        2
176
     0
  1
strokes_ogs.tif
176
     0
290
     0
176
     0
 40
1.0
176
     0
 40
1.0
176
     0
  0
VISUALSTYLE
  5
38
102
{ACAD_REACTORS
330
2A
102
}
330
2A
100
AcDbVisualStyle
  2
Linepattern
 70
    14
177
     3
291
     1
 70
    58
 90
        2
176
     1
 90
        2
176
     1
 90
        0
176
     1
 90
        0
176
     1
 40
0.6
176
     1
 40
30.0
176
     1
 62
     7
420
 16777215
176
     1
 90
        1
176
     1
 90
        4
176
     1
 62
     7
176
     1
 62
   257
176
     1
 90
        7
176
     1
 90
        7
176
     1
 40
1.0
176
     1
 90
        8
176
     1
 62
     7
176
     1
 40
1.0
176
     1
 90
        1
176
     1
 90
        6
176
     1
 90
        2
176
     1
 62
     7
176
     1
 90
        5
176
     1
 90
        0
176
     1
 90
        0
176
     1
290
     0
176
     1
 90
        1
176
     1
 40
0.0
176
     1
 90
        0
176
     1
290
     0
176
     1
290
     1
176
     1
290
     1
176
     1
290
     0
176
     1
290
     0
176
     1
290
     0
176
     1
290
     0
176
     1
290
     0
176
     1
290
     0
176
     1
 90
       50
176
     1
 40
0.0
176
     1
 40
1.0
176
     1
 90
        0
176
     1
 62
    18
420
        0
176
     1
 90
       50
176
     1
 90
        3
176
     1
 62
     5
420
      255
176
     1
290
     0
176
     1
 90
       50
176
     1
 90
       50
176
     1
 90
       50
176
     1
290
     0
176
     1
 90
       50
176
     1
 62
   256
176
     0
 40
1.0
176
     0
 90
        2
176
     1
  1
strokes_ogs.tif
176
     1
290
     0
176
     1
 40
1.0
176
     1
 40
1.0
176
     1
  0
VISUALSTYLE
  5
3C
102
{ACAD_REACTORS
330
2A
102
}
330
2A
100
AcDbVisualStyle
  2
OverhangOff
 70
    21
177
     3
291
     1
 70
    58
 90
        2
176
     0
 90
        2
176
     0
 90
        0
176
     0
 90
        0
176
     0
 40
0.6
176
     0
 40
30.0
176
     0
 62
     7
420
 16777215
176
     0
 90
        1
176
     0
 90
        4
176
     0
 62
     7
176
     0
 62
   257
176
     0
 90
        1
176
     0
 90
        1
176
     0
 40
1.0
176
     0
 90
        9
176
     2
 62
     7
176
     0
 40
1.0
176
     0
 90
        1
176
     0
 90
        6
176
     0
 90
        2
176
     0
 62
     7
176
     0
 90
        5
176
     0
 90
        0
176
     0
 90
        0
176
     0
290
     0
176
     0
 90
        1
176
     0
 40
0.0
176
     0
 90
        0
176
     0
290
     0
176
     0
290
     1
176
     0
290
     1
176
     0
290
     0
176
     0
290
     0
176
     0
290
     0
176
     0
290
     0
176
     0
290
     0
176
     0
290
     0
176
     0
 90
       50
176
     0
 40
0.0
176
     0
 40
1.0
176
     0
 90
        0
176
     0
 62
    18
420
        0
176
     0
 90
       50
176
     0
 90
        3
176
     0
 62
     5
420
      255
176
     0
290
     0
176
     0
 90
       50
176
     0
 90
       50
176
     0
 90
       50
176
     0
290
     0
176
     0
 90
       50
176
     0
 62
   256
176
     0
 40
1.0
176
     0
 90
        2
176
     0
  1
strokes_ogs.tif
176
     0
290
     0
176
     0
 40
1.0
176
     0
 40
1.0
176
     0
  0
VISUALSTYLE
  5
33
102
{ACAD_REACTORS
330
2A
102
}
330
2A
100
AcDbVisualStyle
  2
Realistic
 70
     8
177
     3
291
     0
 70
    58
 90
        2
176
     1
 90
        3
176
     1
 90
        0
176
     1
 90
        2
176
     1
 40
0.6
176
     1
 40
30.0
176
     1
 62
     7
420
 16777215
176
     1
 90
        0
176
     1
 90
        0
176
     1
 62
     7
176
     1
 62
   257
176
     1
 90
        1
176
     1
 90
        1
176
     1
 40
1.0
176
     1
 90
        8
176
     1
 62
   257
176
     1
 40
1.0
176
     1
 90
        1
176
     1
 90
        6
176
     1
 90
        2
176
     1
 62
     7
176
     1
 90
        3
176
     1
 90
        0
176
     1
 90
        0
176
     1
290
     0
176
     1
 90
       13
176
     1
 40
0.0
176
     1
 90
        0
176
     1
290
     0
176
     1
290
     1
176
     1
290
     1
176
     1
290
     0
176
     1
290
     0
176
     1
290
     0
176
     1
290
     0
176
     1
290
     0
176
     1
290
     0
176
     1
 90
       50
176
     1
 40
0.0
176
     1
 40
1.0
176
     1
 90
        0
176
     1
 62
    18
420
        0
176
     1
 90
       50
176
     1
 90
        3
176
     1
 62
     5
420
      255
176
     1
290
     0
176
     1
 90
       50
176
     1
 90
       50
176
     1
 90
       50
176
     1
290
     0
176
     1
 90
       50
176
     1
 62
   256
176
     0
 40
1.0
176
     0
 90
        2
176
     1
  1
strokes_ogs.tif
176
     1
290
     0
176
     1
 40
1.0
176
     1
 40
1.0
176
     1
  0
VISUALSTYLE
  5
42
102
{ACAD_REACTORS
330
2A
102
}
330
2A
100
AcDbVisualStyle
  2
Shaded
 70
    27
177
     3
291
     0
 70
    58
 90
        2
176
     1
 90
        2
176
     1
 90
        1
176
     1
 90
        2
176
     1
 40
0.6
176
     1
 40
30.0
176
     1
 62
     7
420
 16777215
176
     1
 90
        0
176
     1
 90
        4
176
     1
 62
     7
176
     1
 62
   257
176
     1
 90
        1
176
     1
 90
        1
176
     1
 40
1.0
176
     1
 90
        8
176
     1
 62
   257
176
     1
 40
1.0
176
     1
 90
        1
176
     1
 90
        6
176
     1
 90
        2
176
     1
 62
     8
420
  7895160
176
     1
 90
        3
176
     1
 90
        0
176
     1
 90
        0
176
     1
290
     0
176
     1
 90
        5
176
     1
 40
0.0
176
     1
 90
        0
176
     1
290
     0
176
     1
290
     1
176
     1
290
     1
176
     1
290
     0
176
     1
290
     0
176
     1
290
     0
176
     1
290
     0
176
     1
290
     0
176
     1
290
     0
176
     1
 90
       50
176
     1
 40
0.0
176
     1
 40
1.0
176
     1
 90
        0
176
     1
 62
    18
420
        0
176
     1
 90
       50
176
     1
 90
        3
176
     1
 62
     5
420
      255
176
     1
290
     0
176
     1
 90
       50
176
     1
 90
       50
176
     1
 90
       50
176
     1
290
     0
176
     1
 90
       50
176
     1
 62
   256
176
     0
 40
1.0
176
     0
 90
        2
176
     1
  1
strokes_ogs.tif
176
     1
290
     0
176
     1
 40
1.0
176
     1
 40
1.0
176
     1
  0
VISUALSTYLE
  5
41
102
{ACAD_REACTORS
330
2A
102
}
330
2A
100
AcDbVisualStyle
  2
Shaded with edges
 70
    26
177
     3
291
     0
 70
    58
 90
        2
176
     1
 90
        2
176
     1
 90
        1
176
     1
 90
        2
176
     1
 40
0.6
176
     1
 40
30.0
176
     1
 62
     7
420
 16777215
176
     1
 90
        1
176
     1
 90
       10
176
     1
 62
     7
176
     1
 62
   257
176
     1
 90
        2
176
     1
 90
        1
176
     1
 40
1.0
176
     1
 90
        8
176
     1
 62
   257
176
     1
 40
1.0
176
     1
 90
        1
176
     1
 90
        6
176
     1
 90
        2
176
     1
 62
     7
176
     1
 90
        3
176
     1
 90
        0
176
     1
 90
        0
176
     1
290
     0
176
     1
 90
        5
176
     1
 40
0.0
176
     1
 90
        0
176
     1
290
     0
176
     1
290
     1
176
     1
290
     1
176
     1
290
     0
176
     1
290
     0
176
     1
290
     0
176
     1
290
     0
176
     1
290
     0
176
     1
290
     0
176
     1
 90
       50
176
     1
 40
0.0
176
     1
 40
1.0
176
     1
 90
        0
176
     1
 62
    18
420
        0
176
     1
 90
       50
176
     1
 90
        3
176
     1
 62
     5
420
      255
176
     1
290
     0
176
     1
 90
       50
176
     1
 90
       50
176
     1
 90
       50
176
     1
290
     0
176
     1
 90
       50
176
     1
 62
   256
176
     0
 40
1.0
176
     0
 90
        2
176
     1
  1
strokes_ogs.tif
176
     1
290
     0
176
     1
 40
1.0
176
     1
 40
1.0
176
     1
  0
VISUALSTYLE
  5
3E
102
{ACAD_REACTORS
330
2A
102
}
330
2A
100
AcDbVisualStyle
  2
Shades of Gray
 70
    23
177
     3
291
     0
 70
    58
 90
        2
176
     1
 90
        2
176
     1
 90
        3
176
     1
 90
        0
176
     1
 40
0.6
176
     1
 40
30.0
176
     1
 62
     7
420
 16777215
176
     1
 90
        2
176
     1
 90
        2
176
     1
 62
     7
176
     1
 62
     7
176
     1
 90
        1
176
     1
 90
        1
176
     1
 40
40.0
176
     1
 90
        8
176
     1
 62
     7
176
     1
 40
1.0
176
     1
 90
        1
176
     1
 90
        6
176
     1
 90
        2
176
     1
 62
     7
176
     1
 90
        3
176
     1
 90
        0
176
     1
 90
        0
176
     1
290
     0
176
     1
 90
        1
176
     1
 40
0.0
176
     1
 90
        0
176
     1
290
     0
176
     1
290
     1
176
     1
290
     1
176
     1
290
     0
176
     1
290
     0
176
     1
290
     0
176
     1
290
     0
176
     1
290
     0
176
     1
290
     0
176
     1
 90
       50
176
     1
 40
0.0
176
     1
 40
1.0
176
     1
 90
        0
176
     1
 62
    18
420
        0
176
     1
 90
       50
176
     1
 90
        3
176
     1
 62
     5
420
      255
176
     1
290
     0
176
     1
 90
       50
176
     1
 90
       50
176
     1
 90
       50
176
     1
290
     0
176
     1
 90
       50
176
     1
 62
   256
176
     0
 40
1.0
176
     0
 90
        2
176
     1
  1
strokes_ogs.tif
176
     1
290
     0
176
     1
 40
1.0
176
     1
 40
1.0
176
     1
  0
VISUALSTYLE
  5
3F
102
{ACAD_REACTORS
330
2A
102
}
330
2A
100
AcDbVisualStyle
  2
Sketchy
 70
    24
177
     3
291
     0
 70
    58
 90
        1
176
     1
 90
        2
176
     1
 90
        2
176
     1
 90
        0
176
     1
 40
0.6
176
     1
 40
30.0
176
     1
 62
     7
420
 16777215
176
     1
 90
        2
176
     1
 90
        2
176
     1
 62
     7
176
     1
 62
     7
176
     1
 90
        1
176
     1
 90
        1
176
     1
 40
40.0
176
     1
 90
       11
176
     1
 62
     7
176
     1
 40
1.0
176
     1
 90
        1
176
     1
 90
        6
176
     1
 90
        2
176
     1
 62
     7
176
     1
 90
        6
176
     1
 90
        0
176
     1
 90
        0
176
     1
290
     0
176
     1
 90
        1
176
     1
 40
0.0
176
     1
 90
        0
176
     1
290
     0
176
     1
290
     1
176
     1
290
     1
176
     1
290
     0
176
     1
290
     0
176
     1
290
     0
176
     1
290
     0
176
     1
290
     0
176
     1
290
     0
176
     1
 90
       50
176
     1
 40
0.0
176
     1
 40
1.0
176
     1
 90
        0
176
     1
 62
    18
420
        0
176
     1
 90
       50
176
     1
 90
        3
176
     1
 62
     5
420
      255
176
     1
290
     0
176
     1
 90
       50
176
     1
 90
       50
176
     1
 90
       50
176
     1
290
     0
176
     1
 90
       50
176
     1
 62
   256
176
     0
 40
1.0
176
     0
 90
        2
176
     1
  1
strokes_ogs.tif
176
     1
290
     0
176
     1
 40
1.0
176
     1
 40
1.0
176
     1
  0
VISUALSTYLE
  5
37
102
{ACAD_REACTORS
330
2A
102
}
330
2A
100
AcDbVisualStyle
  2
Thicken
 70
    13
177
     3
291
     1
 70
    58
 90
        2
176
     1
 90
        2
176
     1
 90
        0
176
     1
 90
        0
176
     1
 40
0.6
176
     1
 40
30.0
176
     1
 62
     7
420
 16777215
176
     1
 90
        1
176
     1
 90
        4
176
     1
 62
     7
176
     1
 62
   257
176
     1
 90
        1
176
     1
 90
        1
176
     1
 40
1.0
176
     1
 90
       12
176
     1
 62
     7
176
     1
 40
1.0
176
     1
 90
        1
176
     1
 90
        6
176
     1
 90
        2
176
     1
 62
     7
176
     1
 90
        5
176
     1
 90
        0
176
     1
 90
        0
176
     1
290
     0
176
     1
 90
        1
176
     1
 40
0.0
176
     1
 90
        0
176
     1
290
     0
176
     1
290
     1
176
     1
290
     1
176
     1
290
     0
176
     1
290
     0
176
     1
290
     0
176
     1
290
     0
176
     1
290
     0
176
     1
290
     0
176
     1
 90
       50
176
     1
 40
0.0
176
     1
 40
1.0
176
     1
 90
        0
176
     1
 62
    18
420
        0
176
     1
 90
       50
176
     1
 90
        3
176
     1
 62
     5
420
      255
176
     1
290
     0
176
     1
 90
       50
176
     1
 90
       50
176
     1
 90
       50
176
     1
290
     0
176
     1
 90
       50
176
     1
 62
   256
176
     0
 40
1.0
176
     0
 90
        2
176
     1
  1
strokes_ogs.tif
176
     1
290
     0
176
     1
 40
1.0
176
     1
 40
1.0
176
     1
  0
VISUALSTYLE
  5
30
102
{ACAD_REACTORS
330
2A
102
}
330
2A
100
AcDbVisualStyle
  2
Wireframe
 70
     5
177
     3
291
     0
 70
    58
 90
        0
176
     1
 90
        2
176
     1
 90
        0
176
     1
 90
        0
176
     1
 40
0.6
176
     1
 40
30.0
176
     1
 62
     7
420
 16777215
176
     1
 90
        1
176
     1
 90
        4
176
     1
 62
     7
176
     1
 62
   257
176
     1
 90
        1
176
     1
 90
        1
176
     1
 40
1.0
176
     1
 90
        0
176
     1
 62
   257
176
     1
 40
1.0
176
     1
 90
        1
176
     1
 90
        6
176
     1
 90
        2
176
     1
 62
     7
176
     1
 90
        3
176
     1
 90
        0
176
     1
 90
        0
176
     1
290
     0
176
     1
 90
        1
176
     1
 40
0.0
176
     1
 90
        0
176
     1
290
     0
176
     1
290
     1
176
     1
290
     1
176
     1
290
     0
176
     1
290
     0
176
     1
290
     0
176
     1
290
     0
176
     1
290
     0
176
     1
290
     0
176
     1
 90
       50
176
     1
 40
0.0
176
     1
 40
1.0
176
     1
 90
        0
176
     1
 62
    18
420
        0
176
     1
 90
       50
176
     1
 90
        3
176
     1
 62
     5
420
      255
176
     1
290
     0
176
     1
 90
       50
176
     1
 90
       50
176
     1
 90
       50
176
     1
290
     0
176
     1
 90
       50
176
     1
 62
   256
176
     0
 40
1.0
176
     0
 90
        2
176
     1
  1
strokes_ogs.tif
176
     1
290
     0
176
     1
 40
1.0
176
     1
 40
1.0
176
     1
  0
VISUALSTYLE
  5
40
102
{ACAD_REACTORS
330
2A
102
}
330
2A
100
AcDbVisualStyle
  2
X-Ray
 70
    25
177
     3
291
     0
 70
    58
 90
        2
176
     1
 90
        2
176
     1
 90
        1
176
     1
 90
        1
176
     1
 40
0.5
176
     1
 40
30.0
176
     1
 62
     7
420
 16777215
176
     1
 90
        1
176
     1
 90
        0
176
     1
 62
     7
176
     1
 62
   257
176
     1
 90
        1
176
     1
 90
        1
176
     1
 40
1.0
176
     1
 90
        8
176
     1
 62
     7
176
     1
 40
1.0
176
     1
 90
        1
176
     1
 90
        6
176
     1
 90
        2
176
     1
 62
     7
176
     1
 90
        3
176
     1
 90
        0
176
     1
 90
        0
176
     1
290
     0
176
     1
 90
       13
176
     1
 40
0.0
176
     1
 90
        0
176
     1
290
     0
176
     1
290
     1
176
     1
290
     1
176
     1
290
     0
176
     1
290
     0
176
     1
290
     0
176
     1
290
     0
176
     1
290
     0
176
     1
290
     0
176
     1
 90
       50
176
     1
 40
0.0
176
     1
 40
1.0
176
     1
 90
        0
176
     1
 62
    18
420
        0
176
     1
 90
       50
176
     1
 90
        3
176
     1
 62
     5
420
      255
176
     1
290
     0
176
     1
 90
       50
176
     1
 90
       50
176
     1
 90
       50
176
     1
290
     0
176
     1
 90
       50
176
     1
 62
   256
176
     0
 40
1.0
176
     0
 90
        2
176
     1
  1
strokes_ogs.tif
176
     1
290
     0
176
     1
 40
1.0
176
     1
 40
1.0
176
     1
  0
DICTIONARYVAR
  5
246
102
{ACAD_REACTORS
330
245
102
}
330
245
100
DictionaryVariables
280
     0
  1
1:1
  0
DICTIONARYVAR
  5
24B
102
{ACAD_REACTORS
330
245
102
}
330
245
100
DictionaryVariables
280
     0
  1
Standard
  0
DICTIONARYVAR
  5
24A
102
{ACAD_REACTORS
330
245
102
}
330
245
100
DictionaryVariables
280
     0
  1
Standard
  0
DICTIONARY
  5
247
330
6A
100
AcDbDictionary
280
     1
281
     1
  3
ACAD_ROUNDTRIP_2008_TABLESTYLE_CELLSTYLEMAP
360
248
  0
CELLSTYLEMAP
  5
248
102
{ACAD_REACTORS
330
247
102
}
330
247
100
AcDbCellStyleMap
 90
        3
300
CELLSTYLE
  1
TABLEFORMAT_BEGIN
 90
        5
170
     1
 91
        0
 92
    32768
 62
   257
 93
        1
300
CONTENTFORMAT
  1
CONTENTFORMAT_BEGIN
 90
        0
 91
        0
 92
        4
 93
        0
300

 40
0.0
140
1.0
 94
        5
 62
     0
340
11
144
0.25
309
CONTENTFORMAT_END
171
     1
301
MARGIN
  1
CELLMARGIN_BEGIN
 40
0.06
 40
0.06
 40
0.06
 40
0.06
 40
0.06
 40
0.06
309
CELLMARGIN_END
 94
        6
 95
        1
302
GRIDFORMAT
  1
GRIDFORMAT_BEGIN
 90
        0
 91
        1
 62
     0
 92
       -2
340
14
 93
        0
 40
0.045
309
GRIDFORMAT_END
 95
        2
302
GRIDFORMAT
  1
GRIDFORMAT_BEGIN
 90
        0
 91
        1
 62
     0
 92
       -2
340
14
 93
        0
 40
0.045
309
GRIDFORMAT_END
 95
        4
302
GRIDFORMAT
  1
GRIDFORMAT_BEGIN
 90
        0
 91
        1
 62
     0
 92
       -2
340
14
 93
        0
 40
0.045
309
GRIDFORMAT_END
 95
        8
302
GRIDFORMAT
  1
GRIDFORMAT_BEGIN
 90
        0
 91
        1
 62
     0
 92
       -2
340
14
 93
        0
 40
0.045
309
GRIDFORMAT_END
 95
       16
302
GRIDFORMAT
  1
GRIDFORMAT_BEGIN
 90
        0
 91
        1
 62
     0
 92
       -2
340
14
 93
        0
 40
0.045
309
GRIDFORMAT_END
 95
       32
302
GRIDFORMAT
  1
GRIDFORMAT_BEGIN
 90
        0
 91
        1
 62
     0
 92
       -2
340
14
 93
        0
 40
0.045
309
GRIDFORMAT_END
309
TABLEFORMAT_END
  1
CELLSTYLE_BEGIN
 90
        1
 91
        1
300
_TITLE
309
CELLSTYLE_END
300
CELLSTYLE
  1
TABLEFORMAT_BEGIN
 90
        5
170
     1
 91
        0
 92
        0
 62
   257
 93
        1
300
CONTENTFORMAT
  1
CONTENTFORMAT_BEGIN
 90
        0
 91
        0
 92
        4
 93
        0
300

 40
0.0
140
1.0
 94
        5
 62
     0
340
11
144
0.18
309
CONTENTFORMAT_END
171
     1
301
MARGIN
  1
CELLMARGIN_BEGIN
 40
0.06
 40
0.06
 40
0.06
 40
0.06
 40
0.06
 40
0.06
309
CELLMARGIN_END
 94
        6
 95
        1
302
GRIDFORMAT
  1
GRIDFORMAT_BEGIN
 90
        0
 91
        1
 62
     0
 92
       -2
340
14
 93
        0
 40
0.045
309
GRIDFORMAT_END
 95
        2
302
GRIDFORMAT
  1
GRIDFORMAT_BEGIN
 90
        0
 91
        1
 62
     0
 92
       -2
340
14
 93
        0
 40
0.045
309
GRIDFORMAT_END
 95
        4
302
GRIDFORMAT
  1
GRIDFORMAT_BEGIN
 90
        0
 91
        1
 62
     0
 92
       -2
340
14
 93
        0
 40
0.045
309
GRIDFORMAT_END
 95
        8
302
GRIDFORMAT
  1
GRIDFORMAT_BEGIN
 90
        0
 91
        1
 62
     0
 92
       -2
340
14
 93
        0
 40
0.045
309
GRIDFORMAT_END
 95
       16
302
GRIDFORMAT
  1
GRIDFORMAT_BEGIN
 90
        0
 91
        1
 62
     0
 92
       -2
340
14
 93
        0
 40
0.045
309
GRIDFORMAT_END
 95
       32
302
GRIDFORMAT
  1
GRIDFORMAT_BEGIN
 90
        0
 91
        1
 62
     0
 92
       -2
340
14
 93
        0
 40
0.045
309
GRIDFORMAT_END
309
TABLEFORMAT_END
  1
CELLSTYLE_BEGIN
 90
        2
 91
        1
300
_HEADER
309
CELLSTYLE_END
300
CELLSTYLE
  1
TABLEFORMAT_BEGIN
 90
        5
170
     1
 91
        0
 92
        0
 62
   257
 93
        1
300
CONTENTFORMAT
  1
CONTENTFORMAT_BEGIN
 90
        0
 91
        0
 92
        4
 93
        0
300

 40
0.0
140
1.0
 94
        2
 62
     0
340
11
144
0.18
309
CONTENTFORMAT_END
171
     1
301
MARGIN
  1
CELLMARGIN_BEGIN
 40
0.06
 40
0.06
 40
0.06
 40
0.06
 40
0.06
 40
0.06
309
CELLMARGIN_END
 94
        6
 95
        1
302
GRIDFORMAT
  1
GRIDFORMAT_BEGIN
 90
        0
 91
        1
 62
     0
 92
       -2
340
14
 93
        0
 40
0.045
309
GRIDFORMAT_END
 95
        2
302
GRIDFORMAT
  1
GRIDFORMAT_BEGIN
 90
        0
 91
        1
 62
     0
 92
       -2
340
14
 93
        0
 40
0.045
309
GRIDFORMAT_END
 95
        4
302
GRIDFORMAT
  1
GRIDFORMAT_BEGIN
 90
        0
 91
        1
 62
     0
 92
       -2
340
14
 93
        0
 40
0.045
309
GRIDFORMAT_END
 95
        8
302
GRIDFORMAT
  1
GRIDFORMAT_BEGIN
 90
        0
 91
        1
 62
     0
 92
       -2
340
14
 93
        0
 40
0.045
309
GRIDFORMAT_END
 95
       16
302
GRIDFORMAT
  1
GRIDFORMAT_BEGIN
 90
        0
 91
        1
 62
     0
 92
       -2
340
14
 93
        0
 40
0.045
309
GRIDFORMAT_END
 95
       32
302
GRIDFORMAT
  1
GRIDFORMAT_BEGIN
 90
        0
 91
        1
 62
     0
 92
       -2
340
14
 93
        0
 40
0.045
309
GRIDFORMAT_END
309
TABLEFORMAT_END
  1
CELLSTYLE_BEGIN
 90
        3
 91
        2
300
_DATA
309
CELLSTYLE_END
  0
ENDSEC
  0
EOF