0
SECTION
  2
HEADER
  9
$ACADVER
  1
AC1027
  9
$ACADMAINTVER
 70
     8
  9
$DWGCODEPAGE
  3
ANSI_1252
  9
$REQUIREDVERSIONS
160
                 0
  9
$COMMENTS
  1
File was created by Cadenas
  9
$CUSTOMPROPERTYTAG
  1
NN
  9
$CUSTOMPROPERTY
  1
Type K Pillow Block 2&4-Bolt Base Non-Expansion Inch Bore
  9
$CUSTOMPROPERTYTAG
  1
NT
  9
$CUSTOMPROPERTY
  1
Type K
  9
$CUSTOMPROPERTYTAG
  1
NB
  9
$CUSTOMPROPERTY
  1
023182
  9
$CUSTOMPROPERTYTAG
  1
NBSYN
  9
$CUSTOMPROPERTY
  1
$PN.
  9
$CUSTOMPROPERTYTAG
  1
LINA
  9
$CUSTOMPROPERTY
  1
023182
  9
$CUSTOMPROPERTYTAG
  1
SS
  9
$CUSTOMPROPERTY
  1
2-3/4
  9
$CUSTOMPROPERTYTAG
  1
PN
  9
$CUSTOMPROPERTY
  1
023182
  9
$CUSTOMPROPERTYTAG
  1
PNA
  9
$CUSTOMPROPERTY
  1
P2B-K-212R
  9
$CUSTOMPROPERTYTAG
  1
WEIGHT
  9
$CUSTOMPROPERTY
  1
40
  9
$CUSTOMPROPERTYTAG
  1
A
  9
$CUSTOMPROPERTY
  1
3.78
  9
$CUSTOMPROPERTYTAG
  1
B
  9
$CUSTOMPROPERTY
  1
13.44
  9
$CUSTOMPROPERTYTAG
  1
C
  9
$CUSTOMPROPERTY
  1
2.94
  9
$CUSTOMPROPERTYTAG
  1
DMIN
  9
$CUSTOMPROPERTY
  1
9.88
  9
$CUSTOMPROPERTYTAG
  1
DMAX
  9
$CUSTOMPROPERTY
  1
11.50
  9
$CUSTOMPROPERTYTAG
  1
E
  9
$CUSTOMPROPERTY
  1
N/A
  9
$CUSTOMPROPERTYTAG
  1
F
  9
$CUSTOMPROPERTY
  1
3/4
  9
$CUSTOMPROPERTYTAG
  1
G
  9
$CUSTOMPROPERTY
  1
1.69
  9
$CUSTOMPROPERTYTAG
  1
H
  9
$CUSTOMPROPERTY
  1
2
  9
$CUSTOMPROPERTYTAG
  1
J
  9
$CUSTOMPROPERTY
  1
7.92
  9
$CUSTOMPROPERTYTAG
  1
L
  9
$CUSTOMPROPERTY
  1
4.72
  9
$CUSTOMPROPERTYTAG
  1
M
  9
$CUSTOMPROPERTY
  1
3.75
  9
$CUSTOMPROPERTYTAG
  1
P
  9
$CUSTOMPROPERTY
  1
8.31
  9
$CUSTOMPROPERTYTAG
  1
R
  9
$CUSTOMPROPERTY
  1
1.44
  9
$CUSTOMPROPERTYTAG
  1
S
  9
$CUSTOMPROPERTY
  1
2.25
  9
$CUSTOMPROPERTYTAG
  1
T
  9
$CUSTOMPROPERTY
  1
.28
  9
$CUSTOMPROPERTYTAG
  1
CS
  9
$CUSTOMPROPERTY
  1
61200
  9
$CUSTOMPROPERTYTAG
  1
CD
  9
$CUSTOMPROPERTY
  1
9600
  9
$CUSTOMPROPERTYTAG
  1
RN
  9
$CUSTOMPROPERTY
  1
24
  9
$CUSTOMPROPERTYTAG
  1
RM
  9
$CUSTOMPROPERTY
  1
.41
  9
$CUSTOMPROPERTYTAG
  1
PDI
  9
$CUSTOMPROPERTY
  1
3.900
  9
$CUSTOMPROPERTYTAG
  1
EP
  9
$CUSTOMPROPERTY
  1
.004-.012
  9
$CUSTOMPROPERTYTAG
  1
CSS
  9
$CUSTOMPROPERTY
  1
1/2-13*7/8
  9
$CUSTOMPROPERTYTAG
  1
CST
  9
$CUSTOMPROPERTY
  1
620
  9
$CUSTOMPROPERTYTAG
  1
MH
  9
$CUSTOMPROPERTY
  1
C.I. ASTM A48 CLASS 30
  9
$CUSTOMPROPERTYTAG
  1
MC
  9
$CUSTOMPROPERTY
  1
4118 CASE CARB.
  9
$CUSTOMPROPERTYTAG
  1
MCU
  9
$CUSTOMPROPERTY
  1
4118 CASE CARB.
  9
$CUSTOMPROPERTYTAG
  1
MR
  9
$CUSTOMPROPERTY
  1
STEEL
  9
$CUSTOMPROPERTYTAG
  1
MRO
  9
$CUSTOMPROPERTY
  1
4118 CASE CARB.
  9
$CUSTOMPROPERTYTAG
  1
SM
  9
$CUSTOMPROPERTY
  1
4.80*
  9
$CUSTOMPROPERTYTAG
  1
COMPANY
  9
$CUSTOMPROPERTY
  1
baldor
  9
$INSBASE
 10
0.0
 20
0.0
 30
0.0
  9
$EXTMIN
 10
1.000000000000000E+20
 20
1.000000000000000E+20
 30
1.000000000000000E+20
  9
$EXTMAX
 10
-1.000000000000000E+20
 20
-1.000000000000000E+20
 30
-1.000000000000000E+20
  9
$LIMMIN
 10
0.0
 20
0.0
  9
$LIMMAX
 10
12.0
 20
9.0
  9
$ORTHOMODE
 70
     0
  9
$REGENMODE
 70
     1
  9
$FILLMODE
 70
     1
  9
$QTEXTMODE
 70
     0
  9
$MIRRTEXT
 70
     1
  9
$LTSCALE
 40
1.0
  9
$ATTMODE
 70
     1
  9
$TEXTSIZE
 40
0.2
  9
$TRACEWID
 40
0.05
  9
$TEXTSTYLE
  7
Standard
  9
$CLAYER
  8
0
  9
$CELTYPE
  6
ByLayer
  9
$CECOLOR
 62
   256
  9
$CELTSCALE
 40
1.0
  9
$DISPSILH
 70
     0
  9
$DIMSCALE
 40
1.0
  9
$DIMASZ
 40
0.18
  9
$DIMEXO
 40
0.0625
  9
$DIMDLI
 40
0.38
  9
$DIMRND
 40
0.0
  9
$DIMDLE
 40
0.0
  9
$DIMEXE
 40
0.18
  9
$DIMTP
 40
0.0
  9
$DIMTM
 40
0.0
  9
$DIMTXT
 40
0.18
  9
$DIMCEN
 40
0.09
  9
$DIMTSZ
 40
0.0
  9
$DIMTOL
 70
     0
  9
$DIMLIM
 70
     0
  9
$DIMTIH
 70
     1
  9
$DIMTOH
 70
     1
  9
$DIMSE1
 70
     0
  9
$DIMSE2
 70
     0
  9
$DIMTAD
 70
     0
  9
$DIMZIN
 70
     0
  9
$DIMBLK
  1

  9
$DIMASO
 70
     1
  9
$DIMSHO
 70
     1
  9
$DIMPOST
  1

  9
$DIMAPOST
  1

  9
$DIMALT
 70
     0
  9
$DIMALTD
 70
     2
  9
$DIMALTF
 40
25.4
  9
$DIMLFAC
 40
1.0
  9
$DIMTOFL
 70
     0
  9
$DIMTVP
 40
0.0
  9
$DIMTIX
 70
     0
  9
$DIMSOXD
 70
     0
  9
$DIMSAH
 70
     0
  9
$DIMBLK1
  1

  9
$DIMBLK2
  1

  9
$DIMSTYLE
  2
Standard
  9
$DIMCLRD
 70
     0
  9
$DIMCLRE
 70
     0
  9
$DIMCLRT
 70
     0
  9
$DIMTFAC
 40
1.0
  9
$DIMGAP
 40
0.09
  9
$DIMJUST
 70
     0
  9
$DIMSD1
 70
     0
  9
$DIMSD2
 70
     0
  9
$DIMTOLJ
 70
     1
  9
$DIMTZIN
 70
     0
  9
$DIMALTZ
 70
     0
  9
$DIMALTTZ
 70
     0
  9
$DIMUPT
 70
     0
  9
$DIMDEC
 70
     4
  9
$DIMTDEC
 70
     4
  9
$DIMALTU
 70
     2
  9
$DIMALTTD
 70
     2
  9
$DIMTXSTY
  7
Standard
  9
$DIMAUNIT
 70
     0
  9
$DIMADEC
 70
     0
  9
$DIMALTRND
 40
0.0
  9
$DIMAZIN
 70
     0
  9
$DIMDSEP
 70
    46
  9
$DIMATFIT
 70
     3
  9
$DIMFRAC
 70
     0
  9
$DIMLDRBLK
  1

  9
$DIMLUNIT
 70
     2
  9
$DIMLWD
 70
    -2
  9
$DIMLWE
 70
    -2
  9
$DIMTMOVE
 70
     0
  9
$DIMFXL
 40
1.0
  9
$DIMFXLON
 70
     0
  9
$DIMJOGANG
 40
0.7853981633974483
  9
$DIMTFILL
 70
     0
  9
$DIMTFILLCLR
 70
     0
  9
$DIMARCSYM
 70
     0
  9
$DIMLTYPE
  6

  9
$DIMLTEX1
  6

  9
$DIMLTEX2
  6

  9
$DIMTXTDIRECTION
 70
     0
  9
$LUNITS
 70
     2
  9
$LUPREC
 70
     4
  9
$SKETCHINC
 40
0.1
  9
$FILLETRAD
 40
0.5
  9
$AUNITS
 70
     0
  9
$AUPREC
 70
     0
  9
$MENU
  1
.
  9
$ELEVATION
 40
0.0
  9
$PELEVATION
 40
0.0
  9
$THICKNESS
 40
0.0
  9
$LIMCHECK
 70
     0
  9
$CHAMFERA
 40
0.0
  9
$CHAMFERB
 40
0.0
  9
$CHAMFERC
 40
0.0
  9
$CHAMFERD
 40
0.0
  9
$SKPOLY
 70
     0
  9
$TDCREATE
 40
2458169.005034167
  9
$TDUCREATE
 40
2458168.9633675
  9
$TDUPDATE
 40
2458169.005034352
  9
$TDUUPDATE
 40
2458168.963367685
  9
$TDINDWG
 40
0.0000000116
  9
$TDUSRTIMER
 40
0.0000000116
  9
$USRTIMER
 70
     1
  9
$ANGBASE
 50
0.0
  9
$ANGDIR
 70
     0
  9
$PDMODE
 70
     0
  9
$PDSIZE
 40
0.0
  9
$PLINEWID
 40
0.0
  9
$SPLFRAME
 70
     0
  9
$SPLINETYPE
 70
     6
  9
$SPLINESEGS
 70
     8
  9
$HANDSEED
  5
25A
  9
$SURFTAB1
 70
     6
  9
$SURFTAB2
 70
     6
  9
$SURFTYPE
 70
     6
  9
$SURFU
 70
     6
  9
$SURFV
 70
     6
  9
$UCSBASE
  2

  9
$UCSNAME
  2

  9
$UCSORG
 10
0.0
 20
0.0
 30
0.0
  9
$UCSXDIR
 10
1.0
 20
0.0
 30
0.0
  9
$UCSYDIR
 10
0.0
 20
1.0
 30
0.0
  9
$UCSORTHOREF
  2

  9
$UCSORTHOVIEW
 70
     0
  9
$UCSORGTOP
 10
0.0
 20
0.0
 30
0.0
  9
$UCSORGBOTTOM
 10
0.0
 20
0.0
 30
0.0
  9
$UCSORGLEFT
 10
0.0
 20
0.0
 30
0.0
  9
$UCSORGRIGHT
 10
0.0
 20
0.0
 30
0.0
  9
$UCSORGFRONT
 10
0.0
 20
0.0
 30
0.0
  9
$UCSORGBACK
 10
0.0
 20
0.0
 30
0.0
  9
$PUCSBASE
  2

  9
$PUCSNAME
  2

  9
$PUCSORG
 10
0.0
 20
0.0
 30
0.0
  9
$PUCSXDIR
 10
1.0
 20
0.0
 30
0.0
  9
$PUCSYDIR
 10
0.0
 20
1.0
 30
0.0
  9
$PUCSORTHOREF
  2

  9
$PUCSORTHOVIEW
 70
     0
  9
$PUCSORGTOP
 10
0.0
 20
0.0
 30
0.0
  9
$PUCSORGBOTTOM
 10
0.0
 20
0.0
 30
0.0
  9
$PUCSORGLEFT
 10
0.0
 20
0.0
 30
0.0
  9
$PUCSORGRIGHT
 10
0.0
 20
0.0
 30
0.0
  9
$PUCSORGFRONT
 10
0.0
 20
0.0
 30
0.0
  9
$PUCSORGBACK
 10
0.0
 20
0.0
 30
0.0
  9
$USERI1
 70
     0
  9
$USERI2
 70
     0
  9
$USERI3
 70
     0
  9
$USERI4
 70
     0
  9
$USERI5
 70
     0
  9
$USERR1
 40
0.0
  9
$USERR2
 40
0.0
  9
$USERR3
 40
0.0
  9
$USERR4
 40
0.0
  9
$USERR5
 40
0.0
  9
$WORLDVIEW
 70
     1
  9
$SHADEDGE
 70
     3
  9
$SHADEDIF
 70
    70
  9
$TILEMODE
 70
     1
  9
$MAXACTVP
 70
    64
  9
$PINSBASE
 10
0.0
 20
0.0
 30
0.0
  9
$PLIMCHECK
 70
     0
  9
$PEXTMIN
 10
1.000000000000000E+20
 20
1.000000000000000E+20
 30
1.000000000000000E+20
  9
$PEXTMAX
 10
-1.000000000000000E+20
 20
-1.000000000000000E+20
 30
-1.000000000000000E+20
  9
$PLIMMIN
 10
0.0
 20
0.0
  9
$PLIMMAX
 10
12.0
 20
9.0
  9
$UNITMODE
 70
     0
  9
$VISRETAIN
 70
     1
  9
$PLINEGEN
 70
     0
  9
$PSLTSCALE
 70
     1
  9
$TREEDEPTH
 70
  3020
  9
$CMLSTYLE
  2
Standard
  9
$CMLJUST
 70
     0
  9
$CMLSCALE
 40
1.0
  9
$PROXYGRAPHICS
 70
     1
  9
$MEASUREMENT
 70
     0
  9
$CELWEIGHT
370
    -1
  9
$ENDCAPS
280
     0
  9
$JOINSTYLE
280
     0
  9
$LWDISPLAY
290
     0
  9
$INSUNITS
 70
     1
  9
$HYPERLINKBASE
  1

  9
$STYLESHEET
  1

  9
$XEDIT
290
     1
  9
$CEPSNTYPE
380
     0
  9
$PSTYLEMODE
290
     1
  9
$FINGERPRINTGUID
  2
{031C2F4B-7728-4B3A-97FF-DDF554653887}
  9
$VERSIONGUID
  2
{FAEB1C32-E019-11D5-929B-00C0DF256EC4}
  9
$EXTNAMES
290
     1
  9
$PSVPSCALE
 40
0.0
  9
$OLESTARTUP
290
     0
  9
$SORTENTS
280
   127
  9
$INDEXCTL
280
     0
  9
$HIDETEXT
280
     1
  9
$XCLIPFRAME
280
     2
  9
$HALOGAP
280
     0
  9
$OBSCOLOR
 70
   257
  9
$OBSLTYPE
280
     0
  9
$INTERSECTIONDISPLAY
280
     0
  9
$INTERSECTIONCOLOR
 70
   257
  9
$DIMASSOC
280
     2
  9
$PROJECTNAME
  1

  9
$CAMERADISPLAY
290
     0
  9
$LENSLENGTH
 40
50.0
  9
$CAMERAHEIGHT
 40
0.0
  9
$STEPSPERSEC
 40
2.0
  9
$STEPSIZE
 40
6.0
  9
$3DDWFPREC
 40
2.0
  9
$PSOLWIDTH
 40
0.25
  9
$PSOLHEIGHT
 40
4.0
  9
$LOFTANG1
 40
1.570796326794897
  9
$LOFTANG2
 40
1.570796326794897
  9
$LOFTMAG1
 40
0.0
  9
$LOFTMAG2
 40
0.0
  9
$LOFTPARAM
 70
     7
  9
$LOFTNORMALS
280
     1
  9
$LATITUDE
 40
37.795
  9
$LONGITUDE
 40
-122.394
  9
$NORTHDIRECTION
 40
0.0
  9
$TIMEZONE
 70
 -8000
  9
$LIGHTGLYPHDISPLAY
280
     1
  9
$TILEMODELIGHTSYNCH
280
     1
  9
$CMATERIAL
347
44
  9
$SOLIDHIST
280
     0
  9
$SHOWHIST
280
     1
  9
$DWFFRAME
280
     2
  9
$DGNFRAME
280
     2
  9
$REALWORLDSCALE
290
     1
  9
$INTERFERECOLOR
 62
   256
  9
$CSHADOW
280
     0
  9
$SHADOWPLANELOCATION
 40
0.0
  0
ENDSEC
  0
SECTION
  2
CLASSES
  0
CLASS
  1
ACDBDICTIONARYWDFLT
  2
AcDbDictionaryWithDefault
  3
ObjectDBX Classes
 90
        0
 91
        4
280
     0
281
     0
  0
CLASS
  1
VISUALSTYLE
  2
AcDbVisualStyle
  3
ObjectDBX Classes
 90
     4095
 91
        4
280
     0
281
     0
  0
CLASS
  1
MATERIAL
  2
AcDbMaterial
  3
ObjectDBX Classes
 90
     1153
 91
        4
280
     0
281
     0
  0
CLASS
  1
SCALE
  2
AcDbScale
  3
ObjectDBX Classes
 90
     1153
 91
        4
280
     0
281
     0
  0
CLASS
  1
TABLESTYLE
  2
AcDbTableStyle
  3
ObjectDBX Classes
 90
     4095
 91
        4
280
     0
281
     0
  0
CLASS
  1
MLEADERSTYLE
  2
AcDbMLeaderStyle
  3
ACDB_MLEADERSTYLE_CLASS
 90
     4095
 91
        4
280
     0
281
     0
  0
CLASS
  1
SUN
  2
AcDbSun
  3
SCENEOE
 90
     1153
 91
        4
280
     0
281
     0
  0
CLASS
  1
DICTIONARYVAR
  2
AcDbDictionaryVar
  3
ObjectDBX Classes
 90
        0
 91
        4
280
     0
281
     0
  0
CLASS
  1
CELLSTYLEMAP
  2
AcDbCellStyleMap
  3
ObjectDBX Classes
 90
     1152
 91
        4
280
     0
281
     0
  0
ENDSEC
  0
SECTION
  2
TABLES
  0
TABLE
  2
VPORT
  5
8
330
0
100
AcDbSymbolTable
 70
     1
  0
VPORT
  5
29
330
8
100
AcDbSymbolTableRecord
100
AcDbViewportTableRecord
  2
*Active
 70
     0
 10
0.0
 20
0.0
 11
1.0
 21
1.0
 12
0.0
 22
-0.2578125
 13
0.0
 23
0.0
 14
0.5
 24
0.5
 15
0.5
 25
0.5
 16
0.0
 26
0.0
 36
1.0
 17
0.0
 27
0.0
 37
0.0
 40
4.4465625
 41
3.083010752688172
 42
50.0
 43
0.0
 44
0.0
 50
0.0
 51
0.0
 71
     0
 72
   100
 73
     1
 74
     3
 75
     0
 76
     0
 77
     0
 78
     0
281
     0
 65
     1
110
0.0
120
0.0
130
0.0
111
1.0
121
0.0
131
0.0
112
0.0
122
1.0
132
0.0
 79
     0
146
0.0
348
2F
 60
     3
 61
     5
292
     1
282
     1
141
0.0
142
0.0
 63
   250
361
6D
  0
ENDTAB
  0
TABLE
  2
LTYPE
  5
5
330
0
100
AcDbSymbolTable
 70
     3
  0
LTYPE
  5
14
330
5
100
AcDbSymbolTableRecord
100
AcDbLinetypeTableRecord
  2
ByBlock
 70
     0
  3

 72
    65
 73
     0
 40
0.0
  0
LTYPE
  5
15
330
5
100
AcDbSymbolTableRecord
100
AcDbLinetypeTableRecord
  2
ByLayer
 70
     0
  3

 72
    65
 73
     0
 40
0.0
  0
LTYPE
  5
16
330
5
100
AcDbSymbolTableRecord
100
AcDbLinetypeTableRecord
  2
Continuous
 70
     0
  3
Solid line
 72
    65
 73
     0
 40
0.0
  0
LTYPE
  5
B0
330
5
100
AcDbSymbolTableRecord
100
AcDbLinetypeTableRecord
  2
Dashed
 70
     0
  3

 72
    65
 73
     2
 40
2.0
 49
1.0
 74
     0
 49
-1.0
 74
     0
  0
LTYPE
  5
C9
330
5
100
AcDbSymbolTableRecord
100
AcDbLinetypeTableRecord
  2
Center
 70
     0
  3

 72
    65
 73
     4
 40
1.5
 49
0.45
 74
     0
 49
-0.5
 74
     0
 49
0.05
 74
     0
 49
-0.5
 74
     0
  0
ENDTAB
  0
TABLE
  2
LAYER
  5
2
330
0
100
AcDbSymbolTable
 70
     7
  0
LAYER
  5
10
330
2
100
AcDbSymbolTableRecord
100
AcDbLayerTableRecord
  2
0
 70
     0
 62
     7
  6
Continuous
370
    -3
390
F
347
46
348
0
  0
LAYER
  5
72
330
2
100
AcDbSymbolTableRecord
100
AcDbLayerTableRecord
  2
AM_6
 70
     0
 62
    -2
  6
Continuous
370
    35
390
F
347
46
348
0
  0
LAYER
  5
B1
330
2
100
AcDbSymbolTableRecord
100
AcDbLayerTableRecord
  2
AM_9
 70
     0
 62
     6
  6
Dashed
370
    25
390
F
347
46
348
0
  0
LAYER
  5
CA
330
2
100
AcDbSymbolTableRecord
100
AcDbLayerTableRecord
  2
AM_7
 70
     0
 62
     7
  6
Center
370
    25
390
F
347
46
348
0
  0
LAYER
  5
CC
330
2
100
AcDbSymbolTableRecord
100
AcDbLayerTableRecord
  2
AM_4
 70
     0
 62
     7
  6
Continuous
370
    50
390
F
347
46
348
0
  0
LAYER
  5
D9
330
2
100
AcDbSymbolTableRecord
100
AcDbLayerTableRecord
  2
AM_5
 70
     0
 62
     3
  6
Continuous
370
    25
390
F
347
46
348
0
  0
LAYER
  5
249
330
2
100
AcDbSymbolTableRecord
100
AcDbLayerTableRecord
  2
ConnectionPoints
 70
     0
 62
     7
  6
Continuous
370
    50
390
F
347
46
348
0
  0
ENDTAB
  0
TABLE
  2
STYLE
  5
3
330
0
100
AcDbSymbolTable
 70
     1
  0
STYLE
  5
11
330
3
100
AcDbSymbolTableRecord
100
AcDbTextStyleTableRecord
  2
Standard
 70
     0
 40
0.0
 41
1.0
 50
0.0
 71
     0
 42
0.2
  3
txt
  4

  0
ENDTAB
  0
TABLE
  2
VIEW
  5
6
330
0
100
AcDbSymbolTable
 70
     0
  0
ENDTAB
  0
TABLE
  2
UCS
  5
7
330
0
100
AcDbSymbolTable
 70
     0
  0
ENDTAB
  0
TABLE
  2
APPID
  5
9
330
0
100
AcDbSymbolTable
 70
     1
  0
APPID
  5
12
330
9
100
AcDbSymbolTableRecord
100
AcDbRegAppTableRecord
  2
ACAD
 70
     0
  0
ENDTAB
  0
TABLE
  2
DIMSTYLE
  5
A
330
0
100
AcDbSymbolTable
 70
     1
100
AcDbDimStyleTable
  0
DIMSTYLE
105
27
330
A
100
AcDbSymbolTableRecord
100
AcDbDimStyleTableRecord
  2
Standard
 70
     0
178
     0
340
11
  0
ENDTAB
  0
TABLE
  2
BLOCK_RECORD
  5
1
330
0
100
AcDbSymbolTable
 70
     6
  0
BLOCK_RECORD
  5
1F
330
1
100
AcDbSymbolTableRecord
100
AcDbBlockTableRecord
  2
*Model_Space
340
22
 70
     0
280
     1
281
     0
  0
BLOCK_RECORD
  5
1B
330
1
100
AcDbSymbolTableRecord
100
AcDbBlockTableRecord
  2
*Paper_Space
340
1E
 70
     0
280
     1
281
     0
  0
BLOCK_RECORD
  5
23
330
1
100
AcDbSymbolTableRecord
100
AcDbBlockTableRecord
  2
*Paper_Space0
340
26
 70
     0
280
     1
281
     0
  0
BLOCK_RECORD
  5
6E
330
1
100
AcDbSymbolTableRecord
100
AcDbBlockTableRecord
  2
1_023182_4
340
0
102
{BLKREFS
331
6F
102
}
 70
     0
280
     1
281
     0
  0
BLOCK_RECORD
  5
9B
330
1
100
AcDbSymbolTableRecord
100
AcDbBlockTableRecord
  2
2_2_3_4C_0_in_023182_4
340
0
102
{BLKREFS
331
9C
102
}
 70
     0
280
     1
281
     0
  0
BLOCK_RECORD
  5
DB
330
1
100
AcDbSymbolTableRecord
100
AcDbBlockTableRecord
  2
3_405020c_Inch_0_in_023182_4
340
0
102
{BLKREFS
331
DC
102
}
 70
     0
280
     1
281
     0
  0
BLOCK_RECORD
  5
FD
330
1
100
AcDbSymbolTableRecord
100
AcDbBlockTableRecord
  2
4_S1U_K_212R_0_in_023182_4
340
0
102
{BLKREFS
331
FE
102
}
 70
     0
280
     1
281
     0
  0
BLOCK_RECORD
  5
15A
330
1
100
AcDbSymbolTableRecord
100
AcDbBlockTableRecord
  2
5_P2B_K_212R_0_in_023182_4
340
0
102
{BLKREFS
331
15B
102
}
 70
     0
280
     1
281
     0
  0
ENDTAB
  0
ENDSEC
  0
SECTION
  2
BLOCKS
  0
BLOCK
  5
20
330
1F
100
AcDbEntity
  8
0
100
AcDbBlockBegin
  2
*Model_Space
 70
     0
 10
0.0
 20
0.0
 30
0.0
  3
*Model_Space
  1

  0
ENDBLK
  5
21
330
1F
100
AcDbEntity
  8
0
100
AcDbBlockEnd
  0
BLOCK
  5
1C
330
1B
100
AcDbEntity
 67
     1
  8
0
100
AcDbBlockBegin
  2
*Paper_Space
 70
     0
 10
0.0
 20
0.0
 30
0.0
  3
*Paper_Space
  1

  0
ENDBLK
  5
1D
330
1B
100
AcDbEntity
 67
     1
  8
0
100
AcDbBlockEnd
  0
BLOCK
  5
24
330
23
100
AcDbEntity
  8
0
100
AcDbBlockBegin
  2
*Paper_Space0
 70
     0
 10
0.0
 20
0.0
 30
0.0
  3
*Paper_Space0
  1

  0
ENDBLK
  5
25
330
23
100
AcDbEntity
  8
0
100
AcDbBlockEnd
  0
BLOCK
  5
70
330
6E
100
AcDbEntity
  8
0
100
AcDbBlockBegin
  2
1_023182_4
 70
     2
 10
0.0
 20
0.0
 30
0.0
  3
1_023182_4
  1

  0
ATTDEF
  5
73
330
6E
100
AcDbEntity
  8
AM_6
100
AcDbText
 10
11.72
 20
1.921875
 30
0.0
 40
0.5
  1
Type K Pillow Block 2&4-Bolt Base Non-Expansion Inch Bore
100
AcDbAttributeDefinition
  3

  2
NN
 70
     8
280
     0
  0
ATTDEF
  5
74
330
6E
100
AcDbEntity
  8
AM_6
100
AcDbText
 10
11.72
 20
1.421875
 30
0.0
 40
0.5
  1
Type K
100
AcDbAttributeDefinition
  3

  2
NT
 70
     8
280
     0
  0
ATTDEF
  5
75
330
6E
100
AcDbEntity
  8
AM_6
100
AcDbText
 10
11.72
 20
0.921875
 30
0.0
 40
0.5
  1
023182
100
AcDbAttributeDefinition
  3

  2
NB
 70
     8
280
     0
  0
ATTDEF
  5
76
330
6E
100
AcDbEntity
  8
AM_6
100
AcDbText
 10
11.72
 20
0.421875
 30
0.0
 40
0.5
  1
$PN.
100
AcDbAttributeDefinition
  3

  2
NBSYN
 70
     8
280
     0
  0
ATTDEF
  5
77
330
6E
100
AcDbEntity
  8
AM_6
100
AcDbText
 10
11.72
 20
-0.078125
 30
0.0
 40
0.5
  1
023182
100
AcDbAttributeDefinition
  3

  2
LINA
 70
     8
280
     0
  0
ATTDEF
  5
78
330
6E
100
AcDbEntity
  8
AM_6
100
AcDbText
 10
11.72
 20
-0.578125
 30
0.0
 40
0.5
  1
2-3/4
100
AcDbAttributeDefinition
  3

  2
SS
 70
     8
280
     0
  0
ATTDEF
  5
79
330
6E
100
AcDbEntity
  8
AM_6
100
AcDbText
 10
11.72
 20
-1.078125
 30
0.0
 40
0.5
  1
023182
100
AcDbAttributeDefinition
  3

  2
PN
 70
     8
280
     0
  0
ATTDEF
  5
7A
330
6E
100
AcDbEntity
  8
AM_6
100
AcDbText
 10
11.72
 20
-1.578125
 30
0.0
 40
0.5
  1
P2B-K-212R
100
AcDbAttributeDefinition
  3

  2
PNA
 70
     8
280
     0
  0
ATTDEF
  5
7B
330
6E
100
AcDbEntity
  8
AM_6
100
AcDbText
 10
11.72
 20
-2.078125
 30
0.0
 40
0.5
  1
40
100
AcDbAttributeDefinition
  3

  2
WEIGHT
 70
     8
280
     0
  0
ATTDEF
  5
7C
330
6E
100
AcDbEntity
  8
AM_6
100
AcDbText
 10
11.72
 20
-2.578125
 30
0.0
 40
0.5
  1
3.78
100
AcDbAttributeDefinition
  3

  2
A
 70
     8
280
     0
  0
ATTDEF
  5
7D
330
6E
100
AcDbEntity
  8
AM_6
100
AcDbText
 10
11.72
 20
-3.078125
 30
0.0
 40
0.5
  1
13.44
100
AcDbAttributeDefinition
  3

  2
B
 70
     8
280
     0
  0
ATTDEF
  5
7E
330
6E
100
AcDbEntity
  8
AM_6
100
AcDbText
 10
11.72
 20
-3.578125
 30
0.0
 40
0.5
  1
2.94
100
AcDbAttributeDefinition
  3

  2
C
 70
     8
280
     0
  0
ATTDEF
  5
7F
330
6E
100
AcDbEntity
  8
AM_6
100
AcDbText
 10
11.72
 20
-4.078125
 30
0.0
 40
0.5
  1
9.88
100
AcDbAttributeDefinition
  3

  2
DMIN
 70
     8
280
     0
  0
ATTDEF
  5
80
330
6E
100
AcDbEntity
  8
AM_6
100
AcDbText
 10
11.72
 20
-4.578125
 30
0.0
 40
0.5
  1
11.50
100
AcDbAttributeDefinition
  3

  2
DMAX
 70
     8
280
     0
  0
ATTDEF
  5
81
330
6E
100
AcDbEntity
  8
AM_6
100
AcDbText
 10
11.72
 20
-5.078125
 30
0.0
 40
0.5
  1
N/A
100
AcDbAttributeDefinition
  3

  2
E
 70
     8
280
     0
  0
ATTDEF
  5
82
330
6E
100
AcDbEntity
  8
AM_6
100
AcDbText
 10
11.72
 20
-5.578125
 30
0.0
 40
0.5
  1
3/4
100
AcDbAttributeDefinition
  3

  2
F
 70
     8
280
     0
  0
ATTDEF
  5
83
330
6E
100
AcDbEntity
  8
AM_6
100
AcDbText
 10
11.72
 20
-6.078125
 30
0.0
 40
0.5
  1
1.69
100
AcDbAttributeDefinition
  3

  2
G
 70
     8
280
     0
  0
ATTDEF
  5
84
330
6E
100
AcDbEntity
  8
AM_6
100
AcDbText
 10
11.72
 20
-6.578125
 30
0.0
 40
0.5
  1
2
100
AcDbAttributeDefinition
  3

  2
H
 70
     8
280
     0
  0
ATTDEF
  5
85
330
6E
100
AcDbEntity
  8
AM_6
100
AcDbText
 10
11.72
 20
-7.078125
 30
0.0
 40
0.5
  1
7.92
100
AcDbAttributeDefinition
  3

  2
J
 70
     8
280
     0
  0
ATTDEF
  5
86
330
6E
100
AcDbEntity
  8
AM_6
100
AcDbText
 10
11.72
 20
-7.578125
 30
0.0
 40
0.5
  1
4.72
100
AcDbAttributeDefinition
  3

  2
L
 70
     8
280
     0
  0
ATTDEF
  5
87
330
6E
100
AcDbEntity
  8
AM_6
100
AcDbText
 10
11.72
 20
-8.078125
 30
0.0
 40
0.5
  1
3.75
100
AcDbAttributeDefinition
  3

  2
M
 70
     8
280
     0
  0
ATTDEF
  5
88
330
6E
100
AcDbEntity
  8
AM_6
100
AcDbText
 10
11.72
 20
-8.578125
 30
0.0
 40
0.5
  1
8.31
100
AcDbAttributeDefinition
  3

  2
P
 70
     8
280
     0
  0
ATTDEF
  5
89
330
6E
100
AcDbEntity
  8
AM_6
100
AcDbText
 10
11.72
 20
-9.078125
 30
0.0
 40
0.5
  1
1.44
100
AcDbAttributeDefinition
  3

  2
R
 70
     8
280
     0
  0
ATTDEF
  5
8A
330
6E
100
AcDbEntity
  8
AM_6
100
AcDbText
 10
11.72
 20
-9.578125
 30
0.0
 40
0.5
  1
2.25
100
AcDbAttributeDefinition
  3

  2
S
 70
     8
280
     0
  0
ATTDEF
  5
8B
330
6E
100
AcDbEntity
  8
AM_6
100
AcDbText
 10
11.72
 20
-10.078125
 30
0.0
 40
0.5
  1
.28
100
AcDbAttributeDefinition
  3

  2
T
 70
     8
280
     0
  0
ATTDEF
  5
8C
330
6E
100
AcDbEntity
  8
AM_6
100
AcDbText
 10
11.72
 20
-10.578125
 30
0.0
 40
0.5
  1
61200
100
AcDbAttributeDefinition
  3

  2
CS
 70
     8
280
     0
  0
ATTDEF
  5
8D
330
6E
100
AcDbEntity
  8
AM_6
100
AcDbText
 10
11.72
 20
-11.078125
 30
0.0
 40
0.5
  1
9600
100
AcDbAttributeDefinition
  3

  2
CD
 70
     8
280
     0
  0
ATTDEF
  5
8E
330
6E
100
AcDbEntity
  8
AM_6
100
AcDbText
 10
11.72
 20
-11.578125
 30
0.0
 40
0.5
  1
24
100
AcDbAttributeDefinition
  3

  2
RN
 70
     8
280
     0
  0
ATTDEF
  5
8F
330
6E
100
AcDbEntity
  8
AM_6
100
AcDbText
 10
11.72
 20
-12.078125
 30
0.0
 40
0.5
  1
.41
100
AcDbAttributeDefinition
  3

  2
RM
 70
     8
280
     0
  0
ATTDEF
  5
90
330
6E
100
AcDbEntity
  8
AM_6
100
AcDbText
 10
11.72
 20
-12.578125
 30
0.0
 40
0.5
  1
3.900
100
AcDbAttributeDefinition
  3

  2
PDI
 70
     8
280
     0
  0
ATTDEF
  5
91
330
6E
100
AcDbEntity
  8
AM_6
100
AcDbText
 10
11.72
 20
-13.078125
 30
0.0
 40
0.5
  1
.004-.012
100
AcDbAttributeDefinition
  3

  2
EP
 70
     8
280
     0
  0
ATTDEF
  5
92
330
6E
100
AcDbEntity
  8
AM_6
100
AcDbText
 10
11.72
 20
-13.578125
 30
0.0
 40
0.5
  1
1/2-13*7/8
100
AcDbAttributeDefinition
  3

  2
CSS
 70
     8
280
     0
  0
ATTDEF
  5
93
330
6E
100
AcDbEntity
  8
AM_6
100
AcDbText
 10
11.72
 20
-14.078125
 30
0.0
 40
0.5
  1
620
100
AcDbAttributeDefinition
  3

  2
CST
 70
     8
280
     0
  0
ATTDEF
  5
94
330
6E
100
AcDbEntity
  8
AM_6
100
AcDbText
 10
11.72
 20
-14.578125
 30
0.0
 40
0.5
  1
C.I. ASTM A48 CLASS 30
100
AcDbAttributeDefinition
  3

  2
MH
 70
     8
280
     0
  0
ATTDEF
  5
95
330
6E
100
AcDbEntity
  8
AM_6
100
AcDbText
 10
11.72
 20
-15.078125
 30
0.0
 40
0.5
  1
4118 CASE CARB.
100
AcDbAttributeDefinition
  3

  2
MC
 70
     8
280
     0
  0
ATTDEF
  5
96
330
6E
100
AcDbEntity
  8
AM_6
100
AcDbText
 10
11.72
 20
-15.578125
 30
0.0
 40
0.5
  1
4118 CASE CARB.
100
AcDbAttributeDefinition
  3

  2
MCU
 70
     8
280
     0
  0
ATTDEF
  5
97
330
6E
100
AcDbEntity
  8
AM_6
100
AcDbText
 10
11.72
 20
-16.078125
 30
0.0
 40
0.5
  1
STEEL
100
AcDbAttributeDefinition
  3

  2
MR
 70
     8
280
     0
  0
ATTDEF
  5
98
330
6E
100
AcDbEntity
  8
AM_6
100
AcDbText
 10
11.72
 20
-16.578125
 30
0.0
 40
0.5
  1
4118 CASE CARB.
100
AcDbAttributeDefinition
  3

  2
MRO
 70
     8
280
     0
  0
ATTDEF
  5
99
330
6E
100
AcDbEntity
  8
AM_6
100
AcDbText
 10
11.72
 20
-17.078125
 30
0.0
 40
0.5
  1
4.80*
100
AcDbAttributeDefinition
  3

  2
SM
 70
     8
280
     0
  0
ATTDEF
  5
9A
330
6E
100
AcDbEntity
  8
AM_6
100
AcDbText
 10
11.72
 20
-17.578125
 30
0.0
 40
0.5
  1
baldor
100
AcDbAttributeDefinition
  3

  2
COMPANY
 70
     8
280
     0
  0
INSERT
  5
9C
330
6E
100
AcDbEntity
  8
0
100
AcDbBlockReference
  2
2_2_3_4C_0_in_023182_4
 10
0.0
 20
0.0
 30
0.0
  0
INSERT
  5
DC
330
6E
100
AcDbEntity
  8
0
100
AcDbBlockReference
  2
3_405020c_Inch_0_in_023182_4
 10
0.0
 20
0.0
 30
0.0
  0
INSERT
  5
FE
330
6E
100
AcDbEntity
  8
0
100
AcDbBlockReference
  2
4_S1U_K_212R_0_in_023182_4
 10
0.0
 20
0.0
 30
0.0
  0
INSERT
  5
15B
330
6E
100
AcDbEntity
  8
0
100
AcDbBlockReference
  2
5_P2B_K_212R_0_in_023182_4
 10
0.0
 20
0.0
 30
0.0
  0
ENDBLK
  5
71
330
6E
100
AcDbEntity
  8
0
100
AcDbBlockEnd
  0
BLOCK
  5
9D
330
9B
100
AcDbEntity
  8
0
100
AcDbBlockBegin
  2
2_2_3_4C_0_in_023182_4
 70
     2
 10
0.0
 20
0.0
 30
0.0
  3
2_2_3_4C_0_in_023182_4
  1

  0
ATTDEF
  5
9F
330
9B
100
AcDbEntity
  8
AM_6
100
AcDbText
 10
7.359375
 20
-1.37
 30
0.0
 40
0.5
  1
E-Type Collar -Inch
100
AcDbAttributeDefinition
  3

  2
NN
 70
     8
280
     0
  0
ATTDEF
  5
A0
330
9B
100
AcDbEntity
  8
AM_6
100
AcDbText
 10
7.359375
 20
-1.87
 30
0.0
 40
0.5
  1
E-Type Bearings
100
AcDbAttributeDefinition
  3

  2
NT
 70
     8
280
     0
  0
ATTDEF
  5
A1
330
9B
100
AcDbEntity
  8
AM_6
100
AcDbText
 10
7.359375
 20
-2.37
 30
0.0
 40
0.5
  1
2-3/4C
100
AcDbAttributeDefinition
  3

  2
NB
 70
     8
280
     0
  0
ATTDEF
  5
A2
330
9B
100
AcDbEntity
  8
AM_6
100
AcDbText
 10
7.359375
 20
-2.87
 30
0.0
 40
0.5
  1
$BORE.C
100
AcDbAttributeDefinition
  3

  2
NBSYN
 70
     8
280
     0
  0
ATTDEF
  5
A3
330
9B
100
AcDbEntity
  8
AM_6
100
AcDbText
 10
7.359375
 20
-3.37
 30
0.0
 40
0.5
  1
2-3/4C
100
AcDbAttributeDefinition
  3

  2
LINA
 70
     8
280
     0
  0
ATTDEF
  5
A4
330
9B
100
AcDbEntity
  8
AM_6
100
AcDbText
 10
7.359375
 20
-3.87
 30
0.0
 40
0.5
  1
2-3/4
100
AcDbAttributeDefinition
  3

  2
BORE
 70
     8
280
     0
  0
ATTDEF
  5
A5
330
9B
100
AcDbEntity
  8
AM_6
100
AcDbText
 10
7.359375
 20
-4.37
 30
0.0
 40
0.5
  1
4.71875
100
AcDbAttributeDefinition
  3

  2
L
 70
     8
280
     0
  0
ATTDEF
  5
A6
330
9B
100
AcDbEntity
  8
AM_6
100
AcDbText
 10
7.359375
 20
-4.87
 30
0.0
 40
0.5
  1
4.50
100
AcDbAttributeDefinition
  3

  2
A
 70
     8
280
     0
  0
ATTDEF
  5
A7
330
9B
100
AcDbEntity
  8
AM_6
100
AcDbText
 10
7.359375
 20
-5.37
 30
0.0
 40
0.5
  1
1.94
100
AcDbAttributeDefinition
  3

  2
B
 70
     8
280
     0
  0
ATTDEF
  5
A8
330
9B
100
AcDbEntity
  8
AM_6
100
AcDbText
 10
7.359375
 20
-5.87
 30
0.0
 40
0.5
  1
3.47
100
AcDbAttributeDefinition
  3

  2
C
 70
     8
280
     0
  0
ATTDEF
  5
A9
330
9B
100
AcDbEntity
  8
AM_6
100
AcDbText
 10
7.359375
 20
-6.37
 30
0.0
 40
0.5
  1
4.78
100
AcDbAttributeDefinition
  3

  2
D
 70
     8
280
     0
  0
ATTDEF
  5
AA
330
9B
100
AcDbEntity
  8
AM_6
100
AcDbText
 10
7.359375
 20
-6.87
 30
0.0
 40
0.5
  1
0.54
100
AcDbAttributeDefinition
  3

  2
E
 70
     8
280
     0
  0
ATTDEF
  5
AB
330
9B
100
AcDbEntity
  8
AM_6
100
AcDbText
 10
7.359375
 20
-7.37
 30
0.0
 40
0.5
  1
0.44
100
AcDbAttributeDefinition
  3

  2
F
 70
     8
280
     0
  0
ATTDEF
  5
AC
330
9B
100
AcDbEntity
  8
AM_6
100
AcDbText
 10
7.359375
 20
-7.87
 30
0.0
 40
0.5
  1
1/2-13
100
AcDbAttributeDefinition
  3

  2
CS
 70
     8
280
     0
  0
ATTDEF
  5
AD
330
9B
100
AcDbEntity
  8
AM_6
100
AcDbText
 10
7.359375
 20
-8.370000000000001
 30
0.0
 40
0.5
  1
0.5000
100
AcDbAttributeDefinition
  3

  2
NDM
 70
     8
280
     0
  0
ATTDEF
  5
AE
330
9B
100
AcDbEntity
  8
AM_6
100
AcDbText
 10
7.359375
 20
-8.870000000000001
 30
0.0
 40
0.5
  1
0.4170
100
AcDbAttributeDefinition
  3

  2
KDM
 70
     8
280
     0
  0
ATTDEF
  5
AF
330
9B
100
AcDbEntity
  8
AM_6
100
AcDbText
 10
7.359375
 20
-9.370000000000001
 30
0.0
 40
0.5
  1
baldor
100
AcDbAttributeDefinition
  3

  2
COMPANY
 70
     8
280
     0
  0
LINE
  5
B2
330
9B
100
AcDbEntity
  8
AM_9
100
AcDbLine
 10
1.621041032257525
 20
-1.625688878520796
 30
0.0
 11
1.61305440722388
 21
-1.615727268251337
 31
0.0
  0
LINE
  5
B3
330
9B
100
AcDbEntity
  8
AM_9
100
AcDbLine
 10
1.613170729530423
 20
-2.004127644496094
 30
0.0
 11
1.621041032257525
 21
-1.994311121479204
 31
0.0
  0
LWPOLYLINE
  5
B4
330
9B
100
AcDbEntity
  8
AM_9
100
AcDbPolyline
 90
       16
 70
     0
 43
0.0
 10
1.465314908214149
 20
-1.748592078750655
 10
1.464056919187704
 20
-1.756437628082113
 10
1.460611199751108
 20
-1.791318106206522
 10
1.460501342178344
 20
-1.826778266969307
 10
1.463559790983706
 20
-1.860006309297697
 10
1.469471304412095
 20
-1.89185500592187
 10
1.478080152316678
 20
-1.921822817727664
 10
1.488875959469234
 20
-1.948868925596456
 10
1.502221246461338
 20
-1.973714244414009
 10
1.516948169503487
 20
-1.994175428933712
 10
1.533630517432525
 20
-2.010743085542843
 10
1.550677039470555
 20
-2.02156688754621
 10
1.568314873597992
 20
-2.026455950329134
 10
1.585225053095024
 20
-2.024738766420171
 10
1.601192387018168
 20
-2.016166359535574
 10
1.612992634762477
 20
-2.004349779511936
  0
LWPOLYLINE
  5
B5
330
9B
100
AcDbEntity
  8
AM_9
100
AcDbPolyline
 90
       12
 70
     0
 43
0.0
 10
1.612990574754573
 20
-1.615647651442558
 10
1.612046645345024
 20
-1.614490675361804
 10
1.59785768535058
 20
-1.601404494522102
 10
1.582275798261554
 20
-1.594461797028247
 10
1.565046956142054
 20
-1.593960288434045
 10
1.547173428377315
 20
-1.60017042818074
 10
1.529059042951489
 20
-1.613187605814695
 10
1.51153768200074
 20
-1.632629757231117
 10
1.495645357798667
 20
-1.657641421991179
 10
1.481812561533488
 20
-1.68785489446845
 10
1.471353800244299
 20
-1.720626323758072
 10
1.465314908214149
 20
-1.748592078750655
  0
LWPOLYLINE
  5
B6
330
9B
100
AcDbEntity
  8
AM_9
100
AcDbPolyline
 90
        5
 70
     0
 43
0.0
 10
1.653422092345572
 20
-1.747227016821112
 10
1.649650426497844
 20
-1.717762826461814
 10
1.644091577252382
 20
-1.688992724445749
 10
1.638505512378883
 20
-1.668167613816591
 10
1.631954042127872
 20
-1.649555668756485
  0
LWPOLYLINE
  5
B7
330
9B
100
AcDbEntity
  8
AM_9
100
AcDbPolyline
 90
       10
 70
     0
 43
0.0
 10
1.61898851360411
 20
-1.996000104921789
 10
1.6279561720087
 20
-1.97960814663297
 10
1.638294116472994
 20
-1.95252598454245
 10
1.646116998041128
 20
-1.921709367588373
 10
1.651811072303223
 20
-1.887052376945247
 10
1.655093810789353
 20
-1.852306650676082
 10
1.656427427866309
 20
-1.816196659427123
 10
1.655869411456413
 20
-1.782182542507812
 10
1.653592459925614
 20
-1.748963263442655
 10
1.653422092345572
 20
-1.747227016821112
  0
LWPOLYLINE
  5
B8
330
9B
100
AcDbEntity
  8
AM_9
100
AcDbPolyline
 90
        3
 70
     0
 43
0.0
 10
1.612992634762477
 20
-2.004349779511936
 10
1.615575161783561
 20
-2.000972840272981
 10
1.61898851360411
 20
-1.996000104921789
  0
LINE
  5
B9
330
9B
100
AcDbEntity
  8
AM_9
100
AcDbLine
 10
1.579981470270776
 20
-2.01835
 30
0.0
 11
2.100572215709519
 21
-2.01835
 31
0.0
  0
LINE
  5
BA
330
9B
100
AcDbEntity
  8
AM_9
100
AcDbLine
 10
2.100572215709519
 20
-1.60165
 30
0.0
 11
1.579981470270776
 21
-1.60165
 31
0.0
  0
ELLIPSE
  5
BB
330
9B
100
AcDbEntity
  8
AM_9
100
AcDbEllipse
 10
2.100572215709519
 20
-1.81
 30
0.0
 11
-3.827327409035250E-17
 21
-0.2083499999999991
 31
0.0
210
0.0
220
0.0
230
1.0
 40
0.4226182617407027
 41
3.470913259877268
 42
5.961478448194303
  0
LINE
  5
BC
330
9B
100
AcDbEntity
  8
AM_9
100
AcDbLine
 10
2.05951265372277
 20
-1.994311121479204
 30
0.0
 11
2.086768563749931
 21
-2.028307052437054
 31
0.0
  0
LINE
  5
BD
330
9B
100
AcDbEntity
  8
AM_9
100
AcDbLine
 10
2.086992627282338
 20
-1.591413476124631
 30
0.0
 11
2.05951265372277
 21
-1.625688878520796
 31
0.0
  0
LWPOLYLINE
  5
BE
330
9B
100
AcDbEntity
  8
AM_9
100
AcDbPolyline
 90
       14
 70
     0
 43
0.0
 10
0.222416008279701
 20
-1.74768025777556
 10
0.2167515968369033
 20
-1.732295213212401
 10
0.201484692398876
 20
-1.702422082354891
 10
0.1811810434242241
 20
-1.674654236130354
 10
0.1559727047703959
 20
-1.64965509630899
 10
0.1264175880709437
 20
-1.628388550425192
 10
0.0924403988119422
 20
-1.611321425731918
 10
0.0551932495490422
 20
-1.599573200158219
 10
0.0156939869056604
 20
-1.593831299756221
 10
-0.0253357208255691
 20
-1.594633464860007
 10
-0.0652749777003967
 20
-1.602112024932895
 10
-0.104479704336164
 20
-1.616602020644807
 10
-0.1340654191770725
 20
-1.633235434007992
 10
-0.161466984200568
 20
-1.654460767138978
  0
LWPOLYLINE
  5
BF
330
9B
100
AcDbEntity
  8
AM_9
100
AcDbPolyline
 90
       24
 70
     0
 43
0.0
 10
-0.2232066180228043
 20
-1.750177407578531
 10
-0.2292723317967972
 20
-1.775308884043453
 10
-0.2322858014840316
 20
-1.809448280293216
 10
-0.2292778394375693
 20
-1.844659609339304
 10
-0.2209335884976223
 20
-1.876729276553558
 10
-0.2071343034778658
 20
-1.907831273095756
 10
-0.1885143827045351
 20
-1.93634634917952
 10
-0.1650679263850962
 20
-1.962214827786413
 10
-0.1367356484815354
 20
-1.984972569846916
 10
-0.1043519545037619
 20
-2.003458188147672
 10
-0.0680667931565343
 20
-2.017103700389159
 10
-0.029012447489535
 20
-2.024960235219265
 10
0.011245841761008
 20
-2.026411114352762
 10
0.0523225662588102
 20
-2.021067220647529
 10
0.0911718498606498
 20
-2.009189965200795
 10
0.1284866317154247
 20
-1.990340734915682
 10
0.1604137427744478
 20
-1.966484769650646
 10
0.1884649820641357
 20
-1.936410334238764
 10
0.2088734306056461
 20
-1.904571293770885
 10
0.2236575397198451
 20
-1.8683464517832
 10
0.2308455463607826
 20
-1.834026229611861
 10
0.2319177534005022
 20
-1.797831398016388
 10
0.2271667767931077
 20
-1.764888599907363
 10
0.222416008279701
 20
-1.74768025777556
  0
LWPOLYLINE
  5
C0
330
9B
100
AcDbEntity
  8
AM_9
100
AcDbPolyline
 90
        5
 70
     0
 43
0.0
 10
-0.161466984200568
 20
-1.654460767138978
 10
-0.1841635177382099
 20
-1.678197992660088
 10
-0.2034646077066688
 20
-1.705704398860351
 10
-0.2192983224346119
 20
-1.738752577690726
 10
-0.2232066180228043
 20
-1.750177407578531
  0
LINE
  5
C1
330
9B
100
AcDbEntity
  8
AM_9
100
AcDbLine
 10
1.619951154994379
 20
-1.625515207112547
 30
0.0
 11
1.612990574754573
 21
-1.615647651442558
 31
0.0
  0
LWPOLYLINE
  5
C2
330
9B
100
AcDbEntity
  8
AM_9
100
AcDbPolyline
 90
        3
 70
     0
 43
0.0
 10
1.631954042127872
 20
-1.649555668756485
 10
1.622646391369938
 20
-1.630059625999035
 10
1.619951154994379
 20
-1.625515207112547
  0
LINE
  5
C3
330
9B
100
AcDbEntity
  8
AM_9
100
AcDbLine
 10
1.735
 20
-2.25
 30
0.0
 11
1.735
 21
-1.37
 31
0.0
  0
LINE
  5
C4
330
9B
100
AcDbEntity
  8
AM_9
100
AcDbLine
 10
-1.735
 20
-1.37
 30
0.0
 11
-1.735
 21
-2.25
 31
0.0
  0
LINE
  5
C5
330
9B
100
AcDbEntity
  8
AM_9
100
AcDbLine
 10
-2.359375
 20
-1.37
 30
0.0
 11
2.359375
 21
-1.37
 31
0.0
  0
LINE
  5
C6
330
9B
100
AcDbEntity
  8
AM_9
100
AcDbLine
 10
2.359375
 20
-1.5
 30
0.0
 11
2.359375
 21
-1.37
 31
0.0
  0
LINE
  5
C7
330
9B
100
AcDbEntity
  8
AM_9
100
AcDbLine
 10
-2.359375
 20
-1.37
 30
0.0
 11
-2.359375
 21
-1.5
 31
0.0
  0
ELLIPSE
  5
C8
330
9B
100
AcDbEntity
  8
AM_9
100
AcDbEllipse
 10
1.579981470270775
 20
-1.81
 30
0.0
 11
-3.827327409035258E-17
 21
-0.2083499999999996
 31
0.0
210
0.0
220
0.0
230
1.0
 40
0.4226182617406985
 41
0.0
 42
6.283185307179586
  0
LINE
  5
CB
330
9B
100
AcDbEntity
  8
AM_7
100
AcDbLine
 10
-0.2187675
 20
-1.81
 30
0.0
 11
0.2187675
 21
-1.81
 31
0.0
  0
ELLIPSE
  5
CD
330
9B
100
AcDbEntity
  8
AM_4
100
AcDbEllipse
 10
2.100572215709519
 20
-1.81
 30
0.0
 11
-3.827327409035266E-17
 21
-0.20835
 31
0.0
210
0.0
220
0.0
230
1.0
 40
0.4226182617406988
 41
5.961478448194301
 42
9.754098567056856
  0
LWPOLYLINE
  5
CE
330
9B
100
AcDbEntity
  8
AM_4
100
AcDbPolyline
 90
       15
 70
     0
 43
0.0
 10
2.087038993558085
 20
-2.028644352600968
 10
2.08052553538475
 20
-2.01990401441403
 10
2.066003691308386
 20
-1.995387412921692
 10
2.053248002709108
 20
-1.96634609979954
 10
2.042247373118455
 20
-1.93190128760042
 10
2.034001798565066
 20
-1.894355779474501
 10
2.02867863020075
 20
-1.852922522691474
 10
2.026845957795331
 20
-1.810335157342085
 10
2.028709897046415
 20
-1.766728038421501
 10
2.034230547427344
 20
-1.724340608412546
 10
2.043263360425617
 20
-1.684388346186649
 10
2.055403774996589
 20
-1.648096106934724
 10
2.069852602559496
 20
-1.617376195886267
 10
2.086265739815987
 20
-1.592328862213463
 10
2.087049049370266
 20
-1.59134310200578
  0
LWPOLYLINE
  5
CF
330
9B
100
AcDbEntity
  8
AM_4
100
AcDbPolyline
 90
        9
 70
     0
 43
0.0
 10
2.087049049370266
 20
-1.59134310200578
 10
2.103200994354455
 20
-1.574673442383182
 10
2.120732731620358
 20
-1.563719650834173
 10
2.137387423611663
 20
-1.560038125304694
 10
2.153502731230021
 20
-1.56296951277289
 10
2.168276424512343
 20
-1.572215035880981
 10
2.181769502003525
 20
-1.587344822729626
 10
2.190713015830739
 20
-1.601979114065063
 10
2.198759430678418
 20
-1.6192853651871
  0
LWPOLYLINE
  5
D0
330
9B
100
AcDbEntity
  8
AM_4
100
AcDbPolyline
 90
       19
 70
     0
 43
0.0
 10
2.198759430678418
 20
-1.6192853651871
 10
2.207810880031491
 20
-1.645402722853204
 10
2.215211574161231
 20
-1.674930600228178
 10
2.221612545756906
 20
-1.712108774653523
 10
2.225812747392423
 20
-1.751831614328399
 10
2.227829942004008
 20
-1.79456404648549
 10
2.227498811563288
 20
-1.837718466308976
 10
2.224732238461724
 20
-1.880797789163623
 10
2.219529600033362
 20
-1.92185689160515
 10
2.211918025309107
 20
-1.959393492189768
 10
2.201917981862616
 20
-1.99254717544095
 10
2.189984356526584
 20
-2.019343903191148
 10
2.176025768532093
 20
-2.040007460099333
 10
2.161081415379777
 20
-2.053122732471662
 10
2.144881916949871
 20
-2.059458491903518
 10
2.128602486702705
 20
-2.058826544248452
 10
2.112055487180372
 20
-2.051773801286873
 10
2.095917557065508
 20
-2.038633429695194
 10
2.087038993558085
 20
-2.028644352600968
  0
LINE
  5
D1
330
9B
100
AcDbEntity
  8
AM_4
100
AcDbLine
 10
2.359375
 20
-2.103333333333333
 30
0.0
 11
2.359375
 21
-1.5
 31
0.0
  0
LINE
  5
D2
330
9B
100
AcDbEntity
  8
AM_4
100
AcDbLine
 10
-2.359375
 20
-1.5
 30
0.0
 11
-2.359375
 21
-2.103333333333333
 31
0.0
  0
LINE
  5
D3
330
9B
100
AcDbEntity
  8
AM_4
100
AcDbLine
 10
-2.212708333333333
 20
-2.25
 30
0.0
 11
2.212708333322468
 21
-2.25
 31
0.0
  0
LINE
  5
D4
330
9B
100
AcDbEntity
  8
AM_4
100
AcDbLine
 10
-2.359375
 20
-2.103333333333333
 30
0.0
 11
2.359375
 21
-2.103333333333333
 31
0.0
  0
ARC
  5
D5
330
9B
100
AcDbEntity
  8
AM_4
100
AcDbCircle
 10
2.212708333333333
 20
-2.103333333333333
 30
0.0
 40
0.1466666666666669
100
AcDbArc
 50
270.0
 51
0.0
  0
ARC
  5
D6
330
9B
100
AcDbEntity
  8
AM_4
100
AcDbCircle
 10
-2.212708333333333
 20
-2.103333333333333
 30
0.0
 40
0.1466666666666674
100
AcDbArc
 50
180.0
 51
270.0
  0
LWPOLYLINE
  5
D7
330
9B
100
AcDbEntity
  8
AM_4
100
AcDbPolyline
 90
       39
 70
     0
 43
0.0
 10
-0.1720721192740836
 20
-1.637404745047907
 10
-0.1461564540370465
 20
-1.612786521970041
 10
-0.1161669867659381
 20
-1.591865539762076
 10
-0.0801119934861985
 20
-1.574620141961733
 10
-0.0403536291642562
 20
-1.563628037766915
 10
-0.0022807947082506
 20
-1.560011506727427
 10
0.0370078731793555
 20
-1.56304783600187
 10
0.0733016447498684
 20
-1.572179289720223
 10
0.1085497050525195
 20
-1.587572465257048
 10
0.140487504229317
 20
-1.608288276301587
 10
0.1694286859655187
 20
-1.634542345156681
 10
0.1942114323624739
 20
-1.665630273573559
 10
0.2142153945418072
 20
-1.701214275261731
 10
0.2285211543798913
 20
-1.740324688946399
 10
0.2365076396732887
 20
-1.782369947754167
 10
0.2375223472899202
 20
-1.825285198617749
 10
0.2312372177884384
 20
-1.868982517114073
 10
0.2180073703684086
 20
-1.910139280342119
 10
0.1973685630034215
 20
-1.949567829201778
 10
0.1714668011870681
 20
-1.98325880122131
 10
0.139080191558381
 20
-2.012785918076061
 10
0.1045490521048732
 20
-2.034535294416357
 10
0.0654846700451922
 20
-2.050329177094185
 10
0.0275297010434625
 20
-2.058318007781718
 10
-0.0124457646366751
 20
-2.059657146848933
 10
-0.049618992851523
 20
-2.054494008322143
 10
-0.086434327986544
 20
-2.042894249982265
 10
-0.1200505184001991
 20
-2.025798774137946
 10
-0.1512756537329037
 20
-2.002903908805469
 10
-0.1787123961597089
 20
-1.974981156631457
 10
-0.2019280275827619
 20
-1.942179994433425
 10
-0.2199723378634819
 20
-1.905285908795002
 10
-0.2321508269293254
 20
-1.86488680387649
 10
-0.2376638599215573
 20
-1.822632273486196
 10
-0.2361096917292606
 20
-1.77884593457449
 10
-0.2274255397027932
 20
-1.736481139256237
 10
-0.2112602456404956
 20
-1.695020400036163
 10
-0.1938675201563416
 20
-1.665121363204347
 10
-0.1720721193514444
 20
-1.637404744999213
  0
CIRCLE
  5
D8
330
9B
100
AcDbEntity
  8
AM_4
100
AcDbCircle
 10
0.0
 20
-1.81
 30
0.0
 40
0.20835
  0
CIRCLE
  5
DA
330
9B
100
AcDbEntity
  8
AM_5
100
AcDbCircle
 10
0.0000000000000002
 20
-1.81
 30
0.0
 40
0.2499999999999999
  0
ENDBLK
  5
9E
330
9B
100
AcDbEntity
  8
0
100
AcDbBlockEnd
  0
BLOCK
  5
DD
330
DB
100
AcDbEntity
  8
0
100
AcDbBlockBegin
  2
3_405020c_Inch_0_in_023182_4
 70
     2
 10
0.0
 20
0.0
 30
0.0
  3
3_405020c_Inch_0_in_023182_4
  1

  0
ATTDEF
  5
DF
330
DB
100
AcDbEntity
  8
AM_6
100
AcDbText
 10
5.14065
 20
0.162408630723042
 30
0.0
 40
0.5
  1
405020C -Inch
100
AcDbAttributeDefinition
  3

  2
NN
 70
     8
280
     0
  0
ATTDEF
  5
E0
330
DB
100
AcDbEntity
  8
AM_6
100
AcDbText
 10
5.14065
 20
-0.337591369276958
 30
0.0
 40
0.5
  1
Grease fitting
100
AcDbAttributeDefinition
  3

  2
NT
 70
     8
280
     0
  0
ATTDEF
  5
E1
330
DB
100
AcDbEntity
  8
AM_6
100
AcDbText
 10
5.14065
 20
-0.8375913692769581
 30
0.0
 40
0.5
  1
405020c-Inch
100
AcDbAttributeDefinition
  3

  2
NB
 70
     8
280
     0
  0
ATTDEF
  5
E2
330
DB
100
AcDbEntity
  8
AM_6
100
AcDbText
 10
5.14065
 20
-1.337591369276958
 30
0.0
 40
0.5
  1
$MN.-Inch
100
AcDbAttributeDefinition
  3

  2
NBSYN
 70
     8
280
     0
  0
ATTDEF
  5
E3
330
DB
100
AcDbEntity
  8
AM_6
100
AcDbText
 10
5.14065
 20
-1.837591369276958
 30
0.0
 40
0.5
  1
405020c
100
AcDbAttributeDefinition
  3

  2
LINA
 70
     8
280
     0
  0
ATTDEF
  5
E4
330
DB
100
AcDbEntity
  8
AM_6
100
AcDbText
 10
5.14065
 20
-2.337591369276958
 30
0.0
 40
0.5
  1
405020c
100
AcDbAttributeDefinition
  3

  2
MN
 70
     8
280
     0
  0
ATTDEF
  5
E5
330
DB
100
AcDbEntity
  8
AM_6
100
AcDbText
 10
5.14065
 20
-2.837591369276958
 30
0.0
 40
0.5
  1
0.230
100
AcDbAttributeDefinition
  3

  2
NDR
 70
     8
280
     0
  0
ATTDEF
  5
E6
330
DB
100
AcDbEntity
  8
AM_6
100
AcDbText
 10
5.14065
 20
-3.337591369276958
 30
0.0
 40
0.5
  1
0.210
100
AcDbAttributeDefinition
  3

  2
KDR
 70
     8
280
     0
  0
ATTDEF
  5
E7
330
DB
100
AcDbEntity
  8
AM_6
100
AcDbText
 10
5.14065
 20
-3.837591369276958
 30
0.0
 40
0.5
  1
0.157
100
AcDbAttributeDefinition
  3

  2
BZE
 70
     8
280
     0
  0
ATTDEF
  5
E8
330
DB
100
AcDbEntity
  8
AM_6
100
AcDbText
 10
5.14065
 20
-4.337591369276958
 30
0.0
 40
0.5
  1
9/32
100
AcDbAttributeDefinition
  3

  2
WAF
 70
     8
280
     0
  0
ATTDEF
  5
E9
330
DB
100
AcDbEntity
  8
AM_6
100
AcDbText
 10
5.14065
 20
-4.837591369276958
 30
0.0
 40
0.5
  1
0.2813
100
AcDbAttributeDefinition
  3

  2
WAF1
 70
     8
280
     0
  0
ATTDEF
  5
EA
330
DB
100
AcDbEntity
  8
AM_6
100
AcDbText
 10
5.14065
 20
-5.337591369276958
 30
0.0
 40
0.5
  1
0.545
100
AcDbAttributeDefinition
  3

  2
BL
 70
     8
280
     0
  0
ATTDEF
  5
EB
330
DB
100
AcDbEntity
  8
AM_6
100
AcDbText
 10
5.14065
 20
-5.837591369276958
 30
0.0
 40
0.5
  1
0.200
100
AcDbAttributeDefinition
  3

  2
TL
 70
     8
280
     0
  0
ATTDEF
  5
EC
330
DB
100
AcDbEntity
  8
AM_6
100
AcDbText
 10
5.14065
 20
-6.337591369276958
 30
0.0
 40
0.5
  1
baldor
100
AcDbAttributeDefinition
  3

  2
COMPANY
 70
     8
280
     0
  0
CIRCLE
  5
ED
330
DB
100
AcDbEntity
  8
AM_9
100
AcDbCircle
 10
0.0
 20
0.0000000000000002
 30
0.0
 40
0.1000886227036577
  0
CIRCLE
  5
EE
330
DB
100
AcDbEntity
  8
AM_9
100
AcDbCircle
 10
0.0
 20
0.0000000000000002
 30
0.0
 40
0.1104162595939891
  0
CIRCLE
  5
EF
330
DB
100
AcDbEntity
  8
AM_9
100
AcDbCircle
 10
0.0
 20
0.0000000000000002
 30
0.0
 40
0.1163438171532771
  0
LINE
  5
F0
330
DB
100
AcDbEntity
  8
AM_9
100
AcDbLine
 10
0.14065
 20
-0.0812043153615206
 30
0.0
 11
0.14065
 21
0.0812043153615211
 31
0.0
  0
LINE
  5
F1
330
DB
100
AcDbEntity
  8
AM_9
100
AcDbLine
 10
0.0
 20
-0.1624086307230415
 30
0.0
 11
0.14065
 21
-0.0812043153615206
 31
0.0
  0
LINE
  5
F2
330
DB
100
AcDbEntity
  8
AM_9
100
AcDbLine
 10
0.0
 20
0.162408630723042
 30
0.0
 11
-0.14065
 21
0.0812043153615211
 31
0.0
  0
LINE
  5
F3
330
DB
100
AcDbEntity
  8
AM_9
100
AcDbLine
 10
0.14065
 20
0.0812043153615211
 30
0.0
 11
0.0
 21
0.162408630723042
 31
0.0
  0
LINE
  5
F4
330
DB
100
AcDbEntity
  8
AM_9
100
AcDbLine
 10
-0.14065
 20
0.0812043153615211
 30
0.0
 11
-0.14065
 21
-0.0812043153615206
 31
0.0
  0
LINE
  5
F5
330
DB
100
AcDbEntity
  8
AM_9
100
AcDbLine
 10
-0.14065
 20
-0.0812043153615206
 30
0.0
 11
0.0
 21
-0.1624086307230415
 31
0.0
  0
CIRCLE
  5
F6
330
DB
100
AcDbEntity
  8
AM_9
100
AcDbCircle
 10
0.0
 20
0.0000000000000002
 30
0.0
 40
0.1093294505797714
  0
CIRCLE
  5
F7
330
DB
100
AcDbEntity
  8
AM_9
100
AcDbCircle
 10
0.0
 20
0.0000000000000002
 30
0.0
 40
0.0946847896390988
  0
CIRCLE
  5
F8
330
DB
100
AcDbEntity
  8
AM_9
100
AcDbCircle
 10
0.0
 20
0.0000000000000002
 30
0.0
 40
0.135926521995058
  0
CIRCLE
  5
F9
330
DB
100
AcDbEntity
  8
AM_9
100
AcDbCircle
 10
0.0
 20
0.0000000000000003
 30
0.0
 40
0.13195176466768
  0
CIRCLE
  5
FA
330
DB
100
AcDbEntity
  8
AM_9
100
AcDbCircle
 10
0.0
 20
0.0000000000000003
 30
0.0
 40
0.1038190510530391
  0
CIRCLE
  5
FB
330
DB
100
AcDbEntity
  8
AM_9
100
AcDbCircle
 10
0.0
 20
0.0000000000000003
 30
0.0
 40
0.080806429716728
  0
CIRCLE
  5
FC
330
DB
100
AcDbEntity
  8
AM_9
100
AcDbCircle
 10
0.0000000000000002
 20
0.0000000000000003
 30
0.0
 40
0.1406500000000002
  0
ENDBLK
  5
DE
330
DB
100
AcDbEntity
  8
0
100
AcDbBlockEnd
  0
BLOCK
  5
FF
330
FD
100
AcDbEntity
  8
0
100
AcDbBlockBegin
  2
4_S1U_K_212R_0_in_023182_4
 70
     2
 10
0.0
 20
0.0
 30
0.0
  3
4_S1U_K_212R_0_in_023182_4
  1

  0
ATTDEF
  5
101
330
FD
100
AcDbEntity
  8
AM_6
100
AcDbText
 10
8.029308703190598
 20
1.921875
 30
0.0
 40
0.5
  1
Type K Units - Inch
100
AcDbAttributeDefinition
  3

  2
NN
 70
     8
280
     0
  0
ATTDEF
  5
102
330
FD
100
AcDbEntity
  8
AM_6
100
AcDbText
 10
8.029308703190598
 20
1.421875
 30
0.0
 40
0.5
  1
Type K
100
AcDbAttributeDefinition
  3

  2
NT
 70
     8
280
     0
  0
ATTDEF
  5
103
330
FD
100
AcDbEntity
  8
AM_6
100
AcDbText
 10
8.029308703190598
 20
0.921875
 30
0.0
 40
0.5
  1
S1U-K-212R
100
AcDbAttributeDefinition
  3

  2
NB
 70
     8
280
     0
  0
ATTDEF
  5
104
330
FD
100
AcDbEntity
  8
AM_6
100
AcDbText
 10
8.029308703190598
 20
0.421875
 30
0.0
 40
0.5
  1
$PN.
100
AcDbAttributeDefinition
  3

  2
NBSYN
 70
     8
280
     0
  0
ATTDEF
  5
105
330
FD
100
AcDbEntity
  8
AM_6
100
AcDbText
 10
8.029308703190598
 20
-0.078125
 30
0.0
 40
0.5
  1
S1U-K-212R
100
AcDbAttributeDefinition
  3

  2
LINA
 70
     8
280
     0
  0
ATTDEF
  5
106
330
FD
100
AcDbEntity
  8
AM_6
100
AcDbText
 10
8.029308703190598
 20
-0.578125
 30
0.0
 40
0.5
  1
2-3/4
100
AcDbAttributeDefinition
  3

  2
SS
 70
     8
280
     0
  0
ATTDEF
  5
107
330
FD
100
AcDbEntity
  8
AM_6
100
AcDbText
 10
8.029308703190598
 20
-1.078125
 30
0.0
 40
0.5
  1
2.750000
100
AcDbAttributeDefinition
  3

  2
SS1
 70
     8
280
     0
  0
ATTDEF
  5
108
330
FD
100
AcDbEntity
  8
AM_6
100
AcDbText
 10
8.029308703190598
 20
-1.578125
 30
0.0
 40
0.5
  1
S1U-K-212R
100
AcDbAttributeDefinition
  3

  2
PN
 70
     8
280
     0
  0
ATTDEF
  5
109
330
FD
100
AcDbEntity
  8
AM_6
100
AcDbText
 10
8.029308703190598
 20
-2.078125
 30
0.0
 40
0.5
  1
S1U-K-212R
100
AcDbAttributeDefinition
  3

  2
PNA
 70
     8
280
     0
  0
ATTDEF
  5
10A
330
FD
100
AcDbEntity
  8
AM_6
100
AcDbText
 10
8.029308703190598
 20
-2.578125
 30
0.0
 40
0.5
  1
15
100
AcDbAttributeDefinition
  3

  2
WEIGHT
 70
     8
280
     0
  0
ATTDEF
  5
10B
330
FD
100
AcDbEntity
  8
AM_6
100
AcDbText
 10
8.029308703190598
 20
-3.078125
 30
0.0
 40
0.5
  1
3-3/4
100
AcDbAttributeDefinition
  3

  2
A
 70
     8
280
     0
  0
ATTDEF
  5
10C
330
FD
100
AcDbEntity
  8
AM_6
100
AcDbText
 10
8.029308703190598
 20
-3.578125
 30
0.0
 40
0.5
  1
3.750000
100
AcDbAttributeDefinition
  3

  2
A1
 70
     8
280
     0
  0
ATTDEF
  5
10D
330
FD
100
AcDbEntity
  8
AM_6
100
AcDbText
 10
8.029308703190598
 20
-4.078125
 30
0.0
 40
0.5
  1
3
100
AcDbAttributeDefinition
  3

  2
B
 70
     8
280
     0
  0
ATTDEF
  5
10E
330
FD
100
AcDbEntity
  8
AM_6
100
AcDbText
 10
8.029308703190598
 20
-4.578125
 30
0.0
 40
0.5
  1
3.000000
100
AcDbAttributeDefinition
  3

  2
B1
 70
     8
280
     0
  0
ATTDEF
  5
10F
330
FD
100
AcDbEntity
  8
AM_6
100
AcDbText
 10
8.029308703190598
 20
-5.078125
 30
0.0
 40
0.5
  1
1-7/8
100
AcDbAttributeDefinition
  3

  2
C
 70
     8
280
     0
  0
ATTDEF
  5
110
330
FD
100
AcDbEntity
  8
AM_6
100
AcDbText
 10
8.029308703190598
 20
-5.578125
 30
0.0
 40
0.5
  1
1.875000
100
AcDbAttributeDefinition
  3

  2
C1
 70
     8
280
     0
  0
ATTDEF
  5
111
330
FD
100
AcDbEntity
  8
AM_6
100
AcDbText
 10
8.029308703190598
 20
-6.078125
 30
0.0
 40
0.5
  1
5-7/8
100
AcDbAttributeDefinition
  3

  2
D
 70
     8
280
     0
  0
ATTDEF
  5
112
330
FD
100
AcDbEntity
  8
AM_6
100
AcDbText
 10
8.029308703190598
 20
-6.578125
 30
0.0
 40
0.5
  1
5.875000
100
AcDbAttributeDefinition
  3

  2
D1
 70
     8
280
     0
  0
ATTDEF
  5
113
330
FD
100
AcDbEntity
  8
AM_6
100
AcDbText
 10
8.029308703190598
 20
-7.078125
 30
0.0
 40
0.5
  1
0.450
100
AcDbAttributeDefinition
  3

  2
E
 70
     8
280
     0
  0
ATTDEF
  5
114
330
FD
100
AcDbEntity
  8
AM_6
100
AcDbText
 10
8.029308703190598
 20
-7.578125
 30
0.0
 40
0.5
  1
5.563
100
AcDbAttributeDefinition
  3

  2
EM
 70
     8
280
     0
  0
ATTDEF
  5
115
330
FD
100
AcDbEntity
  8
AM_6
100
AcDbText
 10
8.029308703190598
 20
-8.078125
 30
0.0
 40
0.5
  1
5.630
100
AcDbAttributeDefinition
  3

  2
EC
 70
     8
280
     0
  0
ATTDEF
  5
116
330
FD
100
AcDbEntity
  8
AM_6
100
AcDbText
 10
8.029308703190598
 20
-8.578125
 30
0.0
 40
0.5
  1
11/16
100
AcDbAttributeDefinition
  3

  2
H
 70
     8
280
     0
  0
ATTDEF
  5
117
330
FD
100
AcDbEntity
  8
AM_6
100
AcDbText
 10
8.029308703190598
 20
-9.078125
 30
0.0
 40
0.5
  1
0.687500
100
AcDbAttributeDefinition
  3

  2
H1
 70
     8
280
     0
  0
ATTDEF
  5
118
330
FD
100
AcDbEntity
  8
AM_6
100
AcDbText
 10
8.029308703190598
 20
-9.578125
 30
0.0
 40
0.5
  1
3-7/8
100
AcDbAttributeDefinition
  3

  2
J
 70
     8
280
     0
  0
ATTDEF
  5
119
330
FD
100
AcDbEntity
  8
AM_6
100
AcDbText
 10
8.029308703190598
 20
-10.078125
 30
0.0
 40
0.5
  1
3.875000
100
AcDbAttributeDefinition
  3

  2
J1
 70
     8
280
     0
  0
ATTDEF
  5
11A
330
FD
100
AcDbEntity
  8
AM_6
100
AcDbText
 10
8.029308703190598
 20
-10.578125
 30
0.0
 40
0.5
  1
6.061
100
AcDbAttributeDefinition
  3

  2
K
 70
     8
280
     0
  0
ATTDEF
  5
11B
330
FD
100
AcDbEntity
  8
AM_6
100
AcDbText
 10
8.029308703190598
 20
-11.078125
 30
0.0
 40
0.5
  1
4-23/32
100
AcDbAttributeDefinition
  3

  2
L
 70
     8
280
     0
  0
ATTDEF
  5
11C
330
FD
100
AcDbEntity
  8
AM_6
100
AcDbText
 10
8.029308703190598
 20
-11.578125
 30
0.0
 40
0.5
  1
4.718750
100
AcDbAttributeDefinition
  3

  2
L1
 70
     8
280
     0
  0
ATTDEF
  5
11D
330
FD
100
AcDbEntity
  8
AM_6
100
AcDbText
 10
8.029308703190598
 20
-12.078125
 30
0.0
 40
0.5
  1
3-13/16
100
AcDbAttributeDefinition
  3

  2
M
 70
     8
280
     0
  0
ATTDEF
  5
11E
330
FD
100
AcDbEntity
  8
AM_6
100
AcDbText
 10
8.029308703190598
 20
-12.578125
 30
0.0
 40
0.5
  1
3.812500
100
AcDbAttributeDefinition
  3

  2
M1
 70
     8
280
     0
  0
ATTDEF
  5
11F
330
FD
100
AcDbEntity
  8
AM_6
100
AcDbText
 10
8.029308703190598
 20
-13.078125
 30
0.0
 40
0.5
  1
1-7/16
100
AcDbAttributeDefinition
  3

  2
R
 70
     8
280
     0
  0
ATTDEF
  5
120
330
FD
100
AcDbEntity
  8
AM_6
100
AcDbText
 10
8.029308703190598
 20
-13.578125
 30
0.0
 40
0.5
  1
1.437500
100
AcDbAttributeDefinition
  3

  2
R1
 70
     8
280
     0
  0
ATTDEF
  5
121
330
FD
100
AcDbEntity
  8
AM_6
100
AcDbText
 10
8.029308703190598
 20
-14.078125
 30
0.0
 40
0.5
  1
2-1/4
100
AcDbAttributeDefinition
  3

  2
S
 70
     8
280
     0
  0
ATTDEF
  5
122
330
FD
100
AcDbEntity
  8
AM_6
100
AcDbText
 10
8.029308703190598
 20
-14.578125
 30
0.0
 40
0.5
  1
2.250000
100
AcDbAttributeDefinition
  3

  2
S1
 70
     8
280
     0
  0
ATTDEF
  5
123
330
FD
100
AcDbEntity
  8
AM_6
100
AcDbText
 10
8.029308703190598
 20
-15.078125
 30
0.0
 40
0.5
  1
3.4700
100
AcDbAttributeDefinition
  3

  2
CC
 70
     8
280
     0
  0
ATTDEF
  5
124
330
FD
100
AcDbEntity
  8
AM_6
100
AcDbText
 10
8.029308703190598
 20
-15.578125
 30
0.0
 40
0.5
  1
baldor
100
AcDbAttributeDefinition
  3

  2
COMPANY
 70
     8
280
     0
  0
LINE
  5
125
330
FD
100
AcDbEntity
  8
AM_9
100
AcDbLine
 10
1.57235728975929
 20
-1.55625
 30
0.0
 11
1.246061876889613
 21
-1.55625
 31
0.0
  0
LINE
  5
126
330
FD
100
AcDbEntity
  8
AM_9
100
AcDbLine
 10
1.24614707158809
 20
-2.00625
 30
0.0
 11
1.572438635058629
 21
-2.00625
 31
0.0
  0
LWPOLYLINE
  5
127
330
FD
100
AcDbEntity
  8
AM_9
100
AcDbPolyline
 90
       21
 70
     0
 43
0.0
 10
1.246180950955349
 20
-1.556250000746121
 10
1.235572079557508
 20
-1.557600162271582
 10
1.219244404572693
 20
-1.564629389583265
 10
1.202392553830777
 20
-1.577921665206344
 10
1.186483601287187
 20
-1.596456865692045
 10
1.171335586078547
 20
-1.620703605082991
 10
1.158266114009055
 20
-1.649023894848093
 10
1.14732683592743
 20
-1.681990072133392
 10
1.139644015833808
 20
-1.716882601160064
 10
1.135185852870506
 20
-1.754707781426306
 10
1.134428072167112
 20
-1.791789424812997
 10
1.137294362067076
 20
-1.829644980922139
 10
1.143430780881752
 20
-1.864868888129753
 10
1.152874348247385
 20
-1.898714135063342
 10
1.164776188414914
 20
-1.928663917138072
 10
1.179173938142125
 20
-1.95526851975436
 10
1.194816494722128
 20
-1.976529136461567
 10
1.211803504539811
 20
-1.992762143962524
 10
1.22844929680022
 20
-2.002547578005617
 10
1.245197529254003
 20
-2.006238197995722
 10
1.246167798567943
 20
-2.006249999636041
  0
LWPOLYLINE
  5
128
330
FD
100
AcDbEntity
  8
AM_9
100
AcDbPolyline
 90
       11
 70
     0
 43
0.0
 10
1.246167798567943
 20
-2.006249999636041
 10
1.260395632361285
 20
-2.003575891910774
 10
1.274720705094178
 20
-1.994572654405425
 10
1.287067471825314
 20
-1.980010516905159
 10
1.297976936496276
 20
-1.959486580481605
 10
1.306851613295974
 20
-1.934387916073246
 10
1.314053561013603
 20
-1.904192371688287
 10
1.319238119187293
 20
-1.871179053910259
 10
1.322707120441127
 20
-1.834547442364234
 10
1.324019813850284
 20
-1.808291694354843
 10
1.324464804483373
 20
-1.78125
  0
LWPOLYLINE
  5
129
330
FD
100
AcDbEntity
  8
AM_9
100
AcDbPolyline
 90
       13
 70
     0
 43
0.0
 10
1.465355328210114
 20
-1.748705447330602
 10
1.464858393280021
 20
-1.755781527888528
 10
1.464272210692533
 20
-1.793505952437713
 10
1.467067525531305
 20
-1.830882798370445
 10
1.473138289359514
 20
-1.866706482067063
 10
1.482154841613792
 20
-1.90014233809172
 10
1.493828068678873
 20
-1.930388426178934
 10
1.507574855646054
 20
-1.956461966976427
 10
1.522951514011417
 20
-1.977691146299217
 10
1.539259314097679
 20
-1.993367882451615
 10
1.555849603211102
 20
-2.00293487875551
 10
1.572210363266948
 20
-2.00624932123988
 10
1.572442422442609
 20
-2.006249999968622
  0
LWPOLYLINE
  5
12A
330
FD
100
AcDbEntity
  8
AM_9
100
AcDbPolyline
 90
       10
 70
     0
 43
0.0
 10
1.572452371873925
 20
-1.556250000869873
 10
1.561651978561931
 20
-1.557659499578066
 10
1.545221927919784
 20
-1.564990876764758
 10
1.528913569850127
 20
-1.578310620458581
 10
1.513257194526346
 20
-1.597378886305249
 10
1.498884119664133
 20
-1.621553457905335
 10
1.486306676259674
 20
-1.650456171701059
 10
1.476145625925137
 20
-1.683062831634634
 10
1.468897415246403
 20
-1.718523537952737
 10
1.465355328210114
 20
-1.748705447330602
  0
LWPOLYLINE
  5
12B
330
FD
100
AcDbEntity
  8
AM_9
100
AcDbPolyline
 90
       10
 70
     0
 43
0.0
 10
1.572442422442609
 20
-2.006249999968622
 10
1.587710026987211
 20
-2.003167401825015
 10
1.602082883690209
 20
-1.99391716553152
 10
1.614979439209963
 20
-1.978692114518765
 10
1.626211726965614
 20
-1.958003386150287
 10
1.635671725821562
 20
-1.932158594715624
 10
1.643222515297758
 20
-1.902070937407042
 10
1.648826008436532
 20
-1.868391481891149
 10
1.652466864274682
 20
-1.832219112218063
 10
1.654254624420442
 20
-1.78125
  0
LWPOLYLINE
  5
12C
330
FD
100
AcDbEntity
  8
AM_9
100
AcDbPolyline
 90
       11
 70
     0
 43
0.0
 10
1.324464804483373
 20
-1.78125
 10
1.323629623565138
 20
-1.744295349694045
 10
1.321011737164654
 20
-1.70734069938809
 10
1.316724626234447
 20
-1.673500384215276
 10
1.310472153980563
 20
-1.64177236572141
 10
1.302485941948642
 20
-1.614541969172762
 10
1.29234001223301
 20
-1.591303973672743
 10
1.28058060064312
 20
-1.573907892265707
 10
1.266710589303474
 20
-1.562011723706666
 10
1.25191470138899
 20
-1.556669467128763
 10
1.246180950955349
 20
-1.556250000746121
  0
LINE
  5
12D
330
FD
100
AcDbEntity
  8
AM_9
100
AcDbLine
 10
1.375
 20
-2.25
 30
0.0
 11
1.375
 21
1.5
 31
0.0
  0
LINE
  5
12E
330
FD
100
AcDbEntity
  8
AM_9
100
AcDbLine
 10
-1.375
 20
1.5
 30
0.0
 11
-1.375
 21
-2.25
 31
0.0
  0
LWPOLYLINE
  5
12F
330
FD
100
AcDbEntity
  8
AM_9
100
AcDbPolyline
 90
        7
 70
     0
 43
0.0
 10
-0.182653310375599
 20
-1.649862145885416
 10
-0.1767585192611333
 20
-1.642032810441341
 10
-0.1513273218525085
 20
-1.614741616844835
 10
-0.1208244751433717
 20
-1.591443661311513
 10
-0.087662973440866
 20
-1.574029819787005
 10
-0.0509735550544948
 20
-1.56210005889778
 10
0.0
 20
-1.55625
  0
LWPOLYLINE
  5
130
330
FD
100
AcDbEntity
  8
AM_9
100
AcDbPolyline
 90
        5
 70
     0
 43
0.0
 10
-0.2228683089842908
 20
-1.750351507310507
 10
-0.2220273718614375
 20
-1.744796657981703
 10
-0.2126672470369836
 20
-1.707781353369546
 10
-0.1977172150493003
 20
-1.673858646189981
 10
-0.182653310375599
 20
-1.649862145885416
  0
LWPOLYLINE
  5
131
330
FD
100
AcDbEntity
  8
AM_9
100
AcDbPolyline
 90
        7
 70
     0
 43
0.0
 10
-0.173257636538753
 20
-1.924800657891234
 10
-0.1752153665346598
 20
-1.922404437869041
 10
-0.1961950009970952
 20
-1.891397726185109
 10
-0.2121187479415198
 20
-1.856287569068581
 10
-0.2216137342539719
 20
-1.820138980315893
 10
-0.2249993370282309
 20
-1.78179620221216
 10
-0.2228683089842908
 20
-1.750351507310507
  0
LWPOLYLINE
  5
132
330
FD
100
AcDbEntity
  8
AM_9
100
AcDbPolyline
 90
        7
 70
     0
 43
0.0
 10
0.2224976614734479
 20
-1.747786727015324
 10
0.2246109636159754
 20
-1.76802445564436
 10
0.2235898555085177
 20
-1.806401073807696
 10
0.2164273065514313
 20
-1.842766022131578
 10
0.2029411808329229
 20
-1.878409030059685
 10
0.1841982311779432
 20
-1.910463047448456
 10
0.1759615837127581
 20
-1.921473111708798
  0
LWPOLYLINE
  5
133
330
FD
100
AcDbEntity
  8
AM_9
100
AcDbPolyline
 90
        5
 70
     0
 43
0.0
 10
0.1836423085710322
 20
-1.651248067311667
 10
0.1902637813130712
 20
-1.661147154403187
 10
0.2075515948618953
 20
-1.694374598013686
 10
0.2193420149839745
 20
-1.731109393075373
 10
0.2224976614734479
 20
-1.747786727015324
  0
LWPOLYLINE
  5
134
330
FD
100
AcDbEntity
  8
AM_9
100
AcDbPolyline
 90
        7
 70
     0
 43
0.0
 10
0.0
 20
-1.55625
 10
0.0370618995731323
 20
-1.559323400422502
 10
0.0741237991462647
 20
-1.568810214648658
 10
0.1080670637908447
 20
-1.583901299159013
 10
0.1398859423932333
 20
-1.605020254721977
 10
0.1670811838615932
 20
-1.630555348471127
 10
0.1836423085710322
 20
-1.651248067311667
  0
LWPOLYLINE
  5
135
330
FD
100
AcDbEntity
  8
AM_9
100
AcDbPolyline
 90
        8
 70
     0
 43
0.0
 10
1.644897441861734
 20
-1.669032562149392
 10
1.63879088907976
 20
-1.641370034078952
 10
1.630044852743261
 20
-1.613828561474208
 10
1.619430704105767
 20
-1.590988075701573
 10
1.606988191930961
 20
-1.573508542394948
 10
1.592979101732981
 20
-1.561908866953497
 10
1.577755661288136
 20
-1.556630835990092
 10
1.572452371873925
 20
-1.556250000869873
  0
LWPOLYLINE
  5
136
330
FD
100
AcDbEntity
  8
AM_9
100
AcDbPolyline
 90
        5
 70
     0
 43
0.0
 10
1.65346604956609
 20
-1.74722610588375
 10
1.653285564128679
 20
-1.743657684427761
 10
1.65039336800728
 20
-1.707129312509571
 10
1.645555287101455
 20
-1.67273001318632
 10
1.644897441861734
 20
-1.669032562149392
  0
LINE
  5
137
330
FD
100
AcDbEntity
  8
AM_9
100
AcDbLine
 10
1.654254624420442
 20
-1.78125
 30
0.0
 11
1.65346604956609
 21
-1.74722610588375
 31
0.0
  0
LINE
  5
138
330
FD
100
AcDbEntity
  8
AM_9
100
AcDbLine
 10
1.735
 20
-2.25
 30
0.0
 11
1.735
 21
-1.3125
 31
0.0
  0
LINE
  5
139
330
FD
100
AcDbEntity
  8
AM_9
100
AcDbLine
 10
-1.735
 20
-1.3125
 30
0.0
 11
-1.735
 21
-2.25
 31
0.0
  0
LINE
  5
13A
330
FD
100
AcDbEntity
  8
AM_9
100
AcDbLine
 10
-1.966145833333334
 20
1.5
 30
0.0
 11
-1.966145833333334
 21
0.9375
 31
0.0
  0
LINE
  5
13B
330
FD
100
AcDbEntity
  8
AM_9
100
AcDbLine
 10
1.966145833333334
 20
0.9375
 30
0.0
 11
1.966145833333334
 21
1.5
 31
0.0
  0
LINE
  5
13C
330
FD
100
AcDbEntity
  8
AM_9
100
AcDbLine
 10
-2.419871794871795
 20
-1.3125
 30
0.0
 11
2.419871794871795
 21
-1.3125
 31
0.0
  0
LINE
  5
13D
330
FD
100
AcDbEntity
  8
AM_9
100
AcDbLine
 10
-2.419871794871795
 20
-1.3125
 30
0.0
 11
-2.452933103754632
 21
-1.5
 31
0.0
  0
LINE
  5
13E
330
FD
100
AcDbEntity
  8
AM_9
100
AcDbLine
 10
2.452933103754632
 20
-1.5
 30
0.0
 11
2.419871794871795
 21
-1.3125
 31
0.0
  0
LINE
  5
13F
330
FD
100
AcDbEntity
  8
AM_9
100
AcDbLine
 10
2.419871794871795
 20
0.9374999999999999
 30
0.0
 11
2.519055721520307
 21
1.5
 31
0.0
  0
LINE
  5
140
330
FD
100
AcDbEntity
  8
AM_9
100
AcDbLine
 10
-2.519055721520307
 20
1.5
 30
0.0
 11
-2.419871794871795
 21
0.9374999999999999
 31
0.0
  0
ARC
  5
141
330
FD
100
AcDbEntity
  8
AM_9
100
AcDbCircle
 10
2.719000000000004
 20
-1.437500000000001
 30
0.0
 40
0.0624999999999959
100
AcDbArc
 50
328.6677485024044
 51
0.0
  0
ARC
  5
142
330
FD
100
AcDbEntity
  8
AM_9
100
AcDbCircle
 10
-2.719000000000004
 20
-1.437500000000001
 30
0.0
 40
0.062499999999996
100
AcDbArc
 50
180.0
 51
211.3322514975956
  0
LINE
  5
143
330
FD
100
AcDbEntity
  8
AM_9
100
AcDbLine
 10
-2.7815
 20
-1.4375
 30
0.0
 11
2.7815
 21
-1.4375
 31
0.0
  0
LINE
  5
144
330
FD
100
AcDbEntity
  8
AM_9
100
AcDbLine
 10
2.7815
 20
-1.4375
 30
0.0
 11
2.7815
 21
-0.9375
 31
0.0
  0
LINE
  5
145
330
FD
100
AcDbEntity
  8
AM_9
100
AcDbLine
 10
-2.7815
 20
-0.9375
 30
0.0
 11
-2.7815
 21
-1.4375
 31
0.0
  0
LINE
  5
146
330
FD
100
AcDbEntity
  8
AM_9
100
AcDbLine
 10
-2.815
 20
0.9375
 30
0.0
 11
2.815
 21
0.9375
 31
0.0
  0
LINE
  5
147
330
FD
100
AcDbEntity
  8
AM_9
100
AcDbLine
 10
2.815
 20
0.9375
 30
0.0
 11
2.815
 21
1.4375
 31
0.0
  0
LINE
  5
148
330
FD
100
AcDbEntity
  8
AM_9
100
AcDbLine
 10
-2.815
 20
1.4375
 30
0.0
 11
-2.815
 21
0.9375
 31
0.0
  0
LINE
  5
149
330
FD
100
AcDbEntity
  8
AM_9
100
AcDbLine
 10
-2.815
 20
1.4375
 30
0.0
 11
2.815
 21
1.4375
 31
0.0
  0
ARC
  5
14A
330
FD
100
AcDbEntity
  8
AM_9
100
AcDbCircle
 10
2.752500000000004
 20
1.437500000000001
 30
0.0
 40
0.062499999999996
100
AcDbArc
 50
0.0
 51
31.33225149759573
  0
ARC
  5
14B
330
FD
100
AcDbEntity
  8
AM_9
100
AcDbCircle
 10
-2.752500000000004
 20
1.437500000000001
 30
0.0
 40
0.0624999999999959
100
AcDbArc
 50
148.6677485024044
 51
180.0
  0
LINE
  5
14C
330
FD
100
AcDbEntity
  8
AM_9
100
AcDbLine
 10
-2.977838813636493
 20
-0.9375000000000006
 30
0.0
 11
2.977838813636489
 21
-0.9375000000000006
 31
0.0
  0
ARC
  5
14D
330
FD
100
AcDbEntity
  8
AM_9
100
AcDbCircle
 10
0.0000000000000497
 20
-0.3749999999999912
 30
0.0
 40
3.030499999999948
100
AcDbArc
 50
349.3031300574874
 51
25.66425509785483
  0
ARC
  5
14E
330
FD
100
AcDbEntity
  8
AM_9
100
AcDbCircle
 10
-0.0000000000000102
 20
-0.3749999999999962
 30
0.0
 40
3.030499999999986
100
AcDbArc
 50
154.3357449021454
 51
190.6968699425124
  0
LWPOLYLINE
  5
14F
330
FD
100
AcDbEntity
  8
AM_9
100
AcDbPolyline
 90
       75
 70
     0
 43
0.0
 10
-0.3455762286851688
 20
0.3421832573844708
 10
-0.3170470395549347
 20
0.3695253377110936
 10
-0.286122202423557
 20
0.3946043681694189
 10
-0.2524658795999434
 20
0.4175006427099279
 10
-0.2166966828460503
 20
0.43760654972071
 10
-0.1806485139959679
 20
0.4540482654053673
 10
-0.1426603303975195
 20
0.4676732015879133
 10
-0.1036456297612435
 20
0.4780628421289264
 10
-0.0631429364485616
 20
0.4852285205368413
 10
-0.0238637767745458
 20
0.4888128051153532
 10
0.0162896159139893
 20
0.4891274100957408
 10
0.0563268225556741
 20
0.4860850167242919
 10
0.0966812859285232
 20
0.4795516794574276
 10
0.1348432793080511
 20
0.4700415613534092
 10
0.1727346813802946
 20
0.457184736447008
 10
0.2094063417126216
 20
0.4412255801467698
 10
0.2452191132900336
 20
0.4219044696137179
 10
0.2782011181285681
 20
0.4003752556665442
 10
0.3098129597761821
 20
0.3757766898676226
 10
0.33924526981742
 20
0.3486491019832209
 10
0.366752881999197
 20
0.3186334723790723
 10
0.390963568224453
 20
0.2873137382568375
 10
0.4128477216444779
 20
0.2535240546184087
 10
0.4318157504598468
 20
0.2180425343934167
 10
0.4479891204950611
 20
0.180443798724546
 10
0.4605968494394985
 20
0.1426545536314859
 10
0.470158057024513
 20
0.1032704107178202
 10
0.4763657593017004
 20
0.0632302798025964
 10
0.4791887710682377
 20
0.0220853635099325
 10
0.4785396198330699
 20
-0.0179369185269336
 10
0.4744514020472168
 20
-0.0584786393036131
 10
0.4669414855175218
 20
-0.0985372289728405
 10
0.4558222296415225
 20
-0.1385322597656665
 10
0.4418458315780345
 20
-0.1760920994044178
 10
0.4246433331673941
 20
-0.2126207885996295
 10
0.4039392819743087
 20
-0.2483421379558041
 10
0.3800351281469426
 20
-0.2824164149437979
 10
0.3543857883700631
 20
-0.3130638218178941
 10
0.3257183386755835
 20
-0.3419794693269583
 10
0.2946826124416937
 20
-0.3683802461191899
 10
0.2608580388961237
 20
-0.3924746922077437
 10
0.2266485862875852
 20
-0.4127097805885769
 10
0.1901956455058648
 20
-0.4303340027834797
 10
0.1523683772053644
 20
-0.4448304112310619
 10
0.1127054504752112
 20
-0.4562581912349827
 10
0.0739457398830528
 20
-0.4639617316058658
 10
0.0339634455492868
 20
-0.4684937444522851
 10
-0.0062617567570393
 20
-0.4696611506949656
 10
-0.047177450495554
 20
-0.4673738252194658
 10
-0.0861696220611334
 20
-0.4618900324138354
 10
-0.125249399412298
 20
-0.4530393180687196
 10
-0.163442202070127
 20
-0.4409648857213298
 10
-0.2011357955402612
 20
-0.4254430869675617
 10
-0.2361661700436943
 20
-0.4074605818351925
 10
-0.2701580855178987
 20
-0.3862808107637615
 10
-0.3022472574198127
 20
-0.3623578446589023
 10
-0.3327249712108592
 20
-0.3353594142326776
 10
-0.3600111467073062
 20
-0.3067745897582971
 10
-0.3852473988900595
 20
-0.2754998550118239
 10
-0.4077673103614753
 20
-0.2422476941908026
 10
-0.4277364120238347
 20
-0.2066089500251864
 10
-0.4441842500040225
 20
-0.170429622031021
 10
-0.4577805432823706
 20
-0.132360332312794
 10
-0.468125401161397
 20
-0.0932992544390027
 10
-0.4752368920439938
 20
-0.0528003041302987
 10
-0.4788005301774617
 20
-0.012999409336195
 10
-0.4790108417481654
 20
0.0276672240784466
 10
-0.4757822322906763
 20
0.0682068965968186
 10
-0.4689759554421906
 20
0.1090534073774905
 10
-0.459058701935034
 20
0.1478820441520404
 10
-0.4458273584714653
 20
0.1860208068494592
 10
-0.429034381999995
 20
0.2237204700967316
 10
-0.408890761732786
 20
0.2601184581498374
 10
-0.379656476743793
 20
0.3026081253157901
 10
-0.3455762286851689
 20
0.3421832573844707
  0
CIRCLE
  5
150
330
FD
100
AcDbEntity
  8
AM_9
100
AcDbCircle
 10
0.0
 20
0.0000000000000002
 30
0.0
 40
0.3497623444809251
  0
CIRCLE
  5
151
330
FD
100
AcDbEntity
  8
AM_9
100
AcDbCircle
 10
0.0
 20
0.0000000000000002
 30
0.0
 40
0.305316369154144
  0
LINE
  5
152
330
FD
100
AcDbEntity
  8
AM_7
100
AcDbLine
 10
0.0
 20
-2.4375
 30
0.0
 11
0.0
 21
1.921875
 31
0.0
  0
LWPOLYLINE
  5
153
330
FD
100
AcDbEntity
  8
AM_4
100
AcDbPolyline
 90
       12
 70
     0
 43
0.0
 10
0.1759615837127581
 20
-1.921473111708798
 10
0.1597020153309338
 20
-1.939743742145354
 10
0.1312535162688272
 20
-1.963999868582904
 10
0.0981899168645751
 20
-1.983694412681921
 10
0.0632685546735576
 20
-1.997171490337389
 10
0.0254746708671268
 20
-2.004803217700421
 10
-0.0117076589042843
 20
-2.005945195148853
 10
-0.0496288877316435
 20
-2.000708363938402
 10
-0.084973056860506
 20
-1.989587657680462
 10
-0.118897768445167
 20
-1.972269163066849
 10
-0.1487567536217191
 20
-1.950058851225068
 10
-0.173257636538753
 20
-1.924800657891234
  0
LINE
  5
154
330
FD
100
AcDbEntity
  8
AM_4
100
AcDbLine
 10
-2.718999999999999
 20
-1.5
 30
0.0
 11
2.718999999993233
 21
-1.5
 31
0.0
  0
ARC
  5
155
330
FD
100
AcDbEntity
  8
AM_4
100
AcDbCircle
 10
2.718999999999998
 20
-1.437499999999996
 30
0.0
 40
0.0625000000000033
100
AcDbArc
 50
270.0
 51
328.6677485024037
  0
ARC
  5
156
330
FD
100
AcDbEntity
  8
AM_4
100
AcDbCircle
 10
-2.718999999999998
 20
-1.437499999999996
 30
0.0
 40
0.0625000000000031
100
AcDbArc
 50
211.3322514975963
 51
270.0
  0
LINE
  5
157
330
FD
100
AcDbEntity
  8
AM_4
100
AcDbLine
 10
-2.7525
 20
1.5
 30
0.0
 11
2.752499999993718
 21
1.5
 31
0.0
  0
ARC
  5
158
330
FD
100
AcDbEntity
  8
AM_4
100
AcDbCircle
 10
2.7525
 20
1.437500000000001
 30
0.0
 40
0.0624999999999994
100
AcDbArc
 50
31.33225149759384
 51
90.0
  0
ARC
  5
159
330
FD
100
AcDbEntity
  8
AM_4
100
AcDbCircle
 10
-2.7525
 20
1.437500000000001
 30
0.0
 40
0.0624999999999991
100
AcDbArc
 50
90.0
 51
148.6677485024061
  0
ENDBLK
  5
100
330
FD
100
AcDbEntity
  8
0
100
AcDbBlockEnd
  0
BLOCK
  5
15C
330
15A
100
AcDbEntity
  8
0
100
AcDbBlockBegin
  2
5_P2B_K_212R_0_in_023182_4
 70
     2
 10
0.0
 20
0.0
 30
0.0
  3
5_P2B_K_212R_0_in_023182_4
  1

  0
ATTDEF
  5
15E
330
15A
100
AcDbEntity
  8
AM_6
100
AcDbText
 10
11.72
 20
1.57
 30
0.0
 40
0.5
  1
2 & 4 Bolt Base - Body - Inch
100
AcDbAttributeDefinition
  3

  2
NN
 70
     8
280
     0
  0
ATTDEF
  5
15F
330
15A
100
AcDbEntity
  8
AM_6
100
AcDbText
 10
11.72
 20
1.07
 30
0.0
 40
0.5
  1
Type K
100
AcDbAttributeDefinition
  3

  2
NT
 70
     8
280
     0
  0
ATTDEF
  5
160
330
15A
100
AcDbEntity
  8
AM_6
100
AcDbText
 10
11.72
 20
0.5699999999999998
 30
0.0
 40
0.5
  1
P2B-K-212R
100
AcDbAttributeDefinition
  3

  2
NB
 70
     8
280
     0
  0
ATTDEF
  5
161
330
15A
100
AcDbEntity
  8
AM_6
100
AcDbText
 10
11.72
 20
0.0699999999999998
 30
0.0
 40
0.5
  1
$PN.
100
AcDbAttributeDefinition
  3

  2
NBSYN
 70
     8
280
     0
  0
ATTDEF
  5
162
330
15A
100
AcDbEntity
  8
AM_6
100
AcDbText
 10
11.72
 20
-0.4300000000000002
 30
0.0
 40
0.5
  1
P2B-K-212R
100
AcDbAttributeDefinition
  3

  2
LINA
 70
     8
280
     0
  0
ATTDEF
  5
163
330
15A
100
AcDbEntity
  8
AM_6
100
AcDbText
 10
11.72
 20
-0.9300000000000002
 30
0.0
 40
0.5
  1
2-3/4
100
AcDbAttributeDefinition
  3

  2
SS
 70
     8
280
     0
  0
ATTDEF
  5
164
330
15A
100
AcDbEntity
  8
AM_6
100
AcDbText
 10
11.72
 20
-1.43
 30
0.0
 40
0.5
  1
2.750000
100
AcDbAttributeDefinition
  3

  2
SS1
 70
     8
280
     0
  0
ATTDEF
  5
165
330
15A
100
AcDbEntity
  8
AM_6
100
AcDbText
 10
11.72
 20
-1.93
 30
0.0
 40
0.5
  1
5.875000
100
AcDbAttributeDefinition
  3

  2
BORE
 70
     8
280
     0
  0
ATTDEF
  5
166
330
15A
100
AcDbEntity
  8
AM_6
100
AcDbText
 10
11.72
 20
-2.43
 30
0.0
 40
0.5
  1
P2B-K-212R
100
AcDbAttributeDefinition
  3

  2
PN
 70
     8
280
     0
  0
ATTDEF
  5
167
330
15A
100
AcDbEntity
  8
AM_6
100
AcDbText
 10
11.72
 20
-2.93
 30
0.0
 40
0.5
  1
P2B-K-212R
100
AcDbAttributeDefinition
  3

  2
PNA
 70
     8
280
     0
  0
ATTDEF
  5
168
330
15A
100
AcDbEntity
  8
AM_6
100
AcDbText
 10
11.72
 20
-3.43
 30
0.0
 40
0.5
  1
40
100
AcDbAttributeDefinition
  3

  2
WEIGHT
 70
     8
280
     0
  0
ATTDEF
  5
169
330
15A
100
AcDbEntity
  8
AM_6
100
AcDbText
 10
11.72
 20
-3.93
 30
0.0
 40
0.5
  1
3.78
100
AcDbAttributeDefinition
  3

  2
A
 70
     8
280
     0
  0
ATTDEF
  5
16A
330
15A
100
AcDbEntity
  8
AM_6
100
AcDbText
 10
11.72
 20
-4.43
 30
0.0
 40
0.5
  1
3.780000
100
AcDbAttributeDefinition
  3

  2
A1
 70
     8
280
     0
  0
ATTDEF
  5
16B
330
15A
100
AcDbEntity
  8
AM_6
100
AcDbText
 10
11.72
 20
-4.93
 30
0.0
 40
0.5
  1
13.44
100
AcDbAttributeDefinition
  3

  2
B
 70
     8
280
     0
  0
ATTDEF
  5
16C
330
15A
100
AcDbEntity
  8
AM_6
100
AcDbText
 10
11.72
 20
-5.43
 30
0.0
 40
0.5
  1
13.440000
100
AcDbAttributeDefinition
  3

  2
B1
 70
     8
280
     0
  0
ATTDEF
  5
16D
330
15A
100
AcDbEntity
  8
AM_6
100
AcDbText
 10
11.72
 20
-5.93
 30
0.0
 40
0.5
  1
2.94
100
AcDbAttributeDefinition
  3

  2
C
 70
     8
280
     0
  0
ATTDEF
  5
16E
330
15A
100
AcDbEntity
  8
AM_6
100
AcDbText
 10
11.72
 20
-6.43
 30
0.0
 40
0.5
  1
2.940000
100
AcDbAttributeDefinition
  3

  2
C1
 70
     8
280
     0
  0
ATTDEF
  5
16F
330
15A
100
AcDbEntity
  8
AM_6
100
AcDbText
 10
11.72
 20
-6.93
 30
0.0
 40
0.5
  1
9.88
100
AcDbAttributeDefinition
  3

  2
DMIN
 70
     8
280
     0
  0
ATTDEF
  5
170
330
15A
100
AcDbEntity
  8
AM_6
100
AcDbText
 10
11.72
 20
-7.43
 30
0.0
 40
0.5
  1
9.880000
100
AcDbAttributeDefinition
  3

  2
DMIN1
 70
     8
280
     0
  0
ATTDEF
  5
171
330
15A
100
AcDbEntity
  8
AM_6
100
AcDbText
 10
11.72
 20
-7.93
 30
0.0
 40
0.5
  1
11.50
100
AcDbAttributeDefinition
  3

  2
DMAX
 70
     8
280
     0
  0
ATTDEF
  5
172
330
15A
100
AcDbEntity
  8
AM_6
100
AcDbText
 10
11.72
 20
-8.43
 30
0.0
 40
0.5
  1
11.500000
100
AcDbAttributeDefinition
  3

  2
DMAX1
 70
     8
280
     0
  0
ATTDEF
  5
173
330
15A
100
AcDbEntity
  8
AM_6
100
AcDbText
 10
11.72
 20
-8.93
 30
0.0
 40
0.5
  1
3/4
100
AcDbAttributeDefinition
  3

  2
F
 70
     8
280
     0
  0
ATTDEF
  5
174
330
15A
100
AcDbEntity
  8
AM_6
100
AcDbText
 10
11.72
 20
-9.43
 30
0.0
 40
0.5
  1
0.750000
100
AcDbAttributeDefinition
  3

  2
F1
 70
     8
280
     0
  0
ATTDEF
  5
175
330
15A
100
AcDbEntity
  8
AM_6
100
AcDbText
 10
11.72
 20
-9.93
 30
0.0
 40
0.5
  1
1.69
100
AcDbAttributeDefinition
  3

  2
G
 70
     8
280
     0
  0
ATTDEF
  5
176
330
15A
100
AcDbEntity
  8
AM_6
100
AcDbText
 10
11.72
 20
-10.43
 30
0.0
 40
0.5
  1
1.690000
100
AcDbAttributeDefinition
  3

  2
G1
 70
     8
280
     0
  0
ATTDEF
  5
177
330
15A
100
AcDbEntity
  8
AM_6
100
AcDbText
 10
11.72
 20
-10.93
 30
0.0
 40
0.5
  1
2
100
AcDbAttributeDefinition
  3

  2
H
 70
     8
280
     0
  0
ATTDEF
  5
178
330
15A
100
AcDbEntity
  8
AM_6
100
AcDbText
 10
11.72
 20
-11.43
 30
0.0
 40
0.5
  1
2.000000
100
AcDbAttributeDefinition
  3

  2
H1
 70
     8
280
     0
  0
ATTDEF
  5
179
330
15A
100
AcDbEntity
  8
AM_6
100
AcDbText
 10
11.72
 20
-11.93
 30
0.0
 40
0.5
  1
7.92
100
AcDbAttributeDefinition
  3

  2
J
 70
     8
280
     0
  0
ATTDEF
  5
17A
330
15A
100
AcDbEntity
  8
AM_6
100
AcDbText
 10
11.72
 20
-12.43
 30
0.0
 40
0.5
  1
7.920000
100
AcDbAttributeDefinition
  3

  2
J1
 70
     8
280
     0
  0
ATTDEF
  5
17B
330
15A
100
AcDbEntity
  8
AM_6
100
AcDbText
 10
11.72
 20
-12.93
 30
0.0
 40
0.5
  1
4.72
100
AcDbAttributeDefinition
  3

  2
L
 70
     8
280
     0
  0
ATTDEF
  5
17C
330
15A
100
AcDbEntity
  8
AM_6
100
AcDbText
 10
11.72
 20
-13.43
 30
0.0
 40
0.5
  1
4.720000
100
AcDbAttributeDefinition
  3

  2
L1
 70
     8
280
     0
  0
ATTDEF
  5
17D
330
15A
100
AcDbEntity
  8
AM_6
100
AcDbText
 10
11.72
 20
-13.93
 30
0.0
 40
0.5
  1
3.75
100
AcDbAttributeDefinition
  3

  2
M
 70
     8
280
     0
  0
ATTDEF
  5
17E
330
15A
100
AcDbEntity
  8
AM_6
100
AcDbText
 10
11.72
 20
-14.43
 30
0.0
 40
0.5
  1
3.750000
100
AcDbAttributeDefinition
  3

  2
M1
 70
     8
280
     0
  0
ATTDEF
  5
17F
330
15A
100
AcDbEntity
  8
AM_6
100
AcDbText
 10
11.72
 20
-14.93
 30
0.0
 40
0.5
  1
8.31
100
AcDbAttributeDefinition
  3

  2
P
 70
     8
280
     0
  0
ATTDEF
  5
180
330
15A
100
AcDbEntity
  8
AM_6
100
AcDbText
 10
11.72
 20
-15.43
 30
0.0
 40
0.5
  1
8.310000
100
AcDbAttributeDefinition
  3

  2
P1
 70
     8
280
     0
  0
ATTDEF
  5
181
330
15A
100
AcDbEntity
  8
AM_6
100
AcDbText
 10
11.72
 20
-15.93
 30
0.0
 40
0.5
  1
1.44
100
AcDbAttributeDefinition
  3

  2
R
 70
     8
280
     0
  0
ATTDEF
  5
182
330
15A
100
AcDbEntity
  8
AM_6
100
AcDbText
 10
11.72
 20
-16.43
 30
0.0
 40
0.5
  1
1.440000
100
AcDbAttributeDefinition
  3

  2
R1
 70
     8
280
     0
  0
ATTDEF
  5
183
330
15A
100
AcDbEntity
  8
AM_6
100
AcDbText
 10
11.72
 20
-16.93
 30
0.0
 40
0.5
  1
2.25
100
AcDbAttributeDefinition
  3

  2
S
 70
     8
280
     0
  0
ATTDEF
  5
184
330
15A
100
AcDbEntity
  8
AM_6
100
AcDbText
 10
11.72
 20
-17.43
 30
0.0
 40
0.5
  1
2.250000
100
AcDbAttributeDefinition
  3

  2
S1
 70
     8
280
     0
  0
ATTDEF
  5
185
330
15A
100
AcDbEntity
  8
AM_6
100
AcDbText
 10
11.72
 20
-17.93
 30
0.0
 40
0.5
  1
0.281250
100
AcDbAttributeDefinition
  3

  2
EXP1
 70
     8
280
     0
  0
ATTDEF
  5
186
330
15A
100
AcDbEntity
  8
AM_6
100
AcDbText
 10
11.72
 20
-18.43
 30
0.0
 40
0.5
  1
1
100
AcDbAttributeDefinition
  3

  2
HF
 70
     8
280
     0
  0
ATTDEF
  5
187
330
15A
100
AcDbEntity
  8
AM_6
100
AcDbText
 10
11.72
 20
-18.93
 30
0.0
 40
0.5
  1
.28
100
AcDbAttributeDefinition
  3

  2
T
 70
     8
280
     0
  0
ATTDEF
  5
188
330
15A
100
AcDbEntity
  8
AM_6
100
AcDbText
 10
11.72
 20
-19.43
 30
0.0
 40
0.5
  1
61200
100
AcDbAttributeDefinition
  3

  2
CS
 70
     8
280
     0
  0
ATTDEF
  5
189
330
15A
100
AcDbEntity
  8
AM_6
100
AcDbText
 10
11.72
 20
-19.93
 30
0.0
 40
0.5
  1
9600
100
AcDbAttributeDefinition
  3

  2
CD
 70
     8
280
     0
  0
ATTDEF
  5
18A
330
15A
100
AcDbEntity
  8
AM_6
100
AcDbText
 10
11.72
 20
-20.43
 30
0.0
 40
0.5
  1
24
100
AcDbAttributeDefinition
  3

  2
RN
 70
     8
280
     0
  0
ATTDEF
  5
18B
330
15A
100
AcDbEntity
  8
AM_6
100
AcDbText
 10
11.72
 20
-20.93
 30
0.0
 40
0.5
  1
.41
100
AcDbAttributeDefinition
  3

  2
RM
 70
     8
280
     0
  0
ATTDEF
  5
18C
330
15A
100
AcDbEntity
  8
AM_6
100
AcDbText
 10
11.72
 20
-21.43
 30
0.0
 40
0.5
  1
3.900
100
AcDbAttributeDefinition
  3

  2
PDI
 70
     8
280
     0
  0
ATTDEF
  5
18D
330
15A
100
AcDbEntity
  8
AM_6
100
AcDbText
 10
11.72
 20
-21.93
 30
0.0
 40
0.5
  1
.004-.012
100
AcDbAttributeDefinition
  3

  2
EP
 70
     8
280
     0
  0
ATTDEF
  5
18E
330
15A
100
AcDbEntity
  8
AM_6
100
AcDbText
 10
11.72
 20
-22.43
 30
0.0
 40
0.5
  1
1/2-13*7/8
100
AcDbAttributeDefinition
  3

  2
CSS
 70
     8
280
     0
  0
ATTDEF
  5
18F
330
15A
100
AcDbEntity
  8
AM_6
100
AcDbText
 10
11.72
 20
-22.93
 30
0.0
 40
0.5
  1
620
100
AcDbAttributeDefinition
  3

  2
CST
 70
     8
280
     0
  0
ATTDEF
  5
190
330
15A
100
AcDbEntity
  8
AM_6
100
AcDbText
 10
11.72
 20
-23.43
 30
0.0
 40
0.5
  1
C.I. ASTM A48 CLASS 30
100
AcDbAttributeDefinition
  3

  2
MH
 70
     8
280
     0
  0
ATTDEF
  5
191
330
15A
100
AcDbEntity
  8
AM_6
100
AcDbText
 10
11.72
 20
-23.93
 30
0.0
 40
0.5
  1
4118 CASE CARB.
100
AcDbAttributeDefinition
  3

  2
MC
 70
     8
280
     0
  0
ATTDEF
  5
192
330
15A
100
AcDbEntity
  8
AM_6
100
AcDbText
 10
11.72
 20
-24.43
 30
0.0
 40
0.5
  1
4118 CASE CARB.
100
AcDbAttributeDefinition
  3

  2
MCU
 70
     8
280
     0
  0
ATTDEF
  5
193
330
15A
100
AcDbEntity
  8
AM_6
100
AcDbText
 10
11.72
 20
-24.93
 30
0.0
 40
0.5
  1
STEEL
100
AcDbAttributeDefinition
  3

  2
MR
 70
     8
280
     0
  0
ATTDEF
  5
194
330
15A
100
AcDbEntity
  8
AM_6
100
AcDbText
 10
11.72
 20
-25.43
 30
0.0
 40
0.5
  1
4118 CASE CARB.
100
AcDbAttributeDefinition
  3

  2
MRO
 70
     8
280
     0
  0
ATTDEF
  5
195
330
15A
100
AcDbEntity
  8
AM_6
100
AcDbText
 10
11.72
 20
-25.93
 30
0.0
 40
0.5
  1
4.80*
100
AcDbAttributeDefinition
  3

  2
SM
 70
     8
280
     0
  0
ATTDEF
  5
196
330
15A
100
AcDbEntity
  8
AM_6
100
AcDbText
 10
11.72
 20
-26.43
 30
0.0
 40
0.5
  1
baldor
100
AcDbAttributeDefinition
  3

  2
COMPANY
 70
     8
280
     0
  0
LINE
  5
197
330
15A
100
AcDbEntity
  8
AM_9
100
AcDbLine
 10
-3.787500000000001
 20
-1.47
 30
0.0
 11
-4.139492063367083
 21
-1.47
 31
0.0
  0
LINE
  5
198
330
15A
100
AcDbEntity
  8
AM_9
100
AcDbLine
 10
-3.787500000000001
 20
1.47
 30
0.0
 11
-4.139492063367083
 21
1.47
 31
0.0
  0
LINE
  5
199
330
15A
100
AcDbEntity
  8
AM_9
100
AcDbLine
 10
4.139492063367084
 20
-1.47
 30
0.0
 11
3.787499999999998
 21
-1.47
 31
0.0
  0
LINE
  5
19A
330
15A
100
AcDbEntity
  8
AM_9
100
AcDbLine
 10
4.139492063367083
 20
1.47
 30
0.0
 11
3.787500000000001
 21
1.47
 31
0.0
  0
LINE
  5
19B
330
15A
100
AcDbEntity
  8
AM_9
100
AcDbLine
 10
-3.175675675675675
 20
1.48
 30
0.0
 11
-3.175675675675675
 21
1.57
 31
0.0
  0
LINE
  5
19C
330
15A
100
AcDbEntity
  8
AM_9
100
AcDbLine
 10
3.175675675675675
 20
1.57
 30
0.0
 11
3.175675675675675
 21
1.48
 31
0.0
  0
LINE
  5
19D
330
15A
100
AcDbEntity
  8
AM_9
100
AcDbLine
 10
3.175675675675675
 20
-1.479999999999999
 30
0.0
 11
3.175675675675675
 21
-1.57
 31
0.0
  0
LINE
  5
19E
330
15A
100
AcDbEntity
  8
AM_9
100
AcDbLine
 10
-3.175675675675675
 20
-1.57
 30
0.0
 11
-3.175675675675675
 21
-1.479999999999999
 31
0.0
  0
LINE
  5
19F
330
15A
100
AcDbEntity
  8
AM_9
100
AcDbLine
 10
2.9375
 20
-1.4
 30
0.0
 11
2.9375
 21
1.4
 31
0.0
  0
LINE
  5
1A0
330
15A
100
AcDbEntity
  8
AM_9
100
AcDbLine
 10
-2.9375
 20
1.4
 30
0.0
 11
-2.9375
 21
-1.4
 31
0.0
  0
LINE
  5
1A1
330
15A
100
AcDbEntity
  8
AM_9
100
AcDbLine
 10
-3.175675675675675
 20
-1.479999999999999
 30
0.0
 11
-3.136066963104926
 21
-1.479999999999999
 31
0.0
  0
ARC
  5
1A2
330
15A
100
AcDbEntity
  8
AM_9
100
AcDbCircle
 10
-3.095675675675581
 20
-1.480000000000094
 30
0.0
 40
0.080000000000094
100
AcDbArc
 50
90.0
 51
180.0
  0
ARC
  5
1A3
330
15A
100
AcDbEntity
  8
AM_9
100
AcDbCircle
 10
3.095675675675581
 20
-1.480000000000094
 30
0.0
 40
0.0800000000000942
100
AcDbArc
 50
0.0
 51
90.0
  0
LINE
  5
1A4
330
15A
100
AcDbEntity
  8
AM_9
100
AcDbLine
 10
3.136066963104926
 20
-1.479999999999999
 30
0.0
 11
3.175675675675675
 21
-1.479999999999999
 31
0.0
  0
LINE
  5
1A5
330
15A
100
AcDbEntity
  8
AM_9
100
AcDbLine
 10
-3.095675675675676
 20
-1.4
 30
0.0
 11
3.095675675675638
 21
-1.4
 31
0.0
  0
LINE
  5
1A6
330
15A
100
AcDbEntity
  8
AM_9
100
AcDbLine
 10
-3.095675675675675
 20
1.4
 30
0.0
 11
3.095675312197603
 21
1.4
 31
0.0
  0
LINE
  5
1A7
330
15A
100
AcDbEntity
  8
AM_9
100
AcDbLine
 10
3.136066963104926
 20
1.48
 30
0.0
 11
3.175675675675675
 21
1.48
 31
0.0
  0
ARC
  5
1A8
330
15A
100
AcDbEntity
  8
AM_9
100
AcDbCircle
 10
3.095675675675533
 20
1.480000000000143
 30
0.0
 40
0.0800000000001426
100
AcDbArc
 50
270.0
 51
0.0
  0
ARC
  5
1A9
330
15A
100
AcDbEntity
  8
AM_9
100
AcDbCircle
 10
-3.095675675675533
 20
1.480000000000143
 30
0.0
 40
0.0800000000001426
100
AcDbArc
 50
180.0
 51
270.0
  0
LINE
  5
1AA
330
15A
100
AcDbEntity
  8
AM_9
100
AcDbLine
 10
-3.175675675675675
 20
1.48
 30
0.0
 11
-3.136066963104926
 21
1.48
 31
0.0
  0
CIRCLE
  5
1AB
330
15A
100
AcDbEntity
  8
AM_9
100
AcDbCircle
 10
0.0
 20
0.0000000000000003
 30
0.0
 40
0.735
  0
LINE
  5
1AC
330
15A
100
AcDbEntity
  8
AM_7
100
AcDbLine
 10
3.1115625
 20
-0.9187499999999998
 30
0.0
 11
4.0959375
 21
-0.9187499999999998
 31
0.0
  0
LINE
  5
1AD
330
15A
100
AcDbEntity
  8
AM_7
100
AcDbLine
 10
3.60375
 20
-1.4109375
 30
0.0
 11
3.60375
 21
-0.4265624999999998
 31
0.0
  0
LINE
  5
1AE
330
15A
100
AcDbEntity
  8
AM_7
100
AcDbLine
 10
-4.0959375
 20
0.9187500000000005
 30
0.0
 11
-3.1115625
 21
0.9187500000000005
 31
0.0
  0
LINE
  5
1AF
330
15A
100
AcDbEntity
  8
AM_7
100
AcDbLine
 10
-3.60375
 20
0.4265625000000005
 30
0.0
 11
-3.60375
 21
1.410937500000001
 31
0.0
  0
LINE
  5
1B0
330
15A
100
AcDbEntity
  8
AM_7
100
AcDbLine
 10
3.1115625
 20
0.9187500000000002
 30
0.0
 11
4.0959375
 21
0.9187500000000002
 31
0.0
  0
LINE
  5
1B1
330
15A
100
AcDbEntity
  8
AM_7
100
AcDbLine
 10
3.60375
 20
0.4265625000000002
 30
0.0
 11
3.60375
 21
1.4109375
 31
0.0
  0
LINE
  5
1B2
330
15A
100
AcDbEntity
  8
AM_7
100
AcDbLine
 10
-4.0959375
 20
-0.9187499999999998
 30
0.0
 11
-3.1115625
 21
-0.9187499999999998
 31
0.0
  0
LINE
  5
1B3
330
15A
100
AcDbEntity
  8
AM_7
100
AcDbLine
 10
-3.60375
 20
-1.4109375
 30
0.0
 11
-3.60375
 21
-0.4265624999999998
 31
0.0
  0
LINE
  5
1B4
330
15A
100
AcDbEntity
  8
AM_7
100
AcDbLine
 10
-0.77175
 20
0.0000000000000003
 30
0.0
 11
0.77175
 21
0.0000000000000003
 31
0.0
  0
LINE
  5
1B5
330
15A
100
AcDbEntity
  8
AM_7
100
AcDbLine
 10
4.478
 20
-0.0000000000000004
 30
0.0
 11
6.212000000000002
 21
0.0000000000000003
 31
0.0
  0
LINE
  5
1B6
330
15A
100
AcDbEntity
  8
AM_7
100
AcDbLine
 10
4.94
 20
-0.4620000000000008
 30
0.0
 11
4.94
 21
0.462
 31
0.0
  0
LINE
  5
1B7
330
15A
100
AcDbEntity
  8
AM_7
100
AcDbLine
 10
5.750000000000001
 20
-0.4620000000000001
 30
0.0
 11
5.750000000000001
 21
0.4620000000000007
 31
0.0
  0
LINE
  5
1B8
330
15A
100
AcDbEntity
  8
AM_7
100
AcDbLine
 10
-6.212000000000001
 20
0.0000000000000003
 30
0.0
 11
-4.478
 21
0.0000000000000006
 31
0.0
  0
LINE
  5
1B9
330
15A
100
AcDbEntity
  8
AM_7
100
AcDbLine
 10
-5.75
 20
-0.4620000000000001
 30
0.0
 11
-5.75
 21
0.4620000000000007
 31
0.0
  0
LINE
  5
1BA
330
15A
100
AcDbEntity
  8
AM_7
100
AcDbLine
 10
-4.94
 20
-0.4619999999999999
 30
0.0
 11
-4.94
 21
0.462000000000001
 31
0.0
  0
LINE
  5
1BB
330
15A
100
AcDbEntity
  8
AM_4
100
AcDbLine
 10
-4.139492063367083
 20
-1.47
 30
0.0
 11
-6.425999999999999
 21
-1.47
 31
0.0
  0
LINE
  5
1BC
330
15A
100
AcDbEntity
  8
AM_4
100
AcDbLine
 10
-4.139492063367083
 20
1.47
 30
0.0
 11
-6.425999999999999
 21
1.47
 31
0.0
  0
LINE
  5
1BD
330
15A
100
AcDbEntity
  8
AM_4
100
AcDbLine
 10
-6.425999999999999
 20
1.47
 30
0.0
 11
-6.719999999999998
 21
1.176000000000001
 31
0.0
  0
LINE
  5
1BE
330
15A
100
AcDbEntity
  8
AM_4
100
AcDbLine
 10
-6.72
 20
-1.176
 30
0.0
 11
-6.72
 21
1.176
 31
0.0
  0
LINE
  5
1BF
330
15A
100
AcDbEntity
  8
AM_4
100
AcDbLine
 10
-6.719999999999998
 20
-1.176000000000001
 30
0.0
 11
-6.425999999999999
 21
-1.47
 31
0.0
  0
LINE
  5
1C0
330
15A
100
AcDbEntity
  8
AM_4
100
AcDbLine
 10
6.426000000000001
 20
-1.47
 30
0.0
 11
4.139492063367084
 21
-1.47
 31
0.0
  0
LINE
  5
1C1
330
15A
100
AcDbEntity
  8
AM_4
100
AcDbLine
 10
6.425999999999999
 20
1.47
 30
0.0
 11
4.139492063367083
 21
1.47
 31
0.0
  0
LINE
  5
1C2
330
15A
100
AcDbEntity
  8
AM_4
100
AcDbLine
 10
6.72
 20
-1.176
 30
0.0
 11
6.72
 21
1.176
 31
0.0
  0
LINE
  5
1C3
330
15A
100
AcDbEntity
  8
AM_4
100
AcDbLine
 10
6.72
 20
1.176
 30
0.0
 11
6.425999999999999
 21
1.47
 31
0.0
  0
LINE
  5
1C4
330
15A
100
AcDbEntity
  8
AM_4
100
AcDbLine
 10
6.425999999999999
 20
-1.47
 30
0.0
 11
6.72
 21
-1.176
 31
0.0
  0
LINE
  5
1C5
330
15A
100
AcDbEntity
  8
AM_4
100
AcDbLine
 10
-4.94
 20
0.4400000000000008
 30
0.0
 11
-5.75
 21
0.4400000000000008
 31
0.0
  0
ARC
  5
1C6
330
15A
100
AcDbEntity
  8
AM_4
100
AcDbCircle
 10
-4.94
 20
0.0000000000000005
 30
0.0
 40
0.4400000000000002
100
AcDbArc
 50
270.0
 51
90.0
  0
LINE
  5
1C7
330
15A
100
AcDbEntity
  8
AM_4
100
AcDbLine
 10
-5.75
 20
-0.4400000000000002
 30
0.0
 11
-4.94
 21
-0.4399999999999997
 31
0.0
  0
ARC
  5
1C8
330
15A
100
AcDbEntity
  8
AM_4
100
AcDbCircle
 10
-5.75
 20
0.0000000000000003
 30
0.0
 40
0.4400000000000005
100
AcDbArc
 50
90.0
 51
270.0
  0
LINE
  5
1C9
330
15A
100
AcDbEntity
  8
AM_4
100
AcDbLine
 10
-6.319999999999999
 20
-1.47
 30
0.0
 11
-6.319999999999999
 21
1.47
 31
0.0
  0
LINE
  5
1CA
330
15A
100
AcDbEntity
  8
AM_4
100
AcDbLine
 10
5.750000000000001
 20
0.4400000000000004
 30
0.0
 11
4.94
 21
0.4399999999999999
 31
0.0
  0
ARC
  5
1CB
330
15A
100
AcDbEntity
  8
AM_4
100
AcDbCircle
 10
5.750000000000001
 20
0.0000000000000002
 30
0.0
 40
0.4400000000000005
100
AcDbArc
 50
270.0
 51
90.0
  0
LINE
  5
1CC
330
15A
100
AcDbEntity
  8
AM_4
100
AcDbLine
 10
4.94
 20
-0.4400000000000005
 30
0.0
 11
5.75
 21
-0.4400000000000003
 31
0.0
  0
ARC
  5
1CD
330
15A
100
AcDbEntity
  8
AM_4
100
AcDbCircle
 10
4.94
 20
-0.0000000000000003
 30
0.0
 40
0.4400000000000002
100
AcDbArc
 50
90.0
 51
270.0
  0
LINE
  5
1CE
330
15A
100
AcDbEntity
  8
AM_4
100
AcDbLine
 10
6.320000000000001
 20
-1.47
 30
0.0
 11
6.320000000000001
 21
1.47
 31
0.0
  0
LINE
  5
1CF
330
15A
100
AcDbEntity
  8
AM_4
100
AcDbLine
 10
-3.8875
 20
-1.57
 30
0.0
 11
-3.136066963104926
 21
-1.57
 31
0.0
  0
ARC
  5
1D0
330
15A
100
AcDbEntity
  8
AM_4
100
AcDbCircle
 10
-3.8875
 20
-1.2025
 30
0.0
 40
0.3674999999999997
100
AcDbArc
 50
180.0
 51
270.0
  0
LINE
  5
1D1
330
15A
100
AcDbEntity
  8
AM_4
100
AcDbLine
 10
-3.136066963104926
 20
1.48
 30
0.0
 11
-3.136066963104926
 21
1.57
 31
0.0
  0
LINE
  5
1D2
330
15A
100
AcDbEntity
  8
AM_4
100
AcDbLine
 10
-3.136066963104926
 20
1.57
 30
0.0
 11
-3.887499999999998
 21
1.57
 31
0.0
  0
ARC
  5
1D3
330
15A
100
AcDbEntity
  8
AM_4
100
AcDbCircle
 10
-3.887499999999999
 20
1.202499999999999
 30
0.0
 40
0.3675000000000006
100
AcDbArc
 50
90.0
 51
180.0
  0
LINE
  5
1D4
330
15A
100
AcDbEntity
  8
AM_4
100
AcDbLine
 10
-4.255
 20
1.2025
 30
0.0
 11
-4.255
 21
0.7349999999999998
 31
0.0
  0
ARC
  5
1D5
330
15A
100
AcDbEntity
  8
AM_4
100
AcDbCircle
 10
-3.887499999999998
 20
0.7350000000000009
 30
0.0
 40
0.3675000000000015
100
AcDbArc
 50
180.0
 51
245.4816881578409
  0
ARC
  5
1D6
330
15A
100
AcDbEntity
  8
AM_4
100
AcDbCircle
 10
-4.123003464722379
 20
0.2186722280336258
 30
0.0
 40
0.2000000000000052
100
AcDbArc
 50
18.44405668086698
 51
65.48168244894738
  0
ARC
  5
1D7
330
15A
100
AcDbEntity
  8
AM_4
100
AcDbCircle
 10
-4.778672533501415
 20
-0.0000000000000005
 30
0.0
 40
0.8911725335014147
100
AcDbArc
 50
341.5559400837244
 51
18.44406024097548
  0
ARC
  5
1D8
330
15A
100
AcDbEntity
  8
AM_4
100
AcDbCircle
 10
-4.123003464722374
 20
-0.2186722280336292
 30
0.0
 40
0.1999999999999997
100
AcDbArc
 50
294.5183168726491
 51
341.5559447659506
  0
ARC
  5
1D9
330
15A
100
AcDbEntity
  8
AM_4
100
AcDbCircle
 10
-3.887499999999996
 20
-0.7350000000000025
 30
0.0
 40
0.3675000000000041
100
AcDbArc
 50
114.518312211358
 51
180.0
  0
LINE
  5
1DA
330
15A
100
AcDbEntity
  8
AM_4
100
AcDbLine
 10
-4.255
 20
-0.7350000000000007
 30
0.0
 11
-4.255
 21
-1.2025
 31
0.0
  0
LINE
  5
1DB
330
15A
100
AcDbEntity
  8
AM_4
100
AcDbLine
 10
3.136066963104926
 20
-1.57
 30
0.0
 11
3.887499999999998
 21
-1.57
 31
0.0
  0
ARC
  5
1DC
330
15A
100
AcDbEntity
  8
AM_4
100
AcDbCircle
 10
3.887500000000001
 20
-1.2025
 30
0.0
 40
0.3674999999999995
100
AcDbArc
 50
270.0
 51
0.0
  0
LINE
  5
1DD
330
15A
100
AcDbEntity
  8
AM_4
100
AcDbLine
 10
4.255000000000001
 20
-1.202500000000001
 30
0.0
 11
4.255
 21
-0.7350000000000003
 31
0.0
  0
ARC
  5
1DE
330
15A
100
AcDbEntity
  8
AM_4
100
AcDbCircle
 10
3.887499999999995
 20
-0.7350000000000033
 30
0.0
 40
0.3675000000000046
100
AcDbArc
 50
0.0000008537736463
 51
65.48168614589606
  0
ARC
  5
1DF
330
15A
100
AcDbEntity
  8
AM_4
100
AcDbCircle
 10
4.123003464722373
 20
-0.2186722280336309
 30
0.0
 40
0.1999999999999977
100
AcDbArc
 50
198.4440662768319
 51
245.4816861458966
  0
ARC
  5
1E0
330
15A
100
AcDbEntity
  8
AM_4
100
AcDbCircle
 10
4.778672533501416
 20
0.0000000000000008
 30
0.0
 40
0.8911725335014156
100
AcDbArc
 50
161.5559373739947
 51
198.4440623945351
  0
ARC
  5
1E1
330
15A
100
AcDbEntity
  8
AM_4
100
AcDbCircle
 10
4.123003464722381
 20
0.2186722280336229
 30
0.0
 40
0.2000000000000082
100
AcDbArc
 50
114.5183168726502
 51
161.5559326917671
  0
ARC
  5
1E2
330
15A
100
AcDbEntity
  8
AM_4
100
AcDbCircle
 10
3.887499999999997
 20
0.7350000000000018
 30
0.0
 40
0.3675000000000032
100
AcDbArc
 50
294.5183122113579
 51
0.0
  0
LINE
  5
1E3
330
15A
100
AcDbEntity
  8
AM_4
100
AcDbLine
 10
4.255
 20
0.7349999999999997
 30
0.0
 11
4.255
 21
1.2025
 31
0.0
  0
ARC
  5
1E4
330
15A
100
AcDbEntity
  8
AM_4
100
AcDbCircle
 10
3.887500000000002
 20
1.202500000000002
 30
0.0
 40
0.3674999999999975
100
AcDbArc
 50
0.0
 51
90.0
  0
LINE
  5
1E5
330
15A
100
AcDbEntity
  8
AM_4
100
AcDbLine
 10
3.8875
 20
1.57
 30
0.0
 11
3.136066963104926
 21
1.57
 31
0.0
  0
LINE
  5
1E6
330
15A
100
AcDbEntity
  8
AM_4
100
AcDbLine
 10
3.136066963104926
 20
1.57
 30
0.0
 11
3.136066963104926
 21
1.48
 31
0.0
  0
LINE
  5
1E7
330
15A
100
AcDbEntity
  8
AM_4
100
AcDbLine
 10
3.136066963104926
 20
-1.479999999999999
 30
0.0
 11
3.136066963104926
 21
-1.57
 31
0.0
  0
LINE
  5
1E8
330
15A
100
AcDbEntity
  8
AM_4
100
AcDbLine
 10
-3.136066963104926
 20
-1.57
 30
0.0
 11
-3.136066963104926
 21
-1.479999999999999
 31
0.0
  0
LINE
  5
1E9
330
15A
100
AcDbEntity
  8
AM_4
100
AcDbLine
 10
-4.155
 20
-1.1025
 30
0.0
 11
-4.155
 21
-0.7350000000000042
 31
0.0
  0
ARC
  5
1EA
330
15A
100
AcDbEntity
  8
AM_4
100
AcDbCircle
 10
-3.787499999999997
 20
0.7350000000000021
 30
0.0
 40
0.3675000000000028
100
AcDbArc
 50
180.0
 51
239.9999999999994
  0
ARC
  5
1EB
330
15A
100
AcDbEntity
  8
AM_4
100
AcDbCircle
 10
-3.787500000000001
 20
1.102500000000001
 30
0.0
 40
0.3674999999999995
100
AcDbArc
 50
90.0
 51
180.0
  0
LINE
  5
1EC
330
15A
100
AcDbEntity
  8
AM_4
100
AcDbLine
 10
-4.155
 20
0.7350000000000002
 30
0.0
 11
-4.155
 21
1.1025
 31
0.0
  0
ARC
  5
1ED
330
15A
100
AcDbEntity
  8
AM_4
100
AcDbCircle
 10
-4.351942656436875
 20
0.0000000000000001
 30
0.0
 40
0.5644426564368742
100
AcDbArc
 50
312.4120462260058
 51
47.58795377399405
  0
ARC
  5
1EE
330
15A
100
AcDbEntity
  8
AM_4
100
AcDbCircle
 10
-3.787499999999993
 20
-0.7350000000000044
 30
0.0
 40
0.3675000000000072
100
AcDbArc
 50
120.0000000000012
 51
179.9999991462263
  0
ARC
  5
1EF
330
15A
100
AcDbEntity
  8
AM_4
100
AcDbCircle
 10
-3.787500000000001
 20
-1.102499999999999
 30
0.0
 40
0.3674999999999997
100
AcDbArc
 50
180.0
 51
270.0
  0
LINE
  5
1F0
330
15A
100
AcDbEntity
  8
AM_4
100
AcDbLine
 10
3.787500000000001
 20
1.47
 30
0.0
 11
-3.787499999999999
 21
1.47
 31
0.0
  0
LINE
  5
1F1
330
15A
100
AcDbEntity
  8
AM_4
100
AcDbLine
 10
3.787499999999999
 20
-1.47
 30
0.0
 11
-3.787500000000001
 21
-1.47
 31
0.0
  0
ARC
  5
1F2
330
15A
100
AcDbEntity
  8
AM_4
100
AcDbCircle
 10
3.787500000000002
 20
-1.102500000000001
 30
0.0
 40
0.3674999999999982
100
AcDbArc
 50
270.0
 51
0.0
  0
LINE
  5
1F3
330
15A
100
AcDbEntity
  8
AM_4
100
AcDbLine
 10
4.155
 20
-1.1025
 30
0.0
 11
4.155
 21
-0.735
 31
0.0
  0
ARC
  5
1F4
330
15A
100
AcDbEntity
  8
AM_4
100
AcDbCircle
 10
3.787499999999997
 20
-0.7350000000000015
 30
0.0
 40
0.3675000000000028
100
AcDbArc
 50
0.0
 51
59.99999999999939
  0
ARC
  5
1F5
330
15A
100
AcDbEntity
  8
AM_4
100
AcDbCircle
 10
4.351942656436876
 20
0.0000000000000002
 30
0.0
 40
0.5644426564368752
100
AcDbArc
 50
132.412046226006
 51
227.587953773994
  0
ARC
  5
1F6
330
15A
100
AcDbEntity
  8
AM_4
100
AcDbCircle
 10
3.787499999999997
 20
0.7350000000000019
 30
0.0
 40
0.3675000000000025
100
AcDbArc
 50
300.0000000000006
 51
0.0
  0
LINE
  5
1F7
330
15A
100
AcDbEntity
  8
AM_4
100
AcDbLine
 10
4.155
 20
0.7350000000000035
 30
0.0
 11
4.155
 21
1.1025
 31
0.0
  0
ARC
  5
1F8
330
15A
100
AcDbEntity
  8
AM_4
100
AcDbCircle
 10
3.787499999999999
 20
1.102499999999999
 30
0.0
 40
0.367500000000001
100
AcDbArc
 50
0.0
 51
90.0
  0
CIRCLE
  5
1F9
330
15A
100
AcDbEntity
  8
AM_4
100
AcDbCircle
 10
3.60375
 20
-0.9187499999999998
 30
0.0
 40
0.46875
  0
CIRCLE
  5
1FA
330
15A
100
AcDbEntity
  8
AM_4
100
AcDbCircle
 10
-3.60375
 20
0.9187500000000005
 30
0.0
 40
0.46875
  0
CIRCLE
  5
1FB
330
15A
100
AcDbEntity
  8
AM_4
100
AcDbCircle
 10
3.60375
 20
0.9187500000000002
 30
0.0
 40
0.46875
  0
CIRCLE
  5
1FC
330
15A
100
AcDbEntity
  8
AM_4
100
AcDbCircle
 10
-3.60375
 20
-0.9187499999999998
 30
0.0
 40
0.46875
  0
LINE
  5
1FD
330
15A
100
AcDbEntity
  8
AM_4
100
AcDbLine
 10
3.387243649053891
 20
1.29375
 30
0.0
 11
3.170737298107781
 21
0.9187500000000002
 31
0.0
  0
LINE
  5
1FE
330
15A
100
AcDbEntity
  8
AM_4
100
AcDbLine
 10
4.03676270189222
 20
0.9187500000000002
 30
0.0
 11
3.82025635094611
 21
1.29375
 31
0.0
  0
LINE
  5
1FF
330
15A
100
AcDbEntity
  8
AM_4
100
AcDbLine
 10
3.170737298107781
 20
0.9187500000000002
 30
0.0
 11
3.387243649053891
 21
0.5437500000000002
 31
0.0
  0
LINE
  5
200
330
15A
100
AcDbEntity
  8
AM_4
100
AcDbLine
 10
3.82025635094611
 20
0.5437500000000002
 30
0.0
 11
4.03676270189222
 21
0.9187500000000002
 31
0.0
  0
LINE
  5
201
330
15A
100
AcDbEntity
  8
AM_4
100
AcDbLine
 10
3.387243649053891
 20
0.5437500000000002
 30
0.0
 11
3.82025635094611
 21
0.5437500000000002
 31
0.0
  0
LINE
  5
202
330
15A
100
AcDbEntity
  8
AM_4
100
AcDbLine
 10
3.82025635094611
 20
1.29375
 30
0.0
 11
3.387243649053891
 21
1.29375
 31
0.0
  0
LINE
  5
203
330
15A
100
AcDbEntity
  8
AM_4
100
AcDbLine
 10
-3.820256350946109
 20
-1.29375
 30
0.0
 11
-3.38724364905389
 21
-1.29375
 31
0.0
  0
LINE
  5
204
330
15A
100
AcDbEntity
  8
AM_4
100
AcDbLine
 10
-3.38724364905389
 20
-0.54375
 30
0.0
 11
-3.820256350946109
 21
-0.54375
 31
0.0
  0
LINE
  5
205
330
15A
100
AcDbEntity
  8
AM_4
100
AcDbLine
 10
-3.38724364905389
 20
-1.29375
 30
0.0
 11
-3.17073729810778
 21
-0.9187499999999998
 31
0.0
  0
LINE
  5
206
330
15A
100
AcDbEntity
  8
AM_4
100
AcDbLine
 10
-3.820256350946109
 20
-0.54375
 30
0.0
 11
-4.036762701892219
 21
-0.9187499999999998
 31
0.0
  0
LINE
  5
207
330
15A
100
AcDbEntity
  8
AM_4
100
AcDbLine
 10
-4.036762701892219
 20
-0.9187499999999998
 30
0.0
 11
-3.820256350946109
 21
-1.29375
 31
0.0
  0
LINE
  5
208
330
15A
100
AcDbEntity
  8
AM_4
100
AcDbLine
 10
-3.17073729810778
 20
-0.9187499999999998
 30
0.0
 11
-3.38724364905389
 21
-0.54375
 31
0.0
  0
LINE
  5
209
330
15A
100
AcDbEntity
  8
AM_4
100
AcDbLine
 10
3.387243649053891
 20
-1.29375
 30
0.0
 11
3.82025635094611
 21
-1.29375
 31
0.0
  0
LINE
  5
20A
330
15A
100
AcDbEntity
  8
AM_4
100
AcDbLine
 10
3.387243649053891
 20
-0.54375
 30
0.0
 11
3.170737298107781
 21
-0.9187499999999998
 31
0.0
  0
LINE
  5
20B
330
15A
100
AcDbEntity
  8
AM_4
100
AcDbLine
 10
3.170737298107781
 20
-0.9187499999999998
 30
0.0
 11
3.387243649053891
 21
-1.29375
 31
0.0
  0
LINE
  5
20C
330
15A
100
AcDbEntity
  8
AM_4
100
AcDbLine
 10
3.82025635094611
 20
-1.29375
 30
0.0
 11
4.03676270189222
 21
-0.9187499999999998
 31
0.0
  0
LINE
  5
20D
330
15A
100
AcDbEntity
  8
AM_4
100
AcDbLine
 10
4.03676270189222
 20
-0.9187499999999998
 30
0.0
 11
3.82025635094611
 21
-0.54375
 31
0.0
  0
LINE
  5
20E
330
15A
100
AcDbEntity
  8
AM_4
100
AcDbLine
 10
3.82025635094611
 20
-0.54375
 30
0.0
 11
3.387243649053891
 21
-0.54375
 31
0.0
  0
LINE
  5
20F
330
15A
100
AcDbEntity
  8
AM_4
100
AcDbLine
 10
-3.38724364905389
 20
1.293750000000001
 30
0.0
 11
-3.820256350946109
 21
1.293750000000001
 31
0.0
  0
LINE
  5
210
330
15A
100
AcDbEntity
  8
AM_4
100
AcDbLine
 10
-3.17073729810778
 20
0.9187500000000005
 30
0.0
 11
-3.38724364905389
 21
1.293750000000001
 31
0.0
  0
LINE
  5
211
330
15A
100
AcDbEntity
  8
AM_4
100
AcDbLine
 10
-3.820256350946109
 20
1.293750000000001
 30
0.0
 11
-4.036762701892219
 21
0.9187500000000005
 31
0.0
  0
LINE
  5
212
330
15A
100
AcDbEntity
  8
AM_4
100
AcDbLine
 10
-4.036762701892219
 20
0.9187500000000005
 30
0.0
 11
-3.820256350946109
 21
0.5437500000000006
 31
0.0
  0
LINE
  5
213
330
15A
100
AcDbEntity
  8
AM_4
100
AcDbLine
 10
-3.820256350946109
 20
0.5437500000000006
 30
0.0
 11
-3.38724364905389
 21
0.5437500000000006
 31
0.0
  0
LINE
  5
214
330
15A
100
AcDbEntity
  8
AM_4
100
AcDbLine
 10
-3.38724364905389
 20
0.5437500000000006
 30
0.0
 11
-3.17073729810778
 21
0.9187500000000005
 31
0.0
  0
LINE
  5
215
330
15A
100
AcDbEntity
  8
AM_4
100
AcDbLine
 10
3.136066963104926
 20
-1.479999999999999
 30
0.0
 11
3.135431575975313
 21
-1.47
 31
0.0
  0
LWPOLYLINE
  5
216
330
15A
100
AcDbEntity
  8
AM_4
100
AcDbPolyline
 90
        3
 70
     0
 43
0.0
 10
-3.135431575975312
 20
-1.47
 10
-3.135900756030583
 20
-1.47487803836059
 10
-3.136066963104926
 20
-1.479999999999999
  0
LINE
  5
217
330
15A
100
AcDbEntity
  8
AM_4
100
AcDbLine
 10
-3.136066963104926
 20
1.48
 30
0.0
 11
-3.135431575975313
 21
1.47
 31
0.0
  0
LWPOLYLINE
  5
218
330
15A
100
AcDbEntity
  8
AM_4
100
AcDbPolyline
 90
        3
 70
     0
 43
0.0
 10
3.135431575975313
 20
1.47
 10
3.135926052883771
 20
1.475283533271867
 10
3.136066963104926
 20
1.48
  0
LWPOLYLINE
  5
219
330
15A
100
AcDbEntity
  8
AM_4
100
AcDbPolyline
 90
       11
 70
     0
 43
0.0
 10
-2.887406552972745
 20
-1.140903248684573
 10
-2.871281155603218
 20
-1.079840357888286
 10
-2.859992067812378
 20
-1.015112996311454
 10
-2.85430065160554
 20
-0.9474845469969357
 10
-2.855013561943544
 20
-0.8766160290356775
 10
-2.862677472886403
 20
-0.8038876372959928
 10
-2.877604632771042
 20
-0.7310989790810501
 10
-2.894220156861095
 20
-0.6758452985721158
 10
-2.915133643666318
 20
-0.62169309079261
 10
-2.939945402707925
 20
-0.5696605320782286
 10
-2.958182622072683
 20
-0.5369872981077805
  0
LINE
  5
21A
330
15A
100
AcDbEntity
  8
AM_4
100
AcDbLine
 10
-2.887406552972745
 20
-1.140903248684573
 30
0.0
 11
-2.763693167252109
 21
-1.47
 31
0.0
  0
LWPOLYLINE
  5
21B
330
15A
100
AcDbEntity
  8
AM_4
100
AcDbPolyline
 90
        5
 70
     0
 43
0.0
 10
-2.958182622072683
 20
-0.5369872981077802
 10
-2.991426955495951
 20
-0.4856674568638312
 10
-3.027685878083308
 20
-0.4384895212591922
 10
-3.066975615463329
 20
-0.3949434898215969
 10
-3.108134476292169
 20
-0.3558421454982074
  0
LINE
  5
21C
330
15A
100
AcDbEntity
  8
AM_4
100
AcDbLine
 10
-2.958182622072683
 20
-0.5369872981077805
 30
0.0
 11
-1.384640379708913
 21
-0.5369872981077802
 31
0.0
  0
LWPOLYLINE
  5
21D
330
15A
100
AcDbEntity
  8
AM_4
100
AcDbPolyline
 90
        5
 70
     0
 43
0.0
 10
-3.108134476292169
 20
0.3558421454982072
 10
-3.068408495643177
 20
0.3934791425245705
 10
-3.029944924581744
 20
0.4357927188412538
 10
-2.992791721083009
 20
0.4837442742643633
 10
-2.958182622072674
 20
0.5369872981077835
  0
LINE
  5
21E
330
15A
100
AcDbEntity
  8
AM_4
100
AcDbLine
 10
-3.108134488724707
 20
0.3558421345519069
 30
0.0
 11
-3.108134488724707
 21
-0.3558421345519069
 31
0.0
  0
LWPOLYLINE
  5
21F
330
15A
100
AcDbEntity
  8
AM_4
100
AcDbPolyline
 90
       15
 70
     0
 43
0.0
 10
-2.958182622072676
 20
0.5369872981077916
 10
-2.93679371552453
 20
0.5757287364320294
 10
-2.917582883046448
 20
0.6159717187253201
 10
-2.900249422263929
 20
0.6587878009648781
 10
-2.885585956562996
 20
0.7025547023771965
 10
-2.8740330256782
 20
0.7455214324906368
 10
-2.86510505863847
 20
0.7887359599850012
 10
-2.85865850246467
 20
0.8331086045957742
 10
-2.854905247094179
 20
0.8771382703385193
 10
-2.853753649159013
 20
0.9203826500848346
 10
-2.855045653805598
 20
0.9628158823764131
 10
-2.858738119105702
 20
1.00509459595919
 10
-2.864656229822804
 20
1.046187823605307
 10
-2.874657903848632
 20
1.094597576842431
 10
-2.887406552972745
 20
1.140903248684573
  0
LINE
  5
220
330
15A
100
AcDbEntity
  8
AM_4
100
AcDbLine
 10
-2.958182622072676
 20
0.5369872981077916
 30
0.0
 11
-1.384640379708913
 21
0.5369872981077808
 31
0.0
  0
LINE
  5
221
330
15A
100
AcDbEntity
  8
AM_4
100
AcDbLine
 10
-2.763693167252109
 20
1.47
 30
0.0
 11
-2.887406552972745
 21
1.140903248684573
 31
0.0
  0
LWPOLYLINE
  5
222
330
15A
100
AcDbEntity
  8
AM_4
100
AcDbPolyline
 90
        5
 70
     0
 43
0.0
 10
2.958182622072683
 20
0.5369872981077807
 10
2.991426955495951
 20
0.4856674568638309
 10
3.027685878083308
 20
0.4384895212591918
 10
3.06697561546333
 20
0.3949434898215964
 10
3.108134476292169
 20
0.3558421454982066
  0
LWPOLYLINE
  5
223
330
15A
100
AcDbEntity
  8
AM_4
100
AcDbPolyline
 90
        5
 70
     0
 43
0.0
 10
3.108134476292169
 20
-0.3558421454982064
 10
3.06840849564318
 20
-0.3934791425245673
 10
3.029944924581748
 20
-0.4357927188412486
 10
2.992791721083015
 20
-0.4837442742643552
 10
2.95818262207268
 20
-0.5369872981077725
  0
LINE
  5
224
330
15A
100
AcDbEntity
  8
AM_4
100
AcDbLine
 10
3.108134488724707
 20
-0.3558421345519064
 30
0.0
 11
3.108134488724707
 21
0.3558421345519068
 31
0.0
  0
LWPOLYLINE
  5
225
330
15A
100
AcDbEntity
  8
AM_4
100
AcDbPolyline
 90
       12
 70
     0
 43
0.0
 10
2.958182622072683
 20
-0.5369872981077802
 10
2.929791587071113
 20
-0.5898091721954551
 10
2.905403795212326
 20
-0.6453737542948831
 10
2.885585956562996
 20
-0.7025547023771961
 10
2.870642327412998
 20
-0.7606523559236504
 10
2.860426098150142
 20
-0.8191947157066926
 10
2.85490524709418
 20
-0.8771382703385188
 10
2.853948931385784
 20
-0.9351482767921262
 10
2.857327354511129
 20
-0.9917121505265042
 10
2.864656229822804
 20
-1.046187823605306
 10
2.874657898290967
 20
-1.094597574257409
 10
2.887406541339138
 20
-1.140903243981502
  0
LINE
  5
226
330
15A
100
AcDbEntity
  8
AM_4
100
AcDbLine
 10
1.384640379708914
 20
-0.5369872981077802
 30
0.0
 11
2.958182622072683
 21
-0.5369872981077802
 31
0.0
  0
LINE
  5
227
330
15A
100
AcDbEntity
  8
AM_4
100
AcDbLine
 10
2.763693167252109
 20
-1.47
 30
0.0
 11
2.887406541339138
 21
-1.140903243981502
 31
0.0
  0
LWPOLYLINE
  5
228
330
15A
100
AcDbEntity
  8
AM_4
100
AcDbPolyline
 90
       14
 70
     0
 43
0.0
 10
2.887406552972744
 20
1.140903248684572
 10
2.874989634927863
 20
1.09596813367371
 10
2.865154535016648
 20
1.049044816113403
 10
2.858071622162093
 20
0.9991207694757178
 10
2.85430065160554
 20
0.9474845469969341
 10
2.854115064463147
 20
0.8954993909610276
 10
2.857635932811337
 20
0.8425017295724693
 10
2.865451840778658
 20
0.7868275774622238
 10
2.877604632771042
 20
0.7310989790810484
 10
2.889454754831752
 20
0.6901070364523822
 10
2.903664042331061
 20
0.6497153333215884
 10
2.920671972529318
 20
0.6090745667321059
 10
2.939945402707926
 20
0.5696605320782272
 10
2.958182622072683
 20
0.5369872981077807
  0
LINE
  5
229
330
15A
100
AcDbEntity
  8
AM_4
100
AcDbLine
 10
2.887406552972744
 20
1.140903248684572
 30
0.0
 11
2.763693167252109
 21
1.47
 31
0.0
  0
LINE
  5
22A
330
15A
100
AcDbEntity
  8
AM_4
100
AcDbLine
 10
1.384640379708914
 20
0.5369872981077808
 30
0.0
 11
2.958182622072683
 21
0.5369872981077807
 31
0.0
  0
LINE
  5
22B
330
15A
100
AcDbEntity
  8
AM_4
100
AcDbLine
 10
-1.385000000000001
 20
-1.469999999999999
 30
0.0
 11
-1.135000000000001
 21
-1.219999999999999
 31
0.0
  0
LINE
  5
22C
330
15A
100
AcDbEntity
  8
AM_4
100
AcDbLine
 10
-1.134999999999999
 20
1.219999999999998
 30
0.0
 11
-1.385000000000001
 21
1.47
 31
0.0
  0
LINE
  5
22D
330
15A
100
AcDbEntity
  8
AM_4
100
AcDbLine
 10
-1.385
 20
-1.47
 30
0.0
 11
-1.385
 21
1.47
 31
0.0
  0
LINE
  5
22E
330
15A
100
AcDbEntity
  8
AM_4
100
AcDbLine
 10
1.135000000000001
 20
-1.219999999999998
 30
0.0
 11
1.385000000000002
 21
-1.469999999999999
 31
0.0
  0
LINE
  5
22F
330
15A
100
AcDbEntity
  8
AM_4
100
AcDbLine
 10
1.385
 20
-1.47
 30
0.0
 11
1.385
 21
1.47
 31
0.0
  0
LINE
  5
230
330
15A
100
AcDbEntity
  8
AM_4
100
AcDbLine
 10
1.385000000000001
 20
1.469999999999999
 30
0.0
 11
1.135000000000001
 21
1.219999999999999
 31
0.0
  0
LINE
  5
231
330
15A
100
AcDbEntity
  8
AM_4
100
AcDbLine
 10
-1.134999999999999
 20
-1.22
 30
0.0
 11
-1.134999999999999
 21
1.219999999999999
 31
0.0
  0
LINE
  5
232
330
15A
100
AcDbEntity
  8
AM_4
100
AcDbLine
 10
-1.134999999999999
 20
-1.22
 30
0.0
 11
1.135000000000001
 21
-1.219999999999998
 31
0.0
  0
LINE
  5
233
330
15A
100
AcDbEntity
  8
AM_4
100
AcDbLine
 10
1.135000000000001
 20
-1.219999999999998
 30
0.0
 11
1.135000000000001
 21
1.219999999999999
 31
0.0
  0
LINE
  5
234
330
15A
100
AcDbEntity
  8
AM_4
100
AcDbLine
 10
-1.134999999999999
 20
1.219999999999999
 30
0.0
 11
1.135000000000001
 21
1.219999999999999
 31
0.0
  0
LINE
  5
235
330
15A
100
AcDbEntity
  8
AM_4
100
AcDbLine
 10
-1.03875
 20
0.2077500000000004
 30
0.0
 11
-1.03875
 21
-0.8725499999999994
 31
0.0
  0
ARC
  5
236
330
15A
100
AcDbEntity
  8
AM_4
100
AcDbCircle
 10
-0.8725499999999997
 20
-0.8725499999999993
 30
0.0
 40
0.1662000000000003
100
AcDbArc
 50
180.0
 51
270.0
  0
LINE
  5
237
330
15A
100
AcDbEntity
  8
AM_4
100
AcDbLine
 10
-0.8725499999999998
 20
-1.03875
 30
0.0
 11
0.2077499999999997
 21
-1.03875
 31
0.0
  0
ARC
  5
238
330
15A
100
AcDbEntity
  8
AM_4
100
AcDbCircle
 10
0.2077499999999994
 20
-0.2077499999999989
 30
0.0
 40
0.831000000000001
100
AcDbArc
 50
270.0
 51
0.0
  0
LINE
  5
239
330
15A
100
AcDbEntity
  8
AM_4
100
AcDbLine
 10
1.03875
 20
-0.2077499999999993
 30
0.0
 11
1.03875
 21
0.8725500000000003
 31
0.0
  0
ARC
  5
23A
330
15A
100
AcDbEntity
  8
AM_4
100
AcDbCircle
 10
0.8725499999999996
 20
0.8725499999999998
 30
0.0
 40
0.1662000000000005
100
AcDbArc
 50
0.0000008537736463
 51
90.0
  0
LINE
  5
23B
330
15A
100
AcDbEntity
  8
AM_4
100
AcDbLine
 10
0.8725499999999998
 20
1.03875
 30
0.0
 11
-0.2077499999999999
 21
1.03875
 31
0.0
  0
ARC
  5
23C
330
15A
100
AcDbEntity
  8
AM_4
100
AcDbCircle
 10
-0.2077500000000001
 20
0.2077500000000003
 30
0.0
 40
0.831
100
AcDbArc
 50
90.0
 51
180.0
  0
LINE
  5
23D
330
15A
100
AcDbEntity
  8
AM_4
100
AcDbLine
 10
-0.9387500000000001
 20
-0.7810149730810373
 30
0.0
 11
-0.9387500000000001
 21
-0.8964850269189624
 31
0.0
  0
LINE
  5
23E
330
15A
100
AcDbEntity
  8
AM_4
100
AcDbLine
 10
-0.9387500000000001
 20
-0.8964850269189624
 30
0.0
 11
-0.83875
 21
-0.954220053837925
 31
0.0
  0
LINE
  5
23F
330
15A
100
AcDbEntity
  8
AM_4
100
AcDbLine
 10
-0.83875
 20
-0.954220053837925
 30
0.0
 11
-0.7387500000000001
 21
-0.8964850269189624
 31
0.0
  0
LINE
  5
240
330
15A
100
AcDbEntity
  8
AM_4
100
AcDbLine
 10
-0.7387500000000001
 20
-0.8964850269189624
 30
0.0
 11
-0.7387500000000001
 21
-0.7810149730810373
 31
0.0
  0
LINE
  5
241
330
15A
100
AcDbEntity
  8
AM_4
100
AcDbLine
 10
-0.7387500000000001
 20
-0.7810149730810373
 30
0.0
 11
-0.83875
 21
-0.7232799461620746
 31
0.0
  0
LINE
  5
242
330
15A
100
AcDbEntity
  8
AM_4
100
AcDbLine
 10
-0.83875
 20
-0.7232799461620746
 30
0.0
 11
-0.9387500000000001
 21
-0.7810149730810373
 31
0.0
  0
LINE
  5
243
330
15A
100
AcDbEntity
  8
AM_4
100
AcDbLine
 10
0.9387500000000001
 20
0.7810149730810377
 30
0.0
 11
0.9387500000000001
 21
0.8964850269189629
 31
0.0
  0
LINE
  5
244
330
15A
100
AcDbEntity
  8
AM_4
100
AcDbLine
 10
0.9387500000000001
 20
0.8964850269189629
 30
0.0
 11
0.83875
 21
0.9542200538379255
 31
0.0
  0
LINE
  5
245
330
15A
100
AcDbEntity
  8
AM_4
100
AcDbLine
 10
0.83875
 20
0.9542200538379255
 30
0.0
 11
0.7387500000000001
 21
0.8964850269189629
 31
0.0
  0
LINE
  5
246
330
15A
100
AcDbEntity
  8
AM_4
100
AcDbLine
 10
0.7387500000000001
 20
0.8964850269189629
 30
0.0
 11
0.7387500000000001
 21
0.7810149730810377
 31
0.0
  0
LINE
  5
247
330
15A
100
AcDbEntity
  8
AM_4
100
AcDbLine
 10
0.7387500000000001
 20
0.7810149730810377
 30
0.0
 11
0.83875
 21
0.7232799461620751
 31
0.0
  0
LINE
  5
248
330
15A
100
AcDbEntity
  8
AM_4
100
AcDbLine
 10
0.83875
 20
0.7232799461620751
 30
0.0
 11
0.9387500000000001
 21
0.7810149730810377
 31
0.0
  0
ENDBLK
  5
15D
330
15A
100
AcDbEntity
  8
0
100
AcDbBlockEnd
  0
ENDSEC
  0
SECTION
  2
ENTITIES
  0
INSERT
  5
6F
330
1F
100
AcDbEntity
  8
0
100
AcDbBlockReference
  2
1_023182_4
 10
0.0
 20
0.0
 30
0.0
  0
POINT
  5
24A
330
1F
100
AcDbEntity
  8
ConnectionPoints
100
AcDbPoint
 10
0.0
 20
0.0000000000000002
 30
3.82425
  0
POINT
  5
24B
330
1F
100
AcDbEntity
  8
ConnectionPoints
100
AcDbPoint
 10
0.0
 20
0.0000000000000002
 30
3.82425
  0
POINT
  5
24C
330
1F
100
AcDbEntity
  8
ConnectionPoints
100
AcDbPoint
 10
0.0
 20
0.0
 30
0.0
  0
POINT
  5
24D
330
1F
100
AcDbEntity
  8
ConnectionPoints
100
AcDbPoint
 10
0.0
 20
-2.25
 30
0.0000000000000001
  0
POINT
  5
24E
330
1F
100
AcDbEntity
  8
ConnectionPoints
100
AcDbPoint
 10
0.0
 20
1.876
 30
-0.0000000000000001
  0
POINT
  5
24F
330
1F
100
AcDbEntity
  8
ConnectionPoints
100
AcDbPoint
 10
0.0
 20
0.0
 30
0.0
  0
POINT
  5
250
330
1F
100
AcDbEntity
  8
ConnectionPoints
100
AcDbPoint
 10
0.0
 20
-2.25
 30
0.0000000000000001
  0
ENDSEC
  0
SECTION
  2
OBJECTS
  0
DICTIONARY
  5
C
330
0
100
AcDbDictionary
281
     1
  3
ACAD_DETAILVIEWSTYLE
350
258
  3
ACAD_GROUP
350
D
  3
ACAD_LAYOUT
350
1A
  3
ACAD_MATERIAL
350
43
  3
ACAD_MLEADERSTYLE
350
6B
  3
ACAD_MLINESTYLE
350
17
  3
ACAD_PLOTSETTINGS
350
19
  3
ACAD_PLOTSTYLENAME
350
E
  3
ACAD_SCALELIST
350
47
  3
ACAD_SECTIONVIEWSTYLE
350
259
  3
ACAD_TABLESTYLE
350
69
  3
ACAD_VISUALSTYLE
350
2A
  3
ACDB_RECOMPOSE_DATA
350
255
  3
AcDbVariableDictionary
350
251
  0
SUN
  5
6D
330
29
100
AcDbSun
 90
        1
290
     0
 63
     7
421
 16777215
 40
1.0
291
     1
 91
  2455826
 92
 54000000
292
     0
 70
     2
 71
   256
280
     1
  0
DICTIONARY
  5
258
102
{ACAD_REACTORS
330
C
102
}
330
C
100
AcDbDictionary
281
     1
  0
DICTIONARY
  5
D
102
{ACAD_REACTORS
330
C
102
}
330
C
100
AcDbDictionary
281
     1
  0
DICTIONARY
  5
1A
102
{ACAD_REACTORS
330
C
102
}
330
C
100
AcDbDictionary
281
     1
  3
Layout1
350
1E
  3
Layout2
350
26
  3
Model
350
22
  0
DICTIONARY
  5
43
102
{ACAD_REACTORS
330
C
102
}
330
C
100
AcDbDictionary
281
     1
  3
ByBlock
350
45
  3
ByLayer
350
44
  3
Global
350
46
  0
DICTIONARY
  5
6B
102
{ACAD_REACTORS
330
C
102
}
330
C
100
AcDbDictionary
281
     1
  3
Standard
350
6C
  0
DICTIONARY
  5
17
102
{ACAD_REACTORS
330
C
102
}
330
C
100
AcDbDictionary
281
     1
  3
Standard
350
18
  0
DICTIONARY
  5
19
102
{ACAD_REACTORS
330
C
102
}
330
C
100
AcDbDictionary
281
     1
  0
ACDBDICTIONARYWDFLT
  5
E
102
{ACAD_REACTORS
330
C
102
}
330
C
100
AcDbDictionary
281
     1
  3
Normal
350
F
100
AcDbDictionaryWithDefault
340
F
  0
DICTIONARY
  5
47
102
{ACAD_REACTORS
330
C
102
}
330
C
100
AcDbDictionary
281
     1
  3
A0
350
48
  3
A1
350
49
  3
A2
350
4A
  3
A3
350
4B
  3
A4
350
4C
  3
A5
350
4D
  3
A6
350
4E
  3
A7
350
4F
  3
A8
350
50
  3
A9
350
51
  3
B0
350
52
  3
B1
350
53
  3
B2
350
54
  3
B3
350
55
  3
B4
350
56
  3
B5
350
57
  3
B6
350
58
  3
B7
350
59
  3
B8
350
5A
  3
B9
350
5B
  3
C0
350
5C
  3
C1
350
5D
  3
C2
350
5E
  3
C3
350
5F
  3
C4
350
60
  3
C5
350
61
  3
C6
350
62
  3
C7
350
63
  3
C8
350
64
  3
C9
350
65
  3
D0
350
66
  3
D1
350
67
  3
D2
350
68
  0
DICTIONARY
  5
259
102
{ACAD_REACTORS
330
C
102
}
330
C
100
AcDbDictionary
281
     1
  0
DICTIONARY
  5
69
102
{ACAD_REACTORS
330
C
102
}
330
C
100
AcDbDictionary
281
     1
  3
Standard
350
6A
  0
DICTIONARY
  5
2A
102
{ACAD_REACTORS
330
C
102
}
330
C
100
AcDbDictionary
281
     1
  3
2dWireframe
350
2F
  3
Basic
350
32
  3
Brighten
350
36
  3
ColorChange
350
3A
  3
Conceptual
350
34
  3
Dim
350
35
  3
EdgeColorOff
350
3D
  3
Facepattern
350
39
  3
Flat
350
2B
  3
FlatWithEdges
350
2C
  3
Gouraud
350
2D
  3
GouraudWithEdges
350
2E
  3
Hidden
350
31
  3
JitterOff
350
3B
  3
Linepattern
350
38
  3
OverhangOff
350
3C
  3
Realistic
350
33
  3
Shaded
350
42
  3
Shaded with edges
350
41
  3
Shades of Gray
350
3E
  3
Sketchy
350
3F
  3
Thicken
350
37
  3
Wireframe
350
30
  3
X-Ray
350
40
  0
XRECORD
  5
255
102
{ACAD_REACTORS
330
C
102
}
330
C
100
AcDbXrecord
280
     1
 90
        1
330
6A
  0
DICTIONARY
  5
251
102
{ACAD_REACTORS
330
C
102
}
330
C
100
AcDbDictionary
281
     1
  3
CANNOSCALE
350
252
  3
CMLEADERSTYLE
350
257
  3
CTABLESTYLE
350
256
  0
LAYOUT
  5
1E
102
{ACAD_REACTORS
330
1A
102
}
330
1A
100
AcDbPlotSettings
  1

  2
none_device
  4

  6

 40
0.0
 41
0.0
 42
0.0
 43
0.0
 44
0.0
 45
0.0
 46
0.0
 47
0.0
 48
0.0
 49
0.0
140
0.0
141
0.0
142
1.0
143
1.0
 70
   688
 72
     0
 73
     0
 74
     5
  7

 75
    16
 76
     0
 77
     2
 78
   300
147
1.0
148
0.0
149
0.0
100
AcDbLayout
  1
Layout1
 70
     1
 71
     1
 10
0.0
 20
0.0
 11
12.0
 21
9.0
 12
0.0
 22
0.0
 32
0.0
 14
1.000000000000000E+20
 24
1.000000000000000E+20
 34
1.000000000000000E+20
 15
-1.000000000000000E+20
 25
-1.000000000000000E+20
 35
-1.000000000000000E+20
146
0.0
 13
0.0
 23
0.0
 33
0.0
 16
1.0
 26
0.0
 36
0.0
 17
0.0
 27
1.0
 37
0.0
 76
     0
330
1B
  0
LAYOUT
  5
26
102
{ACAD_REACTORS
330
1A
102
}
330
1A
100
AcDbPlotSettings
  1

  2
none_device
  4

  6

 40
0.0
 41
0.0
 42
0.0
 43
0.0
 44
0.0
 45
0.0
 46
0.0
 47
0.0
 48
0.0
 49
0.0
140
0.0
141
0.0
142
1.0
143
1.0
 70
   688
 72
     0
 73
     0
 74
     5
  7

 75
    16
 76
     0
 77
     2
 78
   300
147
1.0
148
0.0
149
0.0
100
AcDbLayout
  1
Layout2
 70
     1
 71
     2
 10
0.0
 20
0.0
 11
0.0
 21
0.0
 12
0.0
 22
0.0
 32
0.0
 14
0.0
 24
0.0
 34
0.0
 15
0.0
 25
0.0
 35
0.0
146
0.0
 13
0.0
 23
0.0
 33
0.0
 16
1.0
 26
0.0
 36
0.0
 17
0.0
 27
1.0
 37
0.0
 76
     0
330
23
  0
LAYOUT
  5
22
102
{ACAD_REACTORS
330
1A
102
}
330
1A
100
AcDbPlotSettings
  1

  2
none_device
  4
Letter_(8.50_x_11.00_Inches)
  6

 40
6.35
 41
6.35
 42
6.35000508
 43
6.35000508
 44
215.9
 45
279.4
 46
0.0
 47
0.0
 48
0.0
 49
0.0
140
0.0
141
0.0
142
1.0
143
1.0
 70
  1712
 72
     0
 73
     0
 74
     0
  7

 75
     0
 76
     0
 77
     2
 78
   300
147
1.0
148
0.0
149
0.0
100
AcDbLayout
  1
Model
 70
     1
 71
     0
 10
0.0
 20
0.0
 11
12.0
 21
9.0
 12
0.0
 22
0.0
 32
0.0
 14
1.000000000000000E+20
 24
1.000000000000000E+20
 34
1.000000000000000E+20
 15
-1.000000000000000E+20
 25
-1.000000000000000E+20
 35
-1.000000000000000E+20
146
0.0
 13
0.0
 23
0.0
 33
0.0
 16
1.0
 26
0.0
 36
0.0
 17
0.0
 27
1.0
 37
0.0
 76
     0
330
1F
331
29
  0
MATERIAL
  5
45
102
{ACAD_REACTORS
330
43
102
}
330
43
100
AcDbMaterial
  1
ByBlock
 72
     1
 94
      127
  0
MATERIAL
  5
44
102
{ACAD_REACTORS
330
43
102
}
330
43
100
AcDbMaterial
  1
ByLayer
 72
     1
 94
      127
  0
MATERIAL
  5
46
102
{ACAD_REACTORS
330
43
102
}
330
43
100
AcDbMaterial
  1
Global
 72
     1
 94
      127
  0
MLEADERSTYLE
  5
6C
102
{ACAD_REACTORS
330
6B
102
}
330
6B
100
AcDbMLeaderStyle
179
     2
170
     2
171
     1
172
     0
 90
        2
 40
0.0
 41
0.0
173
     1
 91
-1056964608
340
14
 92
       -2
290
     1
 42
0.09
291
     1
 43
0.36
  3
Standard
341
0
 44
0.18
300

342
11
174
     1
178
     6
175
     1
176
     0
 93
-1056964608
 45
0.18
292
     0
297
     0
 46
0.18
343
0
 94
-1056964608
 47
1.0
 49
1.0
140
1.0
293
     1
141
0.0
294
     1
177
     0
142
1.0
295
     0
296
     0
143
0.125
271
     0
272
     9
273
     9
298
     0
  0
MLINESTYLE
  5
18
102
{ACAD_REACTORS
330
17
102
}
330
17
100
AcDbMlineStyle
  2
Standard
 70
     0
  3

 62
   256
 51
90.0
 52
90.0
 71
     2
 49
0.5
 62
   256
  6
BYLAYER
 49
-0.5
 62
   256
  6
BYLAYER
  0
ACDBPLACEHOLDER
  5
F
102
{ACAD_REACTORS
330
E
102
}
330
E
  0
SCALE
  5
48
102
{ACAD_REACTORS
330
47
102
}
330
47
100
AcDbScale
 70
     0
300
1:1
140
1.0
141
1.0
290
     1
  0
SCALE
  5
49
102
{ACAD_REACTORS
330
47
102
}
330
47
100
AcDbScale
 70
     0
300
1:2
140
1.0
141
2.0
290
     0
  0
SCALE
  5
4A
102
{ACAD_REACTORS
330
47
102
}
330
47
100
AcDbScale
 70
     0
300
1:4
140
1.0
141
4.0
290
     0
  0
SCALE
  5
4B
102
{ACAD_REACTORS
330
47
102
}
330
47
100
AcDbScale
 70
     0
300
1:5
140
1.0
141
5.0
290
     0
  0
SCALE
  5
4C
102
{ACAD_REACTORS
330
47
102
}
330
47
100
AcDbScale
 70
     0
300
1:8
140
1.0
141
8.0
290
     0
  0
SCALE
  5
4D
102
{ACAD_REACTORS
330
47
102
}
330
47
100
AcDbScale
 70
     0
300
1:10
140
1.0
141
10.0
290
     0
  0
SCALE
  5
4E
102
{ACAD_REACTORS
330
47
102
}
330
47
100
AcDbScale
 70
     0
300
1:16
140
1.0
141
16.0
290
     0
  0
SCALE
  5
4F
102
{ACAD_REACTORS
330
47
102
}
330
47
100
AcDbScale
 70
     0
300
1:20
140
1.0
141
20.0
290
     0
  0
SCALE
  5
50
102
{ACAD_REACTORS
330
47
102
}
330
47
100
AcDbScale
 70
     0
300
1:30
140
1.0
141
30.0
290
     0
  0
SCALE
  5
51
102
{ACAD_REACTORS
330
47
102
}
330
47
100
AcDbScale
 70
     0
300
1:40
140
1.0
141
40.0
290
     0
  0
SCALE
  5
52
102
{ACAD_REACTORS
330
47
102
}
330
47
100
AcDbScale
 70
     0
300
1:50
140
1.0
141
50.0
290
     0
  0
SCALE
  5
53
102
{ACAD_REACTORS
330
47
102
}
330
47
100
AcDbScale
 70
     0
300
1:100
140
1.0
141
100.0
290
     0
  0
SCALE
  5
54
102
{ACAD_REACTORS
330
47
102
}
330
47
100
AcDbScale
 70
     0
300
2:1
140
2.0
141
1.0
290
     0
  0
SCALE
  5
55
102
{ACAD_REACTORS
330
47
102
}
330
47
100
AcDbScale
 70
     0
300
4:1
140
4.0
141
1.0
290
     0
  0
SCALE
  5
56
102
{ACAD_REACTORS
330
47
102
}
330
47
100
AcDbScale
 70
     0
300
8:1
140
8.0
141
1.0
290
     0
  0
SCALE
  5
57
102
{ACAD_REACTORS
330
47
102
}
330
47
100
AcDbScale
 70
     0
300
10:1
140
10.0
141
1.0
290
     0
  0
SCALE
  5
58
102
{ACAD_REACTORS
330
47
102
}
330
47
100
AcDbScale
 70
     0
300
100:1
140
100.0
141
1.0
290
     0
  0
SCALE
  5
59
102
{ACAD_REACTORS
330
47
102
}
330
47
100
AcDbScale
 70
     0
300
1/128" = 1'-0"
140
0.0078125
141
12.0
290
     0
  0
SCALE
  5
5A
102
{ACAD_REACTORS
330
47
102
}
330
47
100
AcDbScale
 70
     0
300
1/64" = 1'-0"
140
0.015625
141
12.0
290
     0
  0
SCALE
  5
5B
102
{ACAD_REACTORS
330
47
102
}
330
47
100
AcDbScale
 70
     0
300
1/32" = 1'-0"
140
0.03125
141
12.0
290
     0
  0
SCALE
  5
5C
102
{ACAD_REACTORS
330
47
102
}
330
47
100
AcDbScale
 70
     0
300
1/16" = 1'-0"
140
0.0625
141
12.0
290
     0
  0
SCALE
  5
5D
102
{ACAD_REACTORS
330
47
102
}
330
47
100
AcDbScale
 70
     0
300
3/32" = 1'-0"
140
0.09375
141
12.0
290
     0
  0
SCALE
  5
5E
102
{ACAD_REACTORS
330
47
102
}
330
47
100
AcDbScale
 70
     0
300
1/8" = 1'-0"
140
0.125
141
12.0
290
     0
  0
SCALE
  5
5F
102
{ACAD_REACTORS
330
47
102
}
330
47
100
AcDbScale
 70
     0
300
3/16" = 1'-0"
140
0.1875
141
12.0
290
     0
  0
SCALE
  5
60
102
{ACAD_REACTORS
330
47
102
}
330
47
100
AcDbScale
 70
     0
300
1/4" = 1'-0"
140
0.25
141
12.0
290
     0
  0
SCALE
  5
61
102
{ACAD_REACTORS
330
47
102
}
330
47
100
AcDbScale
 70
     0
300
3/8" = 1'-0"
140
0.375
141
12.0
290
     0
  0
SCALE
  5
62
102
{ACAD_REACTORS
330
47
102
}
330
47
100
AcDbScale
 70
     0
300
1/2" = 1'-0"
140
0.5
141
12.0
290
     0
  0
SCALE
  5
63
102
{ACAD_REACTORS
330
47
102
}
330
47
100
AcDbScale
 70
     0
300
3/4" = 1'-0"
140
0.75
141
12.0
290
     0
  0
SCALE
  5
64
102
{ACAD_REACTORS
330
47
102
}
330
47
100
AcDbScale
 70
     0
300
1" = 1'-0"
140
1.0
141
12.0
290
     0
  0
SCALE
  5
65
102
{ACAD_REACTORS
330
47
102
}
330
47
100
AcDbScale
 70
     0
300
1-1/2" = 1'-0"
140
1.5
141
12.0
290
     0
  0
SCALE
  5
66
102
{ACAD_REACTORS
330
47
102
}
330
47
100
AcDbScale
 70
     0
300
3" = 1'-0"
140
3.0
141
12.0
290
     0
  0
SCALE
  5
67
102
{ACAD_REACTORS
330
47
102
}
330
47
100
AcDbScale
 70
     0
300
6" = 1'-0"
140
6.0
141
12.0
290
     0
  0
SCALE
  5
68
102
{ACAD_REACTORS
330
47
102
}
330
47
100
AcDbScale
 70
     0
300
1'-0" = 1'-0"
140
12.0
141
12.0
290
     0
  0
TABLESTYLE
  5
6A
102
{ACAD_REACTORS
330
69
102
}
102
{ACAD_XDICTIONARY
360
253
102
}
330
69
100
AcDbTableStyle
  3
Standard
 70
     0
 71
     0
 40
0.06
 41
0.06
280
     0
281
     0
  7
Standard
140
0.18
170
     2
 62
     0
 63
   257
283
     0
 90
        4
 91
        0
  1

274
    -2
284
     1
 64
     0
275
    -2
285
     1
 65
     0
276
    -2
286
     1
 66
     0
277
    -2
287
     1
 67
     0
278
    -2
288
     1
 68
     0
279
    -2
289
     1
 69
     0
  7
Standard
140
0.25
170
     5
 62
     0
 63
   257
283
     0
 90
        4
 91
        0
  1

274
    -2
284
     1
 64
     0
275
    -2
285
     1
 65
     0
276
    -2
286
     1
 66
     0
277
    -2
287
     1
 67
     0
278
    -2
288
     1
 68
     0
279
    -2
289
     1
 69
     0
  7
Standard
140
0.18
170
     5
 62
     0
 63
   257
283
     0
 90
        4
 91
        0
  1

274
    -2
284
     1
 64
     0
275
    -2
285
     1
 65
     0
276
    -2
286
     1
 66
     0
277
    -2
287
     1
 67
     0
278
    -2
288
     1
 68
     0
279
    -2
289
     1
 69
     0
  0
VISUALSTYLE
  5
2F
102
{ACAD_REACTORS
330
2A
102
}
330
2A
100
AcDbVisualStyle
  2
2dWireframe
 70
     4
177
     3
291
     0
 70
    58
 90
        0
176
     1
 90
        2
176
     1
 90
        0
176
     1
 90
        0
176
     1
 40
0.6
176
     1
 40
30.0
176
     1
 62
     7
420
 16777215
176
     1
 90
        1
176
     1
 90
        4
176
     1
 62
     7
176
     1
 62
   257
176
     1
 90
        1
176
     1
 90
        1
176
     1
 40
1.0
176
     1
 90
        0
176
     1
 62
   257
176
     1
 40
1.0
176
     1
 90
        1
176
     1
 90
        6
176
     1
 90
        2
176
     1
 62
     7
176
     1
 90
        5
176
     1
 90
        0
176
     1
 90
        0
176
     1
290
     0
176
     1
 90
        1
176
     1
 40
0.0
176
     1
 90
        0
176
     1
290
     1
176
     1
290
     1
176
     1
290
     0
176
     1
290
     0
176
     1
290
     0
176
     1
290
     0
176
     1
290
     0
176
     1
290
     0
176
     1
290
     0
176
     1
 90
       50
176
     1
 40
0.0
176
     1
 40
1.0
176
     1
 90
        0
176
     1
 62
    18
420
        0
176
     1
 90
       50
176
     1
 90
        3
176
     1
 62
     5
420
      255
176
     1
290
     0
176
     1
 90
       50
176
     1
 90
       50
176
     1
 90
       50
176
     1
290
     0
176
     1
 90
       50
176
     1
 62
   256
176
     0
 40
1.0
176
     0
 90
        2
176
     1
  1
strokes_ogs.tif
176
     1
290
     0
176
     1
 40
1.0
176
     1
 40
1.0
176
     1
  0
VISUALSTYLE
  5
32
102
{ACAD_REACTORS
330
2A
102
}
330
2A
100
AcDbVisualStyle
  2
Basic
 70
     7
177
     3
291
     1
 70
    58
 90
        1
176
     1
 90
        0
176
     1
 90
        1
176
     1
 90
        0
176
     1
 40
0.6
176
     1
 40
30.0
176
     1
 62
     7
420
 16777215
176
     1
 90
        0
176
     1
 90
        4
176
     1
 62
     7
176
     1
 62
   257
176
     1
 90
        1
176
     1
 90
        1
176
     1
 40
1.0
176
     1
 90
        8
176
     1
 62
     7
176
     1
 40
1.0
176
     1
 90
        1
176
     1
 90
        6
176
     1
 90
        2
176
     1
 62
     7
176
     1
 90
        5
176
     1
 90
        0
176
     1
 90
        0
176
     1
290
     0
176
     1
 90
        1
176
     1
 40
0.0
176
     1
 90
        0
176
     1
290
     0
176
     1
290
     1
176
     1
290
     1
176
     1
290
     0
176
     1
290
     0
176
     1
290
     0
176
     1
290
     0
176
     1
290
     0
176
     1
290
     0
176
     1
 90
       50
176
     1
 40
0.0
176
     1
 40
1.0
176
     1
 90
        0
176
     1
 62
    18
420
        0
176
     1
 90
       50
176
     1
 90
        3
176
     1
 62
     5
420
      255
176
     1
290
     0
176
     1
 90
       50
176
     1
 90
       50
176
     1
 90
       50
176
     1
290
     0
176
     1
 90
       50
176
     1
 62
   256
176
     0
 40
1.0
176
     0
 90
        2
176
     1
  1
strokes_ogs.tif
176
     1
290
     0
176
     1
 40
1.0
176
     1
 40
1.0
176
     1
  0
VISUALSTYLE
  5
36
102
{ACAD_REACTORS
330
2A
102
}
330
2A
100
AcDbVisualStyle
  2
Brighten
 70
    12
177
     3
291
     1
 70
    58
 90
        2
176
     1
 90
        2
176
     1
 90
        0
176
     1
 90
        0
176
     1
 40
0.6
176
     1
 40
30.0
176
     1
 62
     7
420
 16777215
176
     1
 90
        1
176
     1
 90
        4
176
     1
 62
     7
176
     1
 62
   257
176
     1
 90
        1
176
     1
 90
        1
176
     1
 40
1.0
176
     1
 90
        8
176
     1
 62
     7
176
     1
 40
1.0
176
     1
 90
        1
176
     1
 90
        6
176
     1
 90
        2
176
     1
 62
     7
176
     1
 90
        5
176
     1
 90
        0
176
     1
 90
        0
176
     1
290
     0
176
     1
 90
        1
176
     1
 40
50.0
176
     1
 90
        0
176
     1
290
     0
176
     1
290
     1
176
     1
290
     1
176
     1
290
     0
176
     1
290
     0
176
     1
290
     0
176
     1
290
     0
176
     1
290
     0
176
     1
290
     0
176
     1
 90
       50
176
     1
 40
0.0
176
     1
 40
1.0
176
     1
 90
        0
176
     1
 62
    18
420
        0
176
     1
 90
       50
176
     1
 90
        3
176
     1
 62
     5
420
      255
176
     1
290
     0
176
     1
 90
       50
176
     1
 90
       50
176
     1
 90
       50
176
     1
290
     0
176
     1
 90
       50
176
     1
 62
   256
176
     0
 40
1.0
176
     0
 90
        2
176
     1
  1
strokes_ogs.tif
176
     1
290
     0
176
     1
 40
1.0
176
     1
 40
1.0
176
     1
  0
VISUALSTYLE
  5
3A
102
{ACAD_REACTORS
330
2A
102
}
330
2A
100
AcDbVisualStyle
  2
ColorChange
 70
    16
177
     3
291
     1
 70
    58
 90
        2
176
     1
 90
        2
176
     1
 90
        3
176
     1
 90
        0
176
     1
 40
0.6
176
     1
 40
30.0
176
     1
 62
     8
420
  8421504
176
     1
 90
        1
176
     1
 90
        4
176
     1
 62
     7
176
     1
 62
   257
176
     1
 90
        1
176
     1
 90
        1
176
     1
 40
1.0
176
     1
 90
        8
176
     1
 62
     8
420
  8421504
176
     1
 40
1.0
176
     1
 90
        1
176
     1
 90
        6
176
     1
 90
        2
176
     1
 62
     7
176
     1
 90
        5
176
     1
 90
        0
176
     1
 90
        0
176
     1
290
     0
176
     1
 90
        1
176
     1
 40
0.0
176
     1
 90
        0
176
     1
290
     0
176
     1
290
     1
176
     1
290
     1
176
     1
290
     0
176
     1
290
     0
176
     1
290
     0
176
     1
290
     0
176
     1
290
     0
176
     1
290
     0
176
     1
 90
       50
176
     1
 40
0.0
176
     1
 40
1.0
176
     1
 90
        0
176
     1
 62
    18
420
        0
176
     1
 90
       50
176
     1
 90
        3
176
     1
 62
     5
420
      255
176
     1
290
     0
176
     1
 90
       50
176
     1
 90
       50
176
     1
 90
       50
176
     1
290
     0
176
     1
 90
       50
176
     1
 62
   256
176
     0
 40
1.0
176
     0
 90
        2
176
     1
  1
strokes_ogs.tif
176
     1
290
     0
176
     1
 40
1.0
176
     1
 40
1.0
176
     1
  0
VISUALSTYLE
  5
34
102
{ACAD_REACTORS
330
2A
102
}
330
2A
100
AcDbVisualStyle
  2
Conceptual
 70
     9
177
     3
291
     0
 70
    58
 90
        3
176
     1
 90
        2
176
     1
 90
        0
176
     1
 90
        0
176
     1
 40
0.6
176
     1
 40
30.0
176
     1
 62
     7
420
 16777215
176
     1
 90
        2
176
     1
 90
        2
176
     1
 62
     7
176
     1
 62
   257
176
     1
 90
        1
176
     1
 90
        1
176
     1
 40
179.0
176
     1
 90
        8
176
     1
 62
     7
176
     1
 40
1.0
176
     1
 90
        1
176
     1
 90
        6
176
     1
 90
        2
176
     1
 62
     7
176
     1
 90
        3
176
     1
 90
        0
176
     1
 90
        0
176
     1
290
     0
176
     1
 90
        1
176
     1
 40
0.0
176
     1
 90
        0
176
     1
290
     0
176
     1
290
     1
176
     1
290
     1
176
     1
290
     0
176
     1
290
     0
176
     1
290
     0
176
     1
290
     0
176
     1
290
     0
176
     1
290
     0
176
     1
 90
       50
176
     1
 40
0.0
176
     1
 40
1.0
176
     1
 90
        0
176
     1
 62
    18
420
        0
176
     1
 90
       50
176
     1
 90
        3
176
     1
 62
     5
420
      255
176
     1
290
     0
176
     1
 90
       50
176
     1
 90
       50
176
     1
 90
       50
176
     1
290
     0
176
     1
 90
       50
176
     1
 62
   256
176
     0
 40
1.0
176
     0
 90
        2
176
     1
  1
strokes_ogs.tif
176
     1
290
     0
176
     1
 40
1.0
176
     1
 40
1.0
176
     1
  0
VISUALSTYLE
  5
35
102
{ACAD_REACTORS
330
2A
102
}
330
2A
100
AcDbVisualStyle
  2
Dim
 70
    11
177
     3
291
     1
 70
    58
 90
        2
176
     1
 90
        2
176
     1
 90
        0
176
     1
 90
        0
176
     1
 40
0.6
176
     1
 40
30.0
176
     1
 62
     7
420
 16777215
176
     1
 90
        1
176
     1
 90
        4
176
     1
 62
     7
176
     1
 62
   257
176
     1
 90
        1
176
     1
 90
        1
176
     1
 40
1.0
176
     1
 90
        8
176
     1
 62
     7
176
     1
 40
1.0
176
     1
 90
        1
176
     1
 90
        6
176
     1
 90
        2
176
     1
 62
     7
176
     1
 90
        5
176
     1
 90
        0
176
     1
 90
        0
176
     1
290
     0
176
     1
 90
        1
176
     1
 40
-50.0
176
     1
 90
        0
176
     1
290
     0
176
     1
290
     1
176
     1
290
     1
176
     1
290
     0
176
     1
290
     0
176
     1
290
     0
176
     1
290
     0
176
     1
290
     0
176
     1
290
     0
176
     1
 90
       50
176
     1
 40
0.0
176
     1
 40
1.0
176
     1
 90
        0
176
     1
 62
    18
420
        0
176
     1
 90
       50
176
     1
 90
        3
176
     1
 62
     5
420
      255
176
     1
290
     0
176
     1
 90
       50
176
     1
 90
       50
176
     1
 90
       50
176
     1
290
     0
176
     1
 90
       50
176
     1
 62
   256
176
     0
 40
1.0
176
     0
 90
        2
176
     1
  1
strokes_ogs.tif
176
     1
290
     0
176
     1
 40
1.0
176
     1
 40
1.0
176
     1
  0
VISUALSTYLE
  5
3D
102
{ACAD_REACTORS
330
2A
102
}
330
2A
100
AcDbVisualStyle
  2
EdgeColorOff
 70
    22
177
     3
291
     1
 70
    58
 90
        2
176
     0
 90
        2
176
     0
 90
        0
176
     0
 90
        0
176
     0
 40
0.6
176
     0
 40
30.0
176
     0
 62
     7
420
 16777215
176
     0
 90
        1
176
     0
 90
        4
176
     0
 62
     7
176
     0
 62
   257
176
     0
 90
        1
176
     0
 90
        1
176
     0
 40
1.0
176
     0
 90
        8
176
     2
 62
     7
176
     0
 40
1.0
176
     0
 90
        1
176
     0
 90
        6
176
     0
 90
        2
176
     0
 62
     7
176
     0
 90
        5
176
     0
 90
        0
176
     0
 90
        0
176
     0
290
     0
176
     0
 90
        1
176
     0
 40
0.0
176
     0
 90
        0
176
     0
290
     0
176
     0
290
     1
176
     0
290
     1
176
     0
290
     0
176
     0
290
     0
176
     0
290
     0
176
     0
290
     0
176
     0
290
     0
176
     0
290
     0
176
     0
 90
       50
176
     0
 40
0.0
176
     0
 40
1.0
176
     0
 90
        0
176
     0
 62
    18
420
        0
176
     0
 90
       50
176
     0
 90
        3
176
     0
 62
     5
420
      255
176
     0
290
     0
176
     0
 90
       50
176
     0
 90
       50
176
     0
 90
       50
176
     0
290
     0
176
     0
 90
       50
176
     0
 62
   256
176
     0
 40
1.0
176
     0
 90
        2
176
     0
  1
strokes_ogs.tif
176
     0
290
     0
176
     0
 40
1.0
176
     0
 40
1.0
176
     0
  0
VISUALSTYLE
  5
39
102
{ACAD_REACTORS
330
2A
102
}
330
2A
100
AcDbVisualStyle
  2
Facepattern
 70
    15
177
     3
291
     1
 70
    58
 90
        2
176
     1
 90
        2
176
     1
 90
        0
176
     1
 90
        0
176
     1
 40
0.6
176
     1
 40
30.0
176
     1
 62
     7
420
 16777215
176
     1
 90
        1
176
     1
 90
        4
176
     1
 62
     7
176
     1
 62
   257
176
     1
 90
        1
176
     1
 90
        1
176
     1
 40
1.0
176
     1
 90
        8
176
     1
 62
     7
176
     1
 40
1.0
176
     1
 90
        1
176
     1
 90
        6
176
     1
 90
        2
176
     1
 62
     7
176
     1
 90
        5
176
     1
 90
        0
176
     1
 90
        0
176
     1
290
     0
176
     1
 90
        1
176
     1
 40
0.0
176
     1
 90
        0
176
     1
290
     0
176
     1
290
     1
176
     1
290
     1
176
     1
290
     0
176
     1
290
     0
176
     1
290
     0
176
     1
290
     0
176
     1
290
     0
176
     1
290
     0
176
     1
 90
       50
176
     1
 40
0.0
176
     1
 40
1.0
176
     1
 90
        0
176
     1
 62
    18
420
        0
176
     1
 90
       50
176
     1
 90
        3
176
     1
 62
     5
420
      255
176
     1
290
     0
176
     1
 90
       50
176
     1
 90
       50
176
     1
 90
       50
176
     1
290
     0
176
     1
 90
       50
176
     1
 62
   256
176
     0
 40
1.0
176
     0
 90
        2
176
     1
  1
strokes_ogs.tif
176
     1
290
     0
176
     1
 40
1.0
176
     1
 40
1.0
176
     1
  0
VISUALSTYLE
  5
2B
102
{ACAD_REACTORS
330
2A
102
}
330
2A
100
AcDbVisualStyle
  2
Flat
 70
     0
177
     3
291
     1
 70
    58
 90
        2
176
     1
 90
        1
176
     1
 90
        1
176
     1
 90
        2
176
     1
 40
0.6
176
     1
 40
30.0
176
     1
 62
     7
420
 16777215
176
     1
 90
        0
176
     1
 90
        0
176
     1
 62
     7
176
     1
 62
   257
176
     1
 90
        1
176
     1
 90
        1
176
     1
 40
1.0
176
     1
 90
        8
176
     1
 62
     7
176
     1
 40
1.0
176
     1
 90
        1
176
     1
 90
        6
176
     1
 90
        2
176
     1
 62
     7
176
     1
 90
        5
176
     1
 90
        0
176
     1
 90
        0
176
     1
290
     0
176
     1
 90
       13
176
     1
 40
0.0
176
     1
 90
        0
176
     1
290
     0
176
     1
290
     1
176
     1
290
     1
176
     1
290
     0
176
     1
290
     0
176
     1
290
     0
176
     1
290
     0
176
     1
290
     0
176
     1
290
     0
176
     1
 90
       50
176
     1
 40
0.0
176
     1
 40
1.0
176
     1
 90
        0
176
     1
 62
    18
420
        0
176
     1
 90
       50
176
     1
 90
        3
176
     1
 62
     5
420
      255
176
     1
290
     0
176
     1
 90
       50
176
     1
 90
       50
176
     1
 90
       50
176
     1
290
     0
176
     1
 90
       50
176
     1
 62
   256
176
     0
 40
1.0
176
     0
 90
        2
176
     1
  1
strokes_ogs.tif
176
     1
290
     0
176
     1
 40
1.0
176
     1
 40
1.0
176
     1
  0
VISUALSTYLE
  5
2C
102
{ACAD_REACTORS
330
2A
102
}
330
2A
100
AcDbVisualStyle
  2
FlatWithEdges
 70
     1
177
     3
291
     1
 70
    58
 90
        2
176
     1
 90
        1
176
     1
 90
        1
176
     1
 90
        2
176
     1
 40
0.6
176
     1
 40
30.0
176
     1
 62
     7
420
 16777215
176
     1
 90
        1
176
     1
 90
        0
176
     1
 62
     7
176
     1
 62
   257
176
     1
 90
        1
176
     1
 90
        1
176
     1
 40
1.0
176
     1
 90
        0
176
     1
 62
   257
176
     1
 40
1.0
176
     1
 90
        1
176
     1
 90
        6
176
     1
 90
        2
176
     1
 62
     7
176
     1
 90
        5
176
     1
 90
        0
176
     1
 90
        0
176
     1
290
     0
176
     1
 90
       13
176
     1
 40
0.0
176
     1
 90
        0
176
     1
290
     0
176
     1
290
     1
176
     1
290
     1
176
     1
290
     0
176
     1
290
     0
176
     1
290
     0
176
     1
290
     0
176
     1
290
     0
176
     1
290
     0
176
     1
 90
       50
176
     1
 40
0.0
176
     1
 40
1.0
176
     1
 90
        0
176
     1
 62
    18
420
        0
176
     1
 90
       50
176
     1
 90
        3
176
     1
 62
     5
420
      255
176
     1
290
     0
176
     1
 90
       50
176
     1
 90
       50
176
     1
 90
       50
176
     1
290
     0
176
     1
 90
       50
176
     1
 62
   256
176
     0
 40
1.0
176
     0
 90
        2
176
     1
  1
strokes_ogs.tif
176
     1
290
     0
176
     1
 40
1.0
176
     1
 40
1.0
176
     1
  0
VISUALSTYLE
  5
2D
102
{ACAD_REACTORS
330
2A
102
}
330
2A
100
AcDbVisualStyle
  2
Gouraud
 70
     2
177
     3
291
     1
 70
    58
 90
        2
176
     1
 90
        2
176
     1
 90
        1
176
     1
 90
        2
176
     1
 40
0.6
176
     1
 40
30.0
176
     1
 62
     7
420
 16777215
176
     1
 90
        0
176
     1
 90
        0
176
     1
 62
     7
176
     1
 62
   257
176
     1
 90
        1
176
     1
 90
        1
176
     1
 40
1.0
176
     1
 90
        0
176
     1
 62
     7
176
     1
 40
1.0
176
     1
 90
        1
176
     1
 90
        6
176
     1
 90
        2
176
     1
 62
     7
176
     1
 90
        5
176
     1
 90
        0
176
     1
 90
        0
176
     1
290
     0
176
     1
 90
       13
176
     1
 40
0.0
176
     1
 90
        0
176
     1
290
     0
176
     1
290
     1
176
     1
290
     1
176
     1
290
     0
176
     1
290
     0
176
     1
290
     0
176
     1
290
     0
176
     1
290
     0
176
     1
290
     0
176
     1
 90
       50
176
     1
 40
0.0
176
     1
 40
1.0
176
     1
 90
        0
176
     1
 62
    18
420
        0
176
     1
 90
       50
176
     1
 90
        3
176
     1
 62
     5
420
      255
176
     1
290
     0
176
     1
 90
       50
176
     1
 90
       50
176
     1
 90
       50
176
     1
290
     0
176
     1
 90
       50
176
     1
 62
   256
176
     0
 40
1.0
176
     0
 90
        2
176
     1
  1
strokes_ogs.tif
176
     1
290
     0
176
     1
 40
1.0
176
     1
 40
1.0
176
     1
  0
VISUALSTYLE
  5
2E
102
{ACAD_REACTORS
330
2A
102
}
330
2A
100
AcDbVisualStyle
  2
GouraudWithEdges
 70
     3
177
     3
291
     1
 70
    58
 90
        2
176
     1
 90
        2
176
     1
 90
        1
176
     1
 90
        2
176
     1
 40
0.6
176
     1
 40
30.0
176
     1
 62
     7
420
 16777215
176
     1
 90
        1
176
     1
 90
        0
176
     1
 62
     7
176
     1
 62
   257
176
     1
 90
        1
176
     1
 90
        1
176
     1
 40
1.0
176
     1
 90
        0
176
     1
 62
   257
176
     1
 40
1.0
176
     1
 90
        1
176
     1
 90
        6
176
     1
 90
        2
176
     1
 62
     7
176
     1
 90
        5
176
     1
 90
        0
176
     1
 90
        0
176
     1
290
     0
176
     1
 90
       13
176
     1
 40
0.0
176
     1
 90
        0
176
     1
290
     0
176
     1
290
     1
176
     1
290
     1
176
     1
290
     0
176
     1
290
     0
176
     1
290
     0
176
     1
290
     0
176
     1
290
     0
176
     1
290
     0
176
     1
 90
       50
176
     1
 40
0.0
176
     1
 40
1.0
176
     1
 90
        0
176
     1
 62
    18
420
        0
176
     1
 90
       50
176
     1
 90
        3
176
     1
 62
     5
420
      255
176
     1
290
     0
176
     1
 90
       50
176
     1
 90
       50
176
     1
 90
       50
176
     1
290
     0
176
     1
 90
       50
176
     1
 62
   256
176
     0
 40
1.0
176
     0
 90
        2
176
     1
  1
strokes_ogs.tif
176
     1
290
     0
176
     1
 40
1.0
176
     1
 40
1.0
176
     1
  0
VISUALSTYLE
  5
31
102
{ACAD_REACTORS
330
2A
102
}
330
2A
100
AcDbVisualStyle
  2
Hidden
 70
     6
177
     3
291
     0
 70
    58
 90
        1
176
     1
 90
        2
176
     1
 90
        2
176
     1
 90
        0
176
     1
 40
0.6
176
     1
 40
30.0
176
     1
 62
     7
420
 16777215
176
     1
 90
        2
176
     1
 90
        2
176
     1
 62
     7
176
     1
 62
   257
176
     1
 90
        2
176
     1
 90
        1
176
     1
 40
40.0
176
     1
 90
        0
176
     1
 62
   257
176
     1
 40
1.0
176
     1
 90
        1
176
     1
 90
        6
176
     1
 90
        2
176
     1
 62
     7
176
     1
 90
        3
176
     1
 90
        0
176
     1
 90
        0
176
     1
290
     0
176
     1
 90
        1
176
     1
 40
0.0
176
     1
 90
        0
176
     1
290
     0
176
     1
290
     1
176
     1
290
     1
176
     1
290
     0
176
     1
290
     0
176
     1
290
     0
176
     1
290
     0
176
     1
290
     0
176
     1
290
     0
176
     1
 90
       50
176
     1
 40
0.0
176
     1
 40
1.0
176
     1
 90
        0
176
     1
 62
    18
420
        0
176
     1
 90
       50
176
     1
 90
        3
176
     1
 62
     5
420
      255
176
     1
290
     0
176
     1
 90
       50
176
     1
 90
       50
176
     1
 90
       50
176
     1
290
     0
176
     1
 90
       50
176
     1
 62
   256
176
     0
 40
1.0
176
     0
 90
        2
176
     1
  1
strokes_ogs.tif
176
     1
290
     0
176
     1
 40
1.0
176
     1
 40
1.0
176
     1
  0
VISUALSTYLE
  5
3B
102
{ACAD_REACTORS
330
2A
102
}
330
2A
100
AcDbVisualStyle
  2
JitterOff
 70
    20
177
     3
291
     1
 70
    58
 90
        2
176
     0
 90
        2
176
     0
 90
        0
176
     0
 90
        0
176
     0
 40
0.6
176
     0
 40
30.0
176
     0
 62
     7
420
 16777215
176
     0
 90
        1
176
     0
 90
        4
176
     0
 62
     7
176
     0
 62
   257
176
     0
 90
        1
176
     0
 90
        1
176
     0
 40
1.0
176
     0
 90
       10
176
     2
 62
     7
176
     0
 40
1.0
176
     0
 90
        1
176
     0
 90
        6
176
     0
 90
        2
176
     0
 62
     7
176
     0
 90
        5
176
     0
 90
        0
176
     0
 90
        0
176
     0
290
     0
176
     0
 90
        1
176
     0
 40
0.0
176
     0
 90
        0
176
     0
290
     0
176
     0
290
     1
176
     0
290
     1
176
     0
290
     0
176
     0
290
     0
176
     0
290
     0
176
     0
290
     0
176
     0
290
     0
176
     0
290
     0
176
     0
 90
       50
176
     0
 40
0.0
176
     0
 40
1.0
176
     0
 90
        0
176
     0
 62
    18
420
        0
176
     0
 90
       50
176
     0
 90
        3
176
     0
 62
     5
420
      255
176
     0
290
     0
176
     0
 90
       50
176
     0
 90
       50
176
     0
 90
       50
176
     0
290
     0
176
     0
 90
       50
176
     0
 62
   256
176
     0
 40
1.0
176
     0
 90
        2
176
     0
  1
strokes_ogs.tif
176
     0
290
     0
176
     0
 40
1.0
176
     0
 40
1.0
176
     0
  0
VISUALSTYLE
  5
38
102
{ACAD_REACTORS
330
2A
102
}
330
2A
100
AcDbVisualStyle
  2
Linepattern
 70
    14
177
     3
291
     1
 70
    58
 90
        2
176
     1
 90
        2
176
     1
 90
        0
176
     1
 90
        0
176
     1
 40
0.6
176
     1
 40
30.0
176
     1
 62
     7
420
 16777215
176
     1
 90
        1
176
     1
 90
        4
176
     1
 62
     7
176
     1
 62
   257
176
     1
 90
        7
176
     1
 90
        7
176
     1
 40
1.0
176
     1
 90
        8
176
     1
 62
     7
176
     1
 40
1.0
176
     1
 90
        1
176
     1
 90
        6
176
     1
 90
        2
176
     1
 62
     7
176
     1
 90
        5
176
     1
 90
        0
176
     1
 90
        0
176
     1
290
     0
176
     1
 90
        1
176
     1
 40
0.0
176
     1
 90
        0
176
     1
290
     0
176
     1
290
     1
176
     1
290
     1
176
     1
290
     0
176
     1
290
     0
176
     1
290
     0
176
     1
290
     0
176
     1
290
     0
176
     1
290
     0
176
     1
 90
       50
176
     1
 40
0.0
176
     1
 40
1.0
176
     1
 90
        0
176
     1
 62
    18
420
        0
176
     1
 90
       50
176
     1
 90
        3
176
     1
 62
     5
420
      255
176
     1
290
     0
176
     1
 90
       50
176
     1
 90
       50
176
     1
 90
       50
176
     1
290
     0
176
     1
 90
       50
176
     1
 62
   256
176
     0
 40
1.0
176
     0
 90
        2
176
     1
  1
strokes_ogs.tif
176
     1
290
     0
176
     1
 40
1.0
176
     1
 40
1.0
176
     1
  0
VISUALSTYLE
  5
3C
102
{ACAD_REACTORS
330
2A
102
}
330
2A
100
AcDbVisualStyle
  2
OverhangOff
 70
    21
177
     3
291
     1
 70
    58
 90
        2
176
     0
 90
        2
176
     0
 90
        0
176
     0
 90
        0
176
     0
 40
0.6
176
     0
 40
30.0
176
     0
 62
     7
420
 16777215
176
     0
 90
        1
176
     0
 90
        4
176
     0
 62
     7
176
     0
 62
   257
176
     0
 90
        1
176
     0
 90
        1
176
     0
 40
1.0
176
     0
 90
        9
176
     2
 62
     7
176
     0
 40
1.0
176
     0
 90
        1
176
     0
 90
        6
176
     0
 90
        2
176
     0
 62
     7
176
     0
 90
        5
176
     0
 90
        0
176
     0
 90
        0
176
     0
290
     0
176
     0
 90
        1
176
     0
 40
0.0
176
     0
 90
        0
176
     0
290
     0
176
     0
290
     1
176
     0
290
     1
176
     0
290
     0
176
     0
290
     0
176
     0
290
     0
176
     0
290
     0
176
     0
290
     0
176
     0
290
     0
176
     0
 90
       50
176
     0
 40
0.0
176
     0
 40
1.0
176
     0
 90
        0
176
     0
 62
    18
420
        0
176
     0
 90
       50
176
     0
 90
        3
176
     0
 62
     5
420
      255
176
     0
290
     0
176
     0
 90
       50
176
     0
 90
       50
176
     0
 90
       50
176
     0
290
     0
176
     0
 90
       50
176
     0
 62
   256
176
     0
 40
1.0
176
     0
 90
        2
176
     0
  1
strokes_ogs.tif
176
     0
290
     0
176
     0
 40
1.0
176
     0
 40
1.0
176
     0
  0
VISUALSTYLE
  5
33
102
{ACAD_REACTORS
330
2A
102
}
330
2A
100
AcDbVisualStyle
  2
Realistic
 70
     8
177
     3
291
     0
 70
    58
 90
        2
176
     1
 90
        3
176
     1
 90
        0
176
     1
 90
        2
176
     1
 40
0.6
176
     1
 40
30.0
176
     1
 62
     7
420
 16777215
176
     1
 90
        0
176
     1
 90
        0
176
     1
 62
     7
176
     1
 62
   257
176
     1
 90
        1
176
     1
 90
        1
176
     1
 40
1.0
176
     1
 90
        8
176
     1
 62
   257
176
     1
 40
1.0
176
     1
 90
        1
176
     1
 90
        6
176
     1
 90
        2
176
     1
 62
     7
176
     1
 90
        3
176
     1
 90
        0
176
     1
 90
        0
176
     1
290
     0
176
     1
 90
       13
176
     1
 40
0.0
176
     1
 90
        0
176
     1
290
     0
176
     1
290
     1
176
     1
290
     1
176
     1
290
     0
176
     1
290
     0
176
     1
290
     0
176
     1
290
     0
176
     1
290
     0
176
     1
290
     0
176
     1
 90
       50
176
     1
 40
0.0
176
     1
 40
1.0
176
     1
 90
        0
176
     1
 62
    18
420
        0
176
     1
 90
       50
176
     1
 90
        3
176
     1
 62
     5
420
      255
176
     1
290
     0
176
     1
 90
       50
176
     1
 90
       50
176
     1
 90
       50
176
     1
290
     0
176
     1
 90
       50
176
     1
 62
   256
176
     0
 40
1.0
176
     0
 90
        2
176
     1
  1
strokes_ogs.tif
176
     1
290
     0
176
     1
 40
1.0
176
     1
 40
1.0
176
     1
  0
VISUALSTYLE
  5
42
102
{ACAD_REACTORS
330
2A
102
}
330
2A
100
AcDbVisualStyle
  2
Shaded
 70
    27
177
     3
291
     0
 70
    58
 90
        2
176
     1
 90
        2
176
     1
 90
        1
176
     1
 90
        2
176
     1
 40
0.6
176
     1
 40
30.0
176
     1
 62
     7
420
 16777215
176
     1
 90
        0
176
     1
 90
        4
176
     1
 62
     7
176
     1
 62
   257
176
     1
 90
        1
176
     1
 90
        1
176
     1
 40
1.0
176
     1
 90
        8
176
     1
 62
   257
176
     1
 40
1.0
176
     1
 90
        1
176
     1
 90
        6
176
     1
 90
        2
176
     1
 62
     8
420
  7895160
176
     1
 90
        3
176
     1
 90
        0
176
     1
 90
        0
176
     1
290
     0
176
     1
 90
        5
176
     1
 40
0.0
176
     1
 90
        0
176
     1
290
     0
176
     1
290
     1
176
     1
290
     1
176
     1
290
     0
176
     1
290
     0
176
     1
290
     0
176
     1
290
     0
176
     1
290
     0
176
     1
290
     0
176
     1
 90
       50
176
     1
 40
0.0
176
     1
 40
1.0
176
     1
 90
        0
176
     1
 62
    18
420
        0
176
     1
 90
       50
176
     1
 90
        3
176
     1
 62
     5
420
      255
176
     1
290
     0
176
     1
 90
       50
176
     1
 90
       50
176
     1
 90
       50
176
     1
290
     0
176
     1
 90
       50
176
     1
 62
   256
176
     0
 40
1.0
176
     0
 90
        2
176
     1
  1
strokes_ogs.tif
176
     1
290
     0
176
     1
 40
1.0
176
     1
 40
1.0
176
     1
  0
VISUALSTYLE
  5
41
102
{ACAD_REACTORS
330
2A
102
}
330
2A
100
AcDbVisualStyle
  2
Shaded with edges
 70
    26
177
     3
291
     0
 70
    58
 90
        2
176
     1
 90
        2
176
     1
 90
        1
176
     1
 90
        2
176
     1
 40
0.6
176
     1
 40
30.0
176
     1
 62
     7
420
 16777215
176
     1
 90
        1
176
     1
 90
       10
176
     1
 62
     7
176
     1
 62
   257
176
     1
 90
        2
176
     1
 90
        1
176
     1
 40
1.0
176
     1
 90
        8
176
     1
 62
   257
176
     1
 40
1.0
176
     1
 90
        1
176
     1
 90
        6
176
     1
 90
        2
176
     1
 62
     7
176
     1
 90
        3
176
     1
 90
        0
176
     1
 90
        0
176
     1
290
     0
176
     1
 90
        5
176
     1
 40
0.0
176
     1
 90
        0
176
     1
290
     0
176
     1
290
     1
176
     1
290
     1
176
     1
290
     0
176
     1
290
     0
176
     1
290
     0
176
     1
290
     0
176
     1
290
     0
176
     1
290
     0
176
     1
 90
       50
176
     1
 40
0.0
176
     1
 40
1.0
176
     1
 90
        0
176
     1
 62
    18
420
        0
176
     1
 90
       50
176
     1
 90
        3
176
     1
 62
     5
420
      255
176
     1
290
     0
176
     1
 90
       50
176
     1
 90
       50
176
     1
 90
       50
176
     1
290
     0
176
     1
 90
       50
176
     1
 62
   256
176
     0
 40
1.0
176
     0
 90
        2
176
     1
  1
strokes_ogs.tif
176
     1
290
     0
176
     1
 40
1.0
176
     1
 40
1.0
176
     1
  0
VISUALSTYLE
  5
3E
102
{ACAD_REACTORS
330
2A
102
}
330
2A
100
AcDbVisualStyle
  2
Shades of Gray
 70
    23
177
     3
291
     0
 70
    58
 90
        2
176
     1
 90
        2
176
     1
 90
        3
176
     1
 90
        0
176
     1
 40
0.6
176
     1
 40
30.0
176
     1
 62
     7
420
 16777215
176
     1
 90
        2
176
     1
 90
        2
176
     1
 62
     7
176
     1
 62
     7
176
     1
 90
        1
176
     1
 90
        1
176
     1
 40
40.0
176
     1
 90
        8
176
     1
 62
     7
176
     1
 40
1.0
176
     1
 90
        1
176
     1
 90
        6
176
     1
 90
        2
176
     1
 62
     7
176
     1
 90
        3
176
     1
 90
        0
176
     1
 90
        0
176
     1
290
     0
176
     1
 90
        1
176
     1
 40
0.0
176
     1
 90
        0
176
     1
290
     0
176
     1
290
     1
176
     1
290
     1
176
     1
290
     0
176
     1
290
     0
176
     1
290
     0
176
     1
290
     0
176
     1
290
     0
176
     1
290
     0
176
     1
 90
       50
176
     1
 40
0.0
176
     1
 40
1.0
176
     1
 90
        0
176
     1
 62
    18
420
        0
176
     1
 90
       50
176
     1
 90
        3
176
     1
 62
     5
420
      255
176
     1
290
     0
176
     1
 90
       50
176
     1
 90
       50
176
     1
 90
       50
176
     1
290
     0
176
     1
 90
       50
176
     1
 62
   256
176
     0
 40
1.0
176
     0
 90
        2
176
     1
  1
strokes_ogs.tif
176
     1
290
     0
176
     1
 40
1.0
176
     1
 40
1.0
176
     1
  0
VISUALSTYLE
  5
3F
102
{ACAD_REACTORS
330
2A
102
}
330
2A
100
AcDbVisualStyle
  2
Sketchy
 70
    24
177
     3
291
     0
 70
    58
 90
        1
176
     1
 90
        2
176
     1
 90
        2
176
     1
 90
        0
176
     1
 40
0.6
176
     1
 40
30.0
176
     1
 62
     7
420
 16777215
176
     1
 90
        2
176
     1
 90
        2
176
     1
 62
     7
176
     1
 62
     7
176
     1
 90
        1
176
     1
 90
        1
176
     1
 40
40.0
176
     1
 90
       11
176
     1
 62
     7
176
     1
 40
1.0
176
     1
 90
        1
176
     1
 90
        6
176
     1
 90
        2
176
     1
 62
     7
176
     1
 90
        6
176
     1
 90
        0
176
     1
 90
        0
176
     1
290
     0
176
     1
 90
        1
176
     1
 40
0.0
176
     1
 90
        0
176
     1
290
     0
176
     1
290
     1
176
     1
290
     1
176
     1
290
     0
176
     1
290
     0
176
     1
290
     0
176
     1
290
     0
176
     1
290
     0
176
     1
290
     0
176
     1
 90
       50
176
     1
 40
0.0
176
     1
 40
1.0
176
     1
 90
        0
176
     1
 62
    18
420
        0
176
     1
 90
       50
176
     1
 90
        3
176
     1
 62
     5
420
      255
176
     1
290
     0
176
     1
 90
       50
176
     1
 90
       50
176
     1
 90
       50
176
     1
290
     0
176
     1
 90
       50
176
     1
 62
   256
176
     0
 40
1.0
176
     0
 90
        2
176
     1
  1
strokes_ogs.tif
176
     1
290
     0
176
     1
 40
1.0
176
     1
 40
1.0
176
     1
  0
VISUALSTYLE
  5
37
102
{ACAD_REACTORS
330
2A
102
}
330
2A
100
AcDbVisualStyle
  2
Thicken
 70
    13
177
     3
291
     1
 70
    58
 90
        2
176
     1
 90
        2
176
     1
 90
        0
176
     1
 90
        0
176
     1
 40
0.6
176
     1
 40
30.0
176
     1
 62
     7
420
 16777215
176
     1
 90
        1
176
     1
 90
        4
176
     1
 62
     7
176
     1
 62
   257
176
     1
 90
        1
176
     1
 90
        1
176
     1
 40
1.0
176
     1
 90
       12
176
     1
 62
     7
176
     1
 40
1.0
176
     1
 90
        1
176
     1
 90
        6
176
     1
 90
        2
176
     1
 62
     7
176
     1
 90
        5
176
     1
 90
        0
176
     1
 90
        0
176
     1
290
     0
176
     1
 90
        1
176
     1
 40
0.0
176
     1
 90
        0
176
     1
290
     0
176
     1
290
     1
176
     1
290
     1
176
     1
290
     0
176
     1
290
     0
176
     1
290
     0
176
     1
290
     0
176
     1
290
     0
176
     1
290
     0
176
     1
 90
       50
176
     1
 40
0.0
176
     1
 40
1.0
176
     1
 90
        0
176
     1
 62
    18
420
        0
176
     1
 90
       50
176
     1
 90
        3
176
     1
 62
     5
420
      255
176
     1
290
     0
176
     1
 90
       50
176
     1
 90
       50
176
     1
 90
       50
176
     1
290
     0
176
     1
 90
       50
176
     1
 62
   256
176
     0
 40
1.0
176
     0
 90
        2
176
     1
  1
strokes_ogs.tif
176
     1
290
     0
176
     1
 40
1.0
176
     1
 40
1.0
176
     1
  0
VISUALSTYLE
  5
30
102
{ACAD_REACTORS
330
2A
102
}
330
2A
100
AcDbVisualStyle
  2
Wireframe
 70
     5
177
     3
291
     0
 70
    58
 90
        0
176
     1
 90
        2
176
     1
 90
        0
176
     1
 90
        0
176
     1
 40
0.6
176
     1
 40
30.0
176
     1
 62
     7
420
 16777215
176
     1
 90
        1
176
     1
 90
        4
176
     1
 62
     7
176
     1
 62
   257
176
     1
 90
        1
176
     1
 90
        1
176
     1
 40
1.0
176
     1
 90
        0
176
     1
 62
   257
176
     1
 40
1.0
176
     1
 90
        1
176
     1
 90
        6
176
     1
 90
        2
176
     1
 62
     7
176
     1
 90
        3
176
     1
 90
        0
176
     1
 90
        0
176
     1
290
     0
176
     1
 90
        1
176
     1
 40
0.0
176
     1
 90
        0
176
     1
290
     0
176
     1
290
     1
176
     1
290
     1
176
     1
290
     0
176
     1
290
     0
176
     1
290
     0
176
     1
290
     0
176
     1
290
     0
176
     1
290
     0
176
     1
 90
       50
176
     1
 40
0.0
176
     1
 40
1.0
176
     1
 90
        0
176
     1
 62
    18
420
        0
176
     1
 90
       50
176
     1
 90
        3
176
     1
 62
     5
420
      255
176
     1
290
     0
176
     1
 90
       50
176
     1
 90
       50
176
     1
 90
       50
176
     1
290
     0
176
     1
 90
       50
176
     1
 62
   256
176
     0
 40
1.0
176
     0
 90
        2
176
     1
  1
strokes_ogs.tif
176
     1
290
     0
176
     1
 40
1.0
176
     1
 40
1.0
176
     1
  0
VISUALSTYLE
  5
40
102
{ACAD_REACTORS
330
2A
102
}
330
2A
100
AcDbVisualStyle
  2
X-Ray
 70
    25
177
     3
291
     0
 70
    58
 90
        2
176
     1
 90
        2
176
     1
 90
        1
176
     1
 90
        1
176
     1
 40
0.5
176
     1
 40
30.0
176
     1
 62
     7
420
 16777215
176
     1
 90
        1
176
     1
 90
        0
176
     1
 62
     7
176
     1
 62
   257
176
     1
 90
        1
176
     1
 90
        1
176
     1
 40
1.0
176
     1
 90
        8
176
     1
 62
     7
176
     1
 40
1.0
176
     1
 90
        1
176
     1
 90
        6
176
     1
 90
        2
176
     1
 62
     7
176
     1
 90
        3
176
     1
 90
        0
176
     1
 90
        0
176
     1
290
     0
176
     1
 90
       13
176
     1
 40
0.0
176
     1
 90
        0
176
     1
290
     0
176
     1
290
     1
176
     1
290
     1
176
     1
290
     0
176
     1
290
     0
176
     1
290
     0
176
     1
290
     0
176
     1
290
     0
176
     1
290
     0
176
     1
 90
       50
176
     1
 40
0.0
176
     1
 40
1.0
176
     1
 90
        0
176
     1
 62
    18
420
        0
176
     1
 90
       50
176
     1
 90
        3
176
     1
 62
     5
420
      255
176
     1
290
     0
176
     1
 90
       50
176
     1
 90
       50
176
     1
 90
       50
176
     1
290
     0
176
     1
 90
       50
176
     1
 62
   256
176
     0
 40
1.0
176
     0
 90
        2
176
     1
  1
strokes_ogs.tif
176
     1
290
     0
176
     1
 40
1.0
176
     1
 40
1.0
176
     1
  0
DICTIONARYVAR
  5
252
102
{ACAD_REACTORS
330
251
102
}
330
251
100
DictionaryVariables
280
     0
  1
1:1
  0
DICTIONARYVAR
  5
257
102
{ACAD_REACTORS
330
251
102
}
330
251
100
DictionaryVariables
280
     0
  1
Standard
  0
DICTIONARYVAR
  5
256
102
{ACAD_REACTORS
330
251
102
}
330
251
100
DictionaryVariables
280
     0
  1
Standard
  0
DICTIONARY
  5
253
330
6A
100
AcDbDictionary
280
     1
281
     1
  3
ACAD_ROUNDTRIP_2008_TABLESTYLE_CELLSTYLEMAP
360
254
  0
CELLSTYLEMAP
  5
254
102
{ACAD_REACTORS
330
253
102
}
330
253
100
AcDbCellStyleMap
 90
        3
300
CELLSTYLE
  1
TABLEFORMAT_BEGIN
 90
        5
170
     1
 91
        0
 92
    32768
 62
   257
 93
        1
300
CONTENTFORMAT
  1
CONTENTFORMAT_BEGIN
 90
        0
 91
        0
 92
        4
 93
        0
300

 40
0.0
140
1.0
 94
        5
 62
     0
340
11
144
0.25
309
CONTENTFORMAT_END
171
     1
301
MARGIN
  1
CELLMARGIN_BEGIN
 40
0.06
 40
0.06
 40
0.06
 40
0.06
 40
0.06
 40
0.06
309
CELLMARGIN_END
 94
        6
 95
        1
302
GRIDFORMAT
  1
GRIDFORMAT_BEGIN
 90
        0
 91
        1
 62
     0
 92
       -2
340
14
 93
        0
 40
0.045
309
GRIDFORMAT_END
 95
        2
302
GRIDFORMAT
  1
GRIDFORMAT_BEGIN
 90
        0
 91
        1
 62
     0
 92
       -2
340
14
 93
        0
 40
0.045
309
GRIDFORMAT_END
 95
        4
302
GRIDFORMAT
  1
GRIDFORMAT_BEGIN
 90
        0
 91
        1
 62
     0
 92
       -2
340
14
 93
        0
 40
0.045
309
GRIDFORMAT_END
 95
        8
302
GRIDFORMAT
  1
GRIDFORMAT_BEGIN
 90
        0
 91
        1
 62
     0
 92
       -2
340
14
 93
        0
 40
0.045
309
GRIDFORMAT_END
 95
       16
302
GRIDFORMAT
  1
GRIDFORMAT_BEGIN
 90
        0
 91
        1
 62
     0
 92
       -2
340
14
 93
        0
 40
0.045
309
GRIDFORMAT_END
 95
       32
302
GRIDFORMAT
  1
GRIDFORMAT_BEGIN
 90
        0
 91
        1
 62
     0
 92
       -2
340
14
 93
        0
 40
0.045
309
GRIDFORMAT_END
309
TABLEFORMAT_END
  1
CELLSTYLE_BEGIN
 90
        1
 91
        1
300
_TITLE
309
CELLSTYLE_END
300
CELLSTYLE
  1
TABLEFORMAT_BEGIN
 90
        5
170
     1
 91
        0
 92
        0
 62
   257
 93
        1
300
CONTENTFORMAT
  1
CONTENTFORMAT_BEGIN
 90
        0
 91
        0
 92
        4
 93
        0
300

 40
0.0
140
1.0
 94
        5
 62
     0
340
11
144
0.18
309
CONTENTFORMAT_END
171
     1
301
MARGIN
  1
CELLMARGIN_BEGIN
 40
0.06
 40
0.06
 40
0.06
 40
0.06
 40
0.06
 40
0.06
309
CELLMARGIN_END
 94
        6
 95
        1
302
GRIDFORMAT
  1
GRIDFORMAT_BEGIN
 90
        0
 91
        1
 62
     0
 92
       -2
340
14
 93
        0
 40
0.045
309
GRIDFORMAT_END
 95
        2
302
GRIDFORMAT
  1
GRIDFORMAT_BEGIN
 90
        0
 91
        1
 62
     0
 92
       -2
340
14
 93
        0
 40
0.045
309
GRIDFORMAT_END
 95
        4
302
GRIDFORMAT
  1
GRIDFORMAT_BEGIN
 90
        0
 91
        1
 62
     0
 92
       -2
340
14
 93
        0
 40
0.045
309
GRIDFORMAT_END
 95
        8
302
GRIDFORMAT
  1
GRIDFORMAT_BEGIN
 90
        0
 91
        1
 62
     0
 92
       -2
340
14
 93
        0
 40
0.045
309
GRIDFORMAT_END
 95
       16
302
GRIDFORMAT
  1
GRIDFORMAT_BEGIN
 90
        0
 91
        1
 62
     0
 92
       -2
340
14
 93
        0
 40
0.045
309
GRIDFORMAT_END
 95
       32
302
GRIDFORMAT
  1
GRIDFORMAT_BEGIN
 90
        0
 91
        1
 62
     0
 92
       -2
340
14
 93
        0
 40
0.045
309
GRIDFORMAT_END
309
TABLEFORMAT_END
  1
CELLSTYLE_BEGIN
 90
        2
 91
        1
300
_HEADER
309
CELLSTYLE_END
300
CELLSTYLE
  1
TABLEFORMAT_BEGIN
 90
        5
170
     1
 91
        0
 92
        0
 62
   257
 93
        1
300
CONTENTFORMAT
  1
CONTENTFORMAT_BEGIN
 90
        0
 91
        0
 92
        4
 93
        0
300

 40
0.0
140
1.0
 94
        2
 62
     0
340
11
144
0.18
309
CONTENTFORMAT_END
171
     1
301
MARGIN
  1
CELLMARGIN_BEGIN
 40
0.06
 40
0.06
 40
0.06
 40
0.06
 40
0.06
 40
0.06
309
CELLMARGIN_END
 94
        6
 95
        1
302
GRIDFORMAT
  1
GRIDFORMAT_BEGIN
 90
        0
 91
        1
 62
     0
 92
       -2
340
14
 93
        0
 40
0.045
309
GRIDFORMAT_END
 95
        2
302
GRIDFORMAT
  1
GRIDFORMAT_BEGIN
 90
        0
 91
        1
 62
     0
 92
       -2
340
14
 93
        0
 40
0.045
309
GRIDFORMAT_END
 95
        4
302
GRIDFORMAT
  1
GRIDFORMAT_BEGIN
 90
        0
 91
        1
 62
     0
 92
       -2
340
14
 93
        0
 40
0.045
309
GRIDFORMAT_END
 95
        8
302
GRIDFORMAT
  1
GRIDFORMAT_BEGIN
 90
        0
 91
        1
 62
     0
 92
       -2
340
14
 93
        0
 40
0.045
309
GRIDFORMAT_END
 95
       16
302
GRIDFORMAT
  1
GRIDFORMAT_BEGIN
 90
        0
 91
        1
 62
     0
 92
       -2
340
14
 93
        0
 40
0.045
309
GRIDFORMAT_END
 95
       32
302
GRIDFORMAT
  1
GRIDFORMAT_BEGIN
 90
        0
 91
        1
 62
     0
 92
       -2
340
14
 93
        0
 40
0.045
309
GRIDFORMAT_END
309
TABLEFORMAT_END
  1
CELLSTYLE_BEGIN
 90
        3
 91
        2
300
_DATA
309
CELLSTYLE_END
  0
ENDSEC
  0
EOF