0
SECTION
  2
HEADER
  9
$ACADVER
  1
AC1027
  9
$ACADMAINTVER
 70
     8
  9
$DWGCODEPAGE
  3
ANSI_1252
  9
$REQUIREDVERSIONS
160
                 0
  9
$COMMENTS
  1
File was created by Cadenas
  9
$CUSTOMPROPERTYTAG
  1
NN
  9
$CUSTOMPROPERTY
  1
Type K Pillow Block 2&4-Bolt Base Non-Expansion Inch Bore
  9
$CUSTOMPROPERTYTAG
  1
NT
  9
$CUSTOMPROPERTY
  1
Type K
  9
$CUSTOMPROPERTYTAG
  1
NB
  9
$CUSTOMPROPERTY
  1
023173
  9
$CUSTOMPROPERTYTAG
  1
NBSYN
  9
$CUSTOMPROPERTY
  1
$PN.
  9
$CUSTOMPROPERTYTAG
  1
LINA
  9
$CUSTOMPROPERTY
  1
023173
  9
$CUSTOMPROPERTYTAG
  1
SS
  9
$CUSTOMPROPERTY
  1
1-11/16
  9
$CUSTOMPROPERTYTAG
  1
PN
  9
$CUSTOMPROPERTY
  1
023173
  9
$CUSTOMPROPERTYTAG
  1
PNA
  9
$CUSTOMPROPERTY
  1
P2B-K-111R
  9
$CUSTOMPROPERTYTAG
  1
WEIGHT
  9
$CUSTOMPROPERTY
  1
14
  9
$CUSTOMPROPERTYTAG
  1
A
  9
$CUSTOMPROPERTY
  1
2.83
  9
$CUSTOMPROPERTYTAG
  1
B
  9
$CUSTOMPROPERTY
  1
9
  9
$CUSTOMPROPERTYTAG
  1
C
  9
$CUSTOMPROPERTY
  1
2.37
  9
$CUSTOMPROPERTYTAG
  1
DMIN
  9
$CUSTOMPROPERTY
  1
6.88
  9
$CUSTOMPROPERTYTAG
  1
DMAX
  9
$CUSTOMPROPERTY
  1
7.63
  9
$CUSTOMPROPERTYTAG
  1
E
  9
$CUSTOMPROPERTY
  1
N/A
  9
$CUSTOMPROPERTYTAG
  1
F
  9
$CUSTOMPROPERTY
  1
1/2
  9
$CUSTOMPROPERTYTAG
  1
G
  9
$CUSTOMPROPERTY
  1
1.00
  9
$CUSTOMPROPERTYTAG
  1
H
  9
$CUSTOMPROPERTY
  1
1.38
  9
$CUSTOMPROPERTYTAG
  1
J
  9
$CUSTOMPROPERTY
  1
5.75
  9
$CUSTOMPROPERTYTAG
  1
L
  9
$CUSTOMPROPERTY
  1
3.19
  9
$CUSTOMPROPERTYTAG
  1
M
  9
$CUSTOMPROPERTY
  1
2.63
  9
$CUSTOMPROPERTYTAG
  1
P
  9
$CUSTOMPROPERTY
  1
5.81
  9
$CUSTOMPROPERTYTAG
  1
R
  9
$CUSTOMPROPERTY
  1
1.56
  9
$CUSTOMPROPERTYTAG
  1
S
  9
$CUSTOMPROPERTY
  1
1.68
  9
$CUSTOMPROPERTYTAG
  1
T
  9
$CUSTOMPROPERTY
  1
.09
  9
$CUSTOMPROPERTYTAG
  1
CS
  9
$CUSTOMPROPERTY
  1
33000
  9
$CUSTOMPROPERTYTAG
  1
CD
  9
$CUSTOMPROPERTY
  1
6140
  9
$CUSTOMPROPERTYTAG
  1
RN
  9
$CUSTOMPROPERTY
  1
18
  9
$CUSTOMPROPERTYTAG
  1
RM
  9
$CUSTOMPROPERTY
  1
.35
  9
$CUSTOMPROPERTYTAG
  1
PDI
  9
$CUSTOMPROPERTY
  1
2.411
  9
$CUSTOMPROPERTYTAG
  1
EP
  9
$CUSTOMPROPERTY
  1
.004-.012
  9
$CUSTOMPROPERTYTAG
  1
CSS
  9
$CUSTOMPROPERTY
  1
5/16-18*5/8
  9
$CUSTOMPROPERTYTAG
  1
CST
  9
$CUSTOMPROPERTY
  1
165
  9
$CUSTOMPROPERTYTAG
  1
MH
  9
$CUSTOMPROPERTY
  1
C.I. ASTM A48 CLASS 30
  9
$CUSTOMPROPERTYTAG
  1
MC
  9
$CUSTOMPROPERTY
  1
4118 CASE CARB.
  9
$CUSTOMPROPERTYTAG
  1
MCU
  9
$CUSTOMPROPERTY
  1
4118 CASE CARB.
  9
$CUSTOMPROPERTYTAG
  1
MR
  9
$CUSTOMPROPERTY
  1
STEEL
  9
$CUSTOMPROPERTYTAG
  1
MRO
  9
$CUSTOMPROPERTY
  1
4118 CASE CARB.
  9
$CUSTOMPROPERTYTAG
  1
SM
  9
$CUSTOMPROPERTY
  1
2.59*
  9
$CUSTOMPROPERTYTAG
  1
COMPANY
  9
$CUSTOMPROPERTY
  1
baldor
  9
$INSBASE
 10
0.0
 20
0.0
 30
0.0
  9
$EXTMIN
 10
1.000000000000000E+20
 20
1.000000000000000E+20
 30
1.000000000000000E+20
  9
$EXTMAX
 10
-1.000000000000000E+20
 20
-1.000000000000000E+20
 30
-1.000000000000000E+20
  9
$LIMMIN
 10
0.0
 20
0.0
  9
$LIMMAX
 10
12.0
 20
9.0
  9
$ORTHOMODE
 70
     0
  9
$REGENMODE
 70
     1
  9
$FILLMODE
 70
     1
  9
$QTEXTMODE
 70
     0
  9
$MIRRTEXT
 70
     1
  9
$LTSCALE
 40
1.0
  9
$ATTMODE
 70
     1
  9
$TEXTSIZE
 40
0.2
  9
$TRACEWID
 40
0.05
  9
$TEXTSTYLE
  7
Standard
  9
$CLAYER
  8
0
  9
$CELTYPE
  6
ByLayer
  9
$CECOLOR
 62
   256
  9
$CELTSCALE
 40
1.0
  9
$DISPSILH
 70
     0
  9
$DIMSCALE
 40
1.0
  9
$DIMASZ
 40
0.18
  9
$DIMEXO
 40
0.0625
  9
$DIMDLI
 40
0.38
  9
$DIMRND
 40
0.0
  9
$DIMDLE
 40
0.0
  9
$DIMEXE
 40
0.18
  9
$DIMTP
 40
0.0
  9
$DIMTM
 40
0.0
  9
$DIMTXT
 40
0.18
  9
$DIMCEN
 40
0.09
  9
$DIMTSZ
 40
0.0
  9
$DIMTOL
 70
     0
  9
$DIMLIM
 70
     0
  9
$DIMTIH
 70
     1
  9
$DIMTOH
 70
     1
  9
$DIMSE1
 70
     0
  9
$DIMSE2
 70
     0
  9
$DIMTAD
 70
     0
  9
$DIMZIN
 70
     0
  9
$DIMBLK
  1

  9
$DIMASO
 70
     1
  9
$DIMSHO
 70
     1
  9
$DIMPOST
  1

  9
$DIMAPOST
  1

  9
$DIMALT
 70
     0
  9
$DIMALTD
 70
     2
  9
$DIMALTF
 40
25.4
  9
$DIMLFAC
 40
1.0
  9
$DIMTOFL
 70
     0
  9
$DIMTVP
 40
0.0
  9
$DIMTIX
 70
     0
  9
$DIMSOXD
 70
     0
  9
$DIMSAH
 70
     0
  9
$DIMBLK1
  1

  9
$DIMBLK2
  1

  9
$DIMSTYLE
  2
Standard
  9
$DIMCLRD
 70
     0
  9
$DIMCLRE
 70
     0
  9
$DIMCLRT
 70
     0
  9
$DIMTFAC
 40
1.0
  9
$DIMGAP
 40
0.09
  9
$DIMJUST
 70
     0
  9
$DIMSD1
 70
     0
  9
$DIMSD2
 70
     0
  9
$DIMTOLJ
 70
     1
  9
$DIMTZIN
 70
     0
  9
$DIMALTZ
 70
     0
  9
$DIMALTTZ
 70
     0
  9
$DIMUPT
 70
     0
  9
$DIMDEC
 70
     4
  9
$DIMTDEC
 70
     4
  9
$DIMALTU
 70
     2
  9
$DIMALTTD
 70
     2
  9
$DIMTXSTY
  7
Standard
  9
$DIMAUNIT
 70
     0
  9
$DIMADEC
 70
     0
  9
$DIMALTRND
 40
0.0
  9
$DIMAZIN
 70
     0
  9
$DIMDSEP
 70
    46
  9
$DIMATFIT
 70
     3
  9
$DIMFRAC
 70
     0
  9
$DIMLDRBLK
  1

  9
$DIMLUNIT
 70
     2
  9
$DIMLWD
 70
    -2
  9
$DIMLWE
 70
    -2
  9
$DIMTMOVE
 70
     0
  9
$DIMFXL
 40
1.0
  9
$DIMFXLON
 70
     0
  9
$DIMJOGANG
 40
0.7853981633974483
  9
$DIMTFILL
 70
     0
  9
$DIMTFILLCLR
 70
     0
  9
$DIMARCSYM
 70
     0
  9
$DIMLTYPE
  6

  9
$DIMLTEX1
  6

  9
$DIMLTEX2
  6

  9
$DIMTXTDIRECTION
 70
     0
  9
$LUNITS
 70
     2
  9
$LUPREC
 70
     4
  9
$SKETCHINC
 40
0.1
  9
$FILLETRAD
 40
0.5
  9
$AUNITS
 70
     0
  9
$AUPREC
 70
     0
  9
$MENU
  1
.
  9
$ELEVATION
 40
0.0
  9
$PELEVATION
 40
0.0
  9
$THICKNESS
 40
0.0
  9
$LIMCHECK
 70
     0
  9
$CHAMFERA
 40
0.0
  9
$CHAMFERB
 40
0.0
  9
$CHAMFERC
 40
0.0
  9
$CHAMFERD
 40
0.0
  9
$SKPOLY
 70
     0
  9
$TDCREATE
 40
2458169.005131644
  9
$TDUCREATE
 40
2458168.963464977
  9
$TDUPDATE
 40
2458169.005131829
  9
$TDUUPDATE
 40
2458168.963465162
  9
$TDINDWG
 40
0.0000000116
  9
$TDUSRTIMER
 40
0.0000000116
  9
$USRTIMER
 70
     1
  9
$ANGBASE
 50
0.0
  9
$ANGDIR
 70
     0
  9
$PDMODE
 70
     0
  9
$PDSIZE
 40
0.0
  9
$PLINEWID
 40
0.0
  9
$SPLFRAME
 70
     0
  9
$SPLINETYPE
 70
     6
  9
$SPLINESEGS
 70
     8
  9
$HANDSEED
  5
207
  9
$SURFTAB1
 70
     6
  9
$SURFTAB2
 70
     6
  9
$SURFTYPE
 70
     6
  9
$SURFU
 70
     6
  9
$SURFV
 70
     6
  9
$UCSBASE
  2

  9
$UCSNAME
  2

  9
$UCSORG
 10
0.0
 20
0.0
 30
0.0
  9
$UCSXDIR
 10
1.0
 20
0.0
 30
0.0
  9
$UCSYDIR
 10
0.0
 20
1.0
 30
0.0
  9
$UCSORTHOREF
  2

  9
$UCSORTHOVIEW
 70
     0
  9
$UCSORGTOP
 10
0.0
 20
0.0
 30
0.0
  9
$UCSORGBOTTOM
 10
0.0
 20
0.0
 30
0.0
  9
$UCSORGLEFT
 10
0.0
 20
0.0
 30
0.0
  9
$UCSORGRIGHT
 10
0.0
 20
0.0
 30
0.0
  9
$UCSORGFRONT
 10
0.0
 20
0.0
 30
0.0
  9
$UCSORGBACK
 10
0.0
 20
0.0
 30
0.0
  9
$PUCSBASE
  2

  9
$PUCSNAME
  2

  9
$PUCSORG
 10
0.0
 20
0.0
 30
0.0
  9
$PUCSXDIR
 10
1.0
 20
0.0
 30
0.0
  9
$PUCSYDIR
 10
0.0
 20
1.0
 30
0.0
  9
$PUCSORTHOREF
  2

  9
$PUCSORTHOVIEW
 70
     0
  9
$PUCSORGTOP
 10
0.0
 20
0.0
 30
0.0
  9
$PUCSORGBOTTOM
 10
0.0
 20
0.0
 30
0.0
  9
$PUCSORGLEFT
 10
0.0
 20
0.0
 30
0.0
  9
$PUCSORGRIGHT
 10
0.0
 20
0.0
 30
0.0
  9
$PUCSORGFRONT
 10
0.0
 20
0.0
 30
0.0
  9
$PUCSORGBACK
 10
0.0
 20
0.0
 30
0.0
  9
$USERI1
 70
     0
  9
$USERI2
 70
     0
  9
$USERI3
 70
     0
  9
$USERI4
 70
     0
  9
$USERI5
 70
     0
  9
$USERR1
 40
0.0
  9
$USERR2
 40
0.0
  9
$USERR3
 40
0.0
  9
$USERR4
 40
0.0
  9
$USERR5
 40
0.0
  9
$WORLDVIEW
 70
     1
  9
$SHADEDGE
 70
     3
  9
$SHADEDIF
 70
    70
  9
$TILEMODE
 70
     1
  9
$MAXACTVP
 70
    64
  9
$PINSBASE
 10
0.0
 20
0.0
 30
0.0
  9
$PLIMCHECK
 70
     0
  9
$PEXTMIN
 10
1.000000000000000E+20
 20
1.000000000000000E+20
 30
1.000000000000000E+20
  9
$PEXTMAX
 10
-1.000000000000000E+20
 20
-1.000000000000000E+20
 30
-1.000000000000000E+20
  9
$PLIMMIN
 10
0.0
 20
0.0
  9
$PLIMMAX
 10
12.0
 20
9.0
  9
$UNITMODE
 70
     0
  9
$VISRETAIN
 70
     1
  9
$PLINEGEN
 70
     0
  9
$PSLTSCALE
 70
     1
  9
$TREEDEPTH
 70
  3020
  9
$CMLSTYLE
  2
Standard
  9
$CMLJUST
 70
     0
  9
$CMLSCALE
 40
1.0
  9
$PROXYGRAPHICS
 70
     1
  9
$MEASUREMENT
 70
     0
  9
$CELWEIGHT
370
    -1
  9
$ENDCAPS
280
     0
  9
$JOINSTYLE
280
     0
  9
$LWDISPLAY
290
     0
  9
$INSUNITS
 70
     1
  9
$HYPERLINKBASE
  1

  9
$STYLESHEET
  1

  9
$XEDIT
290
     1
  9
$CEPSNTYPE
380
     0
  9
$PSTYLEMODE
290
     1
  9
$FINGERPRINTGUID
  2
{E2DD7A60-893B-4FDE-ADDE-D2298B86D834}
  9
$VERSIONGUID
  2
{FAEB1C32-E019-11D5-929B-00C0DF256EC4}
  9
$EXTNAMES
290
     1
  9
$PSVPSCALE
 40
0.0
  9
$OLESTARTUP
290
     0
  9
$SORTENTS
280
   127
  9
$INDEXCTL
280
     0
  9
$HIDETEXT
280
     1
  9
$XCLIPFRAME
280
     2
  9
$HALOGAP
280
     0
  9
$OBSCOLOR
 70
   257
  9
$OBSLTYPE
280
     0
  9
$INTERSECTIONDISPLAY
280
     0
  9
$INTERSECTIONCOLOR
 70
   257
  9
$DIMASSOC
280
     2
  9
$PROJECTNAME
  1

  9
$CAMERADISPLAY
290
     0
  9
$LENSLENGTH
 40
50.0
  9
$CAMERAHEIGHT
 40
0.0
  9
$STEPSPERSEC
 40
2.0
  9
$STEPSIZE
 40
6.0
  9
$3DDWFPREC
 40
2.0
  9
$PSOLWIDTH
 40
0.25
  9
$PSOLHEIGHT
 40
4.0
  9
$LOFTANG1
 40
1.570796326794897
  9
$LOFTANG2
 40
1.570796326794897
  9
$LOFTMAG1
 40
0.0
  9
$LOFTMAG2
 40
0.0
  9
$LOFTPARAM
 70
     7
  9
$LOFTNORMALS
280
     1
  9
$LATITUDE
 40
37.795
  9
$LONGITUDE
 40
-122.394
  9
$NORTHDIRECTION
 40
0.0
  9
$TIMEZONE
 70
 -8000
  9
$LIGHTGLYPHDISPLAY
280
     1
  9
$TILEMODELIGHTSYNCH
280
     1
  9
$CMATERIAL
347
44
  9
$SOLIDHIST
280
     0
  9
$SHOWHIST
280
     1
  9
$DWFFRAME
280
     2
  9
$DGNFRAME
280
     2
  9
$REALWORLDSCALE
290
     1
  9
$INTERFERECOLOR
 62
   256
  9
$CSHADOW
280
     0
  9
$SHADOWPLANELOCATION
 40
0.0
  0
ENDSEC
  0
SECTION
  2
CLASSES
  0
CLASS
  1
ACDBDICTIONARYWDFLT
  2
AcDbDictionaryWithDefault
  3
ObjectDBX Classes
 90
        0
 91
        4
280
     0
281
     0
  0
CLASS
  1
VISUALSTYLE
  2
AcDbVisualStyle
  3
ObjectDBX Classes
 90
     4095
 91
        4
280
     0
281
     0
  0
CLASS
  1
MATERIAL
  2
AcDbMaterial
  3
ObjectDBX Classes
 90
     1153
 91
        4
280
     0
281
     0
  0
CLASS
  1
SCALE
  2
AcDbScale
  3
ObjectDBX Classes
 90
     1153
 91
        4
280
     0
281
     0
  0
CLASS
  1
TABLESTYLE
  2
AcDbTableStyle
  3
ObjectDBX Classes
 90
     4095
 91
        4
280
     0
281
     0
  0
CLASS
  1
MLEADERSTYLE
  2
AcDbMLeaderStyle
  3
ACDB_MLEADERSTYLE_CLASS
 90
     4095
 91
        4
280
     0
281
     0
  0
CLASS
  1
SUN
  2
AcDbSun
  3
SCENEOE
 90
     1153
 91
        4
280
     0
281
     0
  0
CLASS
  1
DICTIONARYVAR
  2
AcDbDictionaryVar
  3
ObjectDBX Classes
 90
        0
 91
        4
280
     0
281
     0
  0
CLASS
  1
CELLSTYLEMAP
  2
AcDbCellStyleMap
  3
ObjectDBX Classes
 90
     1152
 91
        4
280
     0
281
     0
  0
ENDSEC
  0
SECTION
  2
TABLES
  0
TABLE
  2
VPORT
  5
8
330
0
100
AcDbSymbolTable
 70
     1
  0
VPORT
  5
29
330
8
100
AcDbSymbolTableRecord
100
AcDbViewportTableRecord
  2
*Active
 70
     0
 10
0.0
 20
0.0
 11
1.0
 21
1.0
 12
0.0
 22
1.013375
 13
0.0
 23
0.0
 14
0.5
 24
0.5
 15
0.5
 25
0.5
 16
0.0
 26
0.0
 36
1.0
 17
0.0
 27
0.0
 37
0.0
 40
7.432485000000001
 41
1.23511853707071
 42
50.0
 43
0.0
 44
0.0
 50
0.0
 51
0.0
 71
     0
 72
   100
 73
     1
 74
     3
 75
     0
 76
     0
 77
     0
 78
     0
281
     0
 65
     1
110
0.0
120
0.0
130
0.0
111
1.0
121
0.0
131
0.0
112
0.0
122
1.0
132
0.0
 79
     0
146
0.0
348
2F
 60
     3
 61
     5
292
     1
282
     1
141
0.0
142
0.0
 63
   250
361
6D
  0
ENDTAB
  0
TABLE
  2
LTYPE
  5
5
330
0
100
AcDbSymbolTable
 70
     3
  0
LTYPE
  5
14
330
5
100
AcDbSymbolTableRecord
100
AcDbLinetypeTableRecord
  2
ByBlock
 70
     0
  3

 72
    65
 73
     0
 40
0.0
  0
LTYPE
  5
15
330
5
100
AcDbSymbolTableRecord
100
AcDbLinetypeTableRecord
  2
ByLayer
 70
     0
  3

 72
    65
 73
     0
 40
0.0
  0
LTYPE
  5
16
330
5
100
AcDbSymbolTableRecord
100
AcDbLinetypeTableRecord
  2
Continuous
 70
     0
  3
Solid line
 72
    65
 73
     0
 40
0.0
  0
LTYPE
  5
B0
330
5
100
AcDbSymbolTableRecord
100
AcDbLinetypeTableRecord
  2
Dashed
 70
     0
  3

 72
    65
 73
     2
 40
2.0
 49
1.0
 74
     0
 49
-1.0
 74
     0
  0
LTYPE
  5
143
330
5
100
AcDbSymbolTableRecord
100
AcDbLinetypeTableRecord
  2
Center
 70
     0
  3

 72
    65
 73
     4
 40
1.5
 49
0.45
 74
     0
 49
-0.5
 74
     0
 49
0.05
 74
     0
 49
-0.5
 74
     0
  0
ENDTAB
  0
TABLE
  2
LAYER
  5
2
330
0
100
AcDbSymbolTable
 70
     7
  0
LAYER
  5
10
330
2
100
AcDbSymbolTableRecord
100
AcDbLayerTableRecord
  2
0
 70
     0
 62
     7
  6
Continuous
370
    -3
390
F
347
46
348
0
  0
LAYER
  5
72
330
2
100
AcDbSymbolTableRecord
100
AcDbLayerTableRecord
  2
AM_6
 70
     0
 62
    -2
  6
Continuous
370
    35
390
F
347
46
348
0
  0
LAYER
  5
B1
330
2
100
AcDbSymbolTableRecord
100
AcDbLayerTableRecord
  2
AM_9
 70
     0
 62
     6
  6
Dashed
370
    25
390
F
347
46
348
0
  0
LAYER
  5
C2
330
2
100
AcDbSymbolTableRecord
100
AcDbLayerTableRecord
  2
AM_5
 70
     0
 62
     3
  6
Continuous
370
    25
390
F
347
46
348
0
  0
LAYER
  5
C7
330
2
100
AcDbSymbolTableRecord
100
AcDbLayerTableRecord
  2
AM_4
 70
     0
 62
     7
  6
Continuous
370
    50
390
F
347
46
348
0
  0
LAYER
  5
144
330
2
100
AcDbSymbolTableRecord
100
AcDbLayerTableRecord
  2
AM_7
 70
     0
 62
     7
  6
Center
370
    25
390
F
347
46
348
0
  0
LAYER
  5
1F6
330
2
100
AcDbSymbolTableRecord
100
AcDbLayerTableRecord
  2
ConnectionPoints
 70
     0
 62
     7
  6
Continuous
370
    50
390
F
347
46
348
0
  0
ENDTAB
  0
TABLE
  2
STYLE
  5
3
330
0
100
AcDbSymbolTable
 70
     1
  0
STYLE
  5
11
330
3
100
AcDbSymbolTableRecord
100
AcDbTextStyleTableRecord
  2
Standard
 70
     0
 40
0.0
 41
1.0
 50
0.0
 71
     0
 42
0.2
  3
txt
  4

  0
ENDTAB
  0
TABLE
  2
VIEW
  5
6
330
0
100
AcDbSymbolTable
 70
     0
  0
ENDTAB
  0
TABLE
  2
UCS
  5
7
330
0
100
AcDbSymbolTable
 70
     0
  0
ENDTAB
  0
TABLE
  2
APPID
  5
9
330
0
100
AcDbSymbolTable
 70
     1
  0
APPID
  5
12
330
9
100
AcDbSymbolTableRecord
100
AcDbRegAppTableRecord
  2
ACAD
 70
     0
  0
ENDTAB
  0
TABLE
  2
DIMSTYLE
  5
A
330
0
100
AcDbSymbolTable
 70
     1
100
AcDbDimStyleTable
  0
DIMSTYLE
105
27
330
A
100
AcDbSymbolTableRecord
100
AcDbDimStyleTableRecord
  2
Standard
 70
     0
178
     0
340
11
  0
ENDTAB
  0
TABLE
  2
BLOCK_RECORD
  5
1
330
0
100
AcDbSymbolTable
 70
     6
  0
BLOCK_RECORD
  5
1F
330
1
100
AcDbSymbolTableRecord
100
AcDbBlockTableRecord
  2
*Model_Space
340
22
 70
     0
280
     1
281
     0
  0
BLOCK_RECORD
  5
1B
330
1
100
AcDbSymbolTableRecord
100
AcDbBlockTableRecord
  2
*Paper_Space
340
1E
 70
     0
280
     1
281
     0
  0
BLOCK_RECORD
  5
23
330
1
100
AcDbSymbolTableRecord
100
AcDbBlockTableRecord
  2
*Paper_Space0
340
26
 70
     0
280
     1
281
     0
  0
BLOCK_RECORD
  5
6E
330
1
100
AcDbSymbolTableRecord
100
AcDbBlockTableRecord
  2
1_023173_0
340
0
102
{BLKREFS
331
6F
102
}
 70
     0
280
     1
281
     0
  0
BLOCK_RECORD
  5
9B
330
1
100
AcDbSymbolTableRecord
100
AcDbBlockTableRecord
  2
2_1_11_16C_0_in_023173_0
340
0
102
{BLKREFS
331
9C
102
}
 70
     0
280
     1
281
     0
  0
BLOCK_RECORD
  5
CB
330
1
100
AcDbSymbolTableRecord
100
AcDbBlockTableRecord
  2
3_405020c_Inch_0_in_023173_0
340
0
102
{BLKREFS
331
CC
102
}
 70
     0
280
     1
281
     0
  0
BLOCK_RECORD
  5
106
330
1
100
AcDbSymbolTableRecord
100
AcDbBlockTableRecord
  2
4_S1U_K_111R_0_in_023173_0
340
0
102
{BLKREFS
331
107
102
}
 70
     0
280
     1
281
     0
  0
BLOCK_RECORD
  5
14C
330
1
100
AcDbSymbolTableRecord
100
AcDbBlockTableRecord
  2
5_P2B_K_111R_0_in_023173_0
340
0
102
{BLKREFS
331
14D
102
}
 70
     0
280
     1
281
     0
  0
ENDTAB
  0
ENDSEC
  0
SECTION
  2
BLOCKS
  0
BLOCK
  5
20
330
1F
100
AcDbEntity
  8
0
100
AcDbBlockBegin
  2
*Model_Space
 70
     0
 10
0.0
 20
0.0
 30
0.0
  3
*Model_Space
  1

  0
ENDBLK
  5
21
330
1F
100
AcDbEntity
  8
0
100
AcDbBlockEnd
  0
BLOCK
  5
1C
330
1B
100
AcDbEntity
 67
     1
  8
0
100
AcDbBlockBegin
  2
*Paper_Space
 70
     0
 10
0.0
 20
0.0
 30
0.0
  3
*Paper_Space
  1

  0
ENDBLK
  5
1D
330
1B
100
AcDbEntity
 67
     1
  8
0
100
AcDbBlockEnd
  0
BLOCK
  5
24
330
23
100
AcDbEntity
  8
0
100
AcDbBlockBegin
  2
*Paper_Space0
 70
     0
 10
0.0
 20
0.0
 30
0.0
  3
*Paper_Space0
  1

  0
ENDBLK
  5
25
330
23
100
AcDbEntity
  8
0
100
AcDbBlockEnd
  0
BLOCK
  5
70
330
6E
100
AcDbEntity
  8
0
100
AcDbBlockBegin
  2
1_023173_0
 70
     2
 10
0.0
 20
0.0
 30
0.0
  3
1_023173_0
  1

  0
ATTDEF
  5
73
330
6E
100
AcDbEntity
  8
AM_6
100
AcDbText
 10
9.5
 20
4.656750000000001
 30
0.0
 40
0.5
  1
Type K Pillow Block 2&4-Bolt Base Non-Expansion Inch Bore
100
AcDbAttributeDefinition
  3

  2
NN
 70
     8
280
     0
  0
ATTDEF
  5
74
330
6E
100
AcDbEntity
  8
AM_6
100
AcDbText
 10
9.5
 20
4.156750000000001
 30
0.0
 40
0.5
  1
Type K
100
AcDbAttributeDefinition
  3

  2
NT
 70
     8
280
     0
  0
ATTDEF
  5
75
330
6E
100
AcDbEntity
  8
AM_6
100
AcDbText
 10
9.5
 20
3.656750000000001
 30
0.0
 40
0.5
  1
023173
100
AcDbAttributeDefinition
  3

  2
NB
 70
     8
280
     0
  0
ATTDEF
  5
76
330
6E
100
AcDbEntity
  8
AM_6
100
AcDbText
 10
9.5
 20
3.156750000000001
 30
0.0
 40
0.5
  1
$PN.
100
AcDbAttributeDefinition
  3

  2
NBSYN
 70
     8
280
     0
  0
ATTDEF
  5
77
330
6E
100
AcDbEntity
  8
AM_6
100
AcDbText
 10
9.5
 20
2.656750000000001
 30
0.0
 40
0.5
  1
023173
100
AcDbAttributeDefinition
  3

  2
LINA
 70
     8
280
     0
  0
ATTDEF
  5
78
330
6E
100
AcDbEntity
  8
AM_6
100
AcDbText
 10
9.5
 20
2.156750000000001
 30
0.0
 40
0.5
  1
1-11/16
100
AcDbAttributeDefinition
  3

  2
SS
 70
     8
280
     0
  0
ATTDEF
  5
79
330
6E
100
AcDbEntity
  8
AM_6
100
AcDbText
 10
9.5
 20
1.656750000000001
 30
0.0
 40
0.5
  1
023173
100
AcDbAttributeDefinition
  3

  2
PN
 70
     8
280
     0
  0
ATTDEF
  5
7A
330
6E
100
AcDbEntity
  8
AM_6
100
AcDbText
 10
9.5
 20
1.156750000000001
 30
0.0
 40
0.5
  1
P2B-K-111R
100
AcDbAttributeDefinition
  3

  2
PNA
 70
     8
280
     0
  0
ATTDEF
  5
7B
330
6E
100
AcDbEntity
  8
AM_6
100
AcDbText
 10
9.5
 20
0.6567500000000006
 30
0.0
 40
0.5
  1
14
100
AcDbAttributeDefinition
  3

  2
WEIGHT
 70
     8
280
     0
  0
ATTDEF
  5
7C
330
6E
100
AcDbEntity
  8
AM_6
100
AcDbText
 10
9.5
 20
0.1567500000000006
 30
0.0
 40
0.5
  1
2.83
100
AcDbAttributeDefinition
  3

  2
A
 70
     8
280
     0
  0
ATTDEF
  5
7D
330
6E
100
AcDbEntity
  8
AM_6
100
AcDbText
 10
9.5
 20
-0.3432499999999994
 30
0.0
 40
0.5
  1
9
100
AcDbAttributeDefinition
  3

  2
B
 70
     8
280
     0
  0
ATTDEF
  5
7E
330
6E
100
AcDbEntity
  8
AM_6
100
AcDbText
 10
9.5
 20
-0.8432499999999994
 30
0.0
 40
0.5
  1
2.37
100
AcDbAttributeDefinition
  3

  2
C
 70
     8
280
     0
  0
ATTDEF
  5
7F
330
6E
100
AcDbEntity
  8
AM_6
100
AcDbText
 10
9.5
 20
-1.343249999999999
 30
0.0
 40
0.5
  1
6.88
100
AcDbAttributeDefinition
  3

  2
DMIN
 70
     8
280
     0
  0
ATTDEF
  5
80
330
6E
100
AcDbEntity
  8
AM_6
100
AcDbText
 10
9.5
 20
-1.843249999999999
 30
0.0
 40
0.5
  1
7.63
100
AcDbAttributeDefinition
  3

  2
DMAX
 70
     8
280
     0
  0
ATTDEF
  5
81
330
6E
100
AcDbEntity
  8
AM_6
100
AcDbText
 10
9.5
 20
-2.343249999999999
 30
0.0
 40
0.5
  1
N/A
100
AcDbAttributeDefinition
  3

  2
E
 70
     8
280
     0
  0
ATTDEF
  5
82
330
6E
100
AcDbEntity
  8
AM_6
100
AcDbText
 10
9.5
 20
-2.843249999999999
 30
0.0
 40
0.5
  1
1/2
100
AcDbAttributeDefinition
  3

  2
F
 70
     8
280
     0
  0
ATTDEF
  5
83
330
6E
100
AcDbEntity
  8
AM_6
100
AcDbText
 10
9.5
 20
-3.343249999999999
 30
0.0
 40
0.5
  1
1.00
100
AcDbAttributeDefinition
  3

  2
G
 70
     8
280
     0
  0
ATTDEF
  5
84
330
6E
100
AcDbEntity
  8
AM_6
100
AcDbText
 10
9.5
 20
-3.843249999999999
 30
0.0
 40
0.5
  1
1.38
100
AcDbAttributeDefinition
  3

  2
H
 70
     8
280
     0
  0
ATTDEF
  5
85
330
6E
100
AcDbEntity
  8
AM_6
100
AcDbText
 10
9.5
 20
-4.343249999999999
 30
0.0
 40
0.5
  1
5.75
100
AcDbAttributeDefinition
  3

  2
J
 70
     8
280
     0
  0
ATTDEF
  5
86
330
6E
100
AcDbEntity
  8
AM_6
100
AcDbText
 10
9.5
 20
-4.843249999999999
 30
0.0
 40
0.5
  1
3.19
100
AcDbAttributeDefinition
  3

  2
L
 70
     8
280
     0
  0
ATTDEF
  5
87
330
6E
100
AcDbEntity
  8
AM_6
100
AcDbText
 10
9.5
 20
-5.343249999999999
 30
0.0
 40
0.5
  1
2.63
100
AcDbAttributeDefinition
  3

  2
M
 70
     8
280
     0
  0
ATTDEF
  5
88
330
6E
100
AcDbEntity
  8
AM_6
100
AcDbText
 10
9.5
 20
-5.843249999999999
 30
0.0
 40
0.5
  1
5.81
100
AcDbAttributeDefinition
  3

  2
P
 70
     8
280
     0
  0
ATTDEF
  5
89
330
6E
100
AcDbEntity
  8
AM_6
100
AcDbText
 10
9.5
 20
-6.343249999999999
 30
0.0
 40
0.5
  1
1.56
100
AcDbAttributeDefinition
  3

  2
R
 70
     8
280
     0
  0
ATTDEF
  5
8A
330
6E
100
AcDbEntity
  8
AM_6
100
AcDbText
 10
9.5
 20
-6.843249999999999
 30
0.0
 40
0.5
  1
1.68
100
AcDbAttributeDefinition
  3

  2
S
 70
     8
280
     0
  0
ATTDEF
  5
8B
330
6E
100
AcDbEntity
  8
AM_6
100
AcDbText
 10
9.5
 20
-7.343249999999999
 30
0.0
 40
0.5
  1
.09
100
AcDbAttributeDefinition
  3

  2
T
 70
     8
280
     0
  0
ATTDEF
  5
8C
330
6E
100
AcDbEntity
  8
AM_6
100
AcDbText
 10
9.5
 20
-7.843249999999999
 30
0.0
 40
0.5
  1
33000
100
AcDbAttributeDefinition
  3

  2
CS
 70
     8
280
     0
  0
ATTDEF
  5
8D
330
6E
100
AcDbEntity
  8
AM_6
100
AcDbText
 10
9.5
 20
-8.34325
 30
0.0
 40
0.5
  1
6140
100
AcDbAttributeDefinition
  3

  2
CD
 70
     8
280
     0
  0
ATTDEF
  5
8E
330
6E
100
AcDbEntity
  8
AM_6
100
AcDbText
 10
9.5
 20
-8.84325
 30
0.0
 40
0.5
  1
18
100
AcDbAttributeDefinition
  3

  2
RN
 70
     8
280
     0
  0
ATTDEF
  5
8F
330
6E
100
AcDbEntity
  8
AM_6
100
AcDbText
 10
9.5
 20
-9.34325
 30
0.0
 40
0.5
  1
.35
100
AcDbAttributeDefinition
  3

  2
RM
 70
     8
280
     0
  0
ATTDEF
  5
90
330
6E
100
AcDbEntity
  8
AM_6
100
AcDbText
 10
9.5
 20
-9.84325
 30
0.0
 40
0.5
  1
2.411
100
AcDbAttributeDefinition
  3

  2
PDI
 70
     8
280
     0
  0
ATTDEF
  5
91
330
6E
100
AcDbEntity
  8
AM_6
100
AcDbText
 10
9.5
 20
-10.34325
 30
0.0
 40
0.5
  1
.004-.012
100
AcDbAttributeDefinition
  3

  2
EP
 70
     8
280
     0
  0
ATTDEF
  5
92
330
6E
100
AcDbEntity
  8
AM_6
100
AcDbText
 10
9.5
 20
-10.84325
 30
0.0
 40
0.5
  1
5/16-18*5/8
100
AcDbAttributeDefinition
  3

  2
CSS
 70
     8
280
     0
  0
ATTDEF
  5
93
330
6E
100
AcDbEntity
  8
AM_6
100
AcDbText
 10
9.5
 20
-11.34325
 30
0.0
 40
0.5
  1
165
100
AcDbAttributeDefinition
  3

  2
CST
 70
     8
280
     0
  0
ATTDEF
  5
94
330
6E
100
AcDbEntity
  8
AM_6
100
AcDbText
 10
9.5
 20
-11.84325
 30
0.0
 40
0.5
  1
C.I. ASTM A48 CLASS 30
100
AcDbAttributeDefinition
  3

  2
MH
 70
     8
280
     0
  0
ATTDEF
  5
95
330
6E
100
AcDbEntity
  8
AM_6
100
AcDbText
 10
9.5
 20
-12.34325
 30
0.0
 40
0.5
  1
4118 CASE CARB.
100
AcDbAttributeDefinition
  3

  2
MC
 70
     8
280
     0
  0
ATTDEF
  5
96
330
6E
100
AcDbEntity
  8
AM_6
100
AcDbText
 10
9.5
 20
-12.84325
 30
0.0
 40
0.5
  1
4118 CASE CARB.
100
AcDbAttributeDefinition
  3

  2
MCU
 70
     8
280
     0
  0
ATTDEF
  5
97
330
6E
100
AcDbEntity
  8
AM_6
100
AcDbText
 10
9.5
 20
-13.34325
 30
0.0
 40
0.5
  1
STEEL
100
AcDbAttributeDefinition
  3

  2
MR
 70
     8
280
     0
  0
ATTDEF
  5
98
330
6E
100
AcDbEntity
  8
AM_6
100
AcDbText
 10
9.5
 20
-13.84325
 30
0.0
 40
0.5
  1
4118 CASE CARB.
100
AcDbAttributeDefinition
  3

  2
MRO
 70
     8
280
     0
  0
ATTDEF
  5
99
330
6E
100
AcDbEntity
  8
AM_6
100
AcDbText
 10
9.5
 20
-14.34325
 30
0.0
 40
0.5
  1
2.59*
100
AcDbAttributeDefinition
  3

  2
SM
 70
     8
280
     0
  0
ATTDEF
  5
9A
330
6E
100
AcDbEntity
  8
AM_6
100
AcDbText
 10
9.5
 20
-14.84325
 30
0.0
 40
0.5
  1
baldor
100
AcDbAttributeDefinition
  3

  2
COMPANY
 70
     8
280
     0
  0
INSERT
  5
9C
330
6E
100
AcDbEntity
  8
0
100
AcDbBlockReference
  2
2_1_11_16C_0_in_023173_0
 10
0.0
 20
0.0
 30
0.0
  0
INSERT
  5
CC
330
6E
100
AcDbEntity
  8
0
100
AcDbBlockReference
  2
3_405020c_Inch_0_in_023173_0
 10
0.0
 20
0.0
 30
0.0
  0
INSERT
  5
107
330
6E
100
AcDbEntity
  8
0
100
AcDbBlockReference
  2
4_S1U_K_111R_0_in_023173_0
 10
0.0
 20
0.0
 30
0.0
  0
INSERT
  5
14D
330
6E
100
AcDbEntity
  8
0
100
AcDbBlockReference
  2
5_P2B_K_111R_0_in_023173_0
 10
0.0
 20
0.0
 30
0.0
  0
ENDBLK
  5
71
330
6E
100
AcDbEntity
  8
0
100
AcDbBlockEnd
  0
BLOCK
  5
9D
330
9B
100
AcDbEntity
  8
0
100
AcDbBlockBegin
  2
2_1_11_16C_0_in_023173_0
 70
     2
 10
0.0
 20
0.0
 30
0.0
  3
2_1_11_16C_0_in_023173_0
  1

  0
ATTDEF
  5
9F
330
9B
100
AcDbEntity
  8
AM_6
100
AcDbText
 10
6.59375
 20
1.59375
 30
0.0
 40
0.5
  1
E-Type Collar -Inch
100
AcDbAttributeDefinition
  3

  2
NN
 70
     8
280
     0
  0
ATTDEF
  5
A0
330
9B
100
AcDbEntity
  8
AM_6
100
AcDbText
 10
6.59375
 20
1.09375
 30
0.0
 40
0.5
  1
E-Type Bearings
100
AcDbAttributeDefinition
  3

  2
NT
 70
     8
280
     0
  0
ATTDEF
  5
A1
330
9B
100
AcDbEntity
  8
AM_6
100
AcDbText
 10
6.59375
 20
0.59375
 30
0.0
 40
0.5
  1
1-11/16C
100
AcDbAttributeDefinition
  3

  2
NB
 70
     8
280
     0
  0
ATTDEF
  5
A2
330
9B
100
AcDbEntity
  8
AM_6
100
AcDbText
 10
6.59375
 20
0.09375
 30
0.0
 40
0.5
  1
$BORE.C
100
AcDbAttributeDefinition
  3

  2
NBSYN
 70
     8
280
     0
  0
ATTDEF
  5
A3
330
9B
100
AcDbEntity
  8
AM_6
100
AcDbText
 10
6.59375
 20
-0.40625
 30
0.0
 40
0.5
  1
1-11/16C
100
AcDbAttributeDefinition
  3

  2
LINA
 70
     8
280
     0
  0
ATTDEF
  5
A4
330
9B
100
AcDbEntity
  8
AM_6
100
AcDbText
 10
6.59375
 20
-0.90625
 30
0.0
 40
0.5
  1
1-11/16
100
AcDbAttributeDefinition
  3

  2
BORE
 70
     8
280
     0
  0
ATTDEF
  5
A5
330
9B
100
AcDbEntity
  8
AM_6
100
AcDbText
 10
6.59375
 20
-1.40625
 30
0.0
 40
0.5
  1
3.18750
100
AcDbAttributeDefinition
  3

  2
L
 70
     8
280
     0
  0
ATTDEF
  5
A6
330
9B
100
AcDbEntity
  8
AM_6
100
AcDbText
 10
6.59375
 20
-1.90625
 30
0.0
 40
0.5
  1
3.38
100
AcDbAttributeDefinition
  3

  2
A
 70
     8
280
     0
  0
ATTDEF
  5
A7
330
9B
100
AcDbEntity
  8
AM_6
100
AcDbText
 10
6.59375
 20
-2.40625
 30
0.0
 40
0.5
  1
1.50
100
AcDbAttributeDefinition
  3

  2
B
 70
     8
280
     0
  0
ATTDEF
  5
A8
330
9B
100
AcDbEntity
  8
AM_6
100
AcDbText
 10
6.59375
 20
-2.90625
 30
0.0
 40
0.5
  1
2.06
100
AcDbAttributeDefinition
  3

  2
C
 70
     8
280
     0
  0
ATTDEF
  5
A9
330
9B
100
AcDbEntity
  8
AM_6
100
AcDbText
 10
6.59375
 20
-3.40625
 30
0.0
 40
0.5
  1
3.25
100
AcDbAttributeDefinition
  3

  2
D
 70
     8
280
     0
  0
ATTDEF
  5
AA
330
9B
100
AcDbEntity
  8
AM_6
100
AcDbText
 10
6.59375
 20
-3.90625
 30
0.0
 40
0.5
  1
0.35
100
AcDbAttributeDefinition
  3

  2
E
 70
     8
280
     0
  0
ATTDEF
  5
AB
330
9B
100
AcDbEntity
  8
AM_6
100
AcDbText
 10
6.59375
 20
-4.40625
 30
0.0
 40
0.5
  1
0.28
100
AcDbAttributeDefinition
  3

  2
F
 70
     8
280
     0
  0
ATTDEF
  5
AC
330
9B
100
AcDbEntity
  8
AM_6
100
AcDbText
 10
6.59375
 20
-4.90625
 30
0.0
 40
0.5
  1
5/16-18
100
AcDbAttributeDefinition
  3

  2
CS
 70
     8
280
     0
  0
ATTDEF
  5
AD
330
9B
100
AcDbEntity
  8
AM_6
100
AcDbText
 10
6.59375
 20
-5.40625
 30
0.0
 40
0.5
  1
0.3125
100
AcDbAttributeDefinition
  3

  2
NDM
 70
     8
280
     0
  0
ATTDEF
  5
AE
330
9B
100
AcDbEntity
  8
AM_6
100
AcDbText
 10
6.59375
 20
-5.90625
 30
0.0
 40
0.5
  1
0.2520
100
AcDbAttributeDefinition
  3

  2
KDM
 70
     8
280
     0
  0
ATTDEF
  5
AF
330
9B
100
AcDbEntity
  8
AM_6
100
AcDbText
 10
6.59375
 20
-6.40625
 30
0.0
 40
0.5
  1
baldor
100
AcDbAttributeDefinition
  3

  2
COMPANY
 70
     8
280
     0
  0
LINE
  5
B2
330
9B
100
AcDbEntity
  8
AM_9
100
AcDbLine
 10
0.1262
 20
1.039216666666667
 30
0.0
 11
0.1262
 21
1.5637
 31
0.0
  0
LINE
  5
B3
330
9B
100
AcDbEntity
  8
AM_9
100
AcDbLine
 10
-0.1262
 20
1.5637
 30
0.0
 11
-0.1262
 21
1.039216666666667
 31
0.0
  0
LINE
  5
B4
330
9B
100
AcDbEntity
  8
AM_9
100
AcDbLine
 10
0.9951845820499468
 20
0.3248158985146054
 30
0.0
 11
1.470527911220886
 21
0.5464721331599065
 31
0.0
  0
LINE
  5
B5
330
9B
100
AcDbEntity
  8
AM_9
100
AcDbLine
 10
1.363859061957533
 20
0.7752242186079569
 30
0.0
 11
0.8885157327865942
 21
0.5535679839626557
 31
0.0
  0
LINE
  5
B6
330
9B
100
AcDbEntity
  8
AM_9
100
AcDbLine
 10
-0.1262
 20
1.039216666666667
 30
0.0
 11
0.1262
 21
1.039216666666667
 31
0.0
  0
LINE
  5
B7
330
9B
100
AcDbEntity
  8
AM_9
100
AcDbLine
 10
-0.1262
 20
1.039216666666667
 30
0.0
 11
-0.1447121165572342
 21
1.020704550109433
 31
0.0
  0
LINE
  5
B8
330
9B
100
AcDbEntity
  8
AM_9
100
AcDbLine
 10
0.1451648592749105
 20
1.020251807391756
 30
0.0
 11
0.1262
 21
1.039216666666667
 31
0.0
  0
LINE
  5
B9
330
9B
100
AcDbEntity
  8
AM_9
100
AcDbLine
 10
0.8885157327865941
 20
0.5535679839626558
 30
0.0
 11
0.9951845820499468
 21
0.3248158985146052
 31
0.0
  0
LINE
  5
BA
330
9B
100
AcDbEntity
  8
AM_9
100
AcDbLine
 10
0.8885157327865942
 20
0.5535679839626557
 30
0.0
 11
0.863350538066202
 21
0.5627273657803915
 31
0.0
  0
LINE
  5
BB
330
9B
100
AcDbEntity
  8
AM_9
100
AcDbLine
 10
0.9859752822115682
 20
0.2995135551596728
 30
0.0
 11
0.9951845820499468
 21
0.3248158985146052
 31
0.0
  0
LINE
  5
BC
330
9B
100
AcDbEntity
  8
AM_9
100
AcDbLine
 10
1.363859061957533
 20
0.7752242186079569
 30
0.0
 11
1.470527911220886
 21
0.5464721331599065
 31
0.0
  0
LINE
  5
BD
330
9B
100
AcDbEntity
  8
AM_9
100
AcDbLine
 10
1.470527911220886
 20
0.5464721331599065
 30
0.0
 11
1.499986522224108
 21
0.5357500756119066
 31
0.0
  0
LINE
  5
BE
330
9B
100
AcDbEntity
  8
AM_9
100
AcDbLine
 10
1.375002476459633
 20
0.8058404983280995
 30
0.0
 11
1.363859061957533
 21
0.7752242186079568
 31
0.0
  0
LINE
  5
BF
330
9B
100
AcDbEntity
  8
AM_9
100
AcDbLine
 10
-0.1262
 20
1.5637
 30
0.0
 11
0.1262
 21
1.5637
 31
0.0
  0
LINE
  5
C0
330
9B
100
AcDbEntity
  8
AM_9
100
AcDbLine
 10
0.1262
 20
1.5637
 30
0.0
 11
0.1483779409398714
 21
1.585877940939871
 31
0.0
  0
LINE
  5
C1
330
9B
100
AcDbEntity
  8
AM_9
100
AcDbLine
 10
-0.1482994015448894
 20
1.585799401544889
 30
0.0
 11
-0.1262
 21
1.5637
 31
0.0
  0
LINE
  5
C3
330
9B
100
AcDbEntity
  8
AM_5
100
AcDbLine
 10
-0.15625
 20
1.58607219255619
 30
0.0
 11
-0.15625
 21
1.018079533975612
 31
0.0
  0
LINE
  5
C4
330
9B
100
AcDbEntity
  8
AM_5
100
AcDbLine
 10
0.15625
 20
1.58607219255619
 30
0.0
 11
0.15625
 21
1.018079533975612
 31
0.0
  0
LINE
  5
C5
330
9B
100
AcDbEntity
  8
AM_5
100
AcDbLine
 10
1.503503682312952
 20
0.5286924812888806
 30
0.0
 11
0.9887275128617252
 21
0.2886484112380781
 31
0.0
  0
LINE
  5
C6
330
9B
100
AcDbEntity
  8
AM_5
100
AcDbLine
 10
1.371435475518983
 20
0.8119136647378338
 30
0.0
 11
0.8566593060677565
 21
0.5718695946870312
 31
0.0
  0
CIRCLE
  5
C8
330
9B
100
AcDbEntity
  8
AM_4
100
AcDbCircle
 10
0.0
 20
0.0
 30
0.0
 40
1.03
  0
CIRCLE
  5
C9
330
9B
100
AcDbEntity
  8
AM_4
100
AcDbCircle
 10
0.0
 20
0.0
 30
0.0
 40
1.500416666666667
  0
CIRCLE
  5
CA
330
9B
100
AcDbEntity
  8
AM_4
100
AcDbCircle
 10
0.0
 20
0.0
 30
0.0
 40
1.59375
  0
ENDBLK
  5
9E
330
9B
100
AcDbEntity
  8
0
100
AcDbBlockEnd
  0
BLOCK
  5
CD
330
CB
100
AcDbEntity
  8
0
100
AcDbBlockBegin
  2
3_405020c_Inch_0_in_023173_0
 70
     2
 10
0.0
 20
0.0
 30
0.0
  3
3_405020c_Inch_0_in_023173_0
  1

  0
ATTDEF
  5
CF
330
CB
100
AcDbEntity
  8
AM_6
100
AcDbText
 10
5.14065
 20
2.895
 30
0.0
 40
0.5
  1
405020C -Inch
100
AcDbAttributeDefinition
  3

  2
NN
 70
     8
280
     0
  0
ATTDEF
  5
D0
330
CB
100
AcDbEntity
  8
AM_6
100
AcDbText
 10
5.14065
 20
2.395
 30
0.0
 40
0.5
  1
Grease fitting
100
AcDbAttributeDefinition
  3

  2
NT
 70
     8
280
     0
  0
ATTDEF
  5
D1
330
CB
100
AcDbEntity
  8
AM_6
100
AcDbText
 10
5.14065
 20
1.895
 30
0.0
 40
0.5
  1
405020c-Inch
100
AcDbAttributeDefinition
  3

  2
NB
 70
     8
280
     0
  0
ATTDEF
  5
D2
330
CB
100
AcDbEntity
  8
AM_6
100
AcDbText
 10
5.14065
 20
1.395
 30
0.0
 40
0.5
  1
$MN.-Inch
100
AcDbAttributeDefinition
  3

  2
NBSYN
 70
     8
280
     0
  0
ATTDEF
  5
D3
330
CB
100
AcDbEntity
  8
AM_6
100
AcDbText
 10
5.14065
 20
0.8950000000000005
 30
0.0
 40
0.5
  1
405020c
100
AcDbAttributeDefinition
  3

  2
LINA
 70
     8
280
     0
  0
ATTDEF
  5
D4
330
CB
100
AcDbEntity
  8
AM_6
100
AcDbText
 10
5.14065
 20
0.3950000000000005
 30
0.0
 40
0.5
  1
405020c
100
AcDbAttributeDefinition
  3

  2
MN
 70
     8
280
     0
  0
ATTDEF
  5
D5
330
CB
100
AcDbEntity
  8
AM_6
100
AcDbText
 10
5.14065
 20
-0.1049999999999995
 30
0.0
 40
0.5
  1
0.230
100
AcDbAttributeDefinition
  3

  2
NDR
 70
     8
280
     0
  0
ATTDEF
  5
D6
330
CB
100
AcDbEntity
  8
AM_6
100
AcDbText
 10
5.14065
 20
-0.6049999999999995
 30
0.0
 40
0.5
  1
0.210
100
AcDbAttributeDefinition
  3

  2
KDR
 70
     8
280
     0
  0
ATTDEF
  5
D7
330
CB
100
AcDbEntity
  8
AM_6
100
AcDbText
 10
5.14065
 20
-1.105
 30
0.0
 40
0.5
  1
0.157
100
AcDbAttributeDefinition
  3

  2
BZE
 70
     8
280
     0
  0
ATTDEF
  5
D8
330
CB
100
AcDbEntity
  8
AM_6
100
AcDbText
 10
5.14065
 20
-1.605
 30
0.0
 40
0.5
  1
9/32
100
AcDbAttributeDefinition
  3

  2
WAF
 70
     8
280
     0
  0
ATTDEF
  5
D9
330
CB
100
AcDbEntity
  8
AM_6
100
AcDbText
 10
5.14065
 20
-2.105
 30
0.0
 40
0.5
  1
0.2813
100
AcDbAttributeDefinition
  3

  2
WAF1
 70
     8
280
     0
  0
ATTDEF
  5
DA
330
CB
100
AcDbEntity
  8
AM_6
100
AcDbText
 10
5.14065
 20
-2.605
 30
0.0
 40
0.5
  1
0.545
100
AcDbAttributeDefinition
  3

  2
BL
 70
     8
280
     0
  0
ATTDEF
  5
DB
330
CB
100
AcDbEntity
  8
AM_6
100
AcDbText
 10
5.14065
 20
-3.105
 30
0.0
 40
0.5
  1
0.200
100
AcDbAttributeDefinition
  3

  2
TL
 70
     8
280
     0
  0
ATTDEF
  5
DC
330
CB
100
AcDbEntity
  8
AM_6
100
AcDbText
 10
5.14065
 20
-3.605
 30
0.0
 40
0.5
  1
baldor
100
AcDbAttributeDefinition
  3

  2
COMPANY
 70
     8
280
     0
  0
LINE
  5
DD
330
CB
100
AcDbEntity
  8
AM_9
100
AcDbLine
 10
0.080806429716728
 20
2.895
 30
0.0
 11
-0.080806429716728
 21
2.895
 31
0.0
  0
ARC
  5
DE
330
CB
100
AcDbEntity
  8
AM_9
100
AcDbCircle
 10
-0.0808064297167297
 20
2.870000000000003
 30
0.0
 40
0.0249999999999972
100
AcDbArc
 50
90.0
 51
157.0000000000045
  0
ARC
  5
DF
330
CB
100
AcDbEntity
  8
AM_9
100
AcDbCircle
 10
0.0808064297167297
 20
2.870000000000003
 30
0.0
 40
0.0249999999999974
100
AcDbArc
 50
22.9999999999955
 51
90.0
  0
ARC
  5
E0
330
CB
100
AcDbEntity
  8
AM_9
100
AcDbCircle
 10
-0.1446847896390993
 20
2.683342555146223
 30
0.0
 40
0.0500000000000006
100
AcDbArc
 50
315.0000000000001
 51
24.99999999999955
  0
ARC
  5
E1
330
CB
100
AcDbEntity
  8
AM_9
100
AcDbCircle
 10
0.1446847896390993
 20
2.683342555146223
 30
0.0
 40
0.0500000000000003
100
AcDbArc
 50
155.0000000000005
 51
224.9999999999999
  0
LINE
  5
E2
330
CB
100
AcDbEntity
  8
AM_9
100
AcDbLine
 10
0.1000886227036577
 20
2.350000000000001
 30
0.0
 11
0.1104162595939891
 21
2.360327636890332
 31
0.0
  0
LINE
  5
E3
330
CB
100
AcDbEntity
  8
AM_9
100
AcDbLine
 10
-0.1104162595939891
 20
2.360327636890332
 30
0.0
 11
-0.1000886227036577
 21
2.350000000000001
 31
0.0
  0
LINE
  5
E4
330
CB
100
AcDbEntity
  8
AM_9
100
AcDbLine
 10
0.1000886227036577
 20
2.350000000000001
 30
0.0
 11
-0.1000886227036577
 21
2.350000000000001
 31
0.0
  0
LINE
  5
E5
330
CB
100
AcDbEntity
  8
AM_9
100
AcDbLine
 10
0.1104162595939891
 20
2.360327636890332
 30
0.0
 11
0.1163438171532771
 21
2.55
 31
0.0
  0
LINE
  5
E6
330
CB
100
AcDbEntity
  8
AM_9
100
AcDbLine
 10
-0.1163438171532771
 20
2.55
 30
0.0
 11
-0.1104162595939891
 21
2.360327636890332
 31
0.0
  0
LINE
  5
E7
330
CB
100
AcDbEntity
  8
AM_9
100
AcDbLine
 10
0.1104162595939891
 20
2.360327636890332
 30
0.0
 11
-0.1104162595939891
 21
2.360327636890332
 31
0.0
  0
LINE
  5
E8
330
CB
100
AcDbEntity
  8
AM_9
100
AcDbLine
 10
-0.14065
 20
2.616666666666667
 30
0.0
 11
-0.14065
 21
2.55
 31
0.0
  0
LINE
  5
E9
330
CB
100
AcDbEntity
  8
AM_9
100
AcDbLine
 10
0.14065
 20
2.55
 30
0.0
 11
0.14065
 21
2.616666666666667
 31
0.0
  0
LINE
  5
EA
330
CB
100
AcDbEntity
  8
AM_9
100
AcDbLine
 10
0.0993694002872663
 20
2.704473468233258
 30
0.0
 11
0.1312419113468905
 21
2.77282428877464
 31
0.0
  0
LINE
  5
EB
330
CB
100
AcDbEntity
  8
AM_9
100
AcDbLine
 10
-0.1312419113468905
 20
2.77282428877464
 30
0.0
 11
-0.0993694002872663
 21
2.704473468233258
 31
0.0
  0
LINE
  5
EC
330
CB
100
AcDbEntity
  8
AM_9
100
AcDbLine
 10
0.0993694002872663
 20
2.704473468233258
 30
0.0
 11
-0.0993694002872663
 21
2.704473468233258
 31
0.0
  0
LINE
  5
ED
330
CB
100
AcDbEntity
  8
AM_9
100
AcDbLine
 10
-0.1038190510530391
 20
2.879768278212232
 30
0.0
 11
-0.13195176466768
 21
2.813491758286138
 31
0.0
  0
LINE
  5
EE
330
CB
100
AcDbEntity
  8
AM_9
100
AcDbLine
 10
0.13195176466768
 20
2.813491758286138
 30
0.0
 11
0.1038190510530391
 21
2.879768278212232
 31
0.0
  0
LINE
  5
EF
330
CB
100
AcDbEntity
  8
AM_9
100
AcDbLine
 10
0.1038190510530391
 20
2.879768278212232
 30
0.0
 11
-0.1038190510530391
 21
2.879768278212232
 31
0.0
  0
ARC
  5
F0
330
CB
100
AcDbEntity
  8
AM_9
100
AcDbCircle
 10
-0.0859265219950572
 20
2.793955201861674
 30
0.0
 40
0.050000000000001
100
AcDbArc
 50
156.9999999999997
 51
204.9999999999989
  0
ARC
  5
F1
330
CB
100
AcDbEntity
  8
AM_9
100
AcDbCircle
 10
0.0859265219950572
 20
2.793955201861674
 30
0.0
 40
0.0500000000000004
100
AcDbArc
 50
335.000000000001
 51
23.00000000000027
  0
LINE
  5
F2
330
CB
100
AcDbEntity
  8
AM_9
100
AcDbLine
 10
0.13195176466768
 20
2.813491758286138
 30
0.0
 11
-0.13195176466768
 21
2.813491758286138
 31
0.0
  0
LINE
  5
F3
330
CB
100
AcDbEntity
  8
AM_9
100
AcDbLine
 10
0.1312419113468905
 20
2.77282428877464
 30
0.0
 11
-0.1312419113468905
 21
2.77282428877464
 31
0.0
  0
LINE
  5
F4
330
CB
100
AcDbEntity
  8
AM_9
100
AcDbLine
 10
0.14065
 20
2.616666666666667
 30
0.0
 11
-0.14065
 21
2.616666666666667
 31
0.0
  0
LINE
  5
F5
330
CB
100
AcDbEntity
  8
AM_9
100
AcDbLine
 10
-0.1093294505797714
 20
2.647987216086896
 30
0.0
 11
-0.14065
 21
2.616666666666667
 31
0.0
  0
LINE
  5
F6
330
CB
100
AcDbEntity
  8
AM_9
100
AcDbLine
 10
0.14065
 20
2.616666666666667
 30
0.0
 11
0.1093294505797714
 21
2.647987216086896
 31
0.0
  0
LINE
  5
F7
330
CB
100
AcDbEntity
  8
AM_9
100
AcDbLine
 10
0.1093294505797714
 20
2.647987216086896
 30
0.0
 11
-0.1093294505797714
 21
2.647987216086896
 31
0.0
  0
LWPOLYLINE
  5
F8
330
CB
100
AcDbEntity
  8
AM_9
100
AcDbPolyline
 90
        3
 70
     0
 43
0.0
 10
0.14065
 20
2.555830207530646
 10
0.1056456000683011
 20
2.551552470556179
 10
0.0703249999999999
 20
2.55
  0
LWPOLYLINE
  5
F9
330
CB
100
AcDbEntity
  8
AM_9
100
AcDbPolyline
 90
        3
 70
     0
 43
0.0
 10
0.070325
 20
2.616666666666667
 10
0.1054875
 20
2.615127791204198
 10
0.14065
 20
2.610836459136021
  0
LWPOLYLINE
  5
FA
330
CB
100
AcDbEntity
  8
AM_9
100
AcDbPolyline
 90
        3
 70
     0
 43
0.0
 10
0.0
 20
2.610836459136021
 10
0.0350043999316989
 20
2.615114196110488
 10
0.070325
 20
2.616666666666667
  0
LWPOLYLINE
  5
FB
330
CB
100
AcDbEntity
  8
AM_9
100
AcDbPolyline
 90
        3
 70
     0
 43
0.0
 10
-0.0703250000000001
 20
2.55
 10
-0.1054875
 20
2.551538875462469
 10
-0.14065
 20
2.555830207530646
  0
LINE
  5
FC
330
CB
100
AcDbEntity
  8
AM_9
100
AcDbLine
 10
0.0
 20
2.610836459136021
 30
0.0
 11
0.0
 21
2.555830207530646
 31
0.0
  0
LWPOLYLINE
  5
FD
330
CB
100
AcDbEntity
  8
AM_9
100
AcDbPolyline
 90
        3
 70
     0
 43
0.0
 10
-0.070325
 20
2.616666666666667
 10
-0.0351625
 20
2.615127791204198
 10
0.0
 20
2.610836459136021
  0
LWPOLYLINE
  5
FE
330
CB
100
AcDbEntity
  8
AM_9
100
AcDbPolyline
 90
        3
 70
     0
 43
0.0
 10
-0.14065
 20
2.610836459136021
 10
-0.1056456000683011
 20
2.615114196110488
 10
-0.070325
 20
2.616666666666667
  0
LWPOLYLINE
  5
FF
330
CB
100
AcDbEntity
  8
AM_9
100
AcDbPolyline
 90
        3
 70
     0
 43
0.0
 10
0.0703249999999999
 20
2.55
 10
0.0351625
 20
2.551538875462469
 10
0.0
 20
2.555830207530646
  0
LWPOLYLINE
  5
100
330
CB
100
AcDbEntity
  8
AM_9
100
AcDbPolyline
 90
        3
 70
     0
 43
0.0
 10
0.0
 20
2.555830207530646
 10
-0.035004399931699
 20
2.551552470556179
 10
-0.0703250000000001
 20
2.55
  0
LINE
  5
101
330
CB
100
AcDbEntity
  8
AM_5
100
AcDbLine
 10
0.1057663861878746
 20
2.531679352154371
 30
0.0
 11
0.1000886227036577
 21
2.350000000000001
 31
0.0
  0
LINE
  5
102
330
CB
100
AcDbEntity
  8
AM_5
100
AcDbLine
 10
0.1163438171532771
 20
2.55
 30
0.0
 11
0.1057663861878746
 21
2.531679352154371
 31
0.0
  0
LINE
  5
103
330
CB
100
AcDbEntity
  8
AM_5
100
AcDbLine
 10
-0.11577126829667
 20
2.531679352154371
 30
0.0
 11
0.1157712682966701
 21
2.531679352154371
 31
0.0
  0
LINE
  5
104
330
CB
100
AcDbEntity
  8
AM_5
100
AcDbLine
 10
-0.1057663861878746
 20
2.531679352154371
 30
0.0
 11
-0.1000886227036577
 21
2.350000000000001
 31
0.0
  0
LINE
  5
105
330
CB
100
AcDbEntity
  8
AM_5
100
AcDbLine
 10
-0.1163438171532771
 20
2.55
 30
0.0
 11
-0.1057663861878746
 21
2.531679352154371
 31
0.0
  0
ENDBLK
  5
CE
330
CB
100
AcDbEntity
  8
0
100
AcDbBlockEnd
  0
BLOCK
  5
108
330
106
100
AcDbEntity
  8
0
100
AcDbBlockBegin
  2
4_S1U_K_111R_0_in_023173_0
 70
     2
 10
0.0
 20
0.0
 30
0.0
  3
4_S1U_K_111R_0_in_023173_0
  1

  0
ATTDEF
  5
10A
330
106
100
AcDbEntity
  8
AM_6
100
AcDbText
 10
7.061720838173708
 20
2.55
 30
0.0
 40
0.5
  1
Type K Units - Inch
100
AcDbAttributeDefinition
  3

  2
NN
 70
     8
280
     0
  0
ATTDEF
  5
10B
330
106
100
AcDbEntity
  8
AM_6
100
AcDbText
 10
7.061720838173708
 20
2.05
 30
0.0
 40
0.5
  1
Type K
100
AcDbAttributeDefinition
  3

  2
NT
 70
     8
280
     0
  0
ATTDEF
  5
10C
330
106
100
AcDbEntity
  8
AM_6
100
AcDbText
 10
7.061720838173708
 20
1.55
 30
0.0
 40
0.5
  1
S1U-K-111R
100
AcDbAttributeDefinition
  3

  2
NB
 70
     8
280
     0
  0
ATTDEF
  5
10D
330
106
100
AcDbEntity
  8
AM_6
100
AcDbText
 10
7.061720838173708
 20
1.05
 30
0.0
 40
0.5
  1
$PN.
100
AcDbAttributeDefinition
  3

  2
NBSYN
 70
     8
280
     0
  0
ATTDEF
  5
10E
330
106
100
AcDbEntity
  8
AM_6
100
AcDbText
 10
7.061720838173708
 20
0.5500000000000003
 30
0.0
 40
0.5
  1
S1U-K-111R
100
AcDbAttributeDefinition
  3

  2
LINA
 70
     8
280
     0
  0
ATTDEF
  5
10F
330
106
100
AcDbEntity
  8
AM_6
100
AcDbText
 10
7.061720838173708
 20
0.0500000000000003
 30
0.0
 40
0.5
  1
1-11/16
100
AcDbAttributeDefinition
  3

  2
SS
 70
     8
280
     0
  0
ATTDEF
  5
110
330
106
100
AcDbEntity
  8
AM_6
100
AcDbText
 10
7.061720838173708
 20
-0.4499999999999997
 30
0.0
 40
0.5
  1
1.687500
100
AcDbAttributeDefinition
  3

  2
SS1
 70
     8
280
     0
  0
ATTDEF
  5
111
330
106
100
AcDbEntity
  8
AM_6
100
AcDbText
 10
7.061720838173708
 20
-0.9499999999999997
 30
0.0
 40
0.5
  1
S1U-K-111R
100
AcDbAttributeDefinition
  3

  2
PN
 70
     8
280
     0
  0
ATTDEF
  5
112
330
106
100
AcDbEntity
  8
AM_6
100
AcDbText
 10
7.061720838173708
 20
-1.45
 30
0.0
 40
0.5
  1
S1U-K-111R
100
AcDbAttributeDefinition
  3

  2
PNA
 70
     8
280
     0
  0
ATTDEF
  5
113
330
106
100
AcDbEntity
  8
AM_6
100
AcDbText
 10
7.061720838173708
 20
-1.95
 30
0.0
 40
0.5
  1
5
100
AcDbAttributeDefinition
  3

  2
WEIGHT
 70
     8
280
     0
  0
ATTDEF
  5
114
330
106
100
AcDbEntity
  8
AM_6
100
AcDbText
 10
7.061720838173708
 20
-2.45
 30
0.0
 40
0.5
  1
2-27/32
100
AcDbAttributeDefinition
  3

  2
A
 70
     8
280
     0
  0
ATTDEF
  5
115
330
106
100
AcDbEntity
  8
AM_6
100
AcDbText
 10
7.061720838173708
 20
-2.95
 30
0.0
 40
0.5
  1
2.843750
100
AcDbAttributeDefinition
  3

  2
A1
 70
     8
280
     0
  0
ATTDEF
  5
116
330
106
100
AcDbEntity
  8
AM_6
100
AcDbText
 10
7.061720838173708
 20
-3.45
 30
0.0
 40
0.5
  1
2-5/16
100
AcDbAttributeDefinition
  3

  2
B
 70
     8
280
     0
  0
ATTDEF
  5
117
330
106
100
AcDbEntity
  8
AM_6
100
AcDbText
 10
7.061720838173708
 20
-3.95
 30
0.0
 40
0.5
  1
2.312500
100
AcDbAttributeDefinition
  3

  2
B1
 70
     8
280
     0
  0
ATTDEF
  5
118
330
106
100
AcDbEntity
  8
AM_6
100
AcDbText
 10
7.061720838173708
 20
-4.449999999999999
 30
0.0
 40
0.5
  1
1-3/16
100
AcDbAttributeDefinition
  3

  2
C
 70
     8
280
     0
  0
ATTDEF
  5
119
330
106
100
AcDbEntity
  8
AM_6
100
AcDbText
 10
7.061720838173708
 20
-4.949999999999999
 30
0.0
 40
0.5
  1
1.187500
100
AcDbAttributeDefinition
  3

  2
C1
 70
     8
280
     0
  0
ATTDEF
  5
11A
330
106
100
AcDbEntity
  8
AM_6
100
AcDbText
 10
7.061720838173708
 20
-5.449999999999999
 30
0.0
 40
0.5
  1
3-15/16
100
AcDbAttributeDefinition
  3

  2
D
 70
     8
280
     0
  0
ATTDEF
  5
11B
330
106
100
AcDbEntity
  8
AM_6
100
AcDbText
 10
7.061720838173708
 20
-5.949999999999999
 30
0.0
 40
0.5
  1
3.937500
100
AcDbAttributeDefinition
  3

  2
D1
 70
     8
280
     0
  0
ATTDEF
  5
11C
330
106
100
AcDbEntity
  8
AM_6
100
AcDbText
 10
7.061720838173708
 20
-6.449999999999999
 30
0.0
 40
0.5
  1
0.450
100
AcDbAttributeDefinition
  3

  2
E
 70
     8
280
     0
  0
ATTDEF
  5
11D
330
106
100
AcDbEntity
  8
AM_6
100
AcDbText
 10
7.061720838173708
 20
-6.949999999999999
 30
0.0
 40
0.5
  1
3.750
100
AcDbAttributeDefinition
  3

  2
EM
 70
     8
280
     0
  0
ATTDEF
  5
11E
330
106
100
AcDbEntity
  8
AM_6
100
AcDbText
 10
7.061720838173708
 20
-7.449999999999999
 30
0.0
 40
0.5
  1
3.820
100
AcDbAttributeDefinition
  3

  2
EC
 70
     8
280
     0
  0
ATTDEF
  5
11F
330
106
100
AcDbEntity
  8
AM_6
100
AcDbText
 10
7.061720838173708
 20
-7.949999999999999
 30
0.0
 40
0.5
  1
11/16
100
AcDbAttributeDefinition
  3

  2
H
 70
     8
280
     0
  0
ATTDEF
  5
120
330
106
100
AcDbEntity
  8
AM_6
100
AcDbText
 10
7.061720838173708
 20
-8.45
 30
0.0
 40
0.5
  1
0.687500
100
AcDbAttributeDefinition
  3

  2
H1
 70
     8
280
     0
  0
ATTDEF
  5
121
330
106
100
AcDbEntity
  8
AM_6
100
AcDbText
 10
7.061720838173708
 20
-8.95
 30
0.0
 40
0.5
  1
2-7/8
100
AcDbAttributeDefinition
  3

  2
J
 70
     8
280
     0
  0
ATTDEF
  5
122
330
106
100
AcDbEntity
  8
AM_6
100
AcDbText
 10
7.061720838173708
 20
-9.45
 30
0.0
 40
0.5
  1
2.875000
100
AcDbAttributeDefinition
  3

  2
J1
 70
     8
280
     0
  0
ATTDEF
  5
123
330
106
100
AcDbEntity
  8
AM_6
100
AcDbText
 10
7.061720838173708
 20
-9.95
 30
0.0
 40
0.5
  1
4.125
100
AcDbAttributeDefinition
  3

  2
K
 70
     8
280
     0
  0
ATTDEF
  5
124
330
106
100
AcDbEntity
  8
AM_6
100
AcDbText
 10
7.061720838173708
 20
-10.45
 30
0.0
 40
0.5
  1
3-3/16
100
AcDbAttributeDefinition
  3

  2
L
 70
     8
280
     0
  0
ATTDEF
  5
125
330
106
100
AcDbEntity
  8
AM_6
100
AcDbText
 10
7.061720838173708
 20
-10.95
 30
0.0
 40
0.5
  1
3.187500
100
AcDbAttributeDefinition
  3

  2
L1
 70
     8
280
     0
  0
ATTDEF
  5
126
330
106
100
AcDbEntity
  8
AM_6
100
AcDbText
 10
7.061720838173708
 20
-11.45
 30
0.0
 40
0.5
  1
2-13/16
100
AcDbAttributeDefinition
  3

  2
M
 70
     8
280
     0
  0
ATTDEF
  5
127
330
106
100
AcDbEntity
  8
AM_6
100
AcDbText
 10
7.061720838173708
 20
-11.95
 30
0.0
 40
0.5
  1
2.812500
100
AcDbAttributeDefinition
  3

  2
M1
 70
     8
280
     0
  0
ATTDEF
  5
128
330
106
100
AcDbEntity
  8
AM_6
100
AcDbText
 10
7.061720838173708
 20
-12.45
 30
0.0
 40
0.5
  1
1-5/32
100
AcDbAttributeDefinition
  3

  2
R
 70
     8
280
     0
  0
ATTDEF
  5
129
330
106
100
AcDbEntity
  8
AM_6
100
AcDbText
 10
7.061720838173708
 20
-12.95
 30
0.0
 40
0.5
  1
1.156250
100
AcDbAttributeDefinition
  3

  2
R1
 70
     8
280
     0
  0
ATTDEF
  5
12A
330
106
100
AcDbEntity
  8
AM_6
100
AcDbText
 10
7.061720838173708
 20
-13.45
 30
0.0
 40
0.5
  1
1-11/16
100
AcDbAttributeDefinition
  3

  2
S
 70
     8
280
     0
  0
ATTDEF
  5
12B
330
106
100
AcDbEntity
  8
AM_6
100
AcDbText
 10
7.061720838173708
 20
-13.95
 30
0.0
 40
0.5
  1
1.687500
100
AcDbAttributeDefinition
  3

  2
S1
 70
     8
280
     0
  0
ATTDEF
  5
12C
330
106
100
AcDbEntity
  8
AM_6
100
AcDbText
 10
7.061720838173708
 20
-14.45
 30
0.0
 40
0.5
  1
2.0600
100
AcDbAttributeDefinition
  3

  2
CC
 70
     8
280
     0
  0
ATTDEF
  5
12D
330
106
100
AcDbEntity
  8
AM_6
100
AcDbText
 10
7.061720838173708
 20
-14.95
 30
0.0
 40
0.5
  1
baldor
100
AcDbAttributeDefinition
  3

  2
COMPANY
 70
     8
280
     0
  0
CIRCLE
  5
12E
330
106
100
AcDbEntity
  8
AM_9
100
AcDbCircle
 10
-0.0000000000000001
 20
-0.0000000000000001
 30
0.0
 40
1.692472675160349
  0
CIRCLE
  5
12F
330
106
100
AcDbEntity
  8
AM_9
100
AcDbCircle
 10
0.0
 20
0.0
 30
0.0
 40
1.862604166666666
  0
CIRCLE
  5
130
330
106
100
AcDbEntity
  8
AM_9
100
AcDbCircle
 10
0.0
 20
-0.0000000000000001
 30
0.0
 40
1.328125
  0
CIRCLE
  5
131
330
106
100
AcDbEntity
  8
AM_9
100
AcDbCircle
 10
0.0
 20
0.0
 30
0.0
 40
1.91
  0
LINE
  5
132
330
106
100
AcDbEntity
  8
AM_9
100
AcDbLine
 10
0.305316369154144
 20
2.55
 30
0.0
 11
-0.305316369154144
 21
2.55
 31
0.0
  0
ARC
  5
133
330
106
100
AcDbEntity
  8
AM_9
100
AcDbCircle
 10
-0.3053163691541426
 20
2.504999999999999
 30
0.0
 40
0.0450000000000017
100
AcDbArc
 50
90.0
 51
170.9999999999983
  0
ARC
  5
134
330
106
100
AcDbEntity
  8
AM_9
100
AcDbCircle
 10
0.3053163691541426
 20
2.504999999999999
 30
0.0
 40
0.0450000000000014
100
AcDbArc
 50
9.000000000001734
 51
90.0
  0
LINE
  5
135
330
106
100
AcDbEntity
  8
AM_9
100
AcDbLine
 10
-0.349762344480925
 20
2.512039550926811
 30
0.0
 11
-0.4309246024982897
 21
1.999601221435228
 31
0.0
  0
LINE
  5
136
330
106
100
AcDbEntity
  8
AM_9
100
AcDbLine
 10
0.430925839252514
 20
1.999593412876371
 30
0.0
 11
0.349762344480925
 21
2.512039550926811
 31
0.0
  0
LWPOLYLINE
  5
137
330
106
100
AcDbEntity
  8
AM_9
100
AcDbPolyline
 90
        6
 70
     0
 43
0.0
 10
0.4309557392524855
 20
1.999404630092555
 10
0.4269145931829612
 20
2.006306734927031
 10
0.410313981373171
 20
2.01622075109537
 10
0.3824394492524192
 20
2.025306097531349
 10
0.3424386669871122
 20
2.033831708909062
 10
0.3314232939708023
 20
2.035697491103291
  0
LWPOLYLINE
  5
138
330
106
100
AcDbEntity
  8
AM_9
100
AcDbPolyline
 90
        7
 70
     0
 43
0.0
 10
-0.4309556339321728
 20
1.999405295939761
 10
-0.4308237659515459
 20
1.996156390589217
 10
-0.422017322243636
 20
1.985979571460207
 10
-0.4013912381529072
 20
1.976344416726027
 10
-0.36832536861118
 20
1.967015289746409
 10
-0.3420265579006446
 20
1.961627688512684
 10
-0.3113224837144317
 20
1.956594119398047
  0
LINE
  5
139
330
106
100
AcDbEntity
  8
AM_9
100
AcDbLine
 10
0.349762344480925
 20
2.512039550926811
 30
0.0
 11
-0.349762344480925
 21
2.512039550926811
 31
0.0
  0
LWPOLYLINE
  5
13A
330
106
100
AcDbEntity
  8
AM_9
100
AcDbPolyline
 90
       16
 70
     0
 43
0.0
 10
-0.3113224837144317
 20
1.956594119398047
 10
-0.257980570734344
 20
1.949935787724253
 10
-0.195652022885771
 20
1.944448823233252
 10
-0.1295201336924661
 20
1.940611197280737
 10
-0.0576670588754078
 20
1.938330465936901
 10
0.0132976938955197
 20
1.937808408414912
 10
0.0859332776561841
 20
1.939009934056241
 10
0.1539146362654989
 20
1.941817858115738
 10
0.2194329399077697
 20
1.94630110042443
 10
0.277278916226848
 20
1.952096306385056
 10
0.32885938513834
 20
1.959333114538853
 10
0.370297911600614
 20
1.967474147076519
 10
0.4023026329153628
 20
1.976671557100272
 10
0.4224215630477214
 20
1.986252004852575
 10
0.4308764984869405
 20
1.996390981321476
 10
0.4309557392524855
 20
1.999404630092555
  0
ARC
  5
13B
330
106
100
AcDbEntity
  8
AM_9
100
AcDbCircle
 10
-0.0000000000000001
 20
0.0000000000000039
 30
0.0
 40
2.062499999999996
100
AcDbArc
 50
99.21952106735701
 51
80.77659547322523
  0
LWPOLYLINE
  5
13C
330
106
100
AcDbEntity
  8
AM_9
100
AcDbPolyline
 90
       12
 70
     0
 43
0.0
 10
0.3314232939708023
 20
2.035697491103291
 10
0.2939835079258181
 20
2.041040701784183
 10
0.2354054607321287
 20
2.047204384094941
 10
0.1722937693822109
 20
2.051765742442329
 10
0.1022706680548454
 20
2.054926257994945
 10
0.0319129411828759
 20
2.056412898014302
 10
-0.0414151913407367
 20
2.056304532550063
 10
-0.1112144711733979
 20
2.054620622819113
 10
-0.1798230327879617
 20
2.051314547458717
 10
-0.2416106263551833
 20
2.046651052650185
 10
-0.2982566087671781
 20
2.040496693594968
 10
-0.331385349686703
 20
2.035703650775486
  0
LWPOLYLINE
  5
13D
330
106
100
AcDbEntity
  8
AM_9
100
AcDbPolyline
 90
        6
 70
     0
 43
0.0
 10
-0.331385349686703
 20
2.035703650775486
 10
-0.3453953564495153
 20
2.033302757319227
 10
-0.383995669368676
 20
2.024895831685588
 10
-0.4111207362240042
 20
2.015875281221938
 10
-0.4271690485109058
 20
2.006052861225897
 10
-0.4309556339321728
 20
1.999405295939761
  0
LINE
  5
13E
330
106
100
AcDbEntity
  8
AM_9
100
AcDbLine
 10
0.8159821133858641
 20
0.6287587401558893
 30
0.0
 11
0.6420311402856269
 21
0.5476440692557346
 31
0.0
  0
LINE
  5
13F
330
106
100
AcDbEntity
  8
AM_9
100
AcDbLine
 10
0.8320957161538403
 20
0.1397525729939431
 30
0.0
 11
1.006041152738113
 21
0.2208646621743041
 31
0.0
  0
LINE
  5
140
330
106
100
AcDbEntity
  8
AM_9
100
AcDbLine
 10
-0.225
 20
1.005217533074226
 30
0.0
 11
-0.225
 21
0.8134152765840303
 31
0.0
  0
LINE
  5
141
330
106
100
AcDbEntity
  8
AM_9
100
AcDbLine
 10
0.225
 20
0.8133643927726951
 30
0.0
 11
0.225
 21
1.005297032916571
 31
0.0
  0
CIRCLE
  5
142
330
106
100
AcDbEntity
  8
AM_9
100
AcDbCircle
 10
-0.0000000000000002
 20
-0.0000000000000002
 30
0.0
 40
2.036231871466263
  0
LINE
  5
145
330
106
100
AcDbEntity
  8
AM_7
100
AcDbLine
 10
-0.072221401779483
 20
-0.033677392732462
 30
0.0
 11
1.516649437369144
 21
0.7072252473817017
 31
0.0
  0
CIRCLE
  5
146
330
106
100
AcDbEntity
  8
AM_4
100
AcDbCircle
 10
0.0
 20
0.0
 30
0.0
 40
1.634615384615385
  0
CIRCLE
  5
147
330
106
100
AcDbEntity
  8
AM_4
100
AcDbCircle
 10
0.0
 20
0.0
 30
0.0
 40
1.645635820909664
  0
CIRCLE
  5
148
330
106
100
AcDbEntity
  8
AM_4
100
AcDbCircle
 10
0.0
 20
0.0
 30
0.0
 40
1.827604166666666
  0
CIRCLE
  5
149
330
106
100
AcDbEntity
  8
AM_4
100
AcDbCircle
 10
0.0
 20
0.0
 30
0.0
 40
0.84375
  0
CIRCLE
  5
14A
330
106
100
AcDbEntity
  8
AM_4
100
AcDbCircle
 10
0.0
 20
0.0
 30
0.0
 40
1.03
  0
CIRCLE
  5
14B
330
106
100
AcDbEntity
  8
AM_4
100
AcDbCircle
 10
-0.0000000000000001
 20
-0.0000000000000001
 30
0.0
 40
1.875
  0
ENDBLK
  5
109
330
106
100
AcDbEntity
  8
0
100
AcDbBlockEnd
  0
BLOCK
  5
14E
330
14C
100
AcDbEntity
  8
0
100
AcDbBlockBegin
  2
5_P2B_K_111R_0_in_023173_0
 70
     2
 10
0.0
 20
0.0
 30
0.0
  3
5_P2B_K_111R_0_in_023173_0
  1

  0
ATTDEF
  5
150
330
14C
100
AcDbEntity
  8
AM_6
100
AcDbText
 10
9.5
 20
4.656750000000001
 30
0.0
 40
0.5
  1
2 & 4 Bolt Base - Body - Inch
100
AcDbAttributeDefinition
  3

  2
NN
 70
     8
280
     0
  0
ATTDEF
  5
151
330
14C
100
AcDbEntity
  8
AM_6
100
AcDbText
 10
9.5
 20
4.156750000000001
 30
0.0
 40
0.5
  1
Type K
100
AcDbAttributeDefinition
  3

  2
NT
 70
     8
280
     0
  0
ATTDEF
  5
152
330
14C
100
AcDbEntity
  8
AM_6
100
AcDbText
 10
9.5
 20
3.656750000000001
 30
0.0
 40
0.5
  1
P2B-K-111R
100
AcDbAttributeDefinition
  3

  2
NB
 70
     8
280
     0
  0
ATTDEF
  5
153
330
14C
100
AcDbEntity
  8
AM_6
100
AcDbText
 10
9.5
 20
3.156750000000001
 30
0.0
 40
0.5
  1
$PN.
100
AcDbAttributeDefinition
  3

  2
NBSYN
 70
     8
280
     0
  0
ATTDEF
  5
154
330
14C
100
AcDbEntity
  8
AM_6
100
AcDbText
 10
9.5
 20
2.656750000000001
 30
0.0
 40
0.5
  1
P2B-K-111R
100
AcDbAttributeDefinition
  3

  2
LINA
 70
     8
280
     0
  0
ATTDEF
  5
155
330
14C
100
AcDbEntity
  8
AM_6
100
AcDbText
 10
9.5
 20
2.156750000000001
 30
0.0
 40
0.5
  1
1-11/16
100
AcDbAttributeDefinition
  3

  2
SS
 70
     8
280
     0
  0
ATTDEF
  5
156
330
14C
100
AcDbEntity
  8
AM_6
100
AcDbText
 10
9.5
 20
1.656750000000001
 30
0.0
 40
0.5
  1
1.687500
100
AcDbAttributeDefinition
  3

  2
SS1
 70
     8
280
     0
  0
ATTDEF
  5
157
330
14C
100
AcDbEntity
  8
AM_6
100
AcDbText
 10
9.5
 20
1.156750000000001
 30
0.0
 40
0.5
  1
3.937500
100
AcDbAttributeDefinition
  3

  2
BORE
 70
     8
280
     0
  0
ATTDEF
  5
158
330
14C
100
AcDbEntity
  8
AM_6
100
AcDbText
 10
9.5
 20
0.6567500000000006
 30
0.0
 40
0.5
  1
P2B-K-111R
100
AcDbAttributeDefinition
  3

  2
PN
 70
     8
280
     0
  0
ATTDEF
  5
159
330
14C
100
AcDbEntity
  8
AM_6
100
AcDbText
 10
9.5
 20
0.1567500000000006
 30
0.0
 40
0.5
  1
P2B-K-111R
100
AcDbAttributeDefinition
  3

  2
PNA
 70
     8
280
     0
  0
ATTDEF
  5
15A
330
14C
100
AcDbEntity
  8
AM_6
100
AcDbText
 10
9.5
 20
-0.3432499999999994
 30
0.0
 40
0.5
  1
14
100
AcDbAttributeDefinition
  3

  2
WEIGHT
 70
     8
280
     0
  0
ATTDEF
  5
15B
330
14C
100
AcDbEntity
  8
AM_6
100
AcDbText
 10
9.5
 20
-0.8432499999999994
 30
0.0
 40
0.5
  1
2.83
100
AcDbAttributeDefinition
  3

  2
A
 70
     8
280
     0
  0
ATTDEF
  5
15C
330
14C
100
AcDbEntity
  8
AM_6
100
AcDbText
 10
9.5
 20
-1.343249999999999
 30
0.0
 40
0.5
  1
2.830000
100
AcDbAttributeDefinition
  3

  2
A1
 70
     8
280
     0
  0
ATTDEF
  5
15D
330
14C
100
AcDbEntity
  8
AM_6
100
AcDbText
 10
9.5
 20
-1.843249999999999
 30
0.0
 40
0.5
  1
9
100
AcDbAttributeDefinition
  3

  2
B
 70
     8
280
     0
  0
ATTDEF
  5
15E
330
14C
100
AcDbEntity
  8
AM_6
100
AcDbText
 10
9.5
 20
-2.343249999999999
 30
0.0
 40
0.5
  1
9.000000
100
AcDbAttributeDefinition
  3

  2
B1
 70
     8
280
     0
  0
ATTDEF
  5
15F
330
14C
100
AcDbEntity
  8
AM_6
100
AcDbText
 10
9.5
 20
-2.843249999999999
 30
0.0
 40
0.5
  1
2.37
100
AcDbAttributeDefinition
  3

  2
C
 70
     8
280
     0
  0
ATTDEF
  5
160
330
14C
100
AcDbEntity
  8
AM_6
100
AcDbText
 10
9.5
 20
-3.343249999999999
 30
0.0
 40
0.5
  1
2.370000
100
AcDbAttributeDefinition
  3

  2
C1
 70
     8
280
     0
  0
ATTDEF
  5
161
330
14C
100
AcDbEntity
  8
AM_6
100
AcDbText
 10
9.5
 20
-3.843249999999999
 30
0.0
 40
0.5
  1
6.88
100
AcDbAttributeDefinition
  3

  2
DMIN
 70
     8
280
     0
  0
ATTDEF
  5
162
330
14C
100
AcDbEntity
  8
AM_6
100
AcDbText
 10
9.5
 20
-4.343249999999999
 30
0.0
 40
0.5
  1
6.880000
100
AcDbAttributeDefinition
  3

  2
DMIN1
 70
     8
280
     0
  0
ATTDEF
  5
163
330
14C
100
AcDbEntity
  8
AM_6
100
AcDbText
 10
9.5
 20
-4.843249999999999
 30
0.0
 40
0.5
  1
7.63
100
AcDbAttributeDefinition
  3

  2
DMAX
 70
     8
280
     0
  0
ATTDEF
  5
164
330
14C
100
AcDbEntity
  8
AM_6
100
AcDbText
 10
9.5
 20
-5.343249999999999
 30
0.0
 40
0.5
  1
7.630000
100
AcDbAttributeDefinition
  3

  2
DMAX1
 70
     8
280
     0
  0
ATTDEF
  5
165
330
14C
100
AcDbEntity
  8
AM_6
100
AcDbText
 10
9.5
 20
-5.843249999999999
 30
0.0
 40
0.5
  1
1/2
100
AcDbAttributeDefinition
  3

  2
F
 70
     8
280
     0
  0
ATTDEF
  5
166
330
14C
100
AcDbEntity
  8
AM_6
100
AcDbText
 10
9.5
 20
-6.343249999999999
 30
0.0
 40
0.5
  1
0.500000
100
AcDbAttributeDefinition
  3

  2
F1
 70
     8
280
     0
  0
ATTDEF
  5
167
330
14C
100
AcDbEntity
  8
AM_6
100
AcDbText
 10
9.5
 20
-6.843249999999999
 30
0.0
 40
0.5
  1
1
100
AcDbAttributeDefinition
  3

  2
G
 70
     8
280
     0
  0
ATTDEF
  5
168
330
14C
100
AcDbEntity
  8
AM_6
100
AcDbText
 10
9.5
 20
-7.343249999999999
 30
0.0
 40
0.5
  1
1.000000
100
AcDbAttributeDefinition
  3

  2
G1
 70
     8
280
     0
  0
ATTDEF
  5
169
330
14C
100
AcDbEntity
  8
AM_6
100
AcDbText
 10
9.5
 20
-7.843249999999999
 30
0.0
 40
0.5
  1
1.38
100
AcDbAttributeDefinition
  3

  2
H
 70
     8
280
     0
  0
ATTDEF
  5
16A
330
14C
100
AcDbEntity
  8
AM_6
100
AcDbText
 10
9.5
 20
-8.34325
 30
0.0
 40
0.5
  1
1.380000
100
AcDbAttributeDefinition
  3

  2
H1
 70
     8
280
     0
  0
ATTDEF
  5
16B
330
14C
100
AcDbEntity
  8
AM_6
100
AcDbText
 10
9.5
 20
-8.84325
 30
0.0
 40
0.5
  1
5.75
100
AcDbAttributeDefinition
  3

  2
J
 70
     8
280
     0
  0
ATTDEF
  5
16C
330
14C
100
AcDbEntity
  8
AM_6
100
AcDbText
 10
9.5
 20
-9.34325
 30
0.0
 40
0.5
  1
5.750000
100
AcDbAttributeDefinition
  3

  2
J1
 70
     8
280
     0
  0
ATTDEF
  5
16D
330
14C
100
AcDbEntity
  8
AM_6
100
AcDbText
 10
9.5
 20
-9.84325
 30
0.0
 40
0.5
  1
3.19
100
AcDbAttributeDefinition
  3

  2
L
 70
     8
280
     0
  0
ATTDEF
  5
16E
330
14C
100
AcDbEntity
  8
AM_6
100
AcDbText
 10
9.5
 20
-10.34325
 30
0.0
 40
0.5
  1
3.190000
100
AcDbAttributeDefinition
  3

  2
L1
 70
     8
280
     0
  0
ATTDEF
  5
16F
330
14C
100
AcDbEntity
  8
AM_6
100
AcDbText
 10
9.5
 20
-10.84325
 30
0.0
 40
0.5
  1
2.63
100
AcDbAttributeDefinition
  3

  2
M
 70
     8
280
     0
  0
ATTDEF
  5
170
330
14C
100
AcDbEntity
  8
AM_6
100
AcDbText
 10
9.5
 20
-11.34325
 30
0.0
 40
0.5
  1
2.630000
100
AcDbAttributeDefinition
  3

  2
M1
 70
     8
280
     0
  0
ATTDEF
  5
171
330
14C
100
AcDbEntity
  8
AM_6
100
AcDbText
 10
9.5
 20
-11.84325
 30
0.0
 40
0.5
  1
5.81
100
AcDbAttributeDefinition
  3

  2
P
 70
     8
280
     0
  0
ATTDEF
  5
172
330
14C
100
AcDbEntity
  8
AM_6
100
AcDbText
 10
9.5
 20
-12.34325
 30
0.0
 40
0.5
  1
5.810000
100
AcDbAttributeDefinition
  3

  2
P1
 70
     8
280
     0
  0
ATTDEF
  5
173
330
14C
100
AcDbEntity
  8
AM_6
100
AcDbText
 10
9.5
 20
-12.84325
 30
0.0
 40
0.5
  1
1.56
100
AcDbAttributeDefinition
  3

  2
R
 70
     8
280
     0
  0
ATTDEF
  5
174
330
14C
100
AcDbEntity
  8
AM_6
100
AcDbText
 10
9.5
 20
-13.34325
 30
0.0
 40
0.5
  1
1.560000
100
AcDbAttributeDefinition
  3

  2
R1
 70
     8
280
     0
  0
ATTDEF
  5
175
330
14C
100
AcDbEntity
  8
AM_6
100
AcDbText
 10
9.5
 20
-13.84325
 30
0.0
 40
0.5
  1
1.68
100
AcDbAttributeDefinition
  3

  2
S
 70
     8
280
     0
  0
ATTDEF
  5
176
330
14C
100
AcDbEntity
  8
AM_6
100
AcDbText
 10
9.5
 20
-14.34325
 30
0.0
 40
0.5
  1
1.680000
100
AcDbAttributeDefinition
  3

  2
S1
 70
     8
280
     0
  0
ATTDEF
  5
177
330
14C
100
AcDbEntity
  8
AM_6
100
AcDbText
 10
9.5
 20
-14.84325
 30
0.0
 40
0.5
  1
0.093750
100
AcDbAttributeDefinition
  3

  2
EXP1
 70
     8
280
     0
  0
ATTDEF
  5
178
330
14C
100
AcDbEntity
  8
AM_6
100
AcDbText
 10
9.5
 20
-15.34325
 30
0.0
 40
0.5
  1
1
100
AcDbAttributeDefinition
  3

  2
HF
 70
     8
280
     0
  0
ATTDEF
  5
179
330
14C
100
AcDbEntity
  8
AM_6
100
AcDbText
 10
9.5
 20
-15.84325
 30
0.0
 40
0.5
  1
.09
100
AcDbAttributeDefinition
  3

  2
T
 70
     8
280
     0
  0
ATTDEF
  5
17A
330
14C
100
AcDbEntity
  8
AM_6
100
AcDbText
 10
9.5
 20
-16.34325
 30
0.0
 40
0.5
  1
33000
100
AcDbAttributeDefinition
  3

  2
CS
 70
     8
280
     0
  0
ATTDEF
  5
17B
330
14C
100
AcDbEntity
  8
AM_6
100
AcDbText
 10
9.5
 20
-16.84325
 30
0.0
 40
0.5
  1
6140
100
AcDbAttributeDefinition
  3

  2
CD
 70
     8
280
     0
  0
ATTDEF
  5
17C
330
14C
100
AcDbEntity
  8
AM_6
100
AcDbText
 10
9.5
 20
-17.34325
 30
0.0
 40
0.5
  1
18
100
AcDbAttributeDefinition
  3

  2
RN
 70
     8
280
     0
  0
ATTDEF
  5
17D
330
14C
100
AcDbEntity
  8
AM_6
100
AcDbText
 10
9.5
 20
-17.84325
 30
0.0
 40
0.5
  1
.35
100
AcDbAttributeDefinition
  3

  2
RM
 70
     8
280
     0
  0
ATTDEF
  5
17E
330
14C
100
AcDbEntity
  8
AM_6
100
AcDbText
 10
9.5
 20
-18.34325
 30
0.0
 40
0.5
  1
2.411
100
AcDbAttributeDefinition
  3

  2
PDI
 70
     8
280
     0
  0
ATTDEF
  5
17F
330
14C
100
AcDbEntity
  8
AM_6
100
AcDbText
 10
9.5
 20
-18.84325
 30
0.0
 40
0.5
  1
.004-.012
100
AcDbAttributeDefinition
  3

  2
EP
 70
     8
280
     0
  0
ATTDEF
  5
180
330
14C
100
AcDbEntity
  8
AM_6
100
AcDbText
 10
9.5
 20
-19.34325
 30
0.0
 40
0.5
  1
5/16-18*5/8
100
AcDbAttributeDefinition
  3

  2
CSS
 70
     8
280
     0
  0
ATTDEF
  5
181
330
14C
100
AcDbEntity
  8
AM_6
100
AcDbText
 10
9.5
 20
-19.84325
 30
0.0
 40
0.5
  1
165
100
AcDbAttributeDefinition
  3

  2
CST
 70
     8
280
     0
  0
ATTDEF
  5
182
330
14C
100
AcDbEntity
  8
AM_6
100
AcDbText
 10
9.5
 20
-20.34325
 30
0.0
 40
0.5
  1
C.I. ASTM A48 CLASS 30
100
AcDbAttributeDefinition
  3

  2
MH
 70
     8
280
     0
  0
ATTDEF
  5
183
330
14C
100
AcDbEntity
  8
AM_6
100
AcDbText
 10
9.5
 20
-20.84325
 30
0.0
 40
0.5
  1
4118 CASE CARB.
100
AcDbAttributeDefinition
  3

  2
MC
 70
     8
280
     0
  0
ATTDEF
  5
184
330
14C
100
AcDbEntity
  8
AM_6
100
AcDbText
 10
9.5
 20
-21.34325
 30
0.0
 40
0.5
  1
4118 CASE CARB.
100
AcDbAttributeDefinition
  3

  2
MCU
 70
     8
280
     0
  0
ATTDEF
  5
185
330
14C
100
AcDbEntity
  8
AM_6
100
AcDbText
 10
9.5
 20
-21.84325
 30
0.0
 40
0.5
  1
STEEL
100
AcDbAttributeDefinition
  3

  2
MR
 70
     8
280
     0
  0
ATTDEF
  5
186
330
14C
100
AcDbEntity
  8
AM_6
100
AcDbText
 10
9.5
 20
-22.34325
 30
0.0
 40
0.5
  1
4118 CASE CARB.
100
AcDbAttributeDefinition
  3

  2
MRO
 70
     8
280
     0
  0
ATTDEF
  5
187
330
14C
100
AcDbEntity
  8
AM_6
100
AcDbText
 10
9.5
 20
-22.84325
 30
0.0
 40
0.5
  1
2.59*
100
AcDbAttributeDefinition
  3

  2
SM
 70
     8
280
     0
  0
ATTDEF
  5
188
330
14C
100
AcDbEntity
  8
AM_6
100
AcDbText
 10
9.5
 20
-23.34325
 30
0.0
 40
0.5
  1
baldor
100
AcDbAttributeDefinition
  3

  2
COMPANY
 70
     8
280
     0
  0
LINE
  5
189
330
14C
100
AcDbEntity
  8
AM_9
100
AcDbLine
 10
0.6100500000000001
 20
3.22
 30
0.0
 11
0.6100500000000001
 21
3.12
 31
0.0
  0
LINE
  5
18A
330
14C
100
AcDbEntity
  8
AM_9
100
AcDbLine
 10
-0.1452499999999998
 20
3.22
 30
0.0
 11
-0.1452500000000002
 21
3.12
 31
0.0
  0
LINE
  5
18B
330
14C
100
AcDbEntity
  8
AM_9
100
AcDbLine
 10
2.726306549616685
 20
0.3449999999999999
 30
0.0
 11
2.726306549616685
 21
0.0
 31
0.0
  0
LINE
  5
18C
330
14C
100
AcDbEntity
  8
AM_9
100
AcDbLine
 10
-2.726306550304513
 20
0.3449999999999999
 30
0.0
 11
-2.726306550304513
 21
0.0
 31
0.0
  0
LINE
  5
18D
330
14C
100
AcDbEntity
  8
AM_9
100
AcDbLine
 10
-3.44
 20
-1.25
 30
0.0
 11
-3.44
 21
-2.63
 31
0.0
  0
LINE
  5
18E
330
14C
100
AcDbEntity
  8
AM_9
100
AcDbLine
 10
-3.1275
 20
-2.63
 30
0.0
 11
-3.1275
 21
-1.25
 31
0.0
  0
LINE
  5
18F
330
14C
100
AcDbEntity
  8
AM_9
100
AcDbLine
 10
-3.815
 20
-1.25
 30
0.0
 11
-3.815
 21
-2.63
 31
0.0
  0
LINE
  5
190
330
14C
100
AcDbEntity
  8
AM_9
100
AcDbLine
 10
-4.1275
 20
-1.25
 30
0.0
 11
-4.1275
 21
-2.63
 31
0.0
  0
LINE
  5
191
330
14C
100
AcDbEntity
  8
AM_9
100
AcDbLine
 10
3.815
 20
-1.25
 30
0.0
 11
3.815
 21
-2.63
 31
0.0
  0
LINE
  5
192
330
14C
100
AcDbEntity
  8
AM_9
100
AcDbLine
 10
4.1275
 20
-2.63
 30
0.0
 11
4.1275
 21
-1.25
 31
0.0
  0
LINE
  5
193
330
14C
100
AcDbEntity
  8
AM_9
100
AcDbLine
 10
3.44
 20
-1.25
 30
0.0
 11
3.44
 21
-2.63
 31
0.0
  0
LINE
  5
194
330
14C
100
AcDbEntity
  8
AM_9
100
AcDbLine
 10
3.1275
 20
-1.25
 30
0.0
 11
3.1275
 21
-2.63
 31
0.0
  0
LINE
  5
195
330
14C
100
AcDbEntity
  8
AM_9
100
AcDbLine
 10
2.836443461395027
 20
0.3449999999999999
 30
0.0
 11
2.836443461395027
 21
0.0
 31
0.0
  0
LINE
  5
196
330
14C
100
AcDbEntity
  8
AM_9
100
AcDbLine
 10
2.756875000000001
 20
0.0
 30
0.0
 11
2.756875000000001
 21
-1.25
 31
0.0
  0
LINE
  5
197
330
14C
100
AcDbEntity
  8
AM_9
100
AcDbLine
 10
2.756875000000001
 20
2.0800000104
 30
0.0
 11
2.756875000000001
 21
0.3449999999999998
 31
0.0
  0
LINE
  5
198
330
14C
100
AcDbEntity
  8
AM_9
100
AcDbLine
 10
-0.5925
 20
3.12
 30
0.0
 11
-0.5925
 21
1.878142446601245
 31
0.0
  0
LINE
  5
199
330
14C
100
AcDbEntity
  8
AM_9
100
AcDbLine
 10
0.5925
 20
1.878063885405021
 30
0.0
 11
0.5925
 21
3.12
 31
0.0
  0
LINE
  5
19A
330
14C
100
AcDbEntity
  8
AM_9
100
AcDbLine
 10
-2.836443457255257
 20
0.3449999999999999
 30
0.0
 11
-2.836443457255257
 21
0.0
 31
0.0
  0
LINE
  5
19B
330
14C
100
AcDbEntity
  8
AM_9
100
AcDbLine
 10
-2.756875000000002
 20
2.0800000104
 30
0.0
 11
-2.756875000000002
 21
0.3449999999999998
 31
0.0
  0
LINE
  5
19C
330
14C
100
AcDbEntity
  8
AM_9
100
AcDbLine
 10
-2.756875000000002
 20
0.0
 30
0.0
 11
-2.756875000000002
 21
-1.25
 31
0.0
  0
LINE
  5
19D
330
14C
100
AcDbEntity
  8
AM_9
100
AcDbLine
 10
-2.088386029146909
 20
2.08
 30
0.0
 11
-1.960625
 21
2.08
 31
0.0
  0
LINE
  5
19E
330
14C
100
AcDbEntity
  8
AM_9
100
AcDbLine
 10
-2.279374207359513
 20
2.130458453672399
 30
0.0
 11
-2.32551069659978
 21
2.08
 31
0.0
  0
LWPOLYLINE
  5
19F
330
14C
100
AcDbEntity
  8
AM_9
100
AcDbPolyline
 90
        4
 70
     0
 43
0.0
 10
-2.17167849789121
 20
2.240136714979015
 10
-2.192760646576021
 20
2.219504617437753
 10
-2.258464157487218
 20
2.152612284956478
 10
-2.279374207359513
 20
2.130458453672399
  0
LINE
  5
1A0
330
14C
100
AcDbEntity
  8
AM_9
100
AcDbLine
 10
-1.960625
 20
2.08
 30
0.0
 11
-1.960625
 21
2.357767648469634
 31
0.0
  0
LWPOLYLINE
  5
1A1
330
14C
100
AcDbEntity
  8
AM_9
100
AcDbPolyline
 90
        4
 70
     0
 43
0.0
 10
2.279726980984215
 20
2.13008095906531
 10
2.242877312631684
 20
2.168847933923002
 10
2.200732328725455
 20
2.211596826453699
 10
2.171825096762785
 20
2.239994586839735
  0
LINE
  5
1A2
330
14C
100
AcDbEntity
  8
AM_9
100
AcDbLine
 10
2.32551069659978
 20
2.08
 30
0.0
 11
2.279726980984215
 21
2.13008095906531
 31
0.0
  0
LINE
  5
1A3
330
14C
100
AcDbEntity
  8
AM_9
100
AcDbLine
 10
1.960625
 20
2.357691563831942
 30
0.0
 11
1.960625
 21
2.08
 31
0.0
  0
LINE
  5
1A4
330
14C
100
AcDbEntity
  8
AM_9
100
AcDbLine
 10
1.960625
 20
2.08
 30
0.0
 11
2.088386029146909
 21
2.08
 31
0.0
  0
LINE
  5
1A5
330
14C
100
AcDbEntity
  8
AM_7
100
AcDbLine
 10
2.460625
 20
2.025
 30
0.0
 11
2.460625
 21
2.135
 31
0.0
  0
LINE
  5
1A6
330
14C
100
AcDbEntity
  8
AM_7
100
AcDbLine
 10
-2.460625
 20
2.025
 30
0.0
 11
-2.460625
 21
2.135
 31
0.0
  0
LINE
  5
1A7
330
14C
100
AcDbEntity
  8
AM_7
100
AcDbLine
 10
0.0000000000000002
 20
-2.234797297297296
 30
0.0
 11
0.0
 21
4.656750000000001
 31
0.0
  0
LINE
  5
1A8
330
14C
100
AcDbEntity
  8
AM_7
100
AcDbLine
 10
-2.234797297297296
 20
0.0000000000000002
 30
0.0
 11
2.234797297297296
 21
0.0000000000000002
 31
0.0
  0
LINE
  5
1A9
330
14C
100
AcDbEntity
  8
AM_4
100
AcDbLine
 10
0.4262499999999999
 20
3.32
 30
0.0
 11
0.6262499999999999
 21
3.32
 31
0.0
  0
LINE
  5
1AA
330
14C
100
AcDbEntity
  8
AM_4
100
AcDbLine
 10
0.4262499999999999
 20
3.32
 30
0.0
 11
0.4262499999999999
 21
3.22
 31
0.0
  0
LINE
  5
1AB
330
14C
100
AcDbEntity
  8
AM_4
100
AcDbLine
 10
0.6262499999999999
 20
3.32
 30
0.0
 11
0.6262499999999999
 21
3.22
 31
0.0
  0
LINE
  5
1AC
330
14C
100
AcDbEntity
  8
AM_4
100
AcDbLine
 10
0.5262499999999999
 20
3.32
 30
0.0
 11
0.5262499999999999
 21
3.22
 31
0.0
  0
LINE
  5
1AD
330
14C
100
AcDbEntity
  8
AM_4
100
AcDbLine
 10
-0.6262499999999999
 20
3.32
 30
0.0
 11
-0.4262499999999999
 21
3.32
 31
0.0
  0
LINE
  5
1AE
330
14C
100
AcDbEntity
  8
AM_4
100
AcDbLine
 10
-0.6262499999999999
 20
3.32
 30
0.0
 11
-0.6262499999999999
 21
3.22
 31
0.0
  0
LINE
  5
1AF
330
14C
100
AcDbEntity
  8
AM_4
100
AcDbLine
 10
-0.4262499999999999
 20
3.32
 30
0.0
 11
-0.4262499999999999
 21
3.22
 31
0.0
  0
LINE
  5
1B0
330
14C
100
AcDbEntity
  8
AM_4
100
AcDbLine
 10
-0.5262499999999999
 20
3.32
 30
0.0
 11
-0.5262499999999999
 21
3.22
 31
0.0
  0
LINE
  5
1B1
330
14C
100
AcDbEntity
  8
AM_4
100
AcDbLine
 10
0.72625
 20
3.22
 30
0.0
 11
0.72625
 21
3.12
 31
0.0
  0
LINE
  5
1B2
330
14C
100
AcDbEntity
  8
AM_4
100
AcDbLine
 10
0.1452499999999998
 20
3.22
 30
0.0
 11
0.1452499999999998
 21
3.12
 31
0.0
  0
LINE
  5
1B3
330
14C
100
AcDbEntity
  8
AM_4
100
AcDbLine
 10
-0.6100500000000001
 20
3.22
 30
0.0
 11
-0.6100500000000001
 21
3.12
 31
0.0
  0
LINE
  5
1B4
330
14C
100
AcDbEntity
  8
AM_4
100
AcDbLine
 10
-0.72625
 20
3.22
 30
0.0
 11
0.72625
 21
3.22
 31
0.0
  0
LINE
  5
1B5
330
14C
100
AcDbEntity
  8
AM_4
100
AcDbLine
 10
-0.72625
 20
3.22
 30
0.0
 11
-0.72625
 21
3.12
 31
0.0
  0
LINE
  5
1B6
330
14C
100
AcDbEntity
  8
AM_4
100
AcDbLine
 10
-2.749300134594812
 20
2.33
 30
0.0
 11
-2.749300134594812
 21
2.13
 31
0.0
  0
LINE
  5
1B7
330
14C
100
AcDbEntity
  8
AM_4
100
AcDbLine
 10
2.171949865405187
 20
2.33
 30
0.0
 11
2.171949865405187
 21
2.13
 31
0.0
  0
LINE
  5
1B8
330
14C
100
AcDbEntity
  8
AM_4
100
AcDbLine
 10
-2.604962567297406
 20
2.33
 30
0.0
 11
-2.604962567297406
 21
2.13
 31
0.0
  0
LINE
  5
1B9
330
14C
100
AcDbEntity
  8
AM_4
100
AcDbLine
 10
-2.749300134594812
 20
2.33
 30
0.0
 11
-2.171949865405186
 21
2.33
 31
0.0
  0
LINE
  5
1BA
330
14C
100
AcDbEntity
  8
AM_4
100
AcDbLine
 10
-2.316287432702593
 20
2.33
 30
0.0
 11
-2.316287432702593
 21
2.13
 31
0.0
  0
LINE
  5
1BB
330
14C
100
AcDbEntity
  8
AM_4
100
AcDbLine
 10
-2.171949865405186
 20
2.33
 30
0.0
 11
-2.171949865405186
 21
2.13
 31
0.0
  0
LINE
  5
1BC
330
14C
100
AcDbEntity
  8
AM_4
100
AcDbLine
 10
2.749300134594813
 20
2.33
 30
0.0
 11
2.749300134594813
 21
2.13
 31
0.0
  0
LINE
  5
1BD
330
14C
100
AcDbEntity
  8
AM_4
100
AcDbLine
 10
2.171949865405187
 20
2.33
 30
0.0
 11
2.749300134594813
 21
2.33
 31
0.0
  0
LINE
  5
1BE
330
14C
100
AcDbEntity
  8
AM_4
100
AcDbLine
 10
2.316287432702594
 20
2.33
 30
0.0
 11
2.316287432702594
 21
2.13
 31
0.0
  0
LINE
  5
1BF
330
14C
100
AcDbEntity
  8
AM_4
100
AcDbLine
 10
2.604962567297406
 20
2.33
 30
0.0
 11
2.604962567297406
 21
2.13
 31
0.0
  0
LINE
  5
1C0
330
14C
100
AcDbEntity
  8
AM_4
100
AcDbLine
 10
-2.773125
 20
2.13
 30
0.0
 11
-2.773125
 21
2.0800000104
 31
0.0
  0
LINE
  5
1C1
330
14C
100
AcDbEntity
  8
AM_4
100
AcDbLine
 10
-2.148125
 20
2.0800000104
 30
0.0
 11
-2.148125
 21
2.13
 31
0.0
  0
LINE
  5
1C2
330
14C
100
AcDbEntity
  8
AM_4
100
AcDbLine
 10
-2.773125
 20
2.13
 30
0.0
 11
-2.148125
 21
2.13
 31
0.0
  0
LINE
  5
1C3
330
14C
100
AcDbEntity
  8
AM_4
100
AcDbLine
 10
2.148125
 20
2.13
 30
0.0
 11
2.148125
 21
2.0800000104
 31
0.0
  0
LINE
  5
1C4
330
14C
100
AcDbEntity
  8
AM_4
100
AcDbLine
 10
2.773125
 20
2.0800000104
 30
0.0
 11
2.773125
 21
2.13
 31
0.0
  0
LINE
  5
1C5
330
14C
100
AcDbEntity
  8
AM_4
100
AcDbLine
 10
2.148125
 20
2.13
 30
0.0
 11
2.773125
 21
2.13
 31
0.0
  0
LWPOLYLINE
  5
1C6
330
14C
100
AcDbEntity
  8
AM_4
100
AcDbPolyline
 90
        5
 70
     0
 43
0.0
 10
-2.002107673412722
 20
2.392898841167736
 10
-2.039415368524056
 20
2.361182956618967
 10
-2.086445792934209
 20
2.319729284452636
 10
-2.137394432220261
 20
2.272871540829755
 10
-2.17167849789121
 20
2.240136714979015
  0
LWPOLYLINE
  5
1C7
330
14C
100
AcDbEntity
  8
AM_4
100
AcDbPolyline
 90
        5
 70
     0
 43
0.0
 10
-1.960625001409956
 20
2.357909876417217
 10
-1.960667714005386
 20
2.358753024652181
 10
-1.965810598857082
 20
2.378622248210867
 10
-1.979646097015277
 20
2.38964733152726
 10
-2.002107673412722
 20
2.392898841167736
  0
LWPOLYLINE
  5
1C8
330
14C
100
AcDbEntity
  8
AM_4
100
AcDbPolyline
 90
        6
 70
     0
 43
0.0
 10
2.171825096762785
 20
2.239994586839735
 10
2.159391761446506
 20
2.251982952998746
 10
2.105264045846838
 20
2.302664390931644
 10
2.054914763404668
 20
2.347706394577809
 10
2.026648789737286
 20
2.372149801984772
 10
2.002107673412722
 20
2.392898841167736
  0
LWPOLYLINE
  5
1C9
330
14C
100
AcDbEntity
  8
AM_4
100
AcDbPolyline
 90
        7
 70
     0
 43
0.0
 10
1.960625003395063
 20
2.357902655047842
 10
1.964081348272866
 20
2.334531015868729
 10
1.979742684662461
 20
2.293679799907094
 10
2.005831321154962
 20
2.245477718223051
 10
2.038175339122162
 20
2.194362845815764
 10
2.076293145991563
 20
2.138817124573009
 10
2.118455064036977
 20
2.080000009720609
  0
CIRCLE
  5
1CA
330
14C
100
AcDbEntity
  8
AM_4
100
AcDbCircle
 10
0.0
 20
0.0
 30
0.0
 40
1.96875
  0
CIRCLE
  5
1CB
330
14C
100
AcDbEntity
  8
AM_4
100
AcDbCircle
 10
0.0
 20
0.0
 30
0.0
 40
2.073178378378377
  0
LINE
  5
1CC
330
14C
100
AcDbEntity
  8
AM_4
100
AcDbLine
 10
-2.905
 20
0.0
 30
0.0
 11
-2.905
 21
-1.25
 31
0.0
  0
LINE
  5
1CD
330
14C
100
AcDbEntity
  8
AM_4
100
AcDbLine
 10
-2.905
 20
2.0800000104
 30
0.0
 11
-2.088386029146909
 21
2.0800000104
 31
0.0
  0
LINE
  5
1CE
330
14C
100
AcDbEntity
  8
AM_4
100
AcDbLine
 10
-2.905
 20
2.0800000104
 30
0.0
 11
-2.905
 21
0.3449999999999998
 31
0.0
  0
LINE
  5
1CF
330
14C
100
AcDbEntity
  8
AM_4
100
AcDbLine
 10
4.5
 20
-1.526
 30
0.0
 11
4.5
 21
-2.63
 31
0.0
  0
LWPOLYLINE
  5
1D0
330
14C
100
AcDbEntity
  8
AM_4
100
AcDbPolyline
 90
       18
 70
     0
 43
0.0
 10
4.263
 20
-1.252769328222471
 10
4.28666521536579
 20
-1.257208127386338
 10
4.309853510604356
 20
-1.263692595001765
 10
4.332388408787454
 20
-1.272173380354771
 10
4.354098405732969
 20
-1.28258593954798
 10
4.374818275255292
 20
-1.294851026718657
 10
4.394390326636358
 20
-1.308875297147572
 10
4.412665604747229
 20
-1.324552017668673
 10
4.429505023686565
 20
-1.341761878972933
 10
4.444780425308323
 20
-1.360373903624228
 10
4.458375554582617
 20
-1.380246442876714
 10
4.470186944366708
 20
-1.401228254707313
 10
4.480124702852429
 20
-1.423159654858828
 10
4.488113197697118
 20
-1.445873732133566
 10
4.494091631631422
 20
-1.46919761868833
 10
4.498014505163226
 20
-1.492953805663093
 10
4.499851962856256
 20
-1.516961494130596
 10
4.5
 20
-1.526
  0
ARC
  5
1D1
330
14C
100
AcDbEntity
  8
AM_4
100
AcDbCircle
 10
-4.223999999999993
 20
-1.526000000000121
 30
0.0
 40
0.2760000000001215
100
AcDbArc
 50
90.0
 51
98.12333025962761
  0
LINE
  5
1D2
330
14C
100
AcDbEntity
  8
AM_4
100
AcDbLine
 10
4.224
 20
-1.25
 30
0.0
 11
2.60875
 21
-1.25
 31
0.0
  0
LINE
  5
1D3
330
14C
100
AcDbEntity
  8
AM_4
100
AcDbLine
 10
-2.608750000000001
 20
-1.25
 30
0.0
 11
-4.224
 21
-1.25
 31
0.0
  0
LINE
  5
1D4
330
14C
100
AcDbEntity
  8
AM_4
100
AcDbLine
 10
-2.608750000000001
 20
0.0
 30
0.0
 11
-2.608750000000001
 21
-1.25
 31
0.0
  0
LINE
  5
1D5
330
14C
100
AcDbEntity
  8
AM_4
100
AcDbLine
 10
4.263
 20
-1.252769328222471
 30
0.0
 11
4.262999999999999
 21
-2.63
 31
0.0
  0
ARC
  5
1D6
330
14C
100
AcDbEntity
  8
AM_4
100
AcDbCircle
 10
4.223999999999993
 20
-1.526000000000121
 30
0.0
 40
0.2760000000001213
100
AcDbArc
 50
81.87666974037239
 51
90.0
  0
LWPOLYLINE
  5
1D7
330
14C
100
AcDbEntity
  8
AM_4
100
AcDbPolyline
 90
        7
 70
     0
 43
0.0
 10
-2.118455071094019
 20
2.08
 10
-2.076450496385633
 20
2.138593950508497
 10
-2.038453486411509
 20
2.193944065652385
 10
-2.006171989826632
 20
2.244905959538957
 10
-1.980642645791095
 20
2.291790237074065
 10
-1.964816508488111
 20
2.331839454418588
 10
-1.960625001409956
 20
2.357909876417217
  0
ARC
  5
1D8
330
14C
100
AcDbEntity
  8
AM_4
100
AcDbCircle
 10
-0.0000000000000113
 20
0.0000000000000213
 30
0.0
 40
3.119999999999976
100
AcDbArc
 50
108.0613542317524
 51
129.9187892913313
  0
LWPOLYLINE
  5
1D9
330
14C
100
AcDbEntity
  8
AM_4
100
AcDbPolyline
 90
       18
 70
     0
 43
0.0
 10
-4.5
 20
-1.525999999999999
 10
-4.498949736673321
 20
-1.501945015001646
 10
-4.495806939831369
 20
-1.478073102963927
 10
-4.490595528055783
 20
-1.454565943551704
 10
-4.483355163336911
 20
-1.431602440442115
 10
-4.474140949222115
 20
-1.409357359759567
 10
-4.463023011444505
 20
-1.388
 10
-4.450085964223762
 20
-1.367692903567111
 10
-4.435428266300838
 20
-1.348590619726515
 10
-4.419161471607487
 20
-1.330838528392513
 10
-4.401409380273485
 20
-1.314571733699162
 10
-4.382307096432889
 20
-1.299914035776238
 10
-4.362000000000001
 20
-1.286976988555495
 10
-4.340642640240434
 20
-1.275859050777885
 10
-4.318397559557885
 20
-1.266644836663089
 10
-4.295434056448297
 20
-1.259404471944217
 10
-4.271926897036074
 20
-1.254193060168631
 10
-4.263
 20
-1.252769328222471
  0
LINE
  5
1DA
330
14C
100
AcDbEntity
  8
AM_4
100
AcDbLine
 10
-4.5
 20
-2.63
 30
0.0
 11
4.5
 21
-2.63
 31
0.0
  0
LINE
  5
1DB
330
14C
100
AcDbEntity
  8
AM_4
100
AcDbLine
 10
-4.5
 20
-1.526
 30
0.0
 11
-4.5
 21
-2.63
 31
0.0
  0
LINE
  5
1DC
330
14C
100
AcDbEntity
  8
AM_4
100
AcDbLine
 10
-4.263
 20
-1.252769328222471
 30
0.0
 11
-4.263
 21
-2.63
 31
0.0
  0
LINE
  5
1DD
330
14C
100
AcDbEntity
  8
AM_4
100
AcDbLine
 10
2.905
 20
2.0800000104
 30
0.0
 11
2.904999999999999
 21
0.345
 31
0.0
  0
LINE
  5
1DE
330
14C
100
AcDbEntity
  8
AM_4
100
AcDbLine
 10
2.088386029146909
 20
2.0800000104
 30
0.0
 11
2.905
 21
2.0800000104
 31
0.0
  0
LWPOLYLINE
  5
1DF
330
14C
100
AcDbEntity
  8
AM_4
100
AcDbPolyline
 90
        5
 70
     0
 43
0.0
 10
2.002107673412722
 20
2.392898841167736
 10
1.97931572557776
 20
2.38950992238124
 10
1.965469796810685
 20
2.378073665361956
 10
1.960672862926718
 20
2.359415568796724
 10
1.960625003395063
 20
2.357902655047842
  0
ARC
  5
1E0
330
14C
100
AcDbEntity
  8
AM_4
100
AcDbCircle
 10
0.0000000000000067
 20
0.0000000000000107
 30
0.0
 40
3.119999999999987
100
AcDbArc
 50
50.08121070866883
 51
71.9386457682476
  0
LINE
  5
1E1
330
14C
100
AcDbEntity
  8
AM_4
100
AcDbLine
 10
2.60875
 20
0.0
 30
0.0
 11
2.60875
 21
-1.25
 31
0.0
  0
LINE
  5
1E2
330
14C
100
AcDbEntity
  8
AM_4
100
AcDbLine
 10
2.905
 20
0.0
 30
0.0
 11
2.905
 21
-1.25
 31
0.0
  0
ARC
  5
1E3
330
14C
100
AcDbEntity
  8
AM_4
100
AcDbCircle
 10
0.0000000000000007
 20
-0.0000000000000022
 30
0.0
 40
2.947500000000001
100
AcDbArc
 50
44.88473168551987
 51
70.82060522794701
  0
LINE
  5
1E4
330
14C
100
AcDbEntity
  8
AM_4
100
AcDbLine
 10
0.9683333333333333
 20
2.783897772109376
 30
0.0
 11
0.9683333333333333
 21
2.9475
 31
0.0
  0
LINE
  5
1E5
330
14C
100
AcDbEntity
  8
AM_4
100
AcDbLine
 10
-0.9683333333333333
 20
2.9475
 30
0.0
 11
-0.9683333333333333
 21
2.783897772109376
 31
0.0
  0
ARC
  5
1E6
330
14C
100
AcDbEntity
  8
AM_4
100
AcDbCircle
 10
0.0000000000000022
 20
-0.0000000000000058
 30
0.0
 40
2.947500000000005
100
AcDbArc
 50
109.1793947720531
 51
135.1152683144801
  0
LINE
  5
1E7
330
14C
100
AcDbEntity
  8
AM_4
100
AcDbLine
 10
-2.608750000000001
 20
2.0800000104
 30
0.0
 11
-2.608750000000001
 21
0.345
 31
0.0
  0
LINE
  5
1E8
330
14C
100
AcDbEntity
  8
AM_4
100
AcDbLine
 10
2.60875
 20
2.0800000104
 30
0.0
 11
2.608750000000001
 21
0.3449999999999998
 31
0.0
  0
LINE
  5
1E9
330
14C
100
AcDbEntity
  8
AM_4
100
AcDbLine
 10
-0.7958333333333334
 20
3.12
 30
0.0
 11
0.7958333333333331
 21
3.12
 31
0.0
  0
LWPOLYLINE
  5
1EA
330
14C
100
AcDbEntity
  8
AM_4
100
AcDbPolyline
 90
       19
 70
     0
 43
0.0
 10
-0.9683333333333334
 20
2.947499994859099
 10
-0.9676769192022184
 20
2.962534360502632
 10
-0.9657126716206472
 20
2.977454305584746
 10
-0.9624555396987606
 20
2.992146280314456
 10
-0.9579303121771942
 20
3.006498469892811
 10
-0.952171428769794
 20
3.020401645491032
 10
-0.9452227180565994
 20
3.033749995547849
 10
-0.9371370639218839
 20
3.046441931059376
 10
-0.9279760030758644
 20
3.058380858732769
 10
-0.9178092567231786
 20
3.069475916119514
 10
-0.9067141999424198
 20
3.079642663133516
 10
-0.8947752728150681
 20
3.088803724691151
 10
-0.882083337785484
 20
3.096889379582365
 10
-0.8687349881428422
 20
3.103838091091183
 10
-0.8548318128878777
 20
3.109596975327277
 10
-0.8404796235792469
 20
3.114122203704301
 10
-0.8257876490436776
 20
3.117379336501898
 10
-0.8108677040786424
 20
3.119343584972767
 10
-0.795833338474234
 20
3.12
  0
LINE
  5
1EB
330
14C
100
AcDbEntity
  8
AM_4
100
AcDbLine
 10
0.9683333333333333
 20
2.9475
 30
0.0
 11
-0.9683333333333333
 21
2.9475
 31
0.0
  0
LWPOLYLINE
  5
1EC
330
14C
100
AcDbEntity
  8
AM_4
100
AcDbPolyline
 90
       19
 70
     0
 43
0.0
 10
0.7958333333333331
 20
3.12
 10
0.8108676989573042
 20
3.119343585420826
 10
0.8257876439808786
 20
3.117379337394606
 10
0.8404796186135179
 20
3.114122205034864
 10
0.854831808057011
 20
3.109596977085569
 10
0.8687349834836038
 20
3.103838093263822
 10
0.8820833333333332
 20
3.096889382152816
 10
0.8947752686038886
 20
3.088803727639851
 10
0.9067141960042612
 20
3.079642666438024
 10
0.9178092530880126
 20
3.069475919754679
 10
0.9279759997713569
 20
3.058380862670928
 10
0.9371370609731844
 20
3.046441935270555
 10
0.945222715486149
 20
3.03375
 10
0.9521714265971554
 20
3.020401650150271
 10
0.9579303104189025
 20
3.006498474723678
 10
0.9624555383681976
 20
2.992146285280185
 10
0.9657126707279392
 20
2.977454310647546
 10
0.9676769187541595
 20
2.962534365623971
 10
0.9683333333333334
 20
2.9475
  0
LINE
  5
1ED
330
14C
100
AcDbEntity
  8
AM_4
100
AcDbLine
 10
-3.005
 20
0.0
 30
0.0
 11
-2.128378378378377
 21
0.0
 31
0.0
  0
LINE
  5
1EE
330
14C
100
AcDbEntity
  8
AM_4
100
AcDbLine
 10
-3.005
 20
0.3449999999999999
 30
0.0
 11
-2.100230825778103
 21
0.3449999999999999
 31
0.0
  0
LINE
  5
1EF
330
14C
100
AcDbEntity
  8
AM_4
100
AcDbLine
 10
-2.70875
 20
0.3449999999999999
 30
0.0
 11
-2.70875
 21
0.0
 31
0.0
  0
LINE
  5
1F0
330
14C
100
AcDbEntity
  8
AM_4
100
AcDbLine
 10
-3.005
 20
0.3449999999999999
 30
0.0
 11
-3.005
 21
0.0
 31
0.0
  0
LINE
  5
1F1
330
14C
100
AcDbEntity
  8
AM_4
100
AcDbLine
 10
2.128378378378377
 20
0.0
 30
0.0
 11
3.004999999999999
 21
0.0
 31
0.0
  0
LINE
  5
1F2
330
14C
100
AcDbEntity
  8
AM_4
100
AcDbLine
 10
3.004999999999999
 20
0.3449999999999999
 30
0.0
 11
3.004999999999999
 21
0.0
 31
0.0
  0
LINE
  5
1F3
330
14C
100
AcDbEntity
  8
AM_4
100
AcDbLine
 10
2.100230825778103
 20
0.3449999999999999
 30
0.0
 11
3.004999999999999
 21
0.3449999999999999
 31
0.0
  0
LINE
  5
1F4
330
14C
100
AcDbEntity
  8
AM_4
100
AcDbLine
 10
2.70875
 20
0.3449999999999999
 30
0.0
 11
2.70875
 21
0.0
 31
0.0
  0
CIRCLE
  5
1F5
330
14C
100
AcDbEntity
  8
AM_4
100
AcDbCircle
 10
-0.0000000000000002
 20
-0.0000000000000002
 30
0.0
 40
2.128378378378377
  0
ENDBLK
  5
14F
330
14C
100
AcDbEntity
  8
0
100
AcDbBlockEnd
  0
ENDSEC
  0
SECTION
  2
ENTITIES
  0
INSERT
  5
6F
330
1F
100
AcDbEntity
  8
0
100
AcDbBlockReference
  2
1_023173_0
 10
0.0
 20
0.0
 30
0.0
  0
POINT
  5
1F7
330
1F
100
AcDbEntity
  8
ConnectionPoints
100
AcDbPoint
 10
0.0
 20
2.55
 30
-0.0075000000000001
  0
POINT
  5
1F8
330
1F
100
AcDbEntity
  8
ConnectionPoints
100
AcDbPoint
 10
0.0
 20
2.55
 30
-0.0075000000000001
  0
POINT
  5
1F9
330
1F
100
AcDbEntity
  8
ConnectionPoints
100
AcDbPoint
 10
0.0
 20
0.0
 30
-0.0075000000000001
  0
POINT
  5
1FA
330
1F
100
AcDbEntity
  8
ConnectionPoints
100
AcDbPoint
 10
0.0
 20
0.0
 30
1.68
  0
POINT
  5
1FB
330
1F
100
AcDbEntity
  8
ConnectionPoints
100
AcDbPoint
 10
0.0
 20
0.0
 30
-1.430375
  0
POINT
  5
1FC
330
1F
100
AcDbEntity
  8
ConnectionPoints
100
AcDbPoint
 10
0.0
 20
0.0
 30
0.0
  0
POINT
  5
1FD
330
1F
100
AcDbEntity
  8
ConnectionPoints
100
AcDbPoint
 10
0.0
 20
0.0
 30
1.68
  0
ENDSEC
  0
SECTION
  2
OBJECTS
  0
DICTIONARY
  5
C
330
0
100
AcDbDictionary
281
     1
  3
ACAD_DETAILVIEWSTYLE
350
205
  3
ACAD_GROUP
350
D
  3
ACAD_LAYOUT
350
1A
  3
ACAD_MATERIAL
350
43
  3
ACAD_MLEADERSTYLE
350
6B
  3
ACAD_MLINESTYLE
350
17
  3
ACAD_PLOTSETTINGS
350
19
  3
ACAD_PLOTSTYLENAME
350
E
  3
ACAD_SCALELIST
350
47
  3
ACAD_SECTIONVIEWSTYLE
350
206
  3
ACAD_TABLESTYLE
350
69
  3
ACAD_VISUALSTYLE
350
2A
  3
ACDB_RECOMPOSE_DATA
350
202
  3
AcDbVariableDictionary
350
1FE
  0
SUN
  5
6D
330
29
100
AcDbSun
 90
        1
290
     0
 63
     7
421
 16777215
 40
1.0
291
     1
 91
  2455826
 92
 54000000
292
     0
 70
     2
 71
   256
280
     1
  0
DICTIONARY
  5
205
102
{ACAD_REACTORS
330
C
102
}
330
C
100
AcDbDictionary
281
     1
  0
DICTIONARY
  5
D
102
{ACAD_REACTORS
330
C
102
}
330
C
100
AcDbDictionary
281
     1
  0
DICTIONARY
  5
1A
102
{ACAD_REACTORS
330
C
102
}
330
C
100
AcDbDictionary
281
     1
  3
Layout1
350
1E
  3
Layout2
350
26
  3
Model
350
22
  0
DICTIONARY
  5
43
102
{ACAD_REACTORS
330
C
102
}
330
C
100
AcDbDictionary
281
     1
  3
ByBlock
350
45
  3
ByLayer
350
44
  3
Global
350
46
  0
DICTIONARY
  5
6B
102
{ACAD_REACTORS
330
C
102
}
330
C
100
AcDbDictionary
281
     1
  3
Standard
350
6C
  0
DICTIONARY
  5
17
102
{ACAD_REACTORS
330
C
102
}
330
C
100
AcDbDictionary
281
     1
  3
Standard
350
18
  0
DICTIONARY
  5
19
102
{ACAD_REACTORS
330
C
102
}
330
C
100
AcDbDictionary
281
     1
  0
ACDBDICTIONARYWDFLT
  5
E
102
{ACAD_REACTORS
330
C
102
}
330
C
100
AcDbDictionary
281
     1
  3
Normal
350
F
100
AcDbDictionaryWithDefault
340
F
  0
DICTIONARY
  5
47
102
{ACAD_REACTORS
330
C
102
}
330
C
100
AcDbDictionary
281
     1
  3
A0
350
48
  3
A1
350
49
  3
A2
350
4A
  3
A3
350
4B
  3
A4
350
4C
  3
A5
350
4D
  3
A6
350
4E
  3
A7
350
4F
  3
A8
350
50
  3
A9
350
51
  3
B0
350
52
  3
B1
350
53
  3
B2
350
54
  3
B3
350
55
  3
B4
350
56
  3
B5
350
57
  3
B6
350
58
  3
B7
350
59
  3
B8
350
5A
  3
B9
350
5B
  3
C0
350
5C
  3
C1
350
5D
  3
C2
350
5E
  3
C3
350
5F
  3
C4
350
60
  3
C5
350
61
  3
C6
350
62
  3
C7
350
63
  3
C8
350
64
  3
C9
350
65
  3
D0
350
66
  3
D1
350
67
  3
D2
350
68
  0
DICTIONARY
  5
206
102
{ACAD_REACTORS
330
C
102
}
330
C
100
AcDbDictionary
281
     1
  0
DICTIONARY
  5
69
102
{ACAD_REACTORS
330
C
102
}
330
C
100
AcDbDictionary
281
     1
  3
Standard
350
6A
  0
DICTIONARY
  5
2A
102
{ACAD_REACTORS
330
C
102
}
330
C
100
AcDbDictionary
281
     1
  3
2dWireframe
350
2F
  3
Basic
350
32
  3
Brighten
350
36
  3
ColorChange
350
3A
  3
Conceptual
350
34
  3
Dim
350
35
  3
EdgeColorOff
350
3D
  3
Facepattern
350
39
  3
Flat
350
2B
  3
FlatWithEdges
350
2C
  3
Gouraud
350
2D
  3
GouraudWithEdges
350
2E
  3
Hidden
350
31
  3
JitterOff
350
3B
  3
Linepattern
350
38
  3
OverhangOff
350
3C
  3
Realistic
350
33
  3
Shaded
350
42
  3
Shaded with edges
350
41
  3
Shades of Gray
350
3E
  3
Sketchy
350
3F
  3
Thicken
350
37
  3
Wireframe
350
30
  3
X-Ray
350
40
  0
XRECORD
  5
202
102
{ACAD_REACTORS
330
C
102
}
330
C
100
AcDbXrecord
280
     1
 90
        1
330
6A
  0
DICTIONARY
  5
1FE
102
{ACAD_REACTORS
330
C
102
}
330
C
100
AcDbDictionary
281
     1
  3
CANNOSCALE
350
1FF
  3
CMLEADERSTYLE
350
204
  3
CTABLESTYLE
350
203
  0
LAYOUT
  5
1E
102
{ACAD_REACTORS
330
1A
102
}
330
1A
100
AcDbPlotSettings
  1

  2
none_device
  4

  6

 40
0.0
 41
0.0
 42
0.0
 43
0.0
 44
0.0
 45
0.0
 46
0.0
 47
0.0
 48
0.0
 49
0.0
140
0.0
141
0.0
142
1.0
143
1.0
 70
   688
 72
     0
 73
     0
 74
     5
  7

 75
    16
 76
     0
 77
     2
 78
   300
147
1.0
148
0.0
149
0.0
100
AcDbLayout
  1
Layout1
 70
     1
 71
     1
 10
0.0
 20
0.0
 11
12.0
 21
9.0
 12
0.0
 22
0.0
 32
0.0
 14
1.000000000000000E+20
 24
1.000000000000000E+20
 34
1.000000000000000E+20
 15
-1.000000000000000E+20
 25
-1.000000000000000E+20
 35
-1.000000000000000E+20
146
0.0
 13
0.0
 23
0.0
 33
0.0
 16
1.0
 26
0.0
 36
0.0
 17
0.0
 27
1.0
 37
0.0
 76
     0
330
1B
  0
LAYOUT
  5
26
102
{ACAD_REACTORS
330
1A
102
}
330
1A
100
AcDbPlotSettings
  1

  2
none_device
  4

  6

 40
0.0
 41
0.0
 42
0.0
 43
0.0
 44
0.0
 45
0.0
 46
0.0
 47
0.0
 48
0.0
 49
0.0
140
0.0
141
0.0
142
1.0
143
1.0
 70
   688
 72
     0
 73
     0
 74
     5
  7

 75
    16
 76
     0
 77
     2
 78
   300
147
1.0
148
0.0
149
0.0
100
AcDbLayout
  1
Layout2
 70
     1
 71
     2
 10
0.0
 20
0.0
 11
0.0
 21
0.0
 12
0.0
 22
0.0
 32
0.0
 14
0.0
 24
0.0
 34
0.0
 15
0.0
 25
0.0
 35
0.0
146
0.0
 13
0.0
 23
0.0
 33
0.0
 16
1.0
 26
0.0
 36
0.0
 17
0.0
 27
1.0
 37
0.0
 76
     0
330
23
  0
LAYOUT
  5
22
102
{ACAD_REACTORS
330
1A
102
}
330
1A
100
AcDbPlotSettings
  1

  2
none_device
  4
Letter_(8.50_x_11.00_Inches)
  6

 40
6.35
 41
6.35
 42
6.35000508
 43
6.35000508
 44
215.9
 45
279.4
 46
0.0
 47
0.0
 48
0.0
 49
0.0
140
0.0
141
0.0
142
1.0
143
1.0
 70
  1712
 72
     0
 73
     0
 74
     0
  7

 75
     0
 76
     0
 77
     2
 78
   300
147
1.0
148
0.0
149
0.0
100
AcDbLayout
  1
Model
 70
     1
 71
     0
 10
0.0
 20
0.0
 11
12.0
 21
9.0
 12
0.0
 22
0.0
 32
0.0
 14
1.000000000000000E+20
 24
1.000000000000000E+20
 34
1.000000000000000E+20
 15
-1.000000000000000E+20
 25
-1.000000000000000E+20
 35
-1.000000000000000E+20
146
0.0
 13
0.0
 23
0.0
 33
0.0
 16
1.0
 26
0.0
 36
0.0
 17
0.0
 27
1.0
 37
0.0
 76
     0
330
1F
331
29
  0
MATERIAL
  5
45
102
{ACAD_REACTORS
330
43
102
}
330
43
100
AcDbMaterial
  1
ByBlock
 72
     1
 94
      127
  0
MATERIAL
  5
44
102
{ACAD_REACTORS
330
43
102
}
330
43
100
AcDbMaterial
  1
ByLayer
 72
     1
 94
      127
  0
MATERIAL
  5
46
102
{ACAD_REACTORS
330
43
102
}
330
43
100
AcDbMaterial
  1
Global
 72
     1
 94
      127
  0
MLEADERSTYLE
  5
6C
102
{ACAD_REACTORS
330
6B
102
}
330
6B
100
AcDbMLeaderStyle
179
     2
170
     2
171
     1
172
     0
 90
        2
 40
0.0
 41
0.0
173
     1
 91
-1056964608
340
14
 92
       -2
290
     1
 42
0.09
291
     1
 43
0.36
  3
Standard
341
0
 44
0.18
300

342
11
174
     1
178
     6
175
     1
176
     0
 93
-1056964608
 45
0.18
292
     0
297
     0
 46
0.18
343
0
 94
-1056964608
 47
1.0
 49
1.0
140
1.0
293
     1
141
0.0
294
     1
177
     0
142
1.0
295
     0
296
     0
143
0.125
271
     0
272
     9
273
     9
298
     0
  0
MLINESTYLE
  5
18
102
{ACAD_REACTORS
330
17
102
}
330
17
100
AcDbMlineStyle
  2
Standard
 70
     0
  3

 62
   256
 51
90.0
 52
90.0
 71
     2
 49
0.5
 62
   256
  6
BYLAYER
 49
-0.5
 62
   256
  6
BYLAYER
  0
ACDBPLACEHOLDER
  5
F
102
{ACAD_REACTORS
330
E
102
}
330
E
  0
SCALE
  5
48
102
{ACAD_REACTORS
330
47
102
}
330
47
100
AcDbScale
 70
     0
300
1:1
140
1.0
141
1.0
290
     1
  0
SCALE
  5
49
102
{ACAD_REACTORS
330
47
102
}
330
47
100
AcDbScale
 70
     0
300
1:2
140
1.0
141
2.0
290
     0
  0
SCALE
  5
4A
102
{ACAD_REACTORS
330
47
102
}
330
47
100
AcDbScale
 70
     0
300
1:4
140
1.0
141
4.0
290
     0
  0
SCALE
  5
4B
102
{ACAD_REACTORS
330
47
102
}
330
47
100
AcDbScale
 70
     0
300
1:5
140
1.0
141
5.0
290
     0
  0
SCALE
  5
4C
102
{ACAD_REACTORS
330
47
102
}
330
47
100
AcDbScale
 70
     0
300
1:8
140
1.0
141
8.0
290
     0
  0
SCALE
  5
4D
102
{ACAD_REACTORS
330
47
102
}
330
47
100
AcDbScale
 70
     0
300
1:10
140
1.0
141
10.0
290
     0
  0
SCALE
  5
4E
102
{ACAD_REACTORS
330
47
102
}
330
47
100
AcDbScale
 70
     0
300
1:16
140
1.0
141
16.0
290
     0
  0
SCALE
  5
4F
102
{ACAD_REACTORS
330
47
102
}
330
47
100
AcDbScale
 70
     0
300
1:20
140
1.0
141
20.0
290
     0
  0
SCALE
  5
50
102
{ACAD_REACTORS
330
47
102
}
330
47
100
AcDbScale
 70
     0
300
1:30
140
1.0
141
30.0
290
     0
  0
SCALE
  5
51
102
{ACAD_REACTORS
330
47
102
}
330
47
100
AcDbScale
 70
     0
300
1:40
140
1.0
141
40.0
290
     0
  0
SCALE
  5
52
102
{ACAD_REACTORS
330
47
102
}
330
47
100
AcDbScale
 70
     0
300
1:50
140
1.0
141
50.0
290
     0
  0
SCALE
  5
53
102
{ACAD_REACTORS
330
47
102
}
330
47
100
AcDbScale
 70
     0
300
1:100
140
1.0
141
100.0
290
     0
  0
SCALE
  5
54
102
{ACAD_REACTORS
330
47
102
}
330
47
100
AcDbScale
 70
     0
300
2:1
140
2.0
141
1.0
290
     0
  0
SCALE
  5
55
102
{ACAD_REACTORS
330
47
102
}
330
47
100
AcDbScale
 70
     0
300
4:1
140
4.0
141
1.0
290
     0
  0
SCALE
  5
56
102
{ACAD_REACTORS
330
47
102
}
330
47
100
AcDbScale
 70
     0
300
8:1
140
8.0
141
1.0
290
     0
  0
SCALE
  5
57
102
{ACAD_REACTORS
330
47
102
}
330
47
100
AcDbScale
 70
     0
300
10:1
140
10.0
141
1.0
290
     0
  0
SCALE
  5
58
102
{ACAD_REACTORS
330
47
102
}
330
47
100
AcDbScale
 70
     0
300
100:1
140
100.0
141
1.0
290
     0
  0
SCALE
  5
59
102
{ACAD_REACTORS
330
47
102
}
330
47
100
AcDbScale
 70
     0
300
1/128" = 1'-0"
140
0.0078125
141
12.0
290
     0
  0
SCALE
  5
5A
102
{ACAD_REACTORS
330
47
102
}
330
47
100
AcDbScale
 70
     0
300
1/64" = 1'-0"
140
0.015625
141
12.0
290
     0
  0
SCALE
  5
5B
102
{ACAD_REACTORS
330
47
102
}
330
47
100
AcDbScale
 70
     0
300
1/32" = 1'-0"
140
0.03125
141
12.0
290
     0
  0
SCALE
  5
5C
102
{ACAD_REACTORS
330
47
102
}
330
47
100
AcDbScale
 70
     0
300
1/16" = 1'-0"
140
0.0625
141
12.0
290
     0
  0
SCALE
  5
5D
102
{ACAD_REACTORS
330
47
102
}
330
47
100
AcDbScale
 70
     0
300
3/32" = 1'-0"
140
0.09375
141
12.0
290
     0
  0
SCALE
  5
5E
102
{ACAD_REACTORS
330
47
102
}
330
47
100
AcDbScale
 70
     0
300
1/8" = 1'-0"
140
0.125
141
12.0
290
     0
  0
SCALE
  5
5F
102
{ACAD_REACTORS
330
47
102
}
330
47
100
AcDbScale
 70
     0
300
3/16" = 1'-0"
140
0.1875
141
12.0
290
     0
  0
SCALE
  5
60
102
{ACAD_REACTORS
330
47
102
}
330
47
100
AcDbScale
 70
     0
300
1/4" = 1'-0"
140
0.25
141
12.0
290
     0
  0
SCALE
  5
61
102
{ACAD_REACTORS
330
47
102
}
330
47
100
AcDbScale
 70
     0
300
3/8" = 1'-0"
140
0.375
141
12.0
290
     0
  0
SCALE
  5
62
102
{ACAD_REACTORS
330
47
102
}
330
47
100
AcDbScale
 70
     0
300
1/2" = 1'-0"
140
0.5
141
12.0
290
     0
  0
SCALE
  5
63
102
{ACAD_REACTORS
330
47
102
}
330
47
100
AcDbScale
 70
     0
300
3/4" = 1'-0"
140
0.75
141
12.0
290
     0
  0
SCALE
  5
64
102
{ACAD_REACTORS
330
47
102
}
330
47
100
AcDbScale
 70
     0
300
1" = 1'-0"
140
1.0
141
12.0
290
     0
  0
SCALE
  5
65
102
{ACAD_REACTORS
330
47
102
}
330
47
100
AcDbScale
 70
     0
300
1-1/2" = 1'-0"
140
1.5
141
12.0
290
     0
  0
SCALE
  5
66
102
{ACAD_REACTORS
330
47
102
}
330
47
100
AcDbScale
 70
     0
300
3" = 1'-0"
140
3.0
141
12.0
290
     0
  0
SCALE
  5
67
102
{ACAD_REACTORS
330
47
102
}
330
47
100
AcDbScale
 70
     0
300
6" = 1'-0"
140
6.0
141
12.0
290
     0
  0
SCALE
  5
68
102
{ACAD_REACTORS
330
47
102
}
330
47
100
AcDbScale
 70
     0
300
1'-0" = 1'-0"
140
12.0
141
12.0
290
     0
  0
TABLESTYLE
  5
6A
102
{ACAD_REACTORS
330
69
102
}
102
{ACAD_XDICTIONARY
360
200
102
}
330
69
100
AcDbTableStyle
  3
Standard
 70
     0
 71
     0
 40
0.06
 41
0.06
280
     0
281
     0
  7
Standard
140
0.18
170
     2
 62
     0
 63
   257
283
     0
 90
        4
 91
        0
  1

274
    -2
284
     1
 64
     0
275
    -2
285
     1
 65
     0
276
    -2
286
     1
 66
     0
277
    -2
287
     1
 67
     0
278
    -2
288
     1
 68
     0
279
    -2
289
     1
 69
     0
  7
Standard
140
0.25
170
     5
 62
     0
 63
   257
283
     0
 90
        4
 91
        0
  1

274
    -2
284
     1
 64
     0
275
    -2
285
     1
 65
     0
276
    -2
286
     1
 66
     0
277
    -2
287
     1
 67
     0
278
    -2
288
     1
 68
     0
279
    -2
289
     1
 69
     0
  7
Standard
140
0.18
170
     5
 62
     0
 63
   257
283
     0
 90
        4
 91
        0
  1

274
    -2
284
     1
 64
     0
275
    -2
285
     1
 65
     0
276
    -2
286
     1
 66
     0
277
    -2
287
     1
 67
     0
278
    -2
288
     1
 68
     0
279
    -2
289
     1
 69
     0
  0
VISUALSTYLE
  5
2F
102
{ACAD_REACTORS
330
2A
102
}
330
2A
100
AcDbVisualStyle
  2
2dWireframe
 70
     4
177
     3
291
     0
 70
    58
 90
        0
176
     1
 90
        2
176
     1
 90
        0
176
     1
 90
        0
176
     1
 40
0.6
176
     1
 40
30.0
176
     1
 62
     7
420
 16777215
176
     1
 90
        1
176
     1
 90
        4
176
     1
 62
     7
176
     1
 62
   257
176
     1
 90
        1
176
     1
 90
        1
176
     1
 40
1.0
176
     1
 90
        0
176
     1
 62
   257
176
     1
 40
1.0
176
     1
 90
        1
176
     1
 90
        6
176
     1
 90
        2
176
     1
 62
     7
176
     1
 90
        5
176
     1
 90
        0
176
     1
 90
        0
176
     1
290
     0
176
     1
 90
        1
176
     1
 40
0.0
176
     1
 90
        0
176
     1
290
     1
176
     1
290
     1
176
     1
290
     0
176
     1
290
     0
176
     1
290
     0
176
     1
290
     0
176
     1
290
     0
176
     1
290
     0
176
     1
290
     0
176
     1
 90
       50
176
     1
 40
0.0
176
     1
 40
1.0
176
     1
 90
        0
176
     1
 62
    18
420
        0
176
     1
 90
       50
176
     1
 90
        3
176
     1
 62
     5
420
      255
176
     1
290
     0
176
     1
 90
       50
176
     1
 90
       50
176
     1
 90
       50
176
     1
290
     0
176
     1
 90
       50
176
     1
 62
   256
176
     0
 40
1.0
176
     0
 90
        2
176
     1
  1
strokes_ogs.tif
176
     1
290
     0
176
     1
 40
1.0
176
     1
 40
1.0
176
     1
  0
VISUALSTYLE
  5
32
102
{ACAD_REACTORS
330
2A
102
}
330
2A
100
AcDbVisualStyle
  2
Basic
 70
     7
177
     3
291
     1
 70
    58
 90
        1
176
     1
 90
        0
176
     1
 90
        1
176
     1
 90
        0
176
     1
 40
0.6
176
     1
 40
30.0
176
     1
 62
     7
420
 16777215
176
     1
 90
        0
176
     1
 90
        4
176
     1
 62
     7
176
     1
 62
   257
176
     1
 90
        1
176
     1
 90
        1
176
     1
 40
1.0
176
     1
 90
        8
176
     1
 62
     7
176
     1
 40
1.0
176
     1
 90
        1
176
     1
 90
        6
176
     1
 90
        2
176
     1
 62
     7
176
     1
 90
        5
176
     1
 90
        0
176
     1
 90
        0
176
     1
290
     0
176
     1
 90
        1
176
     1
 40
0.0
176
     1
 90
        0
176
     1
290
     0
176
     1
290
     1
176
     1
290
     1
176
     1
290
     0
176
     1
290
     0
176
     1
290
     0
176
     1
290
     0
176
     1
290
     0
176
     1
290
     0
176
     1
 90
       50
176
     1
 40
0.0
176
     1
 40
1.0
176
     1
 90
        0
176
     1
 62
    18
420
        0
176
     1
 90
       50
176
     1
 90
        3
176
     1
 62
     5
420
      255
176
     1
290
     0
176
     1
 90
       50
176
     1
 90
       50
176
     1
 90
       50
176
     1
290
     0
176
     1
 90
       50
176
     1
 62
   256
176
     0
 40
1.0
176
     0
 90
        2
176
     1
  1
strokes_ogs.tif
176
     1
290
     0
176
     1
 40
1.0
176
     1
 40
1.0
176
     1
  0
VISUALSTYLE
  5
36
102
{ACAD_REACTORS
330
2A
102
}
330
2A
100
AcDbVisualStyle
  2
Brighten
 70
    12
177
     3
291
     1
 70
    58
 90
        2
176
     1
 90
        2
176
     1
 90
        0
176
     1
 90
        0
176
     1
 40
0.6
176
     1
 40
30.0
176
     1
 62
     7
420
 16777215
176
     1
 90
        1
176
     1
 90
        4
176
     1
 62
     7
176
     1
 62
   257
176
     1
 90
        1
176
     1
 90
        1
176
     1
 40
1.0
176
     1
 90
        8
176
     1
 62
     7
176
     1
 40
1.0
176
     1
 90
        1
176
     1
 90
        6
176
     1
 90
        2
176
     1
 62
     7
176
     1
 90
        5
176
     1
 90
        0
176
     1
 90
        0
176
     1
290
     0
176
     1
 90
        1
176
     1
 40
50.0
176
     1
 90
        0
176
     1
290
     0
176
     1
290
     1
176
     1
290
     1
176
     1
290
     0
176
     1
290
     0
176
     1
290
     0
176
     1
290
     0
176
     1
290
     0
176
     1
290
     0
176
     1
 90
       50
176
     1
 40
0.0
176
     1
 40
1.0
176
     1
 90
        0
176
     1
 62
    18
420
        0
176
     1
 90
       50
176
     1
 90
        3
176
     1
 62
     5
420
      255
176
     1
290
     0
176
     1
 90
       50
176
     1
 90
       50
176
     1
 90
       50
176
     1
290
     0
176
     1
 90
       50
176
     1
 62
   256
176
     0
 40
1.0
176
     0
 90
        2
176
     1
  1
strokes_ogs.tif
176
     1
290
     0
176
     1
 40
1.0
176
     1
 40
1.0
176
     1
  0
VISUALSTYLE
  5
3A
102
{ACAD_REACTORS
330
2A
102
}
330
2A
100
AcDbVisualStyle
  2
ColorChange
 70
    16
177
     3
291
     1
 70
    58
 90
        2
176
     1
 90
        2
176
     1
 90
        3
176
     1
 90
        0
176
     1
 40
0.6
176
     1
 40
30.0
176
     1
 62
     8
420
  8421504
176
     1
 90
        1
176
     1
 90
        4
176
     1
 62
     7
176
     1
 62
   257
176
     1
 90
        1
176
     1
 90
        1
176
     1
 40
1.0
176
     1
 90
        8
176
     1
 62
     8
420
  8421504
176
     1
 40
1.0
176
     1
 90
        1
176
     1
 90
        6
176
     1
 90
        2
176
     1
 62
     7
176
     1
 90
        5
176
     1
 90
        0
176
     1
 90
        0
176
     1
290
     0
176
     1
 90
        1
176
     1
 40
0.0
176
     1
 90
        0
176
     1
290
     0
176
     1
290
     1
176
     1
290
     1
176
     1
290
     0
176
     1
290
     0
176
     1
290
     0
176
     1
290
     0
176
     1
290
     0
176
     1
290
     0
176
     1
 90
       50
176
     1
 40
0.0
176
     1
 40
1.0
176
     1
 90
        0
176
     1
 62
    18
420
        0
176
     1
 90
       50
176
     1
 90
        3
176
     1
 62
     5
420
      255
176
     1
290
     0
176
     1
 90
       50
176
     1
 90
       50
176
     1
 90
       50
176
     1
290
     0
176
     1
 90
       50
176
     1
 62
   256
176
     0
 40
1.0
176
     0
 90
        2
176
     1
  1
strokes_ogs.tif
176
     1
290
     0
176
     1
 40
1.0
176
     1
 40
1.0
176
     1
  0
VISUALSTYLE
  5
34
102
{ACAD_REACTORS
330
2A
102
}
330
2A
100
AcDbVisualStyle
  2
Conceptual
 70
     9
177
     3
291
     0
 70
    58
 90
        3
176
     1
 90
        2
176
     1
 90
        0
176
     1
 90
        0
176
     1
 40
0.6
176
     1
 40
30.0
176
     1
 62
     7
420
 16777215
176
     1
 90
        2
176
     1
 90
        2
176
     1
 62
     7
176
     1
 62
   257
176
     1
 90
        1
176
     1
 90
        1
176
     1
 40
179.0
176
     1
 90
        8
176
     1
 62
     7
176
     1
 40
1.0
176
     1
 90
        1
176
     1
 90
        6
176
     1
 90
        2
176
     1
 62
     7
176
     1
 90
        3
176
     1
 90
        0
176
     1
 90
        0
176
     1
290
     0
176
     1
 90
        1
176
     1
 40
0.0
176
     1
 90
        0
176
     1
290
     0
176
     1
290
     1
176
     1
290
     1
176
     1
290
     0
176
     1
290
     0
176
     1
290
     0
176
     1
290
     0
176
     1
290
     0
176
     1
290
     0
176
     1
 90
       50
176
     1
 40
0.0
176
     1
 40
1.0
176
     1
 90
        0
176
     1
 62
    18
420
        0
176
     1
 90
       50
176
     1
 90
        3
176
     1
 62
     5
420
      255
176
     1
290
     0
176
     1
 90
       50
176
     1
 90
       50
176
     1
 90
       50
176
     1
290
     0
176
     1
 90
       50
176
     1
 62
   256
176
     0
 40
1.0
176
     0
 90
        2
176
     1
  1
strokes_ogs.tif
176
     1
290
     0
176
     1
 40
1.0
176
     1
 40
1.0
176
     1
  0
VISUALSTYLE
  5
35
102
{ACAD_REACTORS
330
2A
102
}
330
2A
100
AcDbVisualStyle
  2
Dim
 70
    11
177
     3
291
     1
 70
    58
 90
        2
176
     1
 90
        2
176
     1
 90
        0
176
     1
 90
        0
176
     1
 40
0.6
176
     1
 40
30.0
176
     1
 62
     7
420
 16777215
176
     1
 90
        1
176
     1
 90
        4
176
     1
 62
     7
176
     1
 62
   257
176
     1
 90
        1
176
     1
 90
        1
176
     1
 40
1.0
176
     1
 90
        8
176
     1
 62
     7
176
     1
 40
1.0
176
     1
 90
        1
176
     1
 90
        6
176
     1
 90
        2
176
     1
 62
     7
176
     1
 90
        5
176
     1
 90
        0
176
     1
 90
        0
176
     1
290
     0
176
     1
 90
        1
176
     1
 40
-50.0
176
     1
 90
        0
176
     1
290
     0
176
     1
290
     1
176
     1
290
     1
176
     1
290
     0
176
     1
290
     0
176
     1
290
     0
176
     1
290
     0
176
     1
290
     0
176
     1
290
     0
176
     1
 90
       50
176
     1
 40
0.0
176
     1
 40
1.0
176
     1
 90
        0
176
     1
 62
    18
420
        0
176
     1
 90
       50
176
     1
 90
        3
176
     1
 62
     5
420
      255
176
     1
290
     0
176
     1
 90
       50
176
     1
 90
       50
176
     1
 90
       50
176
     1
290
     0
176
     1
 90
       50
176
     1
 62
   256
176
     0
 40
1.0
176
     0
 90
        2
176
     1
  1
strokes_ogs.tif
176
     1
290
     0
176
     1
 40
1.0
176
     1
 40
1.0
176
     1
  0
VISUALSTYLE
  5
3D
102
{ACAD_REACTORS
330
2A
102
}
330
2A
100
AcDbVisualStyle
  2
EdgeColorOff
 70
    22
177
     3
291
     1
 70
    58
 90
        2
176
     0
 90
        2
176
     0
 90
        0
176
     0
 90
        0
176
     0
 40
0.6
176
     0
 40
30.0
176
     0
 62
     7
420
 16777215
176
     0
 90
        1
176
     0
 90
        4
176
     0
 62
     7
176
     0
 62
   257
176
     0
 90
        1
176
     0
 90
        1
176
     0
 40
1.0
176
     0
 90
        8
176
     2
 62
     7
176
     0
 40
1.0
176
     0
 90
        1
176
     0
 90
        6
176
     0
 90
        2
176
     0
 62
     7
176
     0
 90
        5
176
     0
 90
        0
176
     0
 90
        0
176
     0
290
     0
176
     0
 90
        1
176
     0
 40
0.0
176
     0
 90
        0
176
     0
290
     0
176
     0
290
     1
176
     0
290
     1
176
     0
290
     0
176
     0
290
     0
176
     0
290
     0
176
     0
290
     0
176
     0
290
     0
176
     0
290
     0
176
     0
 90
       50
176
     0
 40
0.0
176
     0
 40
1.0
176
     0
 90
        0
176
     0
 62
    18
420
        0
176
     0
 90
       50
176
     0
 90
        3
176
     0
 62
     5
420
      255
176
     0
290
     0
176
     0
 90
       50
176
     0
 90
       50
176
     0
 90
       50
176
     0
290
     0
176
     0
 90
       50
176
     0
 62
   256
176
     0
 40
1.0
176
     0
 90
        2
176
     0
  1
strokes_ogs.tif
176
     0
290
     0
176
     0
 40
1.0
176
     0
 40
1.0
176
     0
  0
VISUALSTYLE
  5
39
102
{ACAD_REACTORS
330
2A
102
}
330
2A
100
AcDbVisualStyle
  2
Facepattern
 70
    15
177
     3
291
     1
 70
    58
 90
        2
176
     1
 90
        2
176
     1
 90
        0
176
     1
 90
        0
176
     1
 40
0.6
176
     1
 40
30.0
176
     1
 62
     7
420
 16777215
176
     1
 90
        1
176
     1
 90
        4
176
     1
 62
     7
176
     1
 62
   257
176
     1
 90
        1
176
     1
 90
        1
176
     1
 40
1.0
176
     1
 90
        8
176
     1
 62
     7
176
     1
 40
1.0
176
     1
 90
        1
176
     1
 90
        6
176
     1
 90
        2
176
     1
 62
     7
176
     1
 90
        5
176
     1
 90
        0
176
     1
 90
        0
176
     1
290
     0
176
     1
 90
        1
176
     1
 40
0.0
176
     1
 90
        0
176
     1
290
     0
176
     1
290
     1
176
     1
290
     1
176
     1
290
     0
176
     1
290
     0
176
     1
290
     0
176
     1
290
     0
176
     1
290
     0
176
     1
290
     0
176
     1
 90
       50
176
     1
 40
0.0
176
     1
 40
1.0
176
     1
 90
        0
176
     1
 62
    18
420
        0
176
     1
 90
       50
176
     1
 90
        3
176
     1
 62
     5
420
      255
176
     1
290
     0
176
     1
 90
       50
176
     1
 90
       50
176
     1
 90
       50
176
     1
290
     0
176
     1
 90
       50
176
     1
 62
   256
176
     0
 40
1.0
176
     0
 90
        2
176
     1
  1
strokes_ogs.tif
176
     1
290
     0
176
     1
 40
1.0
176
     1
 40
1.0
176
     1
  0
VISUALSTYLE
  5
2B
102
{ACAD_REACTORS
330
2A
102
}
330
2A
100
AcDbVisualStyle
  2
Flat
 70
     0
177
     3
291
     1
 70
    58
 90
        2
176
     1
 90
        1
176
     1
 90
        1
176
     1
 90
        2
176
     1
 40
0.6
176
     1
 40
30.0
176
     1
 62
     7
420
 16777215
176
     1
 90
        0
176
     1
 90
        0
176
     1
 62
     7
176
     1
 62
   257
176
     1
 90
        1
176
     1
 90
        1
176
     1
 40
1.0
176
     1
 90
        8
176
     1
 62
     7
176
     1
 40
1.0
176
     1
 90
        1
176
     1
 90
        6
176
     1
 90
        2
176
     1
 62
     7
176
     1
 90
        5
176
     1
 90
        0
176
     1
 90
        0
176
     1
290
     0
176
     1
 90
       13
176
     1
 40
0.0
176
     1
 90
        0
176
     1
290
     0
176
     1
290
     1
176
     1
290
     1
176
     1
290
     0
176
     1
290
     0
176
     1
290
     0
176
     1
290
     0
176
     1
290
     0
176
     1
290
     0
176
     1
 90
       50
176
     1
 40
0.0
176
     1
 40
1.0
176
     1
 90
        0
176
     1
 62
    18
420
        0
176
     1
 90
       50
176
     1
 90
        3
176
     1
 62
     5
420
      255
176
     1
290
     0
176
     1
 90
       50
176
     1
 90
       50
176
     1
 90
       50
176
     1
290
     0
176
     1
 90
       50
176
     1
 62
   256
176
     0
 40
1.0
176
     0
 90
        2
176
     1
  1
strokes_ogs.tif
176
     1
290
     0
176
     1
 40
1.0
176
     1
 40
1.0
176
     1
  0
VISUALSTYLE
  5
2C
102
{ACAD_REACTORS
330
2A
102
}
330
2A
100
AcDbVisualStyle
  2
FlatWithEdges
 70
     1
177
     3
291
     1
 70
    58
 90
        2
176
     1
 90
        1
176
     1
 90
        1
176
     1
 90
        2
176
     1
 40
0.6
176
     1
 40
30.0
176
     1
 62
     7
420
 16777215
176
     1
 90
        1
176
     1
 90
        0
176
     1
 62
     7
176
     1
 62
   257
176
     1
 90
        1
176
     1
 90
        1
176
     1
 40
1.0
176
     1
 90
        0
176
     1
 62
   257
176
     1
 40
1.0
176
     1
 90
        1
176
     1
 90
        6
176
     1
 90
        2
176
     1
 62
     7
176
     1
 90
        5
176
     1
 90
        0
176
     1
 90
        0
176
     1
290
     0
176
     1
 90
       13
176
     1
 40
0.0
176
     1
 90
        0
176
     1
290
     0
176
     1
290
     1
176
     1
290
     1
176
     1
290
     0
176
     1
290
     0
176
     1
290
     0
176
     1
290
     0
176
     1
290
     0
176
     1
290
     0
176
     1
 90
       50
176
     1
 40
0.0
176
     1
 40
1.0
176
     1
 90
        0
176
     1
 62
    18
420
        0
176
     1
 90
       50
176
     1
 90
        3
176
     1
 62
     5
420
      255
176
     1
290
     0
176
     1
 90
       50
176
     1
 90
       50
176
     1
 90
       50
176
     1
290
     0
176
     1
 90
       50
176
     1
 62
   256
176
     0
 40
1.0
176
     0
 90
        2
176
     1
  1
strokes_ogs.tif
176
     1
290
     0
176
     1
 40
1.0
176
     1
 40
1.0
176
     1
  0
VISUALSTYLE
  5
2D
102
{ACAD_REACTORS
330
2A
102
}
330
2A
100
AcDbVisualStyle
  2
Gouraud
 70
     2
177
     3
291
     1
 70
    58
 90
        2
176
     1
 90
        2
176
     1
 90
        1
176
     1
 90
        2
176
     1
 40
0.6
176
     1
 40
30.0
176
     1
 62
     7
420
 16777215
176
     1
 90
        0
176
     1
 90
        0
176
     1
 62
     7
176
     1
 62
   257
176
     1
 90
        1
176
     1
 90
        1
176
     1
 40
1.0
176
     1
 90
        0
176
     1
 62
     7
176
     1
 40
1.0
176
     1
 90
        1
176
     1
 90
        6
176
     1
 90
        2
176
     1
 62
     7
176
     1
 90
        5
176
     1
 90
        0
176
     1
 90
        0
176
     1
290
     0
176
     1
 90
       13
176
     1
 40
0.0
176
     1
 90
        0
176
     1
290
     0
176
     1
290
     1
176
     1
290
     1
176
     1
290
     0
176
     1
290
     0
176
     1
290
     0
176
     1
290
     0
176
     1
290
     0
176
     1
290
     0
176
     1
 90
       50
176
     1
 40
0.0
176
     1
 40
1.0
176
     1
 90
        0
176
     1
 62
    18
420
        0
176
     1
 90
       50
176
     1
 90
        3
176
     1
 62
     5
420
      255
176
     1
290
     0
176
     1
 90
       50
176
     1
 90
       50
176
     1
 90
       50
176
     1
290
     0
176
     1
 90
       50
176
     1
 62
   256
176
     0
 40
1.0
176
     0
 90
        2
176
     1
  1
strokes_ogs.tif
176
     1
290
     0
176
     1
 40
1.0
176
     1
 40
1.0
176
     1
  0
VISUALSTYLE
  5
2E
102
{ACAD_REACTORS
330
2A
102
}
330
2A
100
AcDbVisualStyle
  2
GouraudWithEdges
 70
     3
177
     3
291
     1
 70
    58
 90
        2
176
     1
 90
        2
176
     1
 90
        1
176
     1
 90
        2
176
     1
 40
0.6
176
     1
 40
30.0
176
     1
 62
     7
420
 16777215
176
     1
 90
        1
176
     1
 90
        0
176
     1
 62
     7
176
     1
 62
   257
176
     1
 90
        1
176
     1
 90
        1
176
     1
 40
1.0
176
     1
 90
        0
176
     1
 62
   257
176
     1
 40
1.0
176
     1
 90
        1
176
     1
 90
        6
176
     1
 90
        2
176
     1
 62
     7
176
     1
 90
        5
176
     1
 90
        0
176
     1
 90
        0
176
     1
290
     0
176
     1
 90
       13
176
     1
 40
0.0
176
     1
 90
        0
176
     1
290
     0
176
     1
290
     1
176
     1
290
     1
176
     1
290
     0
176
     1
290
     0
176
     1
290
     0
176
     1
290
     0
176
     1
290
     0
176
     1
290
     0
176
     1
 90
       50
176
     1
 40
0.0
176
     1
 40
1.0
176
     1
 90
        0
176
     1
 62
    18
420
        0
176
     1
 90
       50
176
     1
 90
        3
176
     1
 62
     5
420
      255
176
     1
290
     0
176
     1
 90
       50
176
     1
 90
       50
176
     1
 90
       50
176
     1
290
     0
176
     1
 90
       50
176
     1
 62
   256
176
     0
 40
1.0
176
     0
 90
        2
176
     1
  1
strokes_ogs.tif
176
     1
290
     0
176
     1
 40
1.0
176
     1
 40
1.0
176
     1
  0
VISUALSTYLE
  5
31
102
{ACAD_REACTORS
330
2A
102
}
330
2A
100
AcDbVisualStyle
  2
Hidden
 70
     6
177
     3
291
     0
 70
    58
 90
        1
176
     1
 90
        2
176
     1
 90
        2
176
     1
 90
        0
176
     1
 40
0.6
176
     1
 40
30.0
176
     1
 62
     7
420
 16777215
176
     1
 90
        2
176
     1
 90
        2
176
     1
 62
     7
176
     1
 62
   257
176
     1
 90
        2
176
     1
 90
        1
176
     1
 40
40.0
176
     1
 90
        0
176
     1
 62
   257
176
     1
 40
1.0
176
     1
 90
        1
176
     1
 90
        6
176
     1
 90
        2
176
     1
 62
     7
176
     1
 90
        3
176
     1
 90
        0
176
     1
 90
        0
176
     1
290
     0
176
     1
 90
        1
176
     1
 40
0.0
176
     1
 90
        0
176
     1
290
     0
176
     1
290
     1
176
     1
290
     1
176
     1
290
     0
176
     1
290
     0
176
     1
290
     0
176
     1
290
     0
176
     1
290
     0
176
     1
290
     0
176
     1
 90
       50
176
     1
 40
0.0
176
     1
 40
1.0
176
     1
 90
        0
176
     1
 62
    18
420
        0
176
     1
 90
       50
176
     1
 90
        3
176
     1
 62
     5
420
      255
176
     1
290
     0
176
     1
 90
       50
176
     1
 90
       50
176
     1
 90
       50
176
     1
290
     0
176
     1
 90
       50
176
     1
 62
   256
176
     0
 40
1.0
176
     0
 90
        2
176
     1
  1
strokes_ogs.tif
176
     1
290
     0
176
     1
 40
1.0
176
     1
 40
1.0
176
     1
  0
VISUALSTYLE
  5
3B
102
{ACAD_REACTORS
330
2A
102
}
330
2A
100
AcDbVisualStyle
  2
JitterOff
 70
    20
177
     3
291
     1
 70
    58
 90
        2
176
     0
 90
        2
176
     0
 90
        0
176
     0
 90
        0
176
     0
 40
0.6
176
     0
 40
30.0
176
     0
 62
     7
420
 16777215
176
     0
 90
        1
176
     0
 90
        4
176
     0
 62
     7
176
     0
 62
   257
176
     0
 90
        1
176
     0
 90
        1
176
     0
 40
1.0
176
     0
 90
       10
176
     2
 62
     7
176
     0
 40
1.0
176
     0
 90
        1
176
     0
 90
        6
176
     0
 90
        2
176
     0
 62
     7
176
     0
 90
        5
176
     0
 90
        0
176
     0
 90
        0
176
     0
290
     0
176
     0
 90
        1
176
     0
 40
0.0
176
     0
 90
        0
176
     0
290
     0
176
     0
290
     1
176
     0
290
     1
176
     0
290
     0
176
     0
290
     0
176
     0
290
     0
176
     0
290
     0
176
     0
290
     0
176
     0
290
     0
176
     0
 90
       50
176
     0
 40
0.0
176
     0
 40
1.0
176
     0
 90
        0
176
     0
 62
    18
420
        0
176
     0
 90
       50
176
     0
 90
        3
176
     0
 62
     5
420
      255
176
     0
290
     0
176
     0
 90
       50
176
     0
 90
       50
176
     0
 90
       50
176
     0
290
     0
176
     0
 90
       50
176
     0
 62
   256
176
     0
 40
1.0
176
     0
 90
        2
176
     0
  1
strokes_ogs.tif
176
     0
290
     0
176
     0
 40
1.0
176
     0
 40
1.0
176
     0
  0
VISUALSTYLE
  5
38
102
{ACAD_REACTORS
330
2A
102
}
330
2A
100
AcDbVisualStyle
  2
Linepattern
 70
    14
177
     3
291
     1
 70
    58
 90
        2
176
     1
 90
        2
176
     1
 90
        0
176
     1
 90
        0
176
     1
 40
0.6
176
     1
 40
30.0
176
     1
 62
     7
420
 16777215
176
     1
 90
        1
176
     1
 90
        4
176
     1
 62
     7
176
     1
 62
   257
176
     1
 90
        7
176
     1
 90
        7
176
     1
 40
1.0
176
     1
 90
        8
176
     1
 62
     7
176
     1
 40
1.0
176
     1
 90
        1
176
     1
 90
        6
176
     1
 90
        2
176
     1
 62
     7
176
     1
 90
        5
176
     1
 90
        0
176
     1
 90
        0
176
     1
290
     0
176
     1
 90
        1
176
     1
 40
0.0
176
     1
 90
        0
176
     1
290
     0
176
     1
290
     1
176
     1
290
     1
176
     1
290
     0
176
     1
290
     0
176
     1
290
     0
176
     1
290
     0
176
     1
290
     0
176
     1
290
     0
176
     1
 90
       50
176
     1
 40
0.0
176
     1
 40
1.0
176
     1
 90
        0
176
     1
 62
    18
420
        0
176
     1
 90
       50
176
     1
 90
        3
176
     1
 62
     5
420
      255
176
     1
290
     0
176
     1
 90
       50
176
     1
 90
       50
176
     1
 90
       50
176
     1
290
     0
176
     1
 90
       50
176
     1
 62
   256
176
     0
 40
1.0
176
     0
 90
        2
176
     1
  1
strokes_ogs.tif
176
     1
290
     0
176
     1
 40
1.0
176
     1
 40
1.0
176
     1
  0
VISUALSTYLE
  5
3C
102
{ACAD_REACTORS
330
2A
102
}
330
2A
100
AcDbVisualStyle
  2
OverhangOff
 70
    21
177
     3
291
     1
 70
    58
 90
        2
176
     0
 90
        2
176
     0
 90
        0
176
     0
 90
        0
176
     0
 40
0.6
176
     0
 40
30.0
176
     0
 62
     7
420
 16777215
176
     0
 90
        1
176
     0
 90
        4
176
     0
 62
     7
176
     0
 62
   257
176
     0
 90
        1
176
     0
 90
        1
176
     0
 40
1.0
176
     0
 90
        9
176
     2
 62
     7
176
     0
 40
1.0
176
     0
 90
        1
176
     0
 90
        6
176
     0
 90
        2
176
     0
 62
     7
176
     0
 90
        5
176
     0
 90
        0
176
     0
 90
        0
176
     0
290
     0
176
     0
 90
        1
176
     0
 40
0.0
176
     0
 90
        0
176
     0
290
     0
176
     0
290
     1
176
     0
290
     1
176
     0
290
     0
176
     0
290
     0
176
     0
290
     0
176
     0
290
     0
176
     0
290
     0
176
     0
290
     0
176
     0
 90
       50
176
     0
 40
0.0
176
     0
 40
1.0
176
     0
 90
        0
176
     0
 62
    18
420
        0
176
     0
 90
       50
176
     0
 90
        3
176
     0
 62
     5
420
      255
176
     0
290
     0
176
     0
 90
       50
176
     0
 90
       50
176
     0
 90
       50
176
     0
290
     0
176
     0
 90
       50
176
     0
 62
   256
176
     0
 40
1.0
176
     0
 90
        2
176
     0
  1
strokes_ogs.tif
176
     0
290
     0
176
     0
 40
1.0
176
     0
 40
1.0
176
     0
  0
VISUALSTYLE
  5
33
102
{ACAD_REACTORS
330
2A
102
}
330
2A
100
AcDbVisualStyle
  2
Realistic
 70
     8
177
     3
291
     0
 70
    58
 90
        2
176
     1
 90
        3
176
     1
 90
        0
176
     1
 90
        2
176
     1
 40
0.6
176
     1
 40
30.0
176
     1
 62
     7
420
 16777215
176
     1
 90
        0
176
     1
 90
        0
176
     1
 62
     7
176
     1
 62
   257
176
     1
 90
        1
176
     1
 90
        1
176
     1
 40
1.0
176
     1
 90
        8
176
     1
 62
   257
176
     1
 40
1.0
176
     1
 90
        1
176
     1
 90
        6
176
     1
 90
        2
176
     1
 62
     7
176
     1
 90
        3
176
     1
 90
        0
176
     1
 90
        0
176
     1
290
     0
176
     1
 90
       13
176
     1
 40
0.0
176
     1
 90
        0
176
     1
290
     0
176
     1
290
     1
176
     1
290
     1
176
     1
290
     0
176
     1
290
     0
176
     1
290
     0
176
     1
290
     0
176
     1
290
     0
176
     1
290
     0
176
     1
 90
       50
176
     1
 40
0.0
176
     1
 40
1.0
176
     1
 90
        0
176
     1
 62
    18
420
        0
176
     1
 90
       50
176
     1
 90
        3
176
     1
 62
     5
420
      255
176
     1
290
     0
176
     1
 90
       50
176
     1
 90
       50
176
     1
 90
       50
176
     1
290
     0
176
     1
 90
       50
176
     1
 62
   256
176
     0
 40
1.0
176
     0
 90
        2
176
     1
  1
strokes_ogs.tif
176
     1
290
     0
176
     1
 40
1.0
176
     1
 40
1.0
176
     1
  0
VISUALSTYLE
  5
42
102
{ACAD_REACTORS
330
2A
102
}
330
2A
100
AcDbVisualStyle
  2
Shaded
 70
    27
177
     3
291
     0
 70
    58
 90
        2
176
     1
 90
        2
176
     1
 90
        1
176
     1
 90
        2
176
     1
 40
0.6
176
     1
 40
30.0
176
     1
 62
     7
420
 16777215
176
     1
 90
        0
176
     1
 90
        4
176
     1
 62
     7
176
     1
 62
   257
176
     1
 90
        1
176
     1
 90
        1
176
     1
 40
1.0
176
     1
 90
        8
176
     1
 62
   257
176
     1
 40
1.0
176
     1
 90
        1
176
     1
 90
        6
176
     1
 90
        2
176
     1
 62
     8
420
  7895160
176
     1
 90
        3
176
     1
 90
        0
176
     1
 90
        0
176
     1
290
     0
176
     1
 90
        5
176
     1
 40
0.0
176
     1
 90
        0
176
     1
290
     0
176
     1
290
     1
176
     1
290
     1
176
     1
290
     0
176
     1
290
     0
176
     1
290
     0
176
     1
290
     0
176
     1
290
     0
176
     1
290
     0
176
     1
 90
       50
176
     1
 40
0.0
176
     1
 40
1.0
176
     1
 90
        0
176
     1
 62
    18
420
        0
176
     1
 90
       50
176
     1
 90
        3
176
     1
 62
     5
420
      255
176
     1
290
     0
176
     1
 90
       50
176
     1
 90
       50
176
     1
 90
       50
176
     1
290
     0
176
     1
 90
       50
176
     1
 62
   256
176
     0
 40
1.0
176
     0
 90
        2
176
     1
  1
strokes_ogs.tif
176
     1
290
     0
176
     1
 40
1.0
176
     1
 40
1.0
176
     1
  0
VISUALSTYLE
  5
41
102
{ACAD_REACTORS
330
2A
102
}
330
2A
100
AcDbVisualStyle
  2
Shaded with edges
 70
    26
177
     3
291
     0
 70
    58
 90
        2
176
     1
 90
        2
176
     1
 90
        1
176
     1
 90
        2
176
     1
 40
0.6
176
     1
 40
30.0
176
     1
 62
     7
420
 16777215
176
     1
 90
        1
176
     1
 90
       10
176
     1
 62
     7
176
     1
 62
   257
176
     1
 90
        2
176
     1
 90
        1
176
     1
 40
1.0
176
     1
 90
        8
176
     1
 62
   257
176
     1
 40
1.0
176
     1
 90
        1
176
     1
 90
        6
176
     1
 90
        2
176
     1
 62
     7
176
     1
 90
        3
176
     1
 90
        0
176
     1
 90
        0
176
     1
290
     0
176
     1
 90
        5
176
     1
 40
0.0
176
     1
 90
        0
176
     1
290
     0
176
     1
290
     1
176
     1
290
     1
176
     1
290
     0
176
     1
290
     0
176
     1
290
     0
176
     1
290
     0
176
     1
290
     0
176
     1
290
     0
176
     1
 90
       50
176
     1
 40
0.0
176
     1
 40
1.0
176
     1
 90
        0
176
     1
 62
    18
420
        0
176
     1
 90
       50
176
     1
 90
        3
176
     1
 62
     5
420
      255
176
     1
290
     0
176
     1
 90
       50
176
     1
 90
       50
176
     1
 90
       50
176
     1
290
     0
176
     1
 90
       50
176
     1
 62
   256
176
     0
 40
1.0
176
     0
 90
        2
176
     1
  1
strokes_ogs.tif
176
     1
290
     0
176
     1
 40
1.0
176
     1
 40
1.0
176
     1
  0
VISUALSTYLE
  5
3E
102
{ACAD_REACTORS
330
2A
102
}
330
2A
100
AcDbVisualStyle
  2
Shades of Gray
 70
    23
177
     3
291
     0
 70
    58
 90
        2
176
     1
 90
        2
176
     1
 90
        3
176
     1
 90
        0
176
     1
 40
0.6
176
     1
 40
30.0
176
     1
 62
     7
420
 16777215
176
     1
 90
        2
176
     1
 90
        2
176
     1
 62
     7
176
     1
 62
     7
176
     1
 90
        1
176
     1
 90
        1
176
     1
 40
40.0
176
     1
 90
        8
176
     1
 62
     7
176
     1
 40
1.0
176
     1
 90
        1
176
     1
 90
        6
176
     1
 90
        2
176
     1
 62
     7
176
     1
 90
        3
176
     1
 90
        0
176
     1
 90
        0
176
     1
290
     0
176
     1
 90
        1
176
     1
 40
0.0
176
     1
 90
        0
176
     1
290
     0
176
     1
290
     1
176
     1
290
     1
176
     1
290
     0
176
     1
290
     0
176
     1
290
     0
176
     1
290
     0
176
     1
290
     0
176
     1
290
     0
176
     1
 90
       50
176
     1
 40
0.0
176
     1
 40
1.0
176
     1
 90
        0
176
     1
 62
    18
420
        0
176
     1
 90
       50
176
     1
 90
        3
176
     1
 62
     5
420
      255
176
     1
290
     0
176
     1
 90
       50
176
     1
 90
       50
176
     1
 90
       50
176
     1
290
     0
176
     1
 90
       50
176
     1
 62
   256
176
     0
 40
1.0
176
     0
 90
        2
176
     1
  1
strokes_ogs.tif
176
     1
290
     0
176
     1
 40
1.0
176
     1
 40
1.0
176
     1
  0
VISUALSTYLE
  5
3F
102
{ACAD_REACTORS
330
2A
102
}
330
2A
100
AcDbVisualStyle
  2
Sketchy
 70
    24
177
     3
291
     0
 70
    58
 90
        1
176
     1
 90
        2
176
     1
 90
        2
176
     1
 90
        0
176
     1
 40
0.6
176
     1
 40
30.0
176
     1
 62
     7
420
 16777215
176
     1
 90
        2
176
     1
 90
        2
176
     1
 62
     7
176
     1
 62
     7
176
     1
 90
        1
176
     1
 90
        1
176
     1
 40
40.0
176
     1
 90
       11
176
     1
 62
     7
176
     1
 40
1.0
176
     1
 90
        1
176
     1
 90
        6
176
     1
 90
        2
176
     1
 62
     7
176
     1
 90
        6
176
     1
 90
        0
176
     1
 90
        0
176
     1
290
     0
176
     1
 90
        1
176
     1
 40
0.0
176
     1
 90
        0
176
     1
290
     0
176
     1
290
     1
176
     1
290
     1
176
     1
290
     0
176
     1
290
     0
176
     1
290
     0
176
     1
290
     0
176
     1
290
     0
176
     1
290
     0
176
     1
 90
       50
176
     1
 40
0.0
176
     1
 40
1.0
176
     1
 90
        0
176
     1
 62
    18
420
        0
176
     1
 90
       50
176
     1
 90
        3
176
     1
 62
     5
420
      255
176
     1
290
     0
176
     1
 90
       50
176
     1
 90
       50
176
     1
 90
       50
176
     1
290
     0
176
     1
 90
       50
176
     1
 62
   256
176
     0
 40
1.0
176
     0
 90
        2
176
     1
  1
strokes_ogs.tif
176
     1
290
     0
176
     1
 40
1.0
176
     1
 40
1.0
176
     1
  0
VISUALSTYLE
  5
37
102
{ACAD_REACTORS
330
2A
102
}
330
2A
100
AcDbVisualStyle
  2
Thicken
 70
    13
177
     3
291
     1
 70
    58
 90
        2
176
     1
 90
        2
176
     1
 90
        0
176
     1
 90
        0
176
     1
 40
0.6
176
     1
 40
30.0
176
     1
 62
     7
420
 16777215
176
     1
 90
        1
176
     1
 90
        4
176
     1
 62
     7
176
     1
 62
   257
176
     1
 90
        1
176
     1
 90
        1
176
     1
 40
1.0
176
     1
 90
       12
176
     1
 62
     7
176
     1
 40
1.0
176
     1
 90
        1
176
     1
 90
        6
176
     1
 90
        2
176
     1
 62
     7
176
     1
 90
        5
176
     1
 90
        0
176
     1
 90
        0
176
     1
290
     0
176
     1
 90
        1
176
     1
 40
0.0
176
     1
 90
        0
176
     1
290
     0
176
     1
290
     1
176
     1
290
     1
176
     1
290
     0
176
     1
290
     0
176
     1
290
     0
176
     1
290
     0
176
     1
290
     0
176
     1
290
     0
176
     1
 90
       50
176
     1
 40
0.0
176
     1
 40
1.0
176
     1
 90
        0
176
     1
 62
    18
420
        0
176
     1
 90
       50
176
     1
 90
        3
176
     1
 62
     5
420
      255
176
     1
290
     0
176
     1
 90
       50
176
     1
 90
       50
176
     1
 90
       50
176
     1
290
     0
176
     1
 90
       50
176
     1
 62
   256
176
     0
 40
1.0
176
     0
 90
        2
176
     1
  1
strokes_ogs.tif
176
     1
290
     0
176
     1
 40
1.0
176
     1
 40
1.0
176
     1
  0
VISUALSTYLE
  5
30
102
{ACAD_REACTORS
330
2A
102
}
330
2A
100
AcDbVisualStyle
  2
Wireframe
 70
     5
177
     3
291
     0
 70
    58
 90
        0
176
     1
 90
        2
176
     1
 90
        0
176
     1
 90
        0
176
     1
 40
0.6
176
     1
 40
30.0
176
     1
 62
     7
420
 16777215
176
     1
 90
        1
176
     1
 90
        4
176
     1
 62
     7
176
     1
 62
   257
176
     1
 90
        1
176
     1
 90
        1
176
     1
 40
1.0
176
     1
 90
        0
176
     1
 62
   257
176
     1
 40
1.0
176
     1
 90
        1
176
     1
 90
        6
176
     1
 90
        2
176
     1
 62
     7
176
     1
 90
        3
176
     1
 90
        0
176
     1
 90
        0
176
     1
290
     0
176
     1
 90
        1
176
     1
 40
0.0
176
     1
 90
        0
176
     1
290
     0
176
     1
290
     1
176
     1
290
     1
176
     1
290
     0
176
     1
290
     0
176
     1
290
     0
176
     1
290
     0
176
     1
290
     0
176
     1
290
     0
176
     1
 90
       50
176
     1
 40
0.0
176
     1
 40
1.0
176
     1
 90
        0
176
     1
 62
    18
420
        0
176
     1
 90
       50
176
     1
 90
        3
176
     1
 62
     5
420
      255
176
     1
290
     0
176
     1
 90
       50
176
     1
 90
       50
176
     1
 90
       50
176
     1
290
     0
176
     1
 90
       50
176
     1
 62
   256
176
     0
 40
1.0
176
     0
 90
        2
176
     1
  1
strokes_ogs.tif
176
     1
290
     0
176
     1
 40
1.0
176
     1
 40
1.0
176
     1
  0
VISUALSTYLE
  5
40
102
{ACAD_REACTORS
330
2A
102
}
330
2A
100
AcDbVisualStyle
  2
X-Ray
 70
    25
177
     3
291
     0
 70
    58
 90
        2
176
     1
 90
        2
176
     1
 90
        1
176
     1
 90
        1
176
     1
 40
0.5
176
     1
 40
30.0
176
     1
 62
     7
420
 16777215
176
     1
 90
        1
176
     1
 90
        0
176
     1
 62
     7
176
     1
 62
   257
176
     1
 90
        1
176
     1
 90
        1
176
     1
 40
1.0
176
     1
 90
        8
176
     1
 62
     7
176
     1
 40
1.0
176
     1
 90
        1
176
     1
 90
        6
176
     1
 90
        2
176
     1
 62
     7
176
     1
 90
        3
176
     1
 90
        0
176
     1
 90
        0
176
     1
290
     0
176
     1
 90
       13
176
     1
 40
0.0
176
     1
 90
        0
176
     1
290
     0
176
     1
290
     1
176
     1
290
     1
176
     1
290
     0
176
     1
290
     0
176
     1
290
     0
176
     1
290
     0
176
     1
290
     0
176
     1
290
     0
176
     1
 90
       50
176
     1
 40
0.0
176
     1
 40
1.0
176
     1
 90
        0
176
     1
 62
    18
420
        0
176
     1
 90
       50
176
     1
 90
        3
176
     1
 62
     5
420
      255
176
     1
290
     0
176
     1
 90
       50
176
     1
 90
       50
176
     1
 90
       50
176
     1
290
     0
176
     1
 90
       50
176
     1
 62
   256
176
     0
 40
1.0
176
     0
 90
        2
176
     1
  1
strokes_ogs.tif
176
     1
290
     0
176
     1
 40
1.0
176
     1
 40
1.0
176
     1
  0
DICTIONARYVAR
  5
1FF
102
{ACAD_REACTORS
330
1FE
102
}
330
1FE
100
DictionaryVariables
280
     0
  1
1:1
  0
DICTIONARYVAR
  5
204
102
{ACAD_REACTORS
330
1FE
102
}
330
1FE
100
DictionaryVariables
280
     0
  1
Standard
  0
DICTIONARYVAR
  5
203
102
{ACAD_REACTORS
330
1FE
102
}
330
1FE
100
DictionaryVariables
280
     0
  1
Standard
  0
DICTIONARY
  5
200
330
6A
100
AcDbDictionary
280
     1
281
     1
  3
ACAD_ROUNDTRIP_2008_TABLESTYLE_CELLSTYLEMAP
360
201
  0
CELLSTYLEMAP
  5
201
102
{ACAD_REACTORS
330
200
102
}
330
200
100
AcDbCellStyleMap
 90
        3
300
CELLSTYLE
  1
TABLEFORMAT_BEGIN
 90
        5
170
     1
 91
        0
 92
    32768
 62
   257
 93
        1
300
CONTENTFORMAT
  1
CONTENTFORMAT_BEGIN
 90
        0
 91
        0
 92
        4
 93
        0
300

 40
0.0
140
1.0
 94
        5
 62
     0
340
11
144
0.25
309
CONTENTFORMAT_END
171
     1
301
MARGIN
  1
CELLMARGIN_BEGIN
 40
0.06
 40
0.06
 40
0.06
 40
0.06
 40
0.06
 40
0.06
309
CELLMARGIN_END
 94
        6
 95
        1
302
GRIDFORMAT
  1
GRIDFORMAT_BEGIN
 90
        0
 91
        1
 62
     0
 92
       -2
340
14
 93
        0
 40
0.045
309
GRIDFORMAT_END
 95
        2
302
GRIDFORMAT
  1
GRIDFORMAT_BEGIN
 90
        0
 91
        1
 62
     0
 92
       -2
340
14
 93
        0
 40
0.045
309
GRIDFORMAT_END
 95
        4
302
GRIDFORMAT
  1
GRIDFORMAT_BEGIN
 90
        0
 91
        1
 62
     0
 92
       -2
340
14
 93
        0
 40
0.045
309
GRIDFORMAT_END
 95
        8
302
GRIDFORMAT
  1
GRIDFORMAT_BEGIN
 90
        0
 91
        1
 62
     0
 92
       -2
340
14
 93
        0
 40
0.045
309
GRIDFORMAT_END
 95
       16
302
GRIDFORMAT
  1
GRIDFORMAT_BEGIN
 90
        0
 91
        1
 62
     0
 92
       -2
340
14
 93
        0
 40
0.045
309
GRIDFORMAT_END
 95
       32
302
GRIDFORMAT
  1
GRIDFORMAT_BEGIN
 90
        0
 91
        1
 62
     0
 92
       -2
340
14
 93
        0
 40
0.045
309
GRIDFORMAT_END
309
TABLEFORMAT_END
  1
CELLSTYLE_BEGIN
 90
        1
 91
        1
300
_TITLE
309
CELLSTYLE_END
300
CELLSTYLE
  1
TABLEFORMAT_BEGIN
 90
        5
170
     1
 91
        0
 92
        0
 62
   257
 93
        1
300
CONTENTFORMAT
  1
CONTENTFORMAT_BEGIN
 90
        0
 91
        0
 92
        4
 93
        0
300

 40
0.0
140
1.0
 94
        5
 62
     0
340
11
144
0.18
309
CONTENTFORMAT_END
171
     1
301
MARGIN
  1
CELLMARGIN_BEGIN
 40
0.06
 40
0.06
 40
0.06
 40
0.06
 40
0.06
 40
0.06
309
CELLMARGIN_END
 94
        6
 95
        1
302
GRIDFORMAT
  1
GRIDFORMAT_BEGIN
 90
        0
 91
        1
 62
     0
 92
       -2
340
14
 93
        0
 40
0.045
309
GRIDFORMAT_END
 95
        2
302
GRIDFORMAT
  1
GRIDFORMAT_BEGIN
 90
        0
 91
        1
 62
     0
 92
       -2
340
14
 93
        0
 40
0.045
309
GRIDFORMAT_END
 95
        4
302
GRIDFORMAT
  1
GRIDFORMAT_BEGIN
 90
        0
 91
        1
 62
     0
 92
       -2
340
14
 93
        0
 40
0.045
309
GRIDFORMAT_END
 95
        8
302
GRIDFORMAT
  1
GRIDFORMAT_BEGIN
 90
        0
 91
        1
 62
     0
 92
       -2
340
14
 93
        0
 40
0.045
309
GRIDFORMAT_END
 95
       16
302
GRIDFORMAT
  1
GRIDFORMAT_BEGIN
 90
        0
 91
        1
 62
     0
 92
       -2
340
14
 93
        0
 40
0.045
309
GRIDFORMAT_END
 95
       32
302
GRIDFORMAT
  1
GRIDFORMAT_BEGIN
 90
        0
 91
        1
 62
     0
 92
       -2
340
14
 93
        0
 40
0.045
309
GRIDFORMAT_END
309
TABLEFORMAT_END
  1
CELLSTYLE_BEGIN
 90
        2
 91
        1
300
_HEADER
309
CELLSTYLE_END
300
CELLSTYLE
  1
TABLEFORMAT_BEGIN
 90
        5
170
     1
 91
        0
 92
        0
 62
   257
 93
        1
300
CONTENTFORMAT
  1
CONTENTFORMAT_BEGIN
 90
        0
 91
        0
 92
        4
 93
        0
300

 40
0.0
140
1.0
 94
        2
 62
     0
340
11
144
0.18
309
CONTENTFORMAT_END
171
     1
301
MARGIN
  1
CELLMARGIN_BEGIN
 40
0.06
 40
0.06
 40
0.06
 40
0.06
 40
0.06
 40
0.06
309
CELLMARGIN_END
 94
        6
 95
        1
302
GRIDFORMAT
  1
GRIDFORMAT_BEGIN
 90
        0
 91
        1
 62
     0
 92
       -2
340
14
 93
        0
 40
0.045
309
GRIDFORMAT_END
 95
        2
302
GRIDFORMAT
  1
GRIDFORMAT_BEGIN
 90
        0
 91
        1
 62
     0
 92
       -2
340
14
 93
        0
 40
0.045
309
GRIDFORMAT_END
 95
        4
302
GRIDFORMAT
  1
GRIDFORMAT_BEGIN
 90
        0
 91
        1
 62
     0
 92
       -2
340
14
 93
        0
 40
0.045
309
GRIDFORMAT_END
 95
        8
302
GRIDFORMAT
  1
GRIDFORMAT_BEGIN
 90
        0
 91
        1
 62
     0
 92
       -2
340
14
 93
        0
 40
0.045
309
GRIDFORMAT_END
 95
       16
302
GRIDFORMAT
  1
GRIDFORMAT_BEGIN
 90
        0
 91
        1
 62
     0
 92
       -2
340
14
 93
        0
 40
0.045
309
GRIDFORMAT_END
 95
       32
302
GRIDFORMAT
  1
GRIDFORMAT_BEGIN
 90
        0
 91
        1
 62
     0
 92
       -2
340
14
 93
        0
 40
0.045
309
GRIDFORMAT_END
309
TABLEFORMAT_END
  1
CELLSTYLE_BEGIN
 90
        3
 91
        2
300
_DATA
309
CELLSTYLE_END
  0
ENDSEC
  0
EOF