0
SECTION
  2
HEADER
  9
$ACADVER
  1
AC1027
  9
$ACADMAINTVER
 70
     8
  9
$DWGCODEPAGE
  3
ANSI_1252
  9
$REQUIREDVERSIONS
160
                 0
  9
$COMMENTS
  1
File was created by Cadenas
  9
$CUSTOMPROPERTYTAG
  1
NN
  9
$CUSTOMPROPERTY
  1
Type K Pillow Block 2&4-Bolt Base Non-Expansion Inch Bore
  9
$CUSTOMPROPERTYTAG
  1
NT
  9
$CUSTOMPROPERTY
  1
Type K
  9
$CUSTOMPROPERTYTAG
  1
NB
  9
$CUSTOMPROPERTY
  1
023167
  9
$CUSTOMPROPERTYTAG
  1
NBSYN
  9
$CUSTOMPROPERTY
  1
$PN.
  9
$CUSTOMPROPERTYTAG
  1
LINA
  9
$CUSTOMPROPERTY
  1
023167
  9
$CUSTOMPROPERTYTAG
  1
SS
  9
$CUSTOMPROPERTY
  1
1-3/16
  9
$CUSTOMPROPERTYTAG
  1
PN
  9
$CUSTOMPROPERTY
  1
023167
  9
$CUSTOMPROPERTYTAG
  1
PNA
  9
$CUSTOMPROPERTY
  1
P2B-K-103R
  9
$CUSTOMPROPERTYTAG
  1
WEIGHT
  9
$CUSTOMPROPERTY
  1
9
  9
$CUSTOMPROPERTYTAG
  1
A
  9
$CUSTOMPROPERTY
  1
2.28
  9
$CUSTOMPROPERTYTAG
  1
B
  9
$CUSTOMPROPERTY
  1
7.50
  9
$CUSTOMPROPERTYTAG
  1
C
  9
$CUSTOMPROPERTY
  1
1.88
  9
$CUSTOMPROPERTYTAG
  1
DMIN
  9
$CUSTOMPROPERTY
  1
6
  9
$CUSTOMPROPERTYTAG
  1
DMAX
  9
$CUSTOMPROPERTY
  1
6.38
  9
$CUSTOMPROPERTYTAG
  1
E
  9
$CUSTOMPROPERTY
  1
N/A
  9
$CUSTOMPROPERTYTAG
  1
F
  9
$CUSTOMPROPERTY
  1
3/8
  9
$CUSTOMPROPERTYTAG
  1
G
  9
$CUSTOMPROPERTY
  1
.69
  9
$CUSTOMPROPERTYTAG
  1
H
  9
$CUSTOMPROPERTY
  1
1.00
  9
$CUSTOMPROPERTYTAG
  1
J
  9
$CUSTOMPROPERTY
  1
4.53
  9
$CUSTOMPROPERTYTAG
  1
L
  9
$CUSTOMPROPERTY
  1
2.25
  9
$CUSTOMPROPERTYTAG
  1
M
  9
$CUSTOMPROPERTY
  1
2.13
  9
$CUSTOMPROPERTYTAG
  1
P
  9
$CUSTOMPROPERTY
  1
5.00
  9
$CUSTOMPROPERTYTAG
  1
R
  9
$CUSTOMPROPERTY
  1
1
  9
$CUSTOMPROPERTYTAG
  1
S
  9
$CUSTOMPROPERTY
  1
1.38
  9
$CUSTOMPROPERTYTAG
  1
T
  9
$CUSTOMPROPERTY
  1
.09
  9
$CUSTOMPROPERTYTAG
  1
CS
  9
$CUSTOMPROPERTY
  1
15760
  9
$CUSTOMPROPERTYTAG
  1
CD
  9
$CUSTOMPROPERTY
  1
2980
  9
$CUSTOMPROPERTYTAG
  1
RN
  9
$CUSTOMPROPERTY
  1
19
  9
$CUSTOMPROPERTYTAG
  1
RM
  9
$CUSTOMPROPERTY
  1
.23
  9
$CUSTOMPROPERTYTAG
  1
PDI
  9
$CUSTOMPROPERTY
  1
1.774
  9
$CUSTOMPROPERTYTAG
  1
EP
  9
$CUSTOMPROPERTY
  1
.004-.012
  9
$CUSTOMPROPERTYTAG
  1
CSS
  9
$CUSTOMPROPERTY
  1
5/16-18*1/2
  9
$CUSTOMPROPERTYTAG
  1
CST
  9
$CUSTOMPROPERTY
  1
165
  9
$CUSTOMPROPERTYTAG
  1
MH
  9
$CUSTOMPROPERTY
  1
C.I. ASTM A48 CLASS 30
  9
$CUSTOMPROPERTYTAG
  1
MC
  9
$CUSTOMPROPERTY
  1
4118 CASE CARB.
  9
$CUSTOMPROPERTYTAG
  1
MCU
  9
$CUSTOMPROPERTY
  1
4118 CASE CARB.
  9
$CUSTOMPROPERTYTAG
  1
MR
  9
$CUSTOMPROPERTY
  1
STEEL
  9
$CUSTOMPROPERTYTAG
  1
MRO
  9
$CUSTOMPROPERTY
  1
4118 CASE CARB.
  9
$CUSTOMPROPERTYTAG
  1
SM
  9
$CUSTOMPROPERTY
  1
3.59*
  9
$CUSTOMPROPERTYTAG
  1
COMPANY
  9
$CUSTOMPROPERTY
  1
baldor
  9
$INSBASE
 10
0.0
 20
0.0
 30
0.0
  9
$EXTMIN
 10
1.000000000000000E+20
 20
1.000000000000000E+20
 30
1.000000000000000E+20
  9
$EXTMAX
 10
-1.000000000000000E+20
 20
-1.000000000000000E+20
 30
-1.000000000000000E+20
  9
$LIMMIN
 10
0.0
 20
0.0
  9
$LIMMAX
 10
12.0
 20
9.0
  9
$ORTHOMODE
 70
     0
  9
$REGENMODE
 70
     1
  9
$FILLMODE
 70
     1
  9
$QTEXTMODE
 70
     0
  9
$MIRRTEXT
 70
     1
  9
$LTSCALE
 40
1.0
  9
$ATTMODE
 70
     1
  9
$TEXTSIZE
 40
0.2
  9
$TRACEWID
 40
0.05
  9
$TEXTSTYLE
  7
Standard
  9
$CLAYER
  8
0
  9
$CELTYPE
  6
ByLayer
  9
$CECOLOR
 62
   256
  9
$CELTSCALE
 40
1.0
  9
$DISPSILH
 70
     0
  9
$DIMSCALE
 40
1.0
  9
$DIMASZ
 40
0.18
  9
$DIMEXO
 40
0.0625
  9
$DIMDLI
 40
0.38
  9
$DIMRND
 40
0.0
  9
$DIMDLE
 40
0.0
  9
$DIMEXE
 40
0.18
  9
$DIMTP
 40
0.0
  9
$DIMTM
 40
0.0
  9
$DIMTXT
 40
0.18
  9
$DIMCEN
 40
0.09
  9
$DIMTSZ
 40
0.0
  9
$DIMTOL
 70
     0
  9
$DIMLIM
 70
     0
  9
$DIMTIH
 70
     1
  9
$DIMTOH
 70
     1
  9
$DIMSE1
 70
     0
  9
$DIMSE2
 70
     0
  9
$DIMTAD
 70
     0
  9
$DIMZIN
 70
     0
  9
$DIMBLK
  1

  9
$DIMASO
 70
     1
  9
$DIMSHO
 70
     1
  9
$DIMPOST
  1

  9
$DIMAPOST
  1

  9
$DIMALT
 70
     0
  9
$DIMALTD
 70
     2
  9
$DIMALTF
 40
25.4
  9
$DIMLFAC
 40
1.0
  9
$DIMTOFL
 70
     0
  9
$DIMTVP
 40
0.0
  9
$DIMTIX
 70
     0
  9
$DIMSOXD
 70
     0
  9
$DIMSAH
 70
     0
  9
$DIMBLK1
  1

  9
$DIMBLK2
  1

  9
$DIMSTYLE
  2
Standard
  9
$DIMCLRD
 70
     0
  9
$DIMCLRE
 70
     0
  9
$DIMCLRT
 70
     0
  9
$DIMTFAC
 40
1.0
  9
$DIMGAP
 40
0.09
  9
$DIMJUST
 70
     0
  9
$DIMSD1
 70
     0
  9
$DIMSD2
 70
     0
  9
$DIMTOLJ
 70
     1
  9
$DIMTZIN
 70
     0
  9
$DIMALTZ
 70
     0
  9
$DIMALTTZ
 70
     0
  9
$DIMUPT
 70
     0
  9
$DIMDEC
 70
     4
  9
$DIMTDEC
 70
     4
  9
$DIMALTU
 70
     2
  9
$DIMALTTD
 70
     2
  9
$DIMTXSTY
  7
Standard
  9
$DIMAUNIT
 70
     0
  9
$DIMADEC
 70
     0
  9
$DIMALTRND
 40
0.0
  9
$DIMAZIN
 70
     0
  9
$DIMDSEP
 70
    46
  9
$DIMATFIT
 70
     3
  9
$DIMFRAC
 70
     0
  9
$DIMLDRBLK
  1

  9
$DIMLUNIT
 70
     2
  9
$DIMLWD
 70
    -2
  9
$DIMLWE
 70
    -2
  9
$DIMTMOVE
 70
     0
  9
$DIMFXL
 40
1.0
  9
$DIMFXLON
 70
     0
  9
$DIMJOGANG
 40
0.7853981633974483
  9
$DIMTFILL
 70
     0
  9
$DIMTFILLCLR
 70
     0
  9
$DIMARCSYM
 70
     0
  9
$DIMLTYPE
  6

  9
$DIMLTEX1
  6

  9
$DIMLTEX2
  6

  9
$DIMTXTDIRECTION
 70
     0
  9
$LUNITS
 70
     2
  9
$LUPREC
 70
     4
  9
$SKETCHINC
 40
0.1
  9
$FILLETRAD
 40
0.5
  9
$AUNITS
 70
     0
  9
$AUPREC
 70
     0
  9
$MENU
  1
.
  9
$ELEVATION
 40
0.0
  9
$PELEVATION
 40
0.0
  9
$THICKNESS
 40
0.0
  9
$LIMCHECK
 70
     0
  9
$CHAMFERA
 40
0.0
  9
$CHAMFERB
 40
0.0
  9
$CHAMFERC
 40
0.0
  9
$CHAMFERD
 40
0.0
  9
$SKPOLY
 70
     0
  9
$TDCREATE
 40
2458169.005010289
  9
$TDUCREATE
 40
2458168.963343623
  9
$TDUPDATE
 40
2458169.005010474
  9
$TDUUPDATE
 40
2458168.963343808
  9
$TDINDWG
 40
0.0000000116
  9
$TDUSRTIMER
 40
0.0000000116
  9
$USRTIMER
 70
     1
  9
$ANGBASE
 50
0.0
  9
$ANGDIR
 70
     0
  9
$PDMODE
 70
     0
  9
$PDSIZE
 40
0.0
  9
$PLINEWID
 40
0.0
  9
$SPLFRAME
 70
     0
  9
$SPLINETYPE
 70
     6
  9
$SPLINESEGS
 70
     8
  9
$HANDSEED
  5
24F
  9
$SURFTAB1
 70
     6
  9
$SURFTAB2
 70
     6
  9
$SURFTYPE
 70
     6
  9
$SURFU
 70
     6
  9
$SURFV
 70
     6
  9
$UCSBASE
  2

  9
$UCSNAME
  2

  9
$UCSORG
 10
0.0
 20
0.0
 30
0.0
  9
$UCSXDIR
 10
1.0
 20
0.0
 30
0.0
  9
$UCSYDIR
 10
0.0
 20
1.0
 30
0.0
  9
$UCSORTHOREF
  2

  9
$UCSORTHOVIEW
 70
     0
  9
$UCSORGTOP
 10
0.0
 20
0.0
 30
0.0
  9
$UCSORGBOTTOM
 10
0.0
 20
0.0
 30
0.0
  9
$UCSORGLEFT
 10
0.0
 20
0.0
 30
0.0
  9
$UCSORGRIGHT
 10
0.0
 20
0.0
 30
0.0
  9
$UCSORGFRONT
 10
0.0
 20
0.0
 30
0.0
  9
$UCSORGBACK
 10
0.0
 20
0.0
 30
0.0
  9
$PUCSBASE
  2

  9
$PUCSNAME
  2

  9
$PUCSORG
 10
0.0
 20
0.0
 30
0.0
  9
$PUCSXDIR
 10
1.0
 20
0.0
 30
0.0
  9
$PUCSYDIR
 10
0.0
 20
1.0
 30
0.0
  9
$PUCSORTHOREF
  2

  9
$PUCSORTHOVIEW
 70
     0
  9
$PUCSORGTOP
 10
0.0
 20
0.0
 30
0.0
  9
$PUCSORGBOTTOM
 10
0.0
 20
0.0
 30
0.0
  9
$PUCSORGLEFT
 10
0.0
 20
0.0
 30
0.0
  9
$PUCSORGRIGHT
 10
0.0
 20
0.0
 30
0.0
  9
$PUCSORGFRONT
 10
0.0
 20
0.0
 30
0.0
  9
$PUCSORGBACK
 10
0.0
 20
0.0
 30
0.0
  9
$USERI1
 70
     0
  9
$USERI2
 70
     0
  9
$USERI3
 70
     0
  9
$USERI4
 70
     0
  9
$USERI5
 70
     0
  9
$USERR1
 40
0.0
  9
$USERR2
 40
0.0
  9
$USERR3
 40
0.0
  9
$USERR4
 40
0.0
  9
$USERR5
 40
0.0
  9
$WORLDVIEW
 70
     1
  9
$SHADEDGE
 70
     3
  9
$SHADEDIF
 70
    70
  9
$TILEMODE
 70
     1
  9
$MAXACTVP
 70
    64
  9
$PINSBASE
 10
0.0
 20
0.0
 30
0.0
  9
$PLIMCHECK
 70
     0
  9
$PEXTMIN
 10
1.000000000000000E+20
 20
1.000000000000000E+20
 30
1.000000000000000E+20
  9
$PEXTMAX
 10
-1.000000000000000E+20
 20
-1.000000000000000E+20
 30
-1.000000000000000E+20
  9
$PLIMMIN
 10
0.0
 20
0.0
  9
$PLIMMAX
 10
12.0
 20
9.0
  9
$UNITMODE
 70
     0
  9
$VISRETAIN
 70
     1
  9
$PLINEGEN
 70
     0
  9
$PSLTSCALE
 70
     1
  9
$TREEDEPTH
 70
  3020
  9
$CMLSTYLE
  2
Standard
  9
$CMLJUST
 70
     0
  9
$CMLSCALE
 40
1.0
  9
$PROXYGRAPHICS
 70
     1
  9
$MEASUREMENT
 70
     0
  9
$CELWEIGHT
370
    -1
  9
$ENDCAPS
280
     0
  9
$JOINSTYLE
280
     0
  9
$LWDISPLAY
290
     0
  9
$INSUNITS
 70
     1
  9
$HYPERLINKBASE
  1

  9
$STYLESHEET
  1

  9
$XEDIT
290
     1
  9
$CEPSNTYPE
380
     0
  9
$PSTYLEMODE
290
     1
  9
$FINGERPRINTGUID
  2
{0BF1FC13-0304-42AE-AFB8-54572FE196AE}
  9
$VERSIONGUID
  2
{FAEB1C32-E019-11D5-929B-00C0DF256EC4}
  9
$EXTNAMES
290
     1
  9
$PSVPSCALE
 40
0.0
  9
$OLESTARTUP
290
     0
  9
$SORTENTS
280
   127
  9
$INDEXCTL
280
     0
  9
$HIDETEXT
280
     1
  9
$XCLIPFRAME
280
     2
  9
$HALOGAP
280
     0
  9
$OBSCOLOR
 70
   257
  9
$OBSLTYPE
280
     0
  9
$INTERSECTIONDISPLAY
280
     0
  9
$INTERSECTIONCOLOR
 70
   257
  9
$DIMASSOC
280
     2
  9
$PROJECTNAME
  1

  9
$CAMERADISPLAY
290
     0
  9
$LENSLENGTH
 40
50.0
  9
$CAMERAHEIGHT
 40
0.0
  9
$STEPSPERSEC
 40
2.0
  9
$STEPSIZE
 40
6.0
  9
$3DDWFPREC
 40
2.0
  9
$PSOLWIDTH
 40
0.25
  9
$PSOLHEIGHT
 40
4.0
  9
$LOFTANG1
 40
1.570796326794897
  9
$LOFTANG2
 40
1.570796326794897
  9
$LOFTMAG1
 40
0.0
  9
$LOFTMAG2
 40
0.0
  9
$LOFTPARAM
 70
     7
  9
$LOFTNORMALS
280
     1
  9
$LATITUDE
 40
37.795
  9
$LONGITUDE
 40
-122.394
  9
$NORTHDIRECTION
 40
0.0
  9
$TIMEZONE
 70
 -8000
  9
$LIGHTGLYPHDISPLAY
280
     1
  9
$TILEMODELIGHTSYNCH
280
     1
  9
$CMATERIAL
347
44
  9
$SOLIDHIST
280
     0
  9
$SHOWHIST
280
     1
  9
$DWFFRAME
280
     2
  9
$DGNFRAME
280
     2
  9
$REALWORLDSCALE
290
     1
  9
$INTERFERECOLOR
 62
   256
  9
$CSHADOW
280
     0
  9
$SHADOWPLANELOCATION
 40
0.0
  0
ENDSEC
  0
SECTION
  2
CLASSES
  0
CLASS
  1
ACDBDICTIONARYWDFLT
  2
AcDbDictionaryWithDefault
  3
ObjectDBX Classes
 90
        0
 91
        4
280
     0
281
     0
  0
CLASS
  1
VISUALSTYLE
  2
AcDbVisualStyle
  3
ObjectDBX Classes
 90
     4095
 91
        4
280
     0
281
     0
  0
CLASS
  1
MATERIAL
  2
AcDbMaterial
  3
ObjectDBX Classes
 90
     1153
 91
        4
280
     0
281
     0
  0
CLASS
  1
SCALE
  2
AcDbScale
  3
ObjectDBX Classes
 90
     1153
 91
        4
280
     0
281
     0
  0
CLASS
  1
TABLESTYLE
  2
AcDbTableStyle
  3
ObjectDBX Classes
 90
     4095
 91
        4
280
     0
281
     0
  0
CLASS
  1
MLEADERSTYLE
  2
AcDbMLeaderStyle
  3
ACDB_MLEADERSTYLE_CLASS
 90
     4095
 91
        4
280
     0
281
     0
  0
CLASS
  1
SUN
  2
AcDbSun
  3
SCENEOE
 90
     1153
 91
        4
280
     0
281
     0
  0
CLASS
  1
DICTIONARYVAR
  2
AcDbDictionaryVar
  3
ObjectDBX Classes
 90
        0
 91
        4
280
     0
281
     0
  0
CLASS
  1
CELLSTYLEMAP
  2
AcDbCellStyleMap
  3
ObjectDBX Classes
 90
     1152
 91
        4
280
     0
281
     0
  0
ENDSEC
  0
SECTION
  2
TABLES
  0
TABLE
  2
VPORT
  5
8
330
0
100
AcDbSymbolTable
 70
     1
  0
VPORT
  5
29
330
8
100
AcDbSymbolTableRecord
100
AcDbViewportTableRecord
  2
*Active
 70
     0
 10
0.0
 20
0.0
 11
1.0
 21
1.0
 12
0.0
 22
-0.1569553571428575
 13
0.0
 23
0.0
 14
0.5
 24
0.5
 15
0.5
 25
0.5
 16
0.0
 26
0.0
 36
1.0
 17
0.0
 27
0.0
 37
0.0
 40
2.730886071428571
 41
2.801288592752667
 42
50.0
 43
0.0
 44
0.0
 50
0.0
 51
0.0
 71
     0
 72
   100
 73
     1
 74
     3
 75
     0
 76
     0
 77
     0
 78
     0
281
     0
 65
     1
110
0.0
120
0.0
130
0.0
111
1.0
121
0.0
131
0.0
112
0.0
122
1.0
132
0.0
 79
     0
146
0.0
348
2F
 60
     3
 61
     5
292
     1
282
     1
141
0.0
142
0.0
 63
   250
361
6D
  0
ENDTAB
  0
TABLE
  2
LTYPE
  5
5
330
0
100
AcDbSymbolTable
 70
     3
  0
LTYPE
  5
14
330
5
100
AcDbSymbolTableRecord
100
AcDbLinetypeTableRecord
  2
ByBlock
 70
     0
  3

 72
    65
 73
     0
 40
0.0
  0
LTYPE
  5
15
330
5
100
AcDbSymbolTableRecord
100
AcDbLinetypeTableRecord
  2
ByLayer
 70
     0
  3

 72
    65
 73
     0
 40
0.0
  0
LTYPE
  5
16
330
5
100
AcDbSymbolTableRecord
100
AcDbLinetypeTableRecord
  2
Continuous
 70
     0
  3
Solid line
 72
    65
 73
     0
 40
0.0
  0
LTYPE
  5
B0
330
5
100
AcDbSymbolTableRecord
100
AcDbLinetypeTableRecord
  2
Dashed
 70
     0
  3

 72
    65
 73
     2
 40
2.0
 49
1.0
 74
     0
 49
-1.0
 74
     0
  0
LTYPE
  5
C9
330
5
100
AcDbSymbolTableRecord
100
AcDbLinetypeTableRecord
  2
Center
 70
     0
  3

 72
    65
 73
     4
 40
1.5
 49
0.45
 74
     0
 49
-0.5
 74
     0
 49
0.05
 74
     0
 49
-0.5
 74
     0
  0
ENDTAB
  0
TABLE
  2
LAYER
  5
2
330
0
100
AcDbSymbolTable
 70
     7
  0
LAYER
  5
10
330
2
100
AcDbSymbolTableRecord
100
AcDbLayerTableRecord
  2
0
 70
     0
 62
     7
  6
Continuous
370
    -3
390
F
347
46
348
0
  0
LAYER
  5
72
330
2
100
AcDbSymbolTableRecord
100
AcDbLayerTableRecord
  2
AM_6
 70
     0
 62
    -2
  6
Continuous
370
    35
390
F
347
46
348
0
  0
LAYER
  5
B1
330
2
100
AcDbSymbolTableRecord
100
AcDbLayerTableRecord
  2
AM_9
 70
     0
 62
     6
  6
Dashed
370
    25
390
F
347
46
348
0
  0
LAYER
  5
CA
330
2
100
AcDbSymbolTableRecord
100
AcDbLayerTableRecord
  2
AM_7
 70
     0
 62
     7
  6
Center
370
    25
390
F
347
46
348
0
  0
LAYER
  5
CC
330
2
100
AcDbSymbolTableRecord
100
AcDbLayerTableRecord
  2
AM_4
 70
     0
 62
     7
  6
Continuous
370
    50
390
F
347
46
348
0
  0
LAYER
  5
D9
330
2
100
AcDbSymbolTableRecord
100
AcDbLayerTableRecord
  2
AM_5
 70
     0
 62
     3
  6
Continuous
370
    25
390
F
347
46
348
0
  0
LAYER
  5
23E
330
2
100
AcDbSymbolTableRecord
100
AcDbLayerTableRecord
  2
ConnectionPoints
 70
     0
 62
     7
  6
Continuous
370
    50
390
F
347
46
348
0
  0
ENDTAB
  0
TABLE
  2
STYLE
  5
3
330
0
100
AcDbSymbolTable
 70
     1
  0
STYLE
  5
11
330
3
100
AcDbSymbolTableRecord
100
AcDbTextStyleTableRecord
  2
Standard
 70
     0
 40
0.0
 41
1.0
 50
0.0
 71
     0
 42
0.2
  3
txt
  4

  0
ENDTAB
  0
TABLE
  2
VIEW
  5
6
330
0
100
AcDbSymbolTable
 70
     0
  0
ENDTAB
  0
TABLE
  2
UCS
  5
7
330
0
100
AcDbSymbolTable
 70
     0
  0
ENDTAB
  0
TABLE
  2
APPID
  5
9
330
0
100
AcDbSymbolTable
 70
     1
  0
APPID
  5
12
330
9
100
AcDbSymbolTableRecord
100
AcDbRegAppTableRecord
  2
ACAD
 70
     0
  0
ENDTAB
  0
TABLE
  2
DIMSTYLE
  5
A
330
0
100
AcDbSymbolTable
 70
     1
100
AcDbDimStyleTable
  0
DIMSTYLE
105
27
330
A
100
AcDbSymbolTableRecord
100
AcDbDimStyleTableRecord
  2
Standard
 70
     0
178
     0
340
11
  0
ENDTAB
  0
TABLE
  2
BLOCK_RECORD
  5
1
330
0
100
AcDbSymbolTable
 70
     6
  0
BLOCK_RECORD
  5
1F
330
1
100
AcDbSymbolTableRecord
100
AcDbBlockTableRecord
  2
*Model_Space
340
22
 70
     0
280
     1
281
     0
  0
BLOCK_RECORD
  5
1B
330
1
100
AcDbSymbolTableRecord
100
AcDbBlockTableRecord
  2
*Paper_Space
340
1E
 70
     0
280
     1
281
     0
  0
BLOCK_RECORD
  5
23
330
1
100
AcDbSymbolTableRecord
100
AcDbBlockTableRecord
  2
*Paper_Space0
340
26
 70
     0
280
     1
281
     0
  0
BLOCK_RECORD
  5
6E
330
1
100
AcDbSymbolTableRecord
100
AcDbBlockTableRecord
  2
1_023167_4
340
0
102
{BLKREFS
331
6F
102
}
 70
     0
280
     1
281
     0
  0
BLOCK_RECORD
  5
9B
330
1
100
AcDbSymbolTableRecord
100
AcDbBlockTableRecord
  2
2_1_3_16C_0_in_023167_4
340
0
102
{BLKREFS
331
9C
102
}
 70
     0
280
     1
281
     0
  0
BLOCK_RECORD
  5
DB
330
1
100
AcDbSymbolTableRecord
100
AcDbBlockTableRecord
  2
3_405020c_Inch_0_in_023167_4
340
0
102
{BLKREFS
331
DC
102
}
 70
     0
280
     1
281
     0
  0
BLOCK_RECORD
  5
FD
330
1
100
AcDbSymbolTableRecord
100
AcDbBlockTableRecord
  2
4_S1U_K_103R_0_in_023167_4
340
0
102
{BLKREFS
331
FE
102
}
 70
     0
280
     1
281
     0
  0
BLOCK_RECORD
  5
15C
330
1
100
AcDbSymbolTableRecord
100
AcDbBlockTableRecord
  2
5_P2B_K_103R_0_in_023167_4
340
0
102
{BLKREFS
331
15D
102
}
 70
     0
280
     1
281
     0
  0
ENDTAB
  0
ENDSEC
  0
SECTION
  2
BLOCKS
  0
BLOCK
  5
20
330
1F
100
AcDbEntity
  8
0
100
AcDbBlockBegin
  2
*Model_Space
 70
     0
 10
0.0
 20
0.0
 30
0.0
  3
*Model_Space
  1

  0
ENDBLK
  5
21
330
1F
100
AcDbEntity
  8
0
100
AcDbBlockEnd
  0
BLOCK
  5
1C
330
1B
100
AcDbEntity
 67
     1
  8
0
100
AcDbBlockBegin
  2
*Paper_Space
 70
     0
 10
0.0
 20
0.0
 30
0.0
  3
*Paper_Space
  1

  0
ENDBLK
  5
1D
330
1B
100
AcDbEntity
 67
     1
  8
0
100
AcDbBlockEnd
  0
BLOCK
  5
24
330
23
100
AcDbEntity
  8
0
100
AcDbBlockBegin
  2
*Paper_Space0
 70
     0
 10
0.0
 20
0.0
 30
0.0
  3
*Paper_Space0
  1

  0
ENDBLK
  5
25
330
23
100
AcDbEntity
  8
0
100
AcDbBlockEnd
  0
BLOCK
  5
70
330
6E
100
AcDbEntity
  8
0
100
AcDbBlockBegin
  2
1_023167_4
 70
     2
 10
0.0
 20
0.0
 30
0.0
  3
1_023167_4
  1

  0
ATTDEF
  5
73
330
6E
100
AcDbEntity
  8
AM_6
100
AcDbText
 10
8.75
 20
1.181714285714286
 30
0.0
 40
0.5
  1
Type K Pillow Block 2&4-Bolt Base Non-Expansion Inch Bore
100
AcDbAttributeDefinition
  3

  2
NN
 70
     8
280
     0
  0
ATTDEF
  5
74
330
6E
100
AcDbEntity
  8
AM_6
100
AcDbText
 10
8.75
 20
0.6817142857142857
 30
0.0
 40
0.5
  1
Type K
100
AcDbAttributeDefinition
  3

  2
NT
 70
     8
280
     0
  0
ATTDEF
  5
75
330
6E
100
AcDbEntity
  8
AM_6
100
AcDbText
 10
8.75
 20
0.1817142857142857
 30
0.0
 40
0.5
  1
023167
100
AcDbAttributeDefinition
  3

  2
NB
 70
     8
280
     0
  0
ATTDEF
  5
76
330
6E
100
AcDbEntity
  8
AM_6
100
AcDbText
 10
8.75
 20
-0.3182857142857143
 30
0.0
 40
0.5
  1
$PN.
100
AcDbAttributeDefinition
  3

  2
NBSYN
 70
     8
280
     0
  0
ATTDEF
  5
77
330
6E
100
AcDbEntity
  8
AM_6
100
AcDbText
 10
8.75
 20
-0.8182857142857143
 30
0.0
 40
0.5
  1
023167
100
AcDbAttributeDefinition
  3

  2
LINA
 70
     8
280
     0
  0
ATTDEF
  5
78
330
6E
100
AcDbEntity
  8
AM_6
100
AcDbText
 10
8.75
 20
-1.318285714285714
 30
0.0
 40
0.5
  1
1-3/16
100
AcDbAttributeDefinition
  3

  2
SS
 70
     8
280
     0
  0
ATTDEF
  5
79
330
6E
100
AcDbEntity
  8
AM_6
100
AcDbText
 10
8.75
 20
-1.818285714285714
 30
0.0
 40
0.5
  1
023167
100
AcDbAttributeDefinition
  3

  2
PN
 70
     8
280
     0
  0
ATTDEF
  5
7A
330
6E
100
AcDbEntity
  8
AM_6
100
AcDbText
 10
8.75
 20
-2.318285714285715
 30
0.0
 40
0.5
  1
P2B-K-103R
100
AcDbAttributeDefinition
  3

  2
PNA
 70
     8
280
     0
  0
ATTDEF
  5
7B
330
6E
100
AcDbEntity
  8
AM_6
100
AcDbText
 10
8.75
 20
-2.818285714285715
 30
0.0
 40
0.5
  1
9
100
AcDbAttributeDefinition
  3

  2
WEIGHT
 70
     8
280
     0
  0
ATTDEF
  5
7C
330
6E
100
AcDbEntity
  8
AM_6
100
AcDbText
 10
8.75
 20
-3.318285714285715
 30
0.0
 40
0.5
  1
2.28
100
AcDbAttributeDefinition
  3

  2
A
 70
     8
280
     0
  0
ATTDEF
  5
7D
330
6E
100
AcDbEntity
  8
AM_6
100
AcDbText
 10
8.75
 20
-3.818285714285715
 30
0.0
 40
0.5
  1
7.50
100
AcDbAttributeDefinition
  3

  2
B
 70
     8
280
     0
  0
ATTDEF
  5
7E
330
6E
100
AcDbEntity
  8
AM_6
100
AcDbText
 10
8.75
 20
-4.318285714285715
 30
0.0
 40
0.5
  1
1.88
100
AcDbAttributeDefinition
  3

  2
C
 70
     8
280
     0
  0
ATTDEF
  5
7F
330
6E
100
AcDbEntity
  8
AM_6
100
AcDbText
 10
8.75
 20
-4.818285714285715
 30
0.0
 40
0.5
  1
6
100
AcDbAttributeDefinition
  3

  2
DMIN
 70
     8
280
     0
  0
ATTDEF
  5
80
330
6E
100
AcDbEntity
  8
AM_6
100
AcDbText
 10
8.75
 20
-5.318285714285715
 30
0.0
 40
0.5
  1
6.38
100
AcDbAttributeDefinition
  3

  2
DMAX
 70
     8
280
     0
  0
ATTDEF
  5
81
330
6E
100
AcDbEntity
  8
AM_6
100
AcDbText
 10
8.75
 20
-5.818285714285715
 30
0.0
 40
0.5
  1
N/A
100
AcDbAttributeDefinition
  3

  2
E
 70
     8
280
     0
  0
ATTDEF
  5
82
330
6E
100
AcDbEntity
  8
AM_6
100
AcDbText
 10
8.75
 20
-6.318285714285715
 30
0.0
 40
0.5
  1
3/8
100
AcDbAttributeDefinition
  3

  2
F
 70
     8
280
     0
  0
ATTDEF
  5
83
330
6E
100
AcDbEntity
  8
AM_6
100
AcDbText
 10
8.75
 20
-6.818285714285715
 30
0.0
 40
0.5
  1
.69
100
AcDbAttributeDefinition
  3

  2
G
 70
     8
280
     0
  0
ATTDEF
  5
84
330
6E
100
AcDbEntity
  8
AM_6
100
AcDbText
 10
8.75
 20
-7.318285714285715
 30
0.0
 40
0.5
  1
1.00
100
AcDbAttributeDefinition
  3

  2
H
 70
     8
280
     0
  0
ATTDEF
  5
85
330
6E
100
AcDbEntity
  8
AM_6
100
AcDbText
 10
8.75
 20
-7.818285714285715
 30
0.0
 40
0.5
  1
4.53
100
AcDbAttributeDefinition
  3

  2
J
 70
     8
280
     0
  0
ATTDEF
  5
86
330
6E
100
AcDbEntity
  8
AM_6
100
AcDbText
 10
8.75
 20
-8.318285714285715
 30
0.0
 40
0.5
  1
2.25
100
AcDbAttributeDefinition
  3

  2
L
 70
     8
280
     0
  0
ATTDEF
  5
87
330
6E
100
AcDbEntity
  8
AM_6
100
AcDbText
 10
8.75
 20
-8.818285714285715
 30
0.0
 40
0.5
  1
2.13
100
AcDbAttributeDefinition
  3

  2
M
 70
     8
280
     0
  0
ATTDEF
  5
88
330
6E
100
AcDbEntity
  8
AM_6
100
AcDbText
 10
8.75
 20
-9.318285714285715
 30
0.0
 40
0.5
  1
5.00
100
AcDbAttributeDefinition
  3

  2
P
 70
     8
280
     0
  0
ATTDEF
  5
89
330
6E
100
AcDbEntity
  8
AM_6
100
AcDbText
 10
8.75
 20
-9.818285714285715
 30
0.0
 40
0.5
  1
1
100
AcDbAttributeDefinition
  3

  2
R
 70
     8
280
     0
  0
ATTDEF
  5
8A
330
6E
100
AcDbEntity
  8
AM_6
100
AcDbText
 10
8.75
 20
-10.31828571428571
 30
0.0
 40
0.5
  1
1.38
100
AcDbAttributeDefinition
  3

  2
S
 70
     8
280
     0
  0
ATTDEF
  5
8B
330
6E
100
AcDbEntity
  8
AM_6
100
AcDbText
 10
8.75
 20
-10.81828571428571
 30
0.0
 40
0.5
  1
.09
100
AcDbAttributeDefinition
  3

  2
T
 70
     8
280
     0
  0
ATTDEF
  5
8C
330
6E
100
AcDbEntity
  8
AM_6
100
AcDbText
 10
8.75
 20
-11.31828571428571
 30
0.0
 40
0.5
  1
15760
100
AcDbAttributeDefinition
  3

  2
CS
 70
     8
280
     0
  0
ATTDEF
  5
8D
330
6E
100
AcDbEntity
  8
AM_6
100
AcDbText
 10
8.75
 20
-11.81828571428571
 30
0.0
 40
0.5
  1
2980
100
AcDbAttributeDefinition
  3

  2
CD
 70
     8
280
     0
  0
ATTDEF
  5
8E
330
6E
100
AcDbEntity
  8
AM_6
100
AcDbText
 10
8.75
 20
-12.31828571428571
 30
0.0
 40
0.5
  1
19
100
AcDbAttributeDefinition
  3

  2
RN
 70
     8
280
     0
  0
ATTDEF
  5
8F
330
6E
100
AcDbEntity
  8
AM_6
100
AcDbText
 10
8.75
 20
-12.81828571428571
 30
0.0
 40
0.5
  1
.23
100
AcDbAttributeDefinition
  3

  2
RM
 70
     8
280
     0
  0
ATTDEF
  5
90
330
6E
100
AcDbEntity
  8
AM_6
100
AcDbText
 10
8.75
 20
-13.31828571428571
 30
0.0
 40
0.5
  1
1.774
100
AcDbAttributeDefinition
  3

  2
PDI
 70
     8
280
     0
  0
ATTDEF
  5
91
330
6E
100
AcDbEntity
  8
AM_6
100
AcDbText
 10
8.75
 20
-13.81828571428571
 30
0.0
 40
0.5
  1
.004-.012
100
AcDbAttributeDefinition
  3

  2
EP
 70
     8
280
     0
  0
ATTDEF
  5
92
330
6E
100
AcDbEntity
  8
AM_6
100
AcDbText
 10
8.75
 20
-14.31828571428571
 30
0.0
 40
0.5
  1
5/16-18*1/2
100
AcDbAttributeDefinition
  3

  2
CSS
 70
     8
280
     0
  0
ATTDEF
  5
93
330
6E
100
AcDbEntity
  8
AM_6
100
AcDbText
 10
8.75
 20
-14.81828571428571
 30
0.0
 40
0.5
  1
165
100
AcDbAttributeDefinition
  3

  2
CST
 70
     8
280
     0
  0
ATTDEF
  5
94
330
6E
100
AcDbEntity
  8
AM_6
100
AcDbText
 10
8.75
 20
-15.31828571428571
 30
0.0
 40
0.5
  1
C.I. ASTM A48 CLASS 30
100
AcDbAttributeDefinition
  3

  2
MH
 70
     8
280
     0
  0
ATTDEF
  5
95
330
6E
100
AcDbEntity
  8
AM_6
100
AcDbText
 10
8.75
 20
-15.81828571428571
 30
0.0
 40
0.5
  1
4118 CASE CARB.
100
AcDbAttributeDefinition
  3

  2
MC
 70
     8
280
     0
  0
ATTDEF
  5
96
330
6E
100
AcDbEntity
  8
AM_6
100
AcDbText
 10
8.75
 20
-16.31828571428571
 30
0.0
 40
0.5
  1
4118 CASE CARB.
100
AcDbAttributeDefinition
  3

  2
MCU
 70
     8
280
     0
  0
ATTDEF
  5
97
330
6E
100
AcDbEntity
  8
AM_6
100
AcDbText
 10
8.75
 20
-16.81828571428571
 30
0.0
 40
0.5
  1
STEEL
100
AcDbAttributeDefinition
  3

  2
MR
 70
     8
280
     0
  0
ATTDEF
  5
98
330
6E
100
AcDbEntity
  8
AM_6
100
AcDbText
 10
8.75
 20
-17.31828571428571
 30
0.0
 40
0.5
  1
4118 CASE CARB.
100
AcDbAttributeDefinition
  3

  2
MRO
 70
     8
280
     0
  0
ATTDEF
  5
99
330
6E
100
AcDbEntity
  8
AM_6
100
AcDbText
 10
8.75
 20
-17.81828571428571
 30
0.0
 40
0.5
  1
3.59*
100
AcDbAttributeDefinition
  3

  2
SM
 70
     8
280
     0
  0
ATTDEF
  5
9A
330
6E
100
AcDbEntity
  8
AM_6
100
AcDbText
 10
8.75
 20
-18.31828571428571
 30
0.0
 40
0.5
  1
baldor
100
AcDbAttributeDefinition
  3

  2
COMPANY
 70
     8
280
     0
  0
INSERT
  5
9C
330
6E
100
AcDbEntity
  8
0
100
AcDbBlockReference
  2
2_1_3_16C_0_in_023167_4
 10
0.0
 20
0.0
 30
0.0
  0
INSERT
  5
DC
330
6E
100
AcDbEntity
  8
0
100
AcDbBlockReference
  2
3_405020c_Inch_0_in_023167_4
 10
0.0
 20
0.0
 30
0.0
  0
INSERT
  5
FE
330
6E
100
AcDbEntity
  8
0
100
AcDbBlockReference
  2
4_S1U_K_103R_0_in_023167_4
 10
0.0
 20
0.0
 30
0.0
  0
INSERT
  5
15D
330
6E
100
AcDbEntity
  8
0
100
AcDbBlockReference
  2
5_P2B_K_103R_0_in_023167_4
 10
0.0
 20
0.0
 30
0.0
  0
ENDBLK
  5
71
330
6E
100
AcDbEntity
  8
0
100
AcDbBlockEnd
  0
BLOCK
  5
9D
330
9B
100
AcDbEntity
  8
0
100
AcDbBlockBegin
  2
2_1_3_16C_0_in_023167_4
 70
     2
 10
0.0
 20
0.0
 30
0.0
  3
2_1_3_16C_0_in_023167_4
  1

  0
ATTDEF
  5
9F
330
9B
100
AcDbEntity
  8
AM_6
100
AcDbText
 10
6.125
 20
-0.8199999999999998
 30
0.0
 40
0.5
  1
E-Type Collar -Inch
100
AcDbAttributeDefinition
  3

  2
NN
 70
     8
280
     0
  0
ATTDEF
  5
A0
330
9B
100
AcDbEntity
  8
AM_6
100
AcDbText
 10
6.125
 20
-1.32
 30
0.0
 40
0.5
  1
E-Type Bearings
100
AcDbAttributeDefinition
  3

  2
NT
 70
     8
280
     0
  0
ATTDEF
  5
A1
330
9B
100
AcDbEntity
  8
AM_6
100
AcDbText
 10
6.125
 20
-1.82
 30
0.0
 40
0.5
  1
1-3/16C
100
AcDbAttributeDefinition
  3

  2
NB
 70
     8
280
     0
  0
ATTDEF
  5
A2
330
9B
100
AcDbEntity
  8
AM_6
100
AcDbText
 10
6.125
 20
-2.32
 30
0.0
 40
0.5
  1
$BORE.C
100
AcDbAttributeDefinition
  3

  2
NBSYN
 70
     8
280
     0
  0
ATTDEF
  5
A3
330
9B
100
AcDbEntity
  8
AM_6
100
AcDbText
 10
6.125
 20
-2.82
 30
0.0
 40
0.5
  1
1-3/16C
100
AcDbAttributeDefinition
  3

  2
LINA
 70
     8
280
     0
  0
ATTDEF
  5
A4
330
9B
100
AcDbEntity
  8
AM_6
100
AcDbText
 10
6.125
 20
-3.32
 30
0.0
 40
0.5
  1
1-3/16
100
AcDbAttributeDefinition
  3

  2
BORE
 70
     8
280
     0
  0
ATTDEF
  5
A5
330
9B
100
AcDbEntity
  8
AM_6
100
AcDbText
 10
6.125
 20
-3.82
 30
0.0
 40
0.5
  1
2.25000
100
AcDbAttributeDefinition
  3

  2
L
 70
     8
280
     0
  0
ATTDEF
  5
A6
330
9B
100
AcDbEntity
  8
AM_6
100
AcDbText
 10
6.125
 20
-4.32
 30
0.0
 40
0.5
  1
2.75
100
AcDbAttributeDefinition
  3

  2
A
 70
     8
280
     0
  0
ATTDEF
  5
A7
330
9B
100
AcDbEntity
  8
AM_6
100
AcDbText
 10
6.125
 20
-4.82
 30
0.0
 40
0.5
  1
1.16
100
AcDbAttributeDefinition
  3

  2
B
 70
     8
280
     0
  0
ATTDEF
  5
A8
330
9B
100
AcDbEntity
  8
AM_6
100
AcDbText
 10
6.125
 20
-5.32
 30
0.0
 40
0.5
  1
1.56
100
AcDbAttributeDefinition
  3

  2
C
 70
     8
280
     0
  0
ATTDEF
  5
A9
330
9B
100
AcDbEntity
  8
AM_6
100
AcDbText
 10
6.125
 20
-5.82
 30
0.0
 40
0.5
  1
2.31
100
AcDbAttributeDefinition
  3

  2
D
 70
     8
280
     0
  0
ATTDEF
  5
AA
330
9B
100
AcDbEntity
  8
AM_6
100
AcDbText
 10
6.125
 20
-6.32
 30
0.0
 40
0.5
  1
0.35
100
AcDbAttributeDefinition
  3

  2
E
 70
     8
280
     0
  0
ATTDEF
  5
AB
330
9B
100
AcDbEntity
  8
AM_6
100
AcDbText
 10
6.125
 20
-6.82
 30
0.0
 40
0.5
  1
0.28
100
AcDbAttributeDefinition
  3

  2
F
 70
     8
280
     0
  0
ATTDEF
  5
AC
330
9B
100
AcDbEntity
  8
AM_6
100
AcDbText
 10
6.125
 20
-7.32
 30
0.0
 40
0.5
  1
5/16-18
100
AcDbAttributeDefinition
  3

  2
CS
 70
     8
280
     0
  0
ATTDEF
  5
AD
330
9B
100
AcDbEntity
  8
AM_6
100
AcDbText
 10
6.125
 20
-7.82
 30
0.0
 40
0.5
  1
0.3125
100
AcDbAttributeDefinition
  3

  2
NDM
 70
     8
280
     0
  0
ATTDEF
  5
AE
330
9B
100
AcDbEntity
  8
AM_6
100
AcDbText
 10
6.125
 20
-8.32
 30
0.0
 40
0.5
  1
0.2520
100
AcDbAttributeDefinition
  3

  2
KDM
 70
     8
280
     0
  0
ATTDEF
  5
AF
330
9B
100
AcDbEntity
  8
AM_6
100
AcDbText
 10
6.125
 20
-8.82
 30
0.0
 40
0.5
  1
baldor
100
AcDbAttributeDefinition
  3

  2
COMPANY
 70
     8
280
     0
  0
LINE
  5
B2
330
9B
100
AcDbEntity
  8
AM_9
100
AcDbLine
 10
0.7401434613081497
 20
-0.9883606262026614
 30
0.0
 11
0.7318173552647615
 21
-0.9779755858236502
 31
0.0
  0
LINE
  5
B3
330
9B
100
AcDbEntity
  8
AM_9
100
AcDbLine
 10
0.7317770678867456
 20
-1.222074664082522
 30
0.0
 11
0.7401434613081497
 21
-1.211639373797338
 31
0.0
  0
LWPOLYLINE
  5
B4
330
9B
100
AcDbEntity
  8
AM_9
100
AcDbPolyline
 90
       25
 70
     0
 43
0.0
 10
0.7317153249113441
 20
-0.9778483251697885
 10
0.7247251827028233
 20
-0.9708902457060216
 10
0.7150517877036321
 20
-0.9657820740369677
 10
0.7039480342293931
 20
-0.9647446010347428
 10
0.6921139183444142
 20
-0.968048011007652
 10
0.6797964040077172
 20
-0.9757757289975127
 10
0.6676000879121816
 20
-0.9877164087304087
 10
0.6562460195285496
 20
-1.003433472005924
 10
0.6461701982599575
 20
-1.022707854182025
 10
0.6385240559479698
 20
-1.043608320396042
 10
0.6331448115831858
 20
-1.066659910580538
 10
0.6307107260213829
 20
-1.088231519933361
 10
0.6306095548628711
 20
-1.110195240945243
 10
0.6326201703233519
 20
-1.130014740784315
 10
0.6364655394551548
 20
-1.149015919264317
 10
0.6420537543243882
 20
-1.167045913256253
 10
0.6490011095784315
 20
-1.183396975687442
 10
0.6578141582710378
 20
-1.199060527510835
 10
0.6674734702166294
 20
-1.212135051507857
 10
0.6786963263611611
 20
-1.223330840999824
 10
0.6900600661369575
 20
-1.230960277823926
 10
0.7018627544065493
 20
-1.234980654018731
 10
0.7130106605644365
 20
-1.234754974099487
 10
0.7233681815396783
 20
-1.230105272049744
 10
0.7317175000798444
 20
-1.222148962157897
  0
LWPOLYLINE
  5
B5
330
9B
100
AcDbEntity
  8
AM_9
100
AcDbPolyline
 90
       13
 70
     0
 43
0.0
 10
0.7352868474729558
 20
-1.21715122860218
 10
0.7402263240899403
 20
-1.208044854877386
 10
0.7465252362667661
 20
-1.191093524887761
 10
0.7511762127017618
 20
-1.17153690167964
 10
0.7544968747204982
 20
-1.149242105424382
 10
0.7563277193280817
 20
-1.127443250147866
 10
0.7570883473600925
 20
-1.104667277340557
 10
0.7568521278157612
 20
-1.084170683052522
 10
0.755762634133546
 20
-1.064134033257771
 10
0.753858758231629
 20
-1.045479757390598
 10
0.751135328949227
 20
-1.028208534527432
 10
0.7481515079328043
 20
-1.014797210163419
 10
0.744568556491406
 20
-1.002779603243264
  0
LWPOLYLINE
  5
B6
330
9B
100
AcDbEntity
  8
AM_9
100
AcDbPolyline
 90
        3
 70
     0
 43
0.0
 10
0.7317175000798444
 20
-1.222148962157897
 10
0.7325080765012126
 20
-1.221137578734912
 10
0.7352868474729558
 20
-1.21715122860218
  0
LINE
  5
B7
330
9B
100
AcDbEntity
  8
AM_9
100
AcDbLine
 10
0.7152732106591081
 20
-1.2262
 30
0.0
 11
0.9923617114157799
 21
-1.2262
 31
0.0
  0
LINE
  5
B8
330
9B
100
AcDbEntity
  8
AM_9
100
AcDbLine
 10
0.9923617114157799
 20
-0.9737999999999999
 30
0.0
 11
0.7152732106591081
 21
-0.9737999999999999
 31
0.0
  0
ELLIPSE
  5
B9
330
9B
100
AcDbEntity
  8
AM_9
100
AcDbEllipse
 10
0.9923617114157802
 20
-1.1
 30
0.0
 11
-2.318256390785945E-17
 21
-0.1262000000000003
 31
0.0
210
0.0
220
0.0
230
1.0
 40
0.4226182617407009
 41
3.450643024833301
 42
5.985705182194373
  0
LINE
  5
BA
330
9B
100
AcDbEntity
  8
AM_9
100
AcDbLine
 10
0.9674914607667385
 20
-1.211639373797339
 30
0.0
 11
0.9870082115742386
 21
-1.23598235527593
 31
0.0
  0
LINE
  5
BB
330
9B
100
AcDbEntity
  8
AM_9
100
AcDbLine
 10
0.9871467482591758
 20
-0.9638448497753204
 30
0.0
 11
0.9674914607667385
 21
-0.9883606262026613
 31
0.0
  0
LWPOLYLINE
  5
BC
330
9B
100
AcDbEntity
  8
AM_9
100
AcDbPolyline
 90
       13
 70
     0
 43
0.0
 10
0.1381627871042103
 20
-1.047642459060924
 10
0.1326032899141004
 20
-1.037086929087179
 10
0.120901146773081
 20
-1.02023428315302
 10
0.1058435305831707
 20
-1.004392213799498
 10
0.0881421612013445
 20
-0.9906989479929691
 10
0.0669249098748643
 20
-0.9789791974852639
 10
0.0435249671878877
 20
-0.9704859964636139
 10
0.0180164298954341
 20
-0.9655772139022052
 10
-0.0086881833316068
 20
-0.9648138439685077
 10
-0.0350190329345502
 20
-0.9683756408988268
 10
-0.0610994042607126
 20
-0.9764710882565448
 10
-0.0827397585892239
 20
-0.9872921744746501
 10
-0.1028594729276147
 20
-1.001771301069126
  0
LWPOLYLINE
  5
BD
330
9B
100
AcDbEntity
  8
AM_9
100
AcDbPolyline
 90
        7
 70
     0
 43
0.0
 10
0.1385413154379768
 20
-1.15154353892456
 10
0.1437286022121231
 20
-1.138413233005849
 10
0.1487500704286706
 20
-1.11711749482559
 10
0.1498429457206477
 20
-1.094472639440999
 10
0.1472960905266888
 20
-1.074714163659952
 10
0.141383778885884
 20
-1.055115633753396
 10
0.1381627871042103
 20
-1.047642459060924
  0
LWPOLYLINE
  5
BE
330
9B
100
AcDbEntity
  8
AM_9
100
AcDbPolyline
 90
       16
 70
     0
 43
0.0
 10
-0.1372140039325107
 20
-1.15433537491519
 10
-0.135518687195356
 20
-1.157670968806384
 10
-0.1245629321578965
 20
-1.175053916012389
 10
-0.1107874301092471
 20
-1.190929032264761
 10
-0.0934795226187945
 20
-1.205609806219496
 10
-0.0736482582921548
 20
-1.217769000594137
 10
-0.0505943610178358
 20
-1.227379192804177
 10
-0.0256368483096517
 20
-1.233396925031032
 10
0.0005899496398196
 20
-1.235415604692751
 10
0.0275369834952562
 20
-1.233083854765652
 10
0.0532811090355426
 20
-1.226473527769457
 10
0.0782222139162039
 20
-1.215322946572276
 10
0.099894507492395
 20
-1.200695735451065
 10
0.1191862067320094
 20
-1.181835178415555
 10
0.1333003059422877
 20
-1.161709988960942
 10
0.1385413154379768
 20
-1.15154353892456
  0
LWPOLYLINE
  5
BF
330
9B
100
AcDbEntity
  8
AM_9
100
AcDbPolyline
 90
        7
 70
     0
 43
0.0
 10
-0.1377355987730523
 20
-1.04674124138004
 10
-0.1410204713171018
 20
-1.054202940972734
 10
-0.1478546027510875
 20
-1.077489875320421
 10
-0.1499584719492549
 20
-1.098356260047133
 10
-0.1483091766092948
 20
-1.119959386657295
 10
-0.1435021913752054
 20
-1.139089522523199
 10
-0.1372140039325107
 20
-1.15433537491519
  0
LWPOLYLINE
  5
C0
330
9B
100
AcDbEntity
  8
AM_9
100
AcDbPolyline
 90
        4
 70
     0
 43
0.0
 10
-0.1028594729276147
 20
-1.001771301069126
 10
-0.1176421742407892
 20
-1.016368966012271
 10
-0.1303572391921786
 20
-1.033396133325849
 10
-0.1377355987730523
 20
-1.04674124138004
  0
LWPOLYLINE
  5
C1
330
9B
100
AcDbEntity
  8
AM_9
100
AcDbPolyline
 90
        3
 70
     0
 43
0.0
 10
0.7364300361013234
 20
-0.9847032348524785
 10
0.7332729234830262
 20
-0.9798906202106564
 10
0.7317153249113441
 20
-0.9778483251697885
  0
LWPOLYLINE
  5
C2
330
9B
100
AcDbEntity
  8
AM_9
100
AcDbPolyline
 90
        3
 70
     0
 43
0.0
 10
0.744568556491406
 20
-1.002779603243264
 10
0.7393589893975209
 20
-0.990128239620717
 10
0.7364300361013234
 20
-0.9847032348524785
  0
LINE
  5
C3
330
9B
100
AcDbEntity
  8
AM_9
100
AcDbLine
 10
0.78
 20
-1.38
 30
0.0
 11
0.78
 21
-0.8199999999999998
 31
0.0
  0
LINE
  5
C4
330
9B
100
AcDbEntity
  8
AM_9
100
AcDbLine
 10
-0.78
 20
-0.8199999999999998
 30
0.0
 11
-0.78
 21
-1.38
 31
0.0
  0
LINE
  5
C5
330
9B
100
AcDbEntity
  8
AM_9
100
AcDbLine
 10
-1.125
 20
-0.8199999999999998
 30
0.0
 11
1.125
 21
-0.8199999999999998
 31
0.0
  0
LINE
  5
C6
330
9B
100
AcDbEntity
  8
AM_9
100
AcDbLine
 10
1.125
 20
-0.9425
 30
0.0
 11
1.125
 21
-0.8199999999999998
 31
0.0
  0
LINE
  5
C7
330
9B
100
AcDbEntity
  8
AM_9
100
AcDbLine
 10
-1.125
 20
-0.8199999999999998
 30
0.0
 11
-1.125
 21
-0.9425
 31
0.0
  0
ELLIPSE
  5
C8
330
9B
100
AcDbEntity
  8
AM_9
100
AcDbEllipse
 10
0.7152732106591081
 20
-1.1
 30
0.0
 11
-2.318256390785945E-17
 21
-0.1262000000000003
 31
0.0
210
0.0
220
0.0
230
1.0
 40
0.4226182617406992
 41
0.0
 42
6.283185307179586
  0
LINE
  5
CB
330
9B
100
AcDbEntity
  8
AM_7
100
AcDbLine
 10
-0.13251
 20
-1.1
 30
0.0
 11
0.13251
 21
-1.1
 31
0.0
  0
ELLIPSE
  5
CD
330
9B
100
AcDbEntity
  8
AM_4
100
AcDbEllipse
 10
0.9923617114157798
 20
-1.1
 30
0.0
 11
-2.318256390785941E-17
 21
-0.1262000000000001
 31
0.0
210
0.0
220
0.0
230
1.0
 40
0.4226182617406999
 41
5.985705182194379
 42
9.733828332012878
  0
LWPOLYLINE
  5
CE
330
9B
100
AcDbEntity
  8
AM_4
100
AcDbPolyline
 90
       14
 70
     0
 43
0.0
 10
0.9871656846624647
 20
-1.236178766200041
 10
0.9833951657817689
 20
-1.231159347159301
 10
0.9742547275603872
 20
-1.216046599250866
 10
0.9661783800487067
 20
-1.198216247801388
 10
0.9590693942666765
 20
-1.176814811917832
 10
0.9537047457840773
 20
-1.153507801375901
 10
0.9501715220014946
 20
-1.127515913679215
 10
0.9489200685018017
 20
-1.100790813554956
 10
0.9501005597317477
 20
-1.07328823935172
 10
0.9536963056908679
 20
-1.046538260055054
 10
0.959607528460657
 20
-1.0212988449307
 10
0.9675511942253321
 20
-0.9983666291762651
 10
0.9769415247645573
 20
-0.9790458820030189
 10
0.987177123405904
 20
-0.9638069632712619
  0
LWPOLYLINE
  5
CF
330
9B
100
AcDbEntity
  8
AM_4
100
AcDbPolyline
 90
       10
 70
     0
 43
0.0
 10
0.987177123405904
 20
-0.9638069632712619
 10
0.9875596069055241
 20
-0.9633330299302608
 10
0.998301713826901
 20
-0.9524657655790907
 10
1.009326393418958
 20
-0.9458213878030721
 10
1.019519411888082
 20
-0.9437676853627125
 10
1.029272914594963
 20
-0.9457617066293977
 10
1.038046183212606
 20
-0.9515505599101575
 10
1.045968520860001
 20
-0.9608597565568492
 10
1.051220249943444
 20
-0.969891478976528
 10
1.055906520666424
 20
-0.9805354516240319
  0
CIRCLE
  5
D0
330
9B
100
AcDbEntity
  8
AM_4
100
AcDbCircle
 10
0.0
 20
-1.1
 30
0.0
 40
0.1262
  0
LWPOLYLINE
  5
D1
330
9B
100
AcDbEntity
  8
AM_4
100
AcDbPolyline
 90
       39
 70
     0
 43
0.0
 10
-0.1066758680238844
 20
-0.9928742382265198
 10
-0.0908226039044556
 20
-0.9773979219216953
 10
-0.0724114050777637
 20
-0.9641799516638582
 10
-0.0501918097974462
 20
-0.9532143264646953
 10
-0.0255805440619602
 20
-0.9461530396896991
 10
-0.0023403297726229
 20
-0.9437699624038614
 10
0.0216847836585466
 20
-0.9454731072747576
 10
0.0436951074190858
 20
-0.9508683626159652
 10
0.0650956713409572
 20
-0.9600316421244687
 10
0.0846289072579089
 20
-0.972461649030705
 10
0.102388099760737
 20
-0.9882257013682719
 10
0.1179007732929035
 20
-1.007178229245468
 10
0.130544070581117
 20
-1.028900543312094
 10
0.1398858933230125
 20
-1.053161420422534
 10
0.1453548542996451
 20
-1.07930821444867
 10
0.1465311812400083
 20
-1.106295108860979
 10
0.1431538339130528
 20
-1.133864553320775
 10
0.1353735492552186
 20
-1.160002749685382
 10
0.1229024714025249
 20
-1.185147922084681
 10
0.1070418971707027
 20
-1.206710557398799
 10
0.0870010148902199
 20
-1.225711518354508
 10
0.0656766147882787
 20
-1.239659332349878
 10
0.0413956574003072
 20
-1.249876488478217
 10
0.0181360177056217
 20
-1.255046712664131
 10
-0.0064362725142289
 20
-1.256098954615115
 10
-0.0290058651437735
 20
-1.253153484854287
 10
-0.0513900147607059
 20
-1.24631308938854
 10
-0.0718755658151693
 20
-1.236143310442186
 10
-0.0909565303083706
 20
-1.222489232275076
 10
-0.1080055856627532
 20
-1.205602754898855
 10
-0.1225415240941229
 20
-1.185735683819373
 10
-0.1341638829646043
 20
-1.163004987950047
 10
-0.1422215965616665
 20
-1.138051676503838
 10
-0.14624482346234
 20
-1.111597080476855
 10
-0.1458858875069017
 20
-1.08408959318126
 10
-0.1410386304464152
 20
-1.057253736670896
 10
-0.1314785371883254
 20
-1.030878956511141
 10
-0.1205836421573698
 20
-1.011172548757072
 10
-0.1066758681695787
 20
-0.99287423813373
  0
LWPOLYLINE
  5
D2
330
9B
100
AcDbEntity
  8
AM_4
100
AcDbPolyline
 90
       19
 70
     0
 43
0.0
 10
1.055906520666424
 20
-0.9805354516240319
 10
1.061212202816068
 20
-0.9968223637281394
 10
1.06550526365022
 20
-1.015211884170819
 10
1.069200567127167
 20
-1.038427023245753
 10
1.071611589741043
 20
-1.063213660461118
 10
1.072781506806589
 20
-1.090094517362634
 10
1.072600437737817
 20
-1.117244790697964
 10
1.071012656811298
 20
-1.144428012279069
 10
1.067993436785734
 20
-1.170341260693279
 10
1.063528999638169
 20
-1.194010821194612
 10
1.057581386431797
 20
-1.214897754854326
 10
1.050428061818026
 20
-1.231623052119615
 10
1.041940270933319
 20
-1.24444358220838
 10
1.032875219760304
 20
-1.252348906540591
 10
1.022945521148024
 20
-1.256017411363172
 10
1.013025326535056
 20
-1.255376228309254
 10
1.002873198613005
 20
-1.250845025847233
 10
0.9929313075571718
 20
-1.242668047938741
 10
0.9871656846624647
 20
-1.236178766200041
  0
LINE
  5
D3
330
9B
100
AcDbEntity
  8
AM_4
100
AcDbLine
 10
1.125
 20
-1.286666666666666
 30
0.0
 11
1.125
 21
-0.9425
 31
0.0
  0
LINE
  5
D4
330
9B
100
AcDbEntity
  8
AM_4
100
AcDbLine
 10
-1.125
 20
-0.9425
 30
0.0
 11
-1.125
 21
-1.286666666666666
 31
0.0
  0
LINE
  5
D5
330
9B
100
AcDbEntity
  8
AM_4
100
AcDbLine
 10
-1.031666666666667
 20
-1.38
 30
0.0
 11
1.031666666653645
 21
-1.38
 31
0.0
  0
LINE
  5
D6
330
9B
100
AcDbEntity
  8
AM_4
100
AcDbLine
 10
-1.125
 20
-1.286666666666666
 30
0.0
 11
1.125
 21
-1.286666666666666
 31
0.0
  0
ARC
  5
D7
330
9B
100
AcDbEntity
  8
AM_4
100
AcDbCircle
 10
1.031666666666666
 20
-1.286666666666666
 30
0.0
 40
0.0933333333333337
100
AcDbArc
 50
270.0
 51
0.0
  0
ARC
  5
D8
330
9B
100
AcDbEntity
  8
AM_4
100
AcDbCircle
 10
-1.031666666666666
 20
-1.286666666666666
 30
0.0
 40
0.0933333333333339
100
AcDbArc
 50
180.0
 51
270.0
  0
CIRCLE
  5
DA
330
9B
100
AcDbEntity
  8
AM_5
100
AcDbCircle
 10
0.0
 20
-1.1
 30
0.0
 40
0.1562499999999999
  0
ENDBLK
  5
9E
330
9B
100
AcDbEntity
  8
0
100
AcDbBlockEnd
  0
BLOCK
  5
DD
330
DB
100
AcDbEntity
  8
0
100
AcDbBlockBegin
  2
3_405020c_Inch_0_in_023167_4
 70
     2
 10
0.0
 20
0.0
 30
0.0
  3
3_405020c_Inch_0_in_023167_4
  1

  0
ATTDEF
  5
DF
330
DB
100
AcDbEntity
  8
AM_6
100
AcDbText
 10
5.140650000000001
 20
0.157408630723042
 30
0.0
 40
0.5
  1
405020C -Inch
100
AcDbAttributeDefinition
  3

  2
NN
 70
     8
280
     0
  0
ATTDEF
  5
E0
330
DB
100
AcDbEntity
  8
AM_6
100
AcDbText
 10
5.140650000000001
 20
-0.342591369276958
 30
0.0
 40
0.5
  1
Grease fitting
100
AcDbAttributeDefinition
  3

  2
NT
 70
     8
280
     0
  0
ATTDEF
  5
E1
330
DB
100
AcDbEntity
  8
AM_6
100
AcDbText
 10
5.140650000000001
 20
-0.842591369276958
 30
0.0
 40
0.5
  1
405020c-Inch
100
AcDbAttributeDefinition
  3

  2
NB
 70
     8
280
     0
  0
ATTDEF
  5
E2
330
DB
100
AcDbEntity
  8
AM_6
100
AcDbText
 10
5.140650000000001
 20
-1.342591369276958
 30
0.0
 40
0.5
  1
$MN.-Inch
100
AcDbAttributeDefinition
  3

  2
NBSYN
 70
     8
280
     0
  0
ATTDEF
  5
E3
330
DB
100
AcDbEntity
  8
AM_6
100
AcDbText
 10
5.140650000000001
 20
-1.842591369276958
 30
0.0
 40
0.5
  1
405020c
100
AcDbAttributeDefinition
  3

  2
LINA
 70
     8
280
     0
  0
ATTDEF
  5
E4
330
DB
100
AcDbEntity
  8
AM_6
100
AcDbText
 10
5.140650000000001
 20
-2.342591369276958
 30
0.0
 40
0.5
  1
405020c
100
AcDbAttributeDefinition
  3

  2
MN
 70
     8
280
     0
  0
ATTDEF
  5
E5
330
DB
100
AcDbEntity
  8
AM_6
100
AcDbText
 10
5.140650000000001
 20
-2.842591369276958
 30
0.0
 40
0.5
  1
0.230
100
AcDbAttributeDefinition
  3

  2
NDR
 70
     8
280
     0
  0
ATTDEF
  5
E6
330
DB
100
AcDbEntity
  8
AM_6
100
AcDbText
 10
5.140650000000001
 20
-3.342591369276958
 30
0.0
 40
0.5
  1
0.210
100
AcDbAttributeDefinition
  3

  2
KDR
 70
     8
280
     0
  0
ATTDEF
  5
E7
330
DB
100
AcDbEntity
  8
AM_6
100
AcDbText
 10
5.140650000000001
 20
-3.842591369276958
 30
0.0
 40
0.5
  1
0.157
100
AcDbAttributeDefinition
  3

  2
BZE
 70
     8
280
     0
  0
ATTDEF
  5
E8
330
DB
100
AcDbEntity
  8
AM_6
100
AcDbText
 10
5.140650000000001
 20
-4.342591369276958
 30
0.0
 40
0.5
  1
9/32
100
AcDbAttributeDefinition
  3

  2
WAF
 70
     8
280
     0
  0
ATTDEF
  5
E9
330
DB
100
AcDbEntity
  8
AM_6
100
AcDbText
 10
5.140650000000001
 20
-4.842591369276958
 30
0.0
 40
0.5
  1
0.2813
100
AcDbAttributeDefinition
  3

  2
WAF1
 70
     8
280
     0
  0
ATTDEF
  5
EA
330
DB
100
AcDbEntity
  8
AM_6
100
AcDbText
 10
5.140650000000001
 20
-5.342591369276958
 30
0.0
 40
0.5
  1
0.545
100
AcDbAttributeDefinition
  3

  2
BL
 70
     8
280
     0
  0
ATTDEF
  5
EB
330
DB
100
AcDbEntity
  8
AM_6
100
AcDbText
 10
5.140650000000001
 20
-5.842591369276958
 30
0.0
 40
0.5
  1
0.200
100
AcDbAttributeDefinition
  3

  2
TL
 70
     8
280
     0
  0
ATTDEF
  5
EC
330
DB
100
AcDbEntity
  8
AM_6
100
AcDbText
 10
5.140650000000001
 20
-6.342591369276958
 30
0.0
 40
0.5
  1
baldor
100
AcDbAttributeDefinition
  3

  2
COMPANY
 70
     8
280
     0
  0
CIRCLE
  5
ED
330
DB
100
AcDbEntity
  8
AM_9
100
AcDbCircle
 10
0.0
 20
-0.0049999999999998
 30
0.0
 40
0.1000886227036577
  0
CIRCLE
  5
EE
330
DB
100
AcDbEntity
  8
AM_9
100
AcDbCircle
 10
0.0
 20
-0.0049999999999998
 30
0.0
 40
0.1104162595939891
  0
CIRCLE
  5
EF
330
DB
100
AcDbEntity
  8
AM_9
100
AcDbCircle
 10
0.0
 20
-0.0049999999999998
 30
0.0
 40
0.1163438171532771
  0
LINE
  5
F0
330
DB
100
AcDbEntity
  8
AM_9
100
AcDbLine
 10
0.14065
 20
-0.0862043153615206
 30
0.0
 11
0.14065
 21
0.0762043153615211
 31
0.0
  0
LINE
  5
F1
330
DB
100
AcDbEntity
  8
AM_9
100
AcDbLine
 10
0.0
 20
-0.1674086307230415
 30
0.0
 11
0.14065
 21
-0.0862043153615206
 31
0.0
  0
LINE
  5
F2
330
DB
100
AcDbEntity
  8
AM_9
100
AcDbLine
 10
0.0
 20
0.157408630723042
 30
0.0
 11
-0.14065
 21
0.0762043153615211
 31
0.0
  0
LINE
  5
F3
330
DB
100
AcDbEntity
  8
AM_9
100
AcDbLine
 10
0.14065
 20
0.0762043153615211
 30
0.0
 11
0.0
 21
0.157408630723042
 31
0.0
  0
LINE
  5
F4
330
DB
100
AcDbEntity
  8
AM_9
100
AcDbLine
 10
-0.14065
 20
-0.0862043153615206
 30
0.0
 11
0.0
 21
-0.1674086307230415
 31
0.0
  0
LINE
  5
F5
330
DB
100
AcDbEntity
  8
AM_9
100
AcDbLine
 10
-0.14065
 20
0.0762043153615211
 30
0.0
 11
-0.14065
 21
-0.0862043153615206
 31
0.0
  0
CIRCLE
  5
F6
330
DB
100
AcDbEntity
  8
AM_9
100
AcDbCircle
 10
0.0
 20
-0.0049999999999998
 30
0.0
 40
0.1093294505797714
  0
CIRCLE
  5
F7
330
DB
100
AcDbEntity
  8
AM_9
100
AcDbCircle
 10
0.0
 20
-0.0049999999999998
 30
0.0
 40
0.0946847896390988
  0
CIRCLE
  5
F8
330
DB
100
AcDbEntity
  8
AM_9
100
AcDbCircle
 10
0.0
 20
-0.0049999999999998
 30
0.0
 40
0.135926521995058
  0
CIRCLE
  5
F9
330
DB
100
AcDbEntity
  8
AM_9
100
AcDbCircle
 10
0.0
 20
-0.0049999999999998
 30
0.0
 40
0.13195176466768
  0
CIRCLE
  5
FA
330
DB
100
AcDbEntity
  8
AM_9
100
AcDbCircle
 10
0.0
 20
-0.0049999999999998
 30
0.0
 40
0.1038190510530391
  0
CIRCLE
  5
FB
330
DB
100
AcDbEntity
  8
AM_9
100
AcDbCircle
 10
0.0
 20
-0.0049999999999998
 30
0.0
 40
0.080806429716728
  0
CIRCLE
  5
FC
330
DB
100
AcDbEntity
  8
AM_9
100
AcDbCircle
 10
0.0000000000000002
 20
-0.0049999999999997
 30
0.0
 40
0.1406500000000002
  0
ENDBLK
  5
DE
330
DB
100
AcDbEntity
  8
0
100
AcDbBlockEnd
  0
BLOCK
  5
FF
330
FD
100
AcDbEntity
  8
0
100
AcDbBlockBegin
  2
4_S1U_K_103R_0_in_023167_4
 70
     2
 10
0.0
 20
0.0
 30
0.0
  3
4_S1U_K_103R_0_in_023167_4
  1

  0
ATTDEF
  5
101
330
FD
100
AcDbEntity
  8
AM_6
100
AcDbText
 10
6.562153874624018
 20
0.9325000000000001
 30
0.0
 40
0.5
  1
Type K Units - Inch
100
AcDbAttributeDefinition
  3

  2
NN
 70
     8
280
     0
  0
ATTDEF
  5
102
330
FD
100
AcDbEntity
  8
AM_6
100
AcDbText
 10
6.562153874624018
 20
0.4325000000000001
 30
0.0
 40
0.5
  1
Type K
100
AcDbAttributeDefinition
  3

  2
NT
 70
     8
280
     0
  0
ATTDEF
  5
103
330
FD
100
AcDbEntity
  8
AM_6
100
AcDbText
 10
6.562153874624018
 20
-0.0674999999999999
 30
0.0
 40
0.5
  1
S1U-K-103R
100
AcDbAttributeDefinition
  3

  2
NB
 70
     8
280
     0
  0
ATTDEF
  5
104
330
FD
100
AcDbEntity
  8
AM_6
100
AcDbText
 10
6.562153874624018
 20
-0.5674999999999999
 30
0.0
 40
0.5
  1
$PN.
100
AcDbAttributeDefinition
  3

  2
NBSYN
 70
     8
280
     0
  0
ATTDEF
  5
105
330
FD
100
AcDbEntity
  8
AM_6
100
AcDbText
 10
6.562153874624018
 20
-1.0675
 30
0.0
 40
0.5
  1
S1U-K-103R
100
AcDbAttributeDefinition
  3

  2
LINA
 70
     8
280
     0
  0
ATTDEF
  5
106
330
FD
100
AcDbEntity
  8
AM_6
100
AcDbText
 10
6.562153874624018
 20
-1.5675
 30
0.0
 40
0.5
  1
1-3/16
100
AcDbAttributeDefinition
  3

  2
SS
 70
     8
280
     0
  0
ATTDEF
  5
107
330
FD
100
AcDbEntity
  8
AM_6
100
AcDbText
 10
6.562153874624018
 20
-2.0675
 30
0.0
 40
0.5
  1
1.187500
100
AcDbAttributeDefinition
  3

  2
SS1
 70
     8
280
     0
  0
ATTDEF
  5
108
330
FD
100
AcDbEntity
  8
AM_6
100
AcDbText
 10
6.562153874624018
 20
-2.5675
 30
0.0
 40
0.5
  1
S1U-K-103R
100
AcDbAttributeDefinition
  3

  2
PN
 70
     8
280
     0
  0
ATTDEF
  5
109
330
FD
100
AcDbEntity
  8
AM_6
100
AcDbText
 10
6.562153874624018
 20
-3.0675
 30
0.0
 40
0.5
  1
S1U-K-103R
100
AcDbAttributeDefinition
  3

  2
PNA
 70
     8
280
     0
  0
ATTDEF
  5
10A
330
FD
100
AcDbEntity
  8
AM_6
100
AcDbText
 10
6.562153874624018
 20
-3.5675
 30
0.0
 40
0.5
  1
3
100
AcDbAttributeDefinition
  3

  2
WEIGHT
 70
     8
280
     0
  0
ATTDEF
  5
10B
330
FD
100
AcDbEntity
  8
AM_6
100
AcDbText
 10
6.562153874624018
 20
-4.0675
 30
0.0
 40
0.5
  1
2-5/16
100
AcDbAttributeDefinition
  3

  2
A
 70
     8
280
     0
  0
ATTDEF
  5
10C
330
FD
100
AcDbEntity
  8
AM_6
100
AcDbText
 10
6.562153874624018
 20
-4.5675
 30
0.0
 40
0.5
  1
2.312500
100
AcDbAttributeDefinition
  3

  2
A1
 70
     8
280
     0
  0
ATTDEF
  5
10D
330
FD
100
AcDbEntity
  8
AM_6
100
AcDbText
 10
6.562153874624018
 20
-5.0675
 30
0.0
 40
0.5
  1
1-7/8
100
AcDbAttributeDefinition
  3

  2
B
 70
     8
280
     0
  0
ATTDEF
  5
10E
330
FD
100
AcDbEntity
  8
AM_6
100
AcDbText
 10
6.562153874624018
 20
-5.5675
 30
0.0
 40
0.5
  1
1.875000
100
AcDbAttributeDefinition
  3

  2
B1
 70
     8
280
     0
  0
ATTDEF
  5
10F
330
FD
100
AcDbEntity
  8
AM_6
100
AcDbText
 10
6.562153874624018
 20
-6.0675
 30
0.0
 40
0.5
  1
1-1/32
100
AcDbAttributeDefinition
  3

  2
C
 70
     8
280
     0
  0
ATTDEF
  5
110
330
FD
100
AcDbEntity
  8
AM_6
100
AcDbText
 10
6.562153874624018
 20
-6.5675
 30
0.0
 40
0.5
  1
1.031250
100
AcDbAttributeDefinition
  3

  2
C1
 70
     8
280
     0
  0
ATTDEF
  5
111
330
FD
100
AcDbEntity
  8
AM_6
100
AcDbText
 10
6.562153874624018
 20
-7.0675
 30
0.0
 40
0.5
  1
-
100
AcDbAttributeDefinition
  3

  2
D
 70
     8
280
     0
  0
ATTDEF
  5
112
330
FD
100
AcDbEntity
  8
AM_6
100
AcDbText
 10
6.562153874624018
 20
-7.5675
 30
0.0
 40
0.5
  1
0.000000
100
AcDbAttributeDefinition
  3

  2
D1
 70
     8
280
     0
  0
ATTDEF
  5
113
330
FD
100
AcDbEntity
  8
AM_6
100
AcDbText
 10
6.562153874624018
 20
-8.067499999999999
 30
0.0
 40
0.5
  1
0.450
100
AcDbAttributeDefinition
  3

  2
E
 70
     8
280
     0
  0
ATTDEF
  5
114
330
FD
100
AcDbEntity
  8
AM_6
100
AcDbText
 10
6.562153874624018
 20
-8.567499999999999
 30
0.0
 40
0.5
  1
2.813
100
AcDbAttributeDefinition
  3

  2
EM
 70
     8
280
     0
  0
ATTDEF
  5
115
330
FD
100
AcDbEntity
  8
AM_6
100
AcDbText
 10
6.562153874624018
 20
-9.067499999999999
 30
0.0
 40
0.5
  1
2.880
100
AcDbAttributeDefinition
  3

  2
EC
 70
     8
280
     0
  0
ATTDEF
  5
116
330
FD
100
AcDbEntity
  8
AM_6
100
AcDbText
 10
6.562153874624018
 20
-9.567499999999999
 30
0.0
 40
0.5
  1
7/16
100
AcDbAttributeDefinition
  3

  2
H
 70
     8
280
     0
  0
ATTDEF
  5
117
330
FD
100
AcDbEntity
  8
AM_6
100
AcDbText
 10
6.562153874624018
 20
-10.0675
 30
0.0
 40
0.5
  1
0.437500
100
AcDbAttributeDefinition
  3

  2
H1
 70
     8
280
     0
  0
ATTDEF
  5
118
330
FD
100
AcDbEntity
  8
AM_6
100
AcDbText
 10
6.562153874624018
 20
-10.5675
 30
0.0
 40
0.5
  1
----
100
AcDbAttributeDefinition
  3

  2
J
 70
     8
280
     0
  0
ATTDEF
  5
119
330
FD
100
AcDbEntity
  8
AM_6
100
AcDbText
 10
6.562153874624018
 20
-11.0675
 30
0.0
 40
0.5
  1
0.000000
100
AcDbAttributeDefinition
  3

  2
J1
 70
     8
280
     0
  0
ATTDEF
  5
11A
330
FD
100
AcDbEntity
  8
AM_6
100
AcDbText
 10
6.562153874624018
 20
-11.5675
 30
0.0
 40
0.5
  1
3.125
100
AcDbAttributeDefinition
  3

  2
K
 70
     8
280
     0
  0
ATTDEF
  5
11B
330
FD
100
AcDbEntity
  8
AM_6
100
AcDbText
 10
6.562153874624018
 20
-12.0675
 30
0.0
 40
0.5
  1
2-1/4
100
AcDbAttributeDefinition
  3

  2
L
 70
     8
280
     0
  0
ATTDEF
  5
11C
330
FD
100
AcDbEntity
  8
AM_6
100
AcDbText
 10
6.562153874624018
 20
-12.5675
 30
0.0
 40
0.5
  1
2.250000
100
AcDbAttributeDefinition
  3

  2
L1
 70
     8
280
     0
  0
ATTDEF
  5
11D
330
FD
100
AcDbEntity
  8
AM_6
100
AcDbText
 10
6.562153874624018
 20
-13.0675
 30
0.0
 40
0.5
  1
2-1/32
100
AcDbAttributeDefinition
  3

  2
M
 70
     8
280
     0
  0
ATTDEF
  5
11E
330
FD
100
AcDbEntity
  8
AM_6
100
AcDbText
 10
6.562153874624018
 20
-13.5675
 30
0.0
 40
0.5
  1
2.031250
100
AcDbAttributeDefinition
  3

  2
M1
 70
     8
280
     0
  0
ATTDEF
  5
11F
330
FD
100
AcDbEntity
  8
AM_6
100
AcDbText
 10
6.562153874624018
 20
-14.0675
 30
0.0
 40
0.5
  1
1
100
AcDbAttributeDefinition
  3

  2
R
 70
     8
280
     0
  0
ATTDEF
  5
120
330
FD
100
AcDbEntity
  8
AM_6
100
AcDbText
 10
6.562153874624018
 20
-14.5675
 30
0.0
 40
0.5
  1
1.000000
100
AcDbAttributeDefinition
  3

  2
R1
 70
     8
280
     0
  0
ATTDEF
  5
121
330
FD
100
AcDbEntity
  8
AM_6
100
AcDbText
 10
6.562153874624018
 20
-15.0675
 30
0.0
 40
0.5
  1
1-3/8
100
AcDbAttributeDefinition
  3

  2
S
 70
     8
280
     0
  0
ATTDEF
  5
122
330
FD
100
AcDbEntity
  8
AM_6
100
AcDbText
 10
6.562153874624018
 20
-15.5675
 30
0.0
 40
0.5
  1
0.000000
100
AcDbAttributeDefinition
  3

  2
S1
 70
     8
280
     0
  0
ATTDEF
  5
123
330
FD
100
AcDbEntity
  8
AM_6
100
AcDbText
 10
6.562153874624018
 20
-16.0675
 30
0.0
 40
0.5
  1
1.5600
100
AcDbAttributeDefinition
  3

  2
CC
 70
     8
280
     0
  0
ATTDEF
  5
124
330
FD
100
AcDbEntity
  8
AM_6
100
AcDbText
 10
6.562153874624018
 20
-16.5675
 30
0.0
 40
0.5
  1
baldor
100
AcDbAttributeDefinition
  3

  2
COMPANY
 70
     8
280
     0
  0
LINE
  5
125
330
FD
100
AcDbEntity
  8
AM_9
100
AcDbLine
 10
0.7067121917657196
 20
-0.8971874999999998
 30
0.0
 11
0.537842743741603
 21
-0.8971874999999998
 31
0.0
  0
LINE
  5
126
330
FD
100
AcDbEntity
  8
AM_9
100
AcDbLine
 10
0.5378891104236624
 20
-1.3471875
 30
0.0
 11
0.7067424916864147
 21
-1.3471875
 31
0.0
  0
LWPOLYLINE
  5
127
330
FD
100
AcDbEntity
  8
AM_9
100
AcDbPolyline
 90
       21
 70
     0
 43
0.0
 10
0.5381194410037069
 20
-0.8971875000081136
 10
0.5300197558947655
 20
-0.8979531529290361
 10
0.5134796774405092
 20
-0.9035639312712865
 10
0.495378531312309
 20
-0.9148131921295379
 10
0.4771241164606997
 20
-0.931013041701525
 10
0.4588220248989465
 20
-0.9524029209901168
 10
0.4412757621704543
 20
-0.9789877608311459
 10
0.4256545772650154
 20
-1.010424907410118
 10
0.4135491333016277
 20
-1.045028854276132
 10
0.4055699637710713
 20
-1.083327579539034
 10
0.4029092381970897
 20
-1.119572532725771
 10
0.4050475849221123
 20
-1.157055559085784
 10
0.4112721648797547
 20
-1.19071284720963
 10
0.4214417753990742
 20
-1.22340763154807
 10
0.4349390986809772
 20
-1.253781952099155
 10
0.45130598569151
 20
-1.281438135684635
 10
0.4700372635099593
 20
-1.305733839611503
 10
0.4901611313548245
 20
-1.32542484605969
 10
0.5094564639546668
 20
-1.338740808443719
 10
0.5282590628145157
 20
-1.346067191326187
 10
0.5381259331297178
 20
-1.347187499597924
  0
LWPOLYLINE
  5
128
330
FD
100
AcDbEntity
  8
AM_9
100
AcDbPolyline
 90
        5
 70
     0
 43
0.0
 10
0.592107872183559
 20
-1.202334213235419
 10
0.5925676803002136
 20
-1.183509522388491
 10
0.5928597939583075
 20
-1.16391262076318
 10
0.5930247727646819
 20
-1.143155187357104
 10
0.5930753943780789
 20
-1.1221875
  0
LWPOLYLINE
  5
129
330
FD
100
AcDbEntity
  8
AM_9
100
AcDbPolyline
 90
       10
 70
     0
 43
0.0
 10
0.5381259331297178
 20
-1.347187499597924
 10
0.5436891770143047
 20
-1.346781731882531
 10
0.5573813194437091
 20
-1.341534187009272
 10
0.5680408544619885
 20
-1.331147328012741
 10
0.5766210853487724
 20
-1.315358861778669
 10
0.5830499475829309
 20
-1.294479861335567
 10
0.587572788221682
 20
-1.268538867593563
 10
0.5904658946858558
 20
-1.237805453883789
 10
0.5921010823233491
 20
-1.202557755000591
 10
0.592107872183559
 20
-1.202334213235419
  0
LWPOLYLINE
  5
12A
330
FD
100
AcDbEntity
  8
AM_9
100
AcDbPolyline
 90
       17
 70
     0
 43
0.0
 10
0.6393840274017837
 20
-0.941948075729968
 10
0.6286595226243329
 20
-0.9570103188774803
 10
0.6128491190161318
 20
-0.9849822835880583
 10
0.5995389842280703
 20
-1.016866677379936
 10
0.5894894089930536
 20
-1.052185126744694
 10
0.5834227289078876
 20
-1.089647031551623
 10
0.5818371187503432
 20
-1.126803201329518
 10
0.5844741715453716
 20
-1.163823818220898
 10
0.5910292234097223
 20
-1.198788112346007
 10
0.6010336637387932
 20
-1.231676286364227
 10
0.6143149578174407
 20
-1.262349696820435
 10
0.6298935216290353
 20
-1.289236146993251
 10
0.6476213211484069
 20
-1.312309286760472
 10
0.6661050940897149
 20
-1.32997675153479
 10
0.684341050616327
 20
-1.341543281257375
 10
0.7017203755082433
 20
-1.346861791325475
 10
0.7069118035181075
 20
-1.347187499149041
  0
LINE
  5
12B
330
FD
100
AcDbEntity
  8
AM_9
100
AcDbLine
 10
0.6412833779789292
 20
-0.9395448151416187
 30
0.0
 11
0.6393840274017837
 21
-0.941948075729968
 31
0.0
  0
LWPOLYLINE
  5
12C
330
FD
100
AcDbEntity
  8
AM_9
100
AcDbPolyline
 90
        6
 70
     0
 43
0.0
 10
0.7069240408924998
 20
-0.8971875001958065
 10
0.6975024714580477
 20
-0.8982305678183397
 10
0.6806651395912372
 20
-0.904692347651048
 10
0.6631803035026388
 20
-0.9167922031482598
 10
0.6455274196035565
 20
-0.9344532135085393
 10
0.6412833779789292
 20
-0.9395448151416187
  0
LWPOLYLINE
  5
12D
330
FD
100
AcDbEntity
  8
AM_9
100
AcDbPolyline
 90
       11
 70
     0
 43
0.0
 10
0.7069118035181075
 20
-1.347187499149041
 10
0.7170227028487562
 20
-1.345796042144439
 10
0.7305143064518632
 20
-1.338777140417664
 10
0.7418152834510915
 20
-1.326102383943258
 10
0.7510500523026333
 20
-1.308191050948026
 10
0.758459685489715
 20
-1.284714603252912
 10
0.7639686385512476
 20
-1.256813323325875
 10
0.7679029000576145
 20
-1.224236232623689
 10
0.7703933464041646
 20
-1.188600103899639
 10
0.7715785080721506
 20
-1.155796822473196
 10
0.7719590591010419
 20
-1.1221875
  0
LWPOLYLINE
  5
12E
330
FD
100
AcDbEntity
  8
AM_9
100
AcDbPolyline
 90
        6
 70
     0
 43
0.0
 10
0.5803438042278181
 20
-0.9396572806914719
 10
0.5792449277357943
 20
-0.9361710060997717
 10
0.5708701583522244
 20
-0.9174513147993724
 10
0.5593739883906547
 20
-0.9042570200570275
 10
0.5461104696580891
 20
-0.89804285389331
 10
0.5381194410037069
 20
-0.8971875000081136
  0
LINE
  5
12F
330
FD
100
AcDbEntity
  8
AM_9
100
AcDbLine
 10
0.5810297895451074
 20
-0.9420104904011617
 30
0.0
 11
0.5803438042278181
 21
-0.9396572806914719
 31
0.0
  0
LWPOLYLINE
  5
130
330
FD
100
AcDbEntity
  8
AM_9
100
AcDbPolyline
 90
        5
 70
     0
 43
0.0
 10
0.5921347044081516
 20
-1.042935732671294
 10
0.5911495321453688
 20
-1.01818761591396
 10
0.588904148358681
 20
-0.9875499864527012
 10
0.5851317688286849
 20
-0.9599861399003718
 10
0.5810297895451074
 20
-0.9420104904011617
  0
LWPOLYLINE
  5
131
330
FD
100
AcDbEntity
  8
AM_9
100
AcDbPolyline
 90
        4
 70
     0
 43
0.0
 10
0.5930753943780789
 20
-1.1221875
 10
0.5929208930129526
 20
-1.086496592627325
 10
0.5923478378716769
 20
-1.05080568525465
 10
0.5921347044081516
 20
-1.042935732671294
  0
LINE
  5
132
330
FD
100
AcDbEntity
  8
AM_9
100
AcDbLine
 10
0.59375
 20
-1.38
 30
0.0
 11
0.59375
 21
0.9325000000000001
 31
0.0
  0
LINE
  5
133
330
FD
100
AcDbEntity
  8
AM_9
100
AcDbLine
 10
-0.59375
 20
0.9325000000000001
 30
0.0
 11
-0.59375
 21
-1.38
 31
0.0
  0
LWPOLYLINE
  5
134
330
FD
100
AcDbEntity
  8
AM_9
100
AcDbPolyline
 90
        5
 70
     0
 43
0.0
 10
-0.1317186028049392
 20
-0.939772561809306
 10
-0.1026668753712931
 20
-0.9219763297284703
 10
-0.066492193048325
 20
-0.9072368352798733
 10
-0.0340563251950108
 20
-0.8997798411520823
 10
0.0
 20
-0.8971874999999998
  0
LINE
  5
135
330
FD
100
AcDbEntity
  8
AM_9
100
AcDbLine
 10
-0.1353483305736925
 20
-0.9424492753205648
 30
0.0
 11
-0.1317186028049392
 21
-0.939772561809306
 31
0.0
  0
LWPOLYLINE
  5
136
330
FD
100
AcDbEntity
  8
AM_9
100
AcDbPolyline
 90
       32
 70
     0
 43
0.0
 10
0.1352008166589664
 20
-0.9423382876727038
 10
0.1373134163867851
 20
-0.9439460186321954
 10
0.164669225375022
 20
-0.9688609001733873
 10
0.1881478118408516
 20
-0.9987962486914104
 10
0.2061564683209698
 20
-1.032051433026646
 10
0.2186507693128511
 20
-1.069113579107547
 10
0.2243968374692494
 20
-1.105723620329666
 10
0.2239432379965869
 20
-1.143968825845871
 10
0.2176370824717402
 20
-1.179276030662375
 10
0.2054316755192188
 20
-1.213963459234248
 10
0.1880958397998489
 20
-1.245657962257131
 10
0.1653103582577937
 20
-1.274822638328891
 10
0.137754810882298
 20
-1.300088067955198
 10
0.1053870390223069
 20
-1.320980286604823
 10
0.0706713956884181
 20
-1.335800593773418
 10
0.0326771944726541
 20
-1.344801967098157
 10
-0.003931771484046
 20
-1.347153144428204
 10
-0.0415223448194674
 20
-1.343322967260892
 10
-0.0761476417088863
 20
-1.333910282577065
 10
-0.1096072093453886
 20
-1.318684980033501
 10
-0.1399017892222968
 20
-1.298404665373865
 10
-0.1671499753034624
 20
-1.272805844686336
 10
-0.1898981693978835
 20
-1.242867594710489
 10
-0.2078086497315847
 20
-1.208446210265894
 10
-0.2192695513331098
 20
-1.172644054164714
 10
-0.2246822291023005
 20
-1.134141408382673
 10
-0.2236802127045901
 20
-1.097853111895317
 10
-0.2165801453265335
 20
-1.061211761789318
 10
-0.2041687523351377
 20
-1.027635289185481
 10
-0.1861111573448435
 20
-0.9957452716434776
 10
-0.1630048495194597
 20
-0.9670926289270392
 10
-0.1353483305736925
 20
-0.9424492753205648
  0
LINE
  5
137
330
FD
100
AcDbEntity
  8
AM_9
100
AcDbLine
 10
0.1314952804167437
 20
-0.9396115124547535
 30
0.0
 11
0.1352008166589664
 21
-0.9423382876727038
 31
0.0
  0
LWPOLYLINE
  5
138
330
FD
100
AcDbEntity
  8
AM_9
100
AcDbPolyline
 90
        5
 70
     0
 43
0.0
 10
0.0
 20
-0.8971874999999998
 10
0.0363872867103517
 20
-0.9001492930043149
 10
0.0727745734207035
 20
-0.9092817427658785
 10
0.1060710672181079
 20
-0.9237588511127697
 10
0.1314952804167437
 20
-0.9396115124547535
  0
LWPOLYLINE
  5
139
330
FD
100
AcDbEntity
  8
AM_9
100
AcDbPolyline
 90
        6
 70
     0
 43
0.0
 10
0.7523387507771023
 20
-0.939515467344191
 10
0.7501859543366913
 20
-0.934086939289974
 10
0.740119285843052
 20
-0.9158537317368993
 10
0.7277419075494795
 20
-0.903557077301281
 10
0.7135203318360411
 20
-0.897782356394569
 10
0.7069240408924998
 20
-0.8971875001958065
  0
LINE
  5
13A
330
FD
100
AcDbEntity
  8
AM_9
100
AcDbLine
 10
0.7532096965995955
 20
-0.9419171054580368
 30
0.0
 11
0.7523387507771023
 21
-0.939515467344191
 31
0.0
  0
LWPOLYLINE
  5
13B
330
FD
100
AcDbEntity
  8
AM_9
100
AcDbPolyline
 90
        7
 70
     0
 43
0.0
 10
0.7719590591010419
 20
-1.1221875
 10
0.771499415984419
 20
-1.085306562349026
 10
0.7700579353734595
 20
-1.049487883355215
 10
0.7674881263170054
 20
-1.015800543031191
 10
0.7635668824724805
 20
-0.9850195021953256
 10
0.7578526014731608
 20
-0.9572757263048938
 10
0.7532096965995955
 20
-0.9419171054580368
  0
LINE
  5
13C
330
FD
100
AcDbEntity
  8
AM_9
100
AcDbLine
 10
0.7799999999999999
 20
-1.38
 30
0.0
 11
0.7799999999999999
 21
-0.8643750000000001
 31
0.0
  0
LINE
  5
13D
330
FD
100
AcDbEntity
  8
AM_9
100
AcDbLine
 10
-0.7799999999999999
 20
-0.8643750000000001
 30
0.0
 11
-0.7799999999999999
 21
-1.38
 31
0.0
  0
LINE
  5
13E
330
FD
100
AcDbEntity
  8
AM_9
100
AcDbLine
 10
-0.9374999999999999
 20
0.9325000000000001
 30
0.0
 11
-0.9374999999999999
 21
0.6356250000000001
 31
0.0
  0
LINE
  5
13F
330
FD
100
AcDbEntity
  8
AM_9
100
AcDbLine
 10
0.9374999999999999
 20
0.6356250000000001
 30
0.0
 11
0.9374999999999999
 21
0.9325000000000001
 31
0.0
  0
LINE
  5
140
330
FD
100
AcDbEntity
  8
AM_9
100
AcDbLine
 10
-1.153846153846154
 20
-0.8643750000000001
 30
0.0
 11
1.153846153846154
 21
-0.8643750000000001
 31
0.0
  0
LINE
  5
141
330
FD
100
AcDbEntity
  8
AM_9
100
AcDbLine
 10
-1.153846153846154
 20
-0.8643750000000001
 30
0.0
 11
-1.167621699214003
 21
-0.9425
 31
0.0
  0
LINE
  5
142
330
FD
100
AcDbEntity
  8
AM_9
100
AcDbLine
 10
1.167621699214003
 20
-0.9425
 30
0.0
 11
1.153846153846154
 21
-0.8643750000000001
 31
0.0
  0
LINE
  5
143
330
FD
100
AcDbEntity
  8
AM_9
100
AcDbLine
 10
1.153846153846154
 20
0.6356250000000001
 30
0.0
 11
1.206193226243979
 21
0.9325000000000001
 31
0.0
  0
LINE
  5
144
330
FD
100
AcDbEntity
  8
AM_9
100
AcDbLine
 10
-1.206193226243979
 20
0.9325000000000001
 30
0.0
 11
-1.153846153846154
 21
0.6356250000000001
 31
0.0
  0
LINE
  5
145
330
FD
100
AcDbEntity
  8
AM_9
100
AcDbLine
 10
1.153846153846154
 20
0.6356250000000001
 30
0.0
 11
-1.153846153846154
 21
0.6356250000000001
 31
0.0
  0
LINE
  5
146
330
FD
100
AcDbEntity
  8
AM_9
100
AcDbLine
 10
1.4065
 20
-0.9039583333333332
 30
0.0
 11
1.4065
 21
-0.5206249999999999
 31
0.0
  0
LINE
  5
147
330
FD
100
AcDbEntity
  8
AM_9
100
AcDbLine
 10
-1.4065
 20
-0.5206249999999999
 30
0.0
 11
-1.4065
 21
-0.9039583333333332
 31
0.0
  0
LINE
  5
148
330
FD
100
AcDbEntity
  8
AM_9
100
AcDbLine
 10
-1.4065
 20
-0.9039583333333332
 30
0.0
 11
1.4065
 21
-0.9039583333333332
 31
0.0
  0
ARC
  5
149
330
FD
100
AcDbEntity
  8
AM_9
100
AcDbCircle
 10
1.367958333333334
 20
-0.9039583333333336
 30
0.0
 40
0.0385416666666663
100
AcDbArc
 50
290.7500120563297
 51
0.0
  0
ARC
  5
14A
330
FD
100
AcDbEntity
  8
AM_9
100
AcDbCircle
 10
-1.367958333333334
 20
-0.9039583333333336
 30
0.0
 40
0.0385416666666663
100
AcDbArc
 50
180.0
 51
249.2499879436703
  0
LINE
  5
14B
330
FD
100
AcDbEntity
  8
AM_9
100
AcDbLine
 10
-1.44
 20
0.5106250000000001
 30
0.0
 11
1.44
 21
0.5106250000000001
 31
0.0
  0
LINE
  5
14C
330
FD
100
AcDbEntity
  8
AM_9
100
AcDbLine
 10
1.44
 20
0.5106250000000001
 30
0.0
 11
1.44
 21
0.8939583333333332
 31
0.0
  0
LINE
  5
14D
330
FD
100
AcDbEntity
  8
AM_9
100
AcDbLine
 10
-1.44
 20
0.8939583333333332
 30
0.0
 11
-1.44
 21
0.5106250000000001
 31
0.0
  0
LINE
  5
14E
330
FD
100
AcDbEntity
  8
AM_9
100
AcDbLine
 10
-1.44
 20
0.8939583333333332
 30
0.0
 11
1.44
 21
0.8939583333333332
 31
0.0
  0
LINE
  5
14F
330
FD
100
AcDbEntity
  8
AM_9
100
AcDbLine
 10
-1.401458333333334
 20
0.9325000000000001
 30
0.0
 11
1.401458333326333
 21
0.9325000000000001
 31
0.0
  0
ARC
  5
150
330
FD
100
AcDbEntity
  8
AM_9
100
AcDbCircle
 10
1.401458333333333
 20
0.8939583333333329
 30
0.0
 40
0.0385416666666671
100
AcDbArc
 50
0.0
 51
90.0
  0
ARC
  5
151
330
FD
100
AcDbEntity
  8
AM_9
100
AcDbCircle
 10
-1.401458333333333
 20
0.8939583333333329
 30
0.0
 40
0.0385416666666673
100
AcDbArc
 50
90.0
 51
180.0
  0
LINE
  5
152
330
FD
100
AcDbEntity
  8
AM_9
100
AcDbLine
 10
-1.534037641120647
 20
-0.5206250000000002
 30
0.0
 11
1.534037641120647
 21
-0.5206250000000002
 31
0.0
  0
ARC
  5
153
330
FD
100
AcDbEntity
  8
AM_9
100
AcDbCircle
 10
0.0000000000000098
 20
-0.2237499999999984
 30
0.0
 40
1.56249999999999
100
AcDbArc
 50
349.0472158011087
 51
28.03429653488141
  0
ARC
  5
154
330
FD
100
AcDbEntity
  8
AM_9
100
AcDbCircle
 10
0.0000000000000038
 20
-0.2237500000000004
 30
0.0
 40
1.562500000000003
100
AcDbArc
 50
151.9657034651188
 51
190.9527841988911
  0
LWPOLYLINE
  5
155
330
FD
100
AcDbEntity
  8
AM_9
100
AcDbPolyline
 90
       60
 70
     0
 43
0.0
 10
-0.1951631232512768
 20
0.1918400869931089
 10
-0.1611924431144532
 20
0.221371532181173
 10
-0.1419859864112486
 20
0.2342463930582708
 10
-0.1215871626978912
 20
0.245532137482812
 10
-0.0796372054098129
 20
0.2622679113305936
 10
-0.0571797725123743
 20
0.2680989979834844
 10
-0.0341254495029793
 20
0.2720213127144914
 10
0.0107183633432099
 20
0.2739561138465303
 10
0.0336744929261574
 20
0.2720778655907025
 10
0.0565514014197975
 20
0.2682331084178123
 10
0.0993737486079248
 20
0.2553974973976079
 10
0.1203367116212228
 20
0.2461516692072008
 10
0.1405765164412687
 20
0.2351010589410635
 10
0.1769158622110896
 20
0.2089208639852007
 10
0.1937207329031126
 20
0.1933088657602942
 10
0.2092457163015978
 20
0.1762301694578458
 10
0.2351768303499548
 20
0.1393413239621357
 10
0.245997886851568
 20
0.1189374242151477
 10
0.2551072967502998
 20
0.0975517532512573
 10
0.2675286301939934
 20
0.0538060119999422
 10
0.2710246563738274
 20
0.0307569086995721
 10
0.2725446322616601
 20
0.0073282512230164
 10
0.2697004089921352
 20
-0.0383528597601993
 10
0.2652824651065218
 20
-0.0614264282736622
 10
0.258838813277696
 20
-0.0842093038709999
 10
0.2507674439577249
 20
-0.1055931791194315
 10
0.2408524396960655
 20
-0.1263818188257739
 10
0.2289341897424549
 20
-0.146702310444947
 10
0.2151862611170143
 20
-0.1660743344787028
 10
0.2004733249015878
 20
-0.183453441486824
 10
0.1842284284397146
 20
-0.1996669458828726
 10
0.166257011657215
 20
-0.2147812532276111
 10
0.1468844621644747
 20
-0.2284000444473186
 10
0.1067829083239146
 20
-0.249583703503855
 10
0.0849722184089179
 20
-0.2577913727481777
 10
0.0623568674605901
 20
-0.2641486226950397
 10
0.0178430351252058
 20
-0.2707954424038249
 10
-0.005254198516477
 20
-0.2713296732187834
 10
-0.028483845354528
 20
-0.2698873244257167
 10
-0.072492290298857
 20
-0.2615594570487377
 10
-0.0943522607507734
 20
-0.2545220041931139
 10
-0.1156821769723593
 20
-0.2456033490773465
 10
-0.1545298306544025
 20
-0.223323916103278
 10
-0.1728619102936348
 20
-0.2095306889098548
 10
-0.1900735374298569
 20
-0.1941438496004846
 10
-0.2196152160473294
 20
-0.1602154091450463
 10
-0.2324644099198712
 20
-0.1410900302163651
 10
-0.2437192741843738
 20
-0.1208179937593547
 10
-0.2605793184334597
 20
-0.0787480126853662
 10
-0.2664477909445428
 20
-0.0562772491649293
 10
-0.2704045129287295
 20
-0.0332327703331121
 10
-0.2723878642417092
 20
0.0123800525233594
 10
-0.2704415509028488
 20
0.0357195392736515
 10
-0.2664645131603146
 20
0.0589777364185038
 10
-0.2607104490418919
 20
0.0810981336269165
 10
-0.2530623301009957
 20
0.1028174697863962
 10
-0.2433770190331378
 20
0.1242783470585795
 10
-0.231776207899889
 20
0.1449881940955718
 10
-0.2148695911061432
 20
0.1692619079849566
 10
-0.1951631232512769
 20
0.1918400869931089
  0
CIRCLE
  5
156
330
FD
100
AcDbEntity
  8
AM_9
100
AcDbCircle
 10
0.0
 20
-0.0049999999999998
 30
0.0
 40
0.2247623444809249
  0
CIRCLE
  5
157
330
FD
100
AcDbEntity
  8
AM_9
100
AcDbCircle
 10
0.0
 20
-0.0049999999999998
 30
0.0
 40
0.180316369154144
  0
LINE
  5
158
330
FD
100
AcDbEntity
  8
AM_7
100
AcDbLine
 10
-0.2360004617049712
 20
-0.0049999999999998
 30
0.0
 11
0.2360004617049712
 21
-0.0049999999999998
 31
0.0
  0
LINE
  5
159
330
FD
100
AcDbEntity
  8
AM_4
100
AcDbLine
 10
-1.367958333333333
 20
-0.9425
 30
0.0
 11
1.367958333325714
 21
-0.9425
 31
0.0
  0
ARC
  5
15A
330
FD
100
AcDbEntity
  8
AM_4
100
AcDbCircle
 10
1.367958333333334
 20
-0.9039583333333343
 30
0.0
 40
0.0385416666666657
100
AcDbArc
 50
270.0
 51
290.7500120563304
  0
ARC
  5
15B
330
FD
100
AcDbEntity
  8
AM_4
100
AcDbCircle
 10
-1.367958333333334
 20
-0.9039583333333343
 30
0.0
 40
0.0385416666666657
100
AcDbArc
 50
249.2499879436697
 51
270.0
  0
ENDBLK
  5
100
330
FD
100
AcDbEntity
  8
0
100
AcDbBlockEnd
  0
BLOCK
  5
15E
330
15C
100
AcDbEntity
  8
0
100
AcDbBlockBegin
  2
5_P2B_K_103R_0_in_023167_4
 70
     2
 10
0.0
 20
0.0
 30
0.0
  3
5_P2B_K_103R_0_in_023167_4
  1

  0
ATTDEF
  5
160
330
15C
100
AcDbEntity
  8
AM_6
100
AcDbText
 10
8.75
 20
1.181714285714286
 30
0.0
 40
0.5
  1
2 & 4 Bolt Base - Body - Inch
100
AcDbAttributeDefinition
  3

  2
NN
 70
     8
280
     0
  0
ATTDEF
  5
161
330
15C
100
AcDbEntity
  8
AM_6
100
AcDbText
 10
8.75
 20
0.6817142857142857
 30
0.0
 40
0.5
  1
Type K
100
AcDbAttributeDefinition
  3

  2
NT
 70
     8
280
     0
  0
ATTDEF
  5
162
330
15C
100
AcDbEntity
  8
AM_6
100
AcDbText
 10
8.75
 20
0.1817142857142857
 30
0.0
 40
0.5
  1
P2B-K-103R
100
AcDbAttributeDefinition
  3

  2
NB
 70
     8
280
     0
  0
ATTDEF
  5
163
330
15C
100
AcDbEntity
  8
AM_6
100
AcDbText
 10
8.75
 20
-0.3182857142857143
 30
0.0
 40
0.5
  1
$PN.
100
AcDbAttributeDefinition
  3

  2
NBSYN
 70
     8
280
     0
  0
ATTDEF
  5
164
330
15C
100
AcDbEntity
  8
AM_6
100
AcDbText
 10
8.75
 20
-0.8182857142857143
 30
0.0
 40
0.5
  1
P2B-K-103R
100
AcDbAttributeDefinition
  3

  2
LINA
 70
     8
280
     0
  0
ATTDEF
  5
165
330
15C
100
AcDbEntity
  8
AM_6
100
AcDbText
 10
8.75
 20
-1.318285714285714
 30
0.0
 40
0.5
  1
1-3/16
100
AcDbAttributeDefinition
  3

  2
SS
 70
     8
280
     0
  0
ATTDEF
  5
166
330
15C
100
AcDbEntity
  8
AM_6
100
AcDbText
 10
8.75
 20
-1.818285714285714
 30
0.0
 40
0.5
  1
1.187500
100
AcDbAttributeDefinition
  3

  2
SS1
 70
     8
280
     0
  0
ATTDEF
  5
167
330
15C
100
AcDbEntity
  8
AM_6
100
AcDbText
 10
8.75
 20
-2.318285714285715
 30
0.0
 40
0.5
  1
3.000000
100
AcDbAttributeDefinition
  3

  2
BORE
 70
     8
280
     0
  0
ATTDEF
  5
168
330
15C
100
AcDbEntity
  8
AM_6
100
AcDbText
 10
8.75
 20
-2.818285714285715
 30
0.0
 40
0.5
  1
P2B-K-103R
100
AcDbAttributeDefinition
  3

  2
PN
 70
     8
280
     0
  0
ATTDEF
  5
169
330
15C
100
AcDbEntity
  8
AM_6
100
AcDbText
 10
8.75
 20
-3.318285714285715
 30
0.0
 40
0.5
  1
P2B-K-103R
100
AcDbAttributeDefinition
  3

  2
PNA
 70
     8
280
     0
  0
ATTDEF
  5
16A
330
15C
100
AcDbEntity
  8
AM_6
100
AcDbText
 10
8.75
 20
-3.818285714285715
 30
0.0
 40
0.5
  1
9
100
AcDbAttributeDefinition
  3

  2
WEIGHT
 70
     8
280
     0
  0
ATTDEF
  5
16B
330
15C
100
AcDbEntity
  8
AM_6
100
AcDbText
 10
8.75
 20
-4.318285714285715
 30
0.0
 40
0.5
  1
2.28
100
AcDbAttributeDefinition
  3

  2
A
 70
     8
280
     0
  0
ATTDEF
  5
16C
330
15C
100
AcDbEntity
  8
AM_6
100
AcDbText
 10
8.75
 20
-4.818285714285715
 30
0.0
 40
0.5
  1
2.280000
100
AcDbAttributeDefinition
  3

  2
A1
 70
     8
280
     0
  0
ATTDEF
  5
16D
330
15C
100
AcDbEntity
  8
AM_6
100
AcDbText
 10
8.75
 20
-5.318285714285715
 30
0.0
 40
0.5
  1
7.5
100
AcDbAttributeDefinition
  3

  2
B
 70
     8
280
     0
  0
ATTDEF
  5
16E
330
15C
100
AcDbEntity
  8
AM_6
100
AcDbText
 10
8.75
 20
-5.818285714285715
 30
0.0
 40
0.5
  1
7.500000
100
AcDbAttributeDefinition
  3

  2
B1
 70
     8
280
     0
  0
ATTDEF
  5
16F
330
15C
100
AcDbEntity
  8
AM_6
100
AcDbText
 10
8.75
 20
-6.318285714285715
 30
0.0
 40
0.5
  1
1.88
100
AcDbAttributeDefinition
  3

  2
C
 70
     8
280
     0
  0
ATTDEF
  5
170
330
15C
100
AcDbEntity
  8
AM_6
100
AcDbText
 10
8.75
 20
-6.818285714285715
 30
0.0
 40
0.5
  1
1.880000
100
AcDbAttributeDefinition
  3

  2
C1
 70
     8
280
     0
  0
ATTDEF
  5
171
330
15C
100
AcDbEntity
  8
AM_6
100
AcDbText
 10
8.75
 20
-7.318285714285715
 30
0.0
 40
0.5
  1
6
100
AcDbAttributeDefinition
  3

  2
DMIN
 70
     8
280
     0
  0
ATTDEF
  5
172
330
15C
100
AcDbEntity
  8
AM_6
100
AcDbText
 10
8.75
 20
-7.818285714285715
 30
0.0
 40
0.5
  1
6.000000
100
AcDbAttributeDefinition
  3

  2
DMIN1
 70
     8
280
     0
  0
ATTDEF
  5
173
330
15C
100
AcDbEntity
  8
AM_6
100
AcDbText
 10
8.75
 20
-8.318285714285715
 30
0.0
 40
0.5
  1
6.38
100
AcDbAttributeDefinition
  3

  2
DMAX
 70
     8
280
     0
  0
ATTDEF
  5
174
330
15C
100
AcDbEntity
  8
AM_6
100
AcDbText
 10
8.75
 20
-8.818285714285715
 30
0.0
 40
0.5
  1
6.380000
100
AcDbAttributeDefinition
  3

  2
DMAX1
 70
     8
280
     0
  0
ATTDEF
  5
175
330
15C
100
AcDbEntity
  8
AM_6
100
AcDbText
 10
8.75
 20
-9.318285714285715
 30
0.0
 40
0.5
  1
3/8
100
AcDbAttributeDefinition
  3

  2
F
 70
     8
280
     0
  0
ATTDEF
  5
176
330
15C
100
AcDbEntity
  8
AM_6
100
AcDbText
 10
8.75
 20
-9.818285714285715
 30
0.0
 40
0.5
  1
0.375000
100
AcDbAttributeDefinition
  3

  2
F1
 70
     8
280
     0
  0
ATTDEF
  5
177
330
15C
100
AcDbEntity
  8
AM_6
100
AcDbText
 10
8.75
 20
-10.31828571428571
 30
0.0
 40
0.5
  1
.69
100
AcDbAttributeDefinition
  3

  2
G
 70
     8
280
     0
  0
ATTDEF
  5
178
330
15C
100
AcDbEntity
  8
AM_6
100
AcDbText
 10
8.75
 20
-10.81828571428571
 30
0.0
 40
0.5
  1
0.690000
100
AcDbAttributeDefinition
  3

  2
G1
 70
     8
280
     0
  0
ATTDEF
  5
179
330
15C
100
AcDbEntity
  8
AM_6
100
AcDbText
 10
8.75
 20
-11.31828571428571
 30
0.0
 40
0.5
  1
1.00
100
AcDbAttributeDefinition
  3

  2
H
 70
     8
280
     0
  0
ATTDEF
  5
17A
330
15C
100
AcDbEntity
  8
AM_6
100
AcDbText
 10
8.75
 20
-11.81828571428571
 30
0.0
 40
0.5
  1
1.000000
100
AcDbAttributeDefinition
  3

  2
H1
 70
     8
280
     0
  0
ATTDEF
  5
17B
330
15C
100
AcDbEntity
  8
AM_6
100
AcDbText
 10
8.75
 20
-12.31828571428571
 30
0.0
 40
0.5
  1
4.53
100
AcDbAttributeDefinition
  3

  2
J
 70
     8
280
     0
  0
ATTDEF
  5
17C
330
15C
100
AcDbEntity
  8
AM_6
100
AcDbText
 10
8.75
 20
-12.81828571428571
 30
0.0
 40
0.5
  1
4.530000
100
AcDbAttributeDefinition
  3

  2
J1
 70
     8
280
     0
  0
ATTDEF
  5
17D
330
15C
100
AcDbEntity
  8
AM_6
100
AcDbText
 10
8.75
 20
-13.31828571428571
 30
0.0
 40
0.5
  1
2.25
100
AcDbAttributeDefinition
  3

  2
L
 70
     8
280
     0
  0
ATTDEF
  5
17E
330
15C
100
AcDbEntity
  8
AM_6
100
AcDbText
 10
8.75
 20
-13.81828571428571
 30
0.0
 40
0.5
  1
2.250000
100
AcDbAttributeDefinition
  3

  2
L1
 70
     8
280
     0
  0
ATTDEF
  5
17F
330
15C
100
AcDbEntity
  8
AM_6
100
AcDbText
 10
8.75
 20
-14.31828571428571
 30
0.0
 40
0.5
  1
2.13
100
AcDbAttributeDefinition
  3

  2
M
 70
     8
280
     0
  0
ATTDEF
  5
180
330
15C
100
AcDbEntity
  8
AM_6
100
AcDbText
 10
8.75
 20
-14.81828571428571
 30
0.0
 40
0.5
  1
2.130000
100
AcDbAttributeDefinition
  3

  2
M1
 70
     8
280
     0
  0
ATTDEF
  5
181
330
15C
100
AcDbEntity
  8
AM_6
100
AcDbText
 10
8.75
 20
-15.31828571428571
 30
0.0
 40
0.5
  1
5.00
100
AcDbAttributeDefinition
  3

  2
P
 70
     8
280
     0
  0
ATTDEF
  5
182
330
15C
100
AcDbEntity
  8
AM_6
100
AcDbText
 10
8.75
 20
-15.81828571428571
 30
0.0
 40
0.5
  1
5.000000
100
AcDbAttributeDefinition
  3

  2
P1
 70
     8
280
     0
  0
ATTDEF
  5
183
330
15C
100
AcDbEntity
  8
AM_6
100
AcDbText
 10
8.75
 20
-16.31828571428571
 30
0.0
 40
0.5
  1
1
100
AcDbAttributeDefinition
  3

  2
R
 70
     8
280
     0
  0
ATTDEF
  5
184
330
15C
100
AcDbEntity
  8
AM_6
100
AcDbText
 10
8.75
 20
-16.81828571428571
 30
0.0
 40
0.5
  1
1.000000
100
AcDbAttributeDefinition
  3

  2
R1
 70
     8
280
     0
  0
ATTDEF
  5
185
330
15C
100
AcDbEntity
  8
AM_6
100
AcDbText
 10
8.75
 20
-17.31828571428571
 30
0.0
 40
0.5
  1
1.38
100
AcDbAttributeDefinition
  3

  2
S
 70
     8
280
     0
  0
ATTDEF
  5
186
330
15C
100
AcDbEntity
  8
AM_6
100
AcDbText
 10
8.75
 20
-17.81828571428571
 30
0.0
 40
0.5
  1
1.380000
100
AcDbAttributeDefinition
  3

  2
S1
 70
     8
280
     0
  0
ATTDEF
  5
187
330
15C
100
AcDbEntity
  8
AM_6
100
AcDbText
 10
8.75
 20
-18.31828571428571
 30
0.0
 40
0.5
  1
0.093750
100
AcDbAttributeDefinition
  3

  2
EXP1
 70
     8
280
     0
  0
ATTDEF
  5
188
330
15C
100
AcDbEntity
  8
AM_6
100
AcDbText
 10
8.75
 20
-18.81828571428571
 30
0.0
 40
0.5
  1
3
100
AcDbAttributeDefinition
  3

  2
HF
 70
     8
280
     0
  0
ATTDEF
  5
189
330
15C
100
AcDbEntity
  8
AM_6
100
AcDbText
 10
8.75
 20
-19.31828571428571
 30
0.0
 40
0.5
  1
.09
100
AcDbAttributeDefinition
  3

  2
T
 70
     8
280
     0
  0
ATTDEF
  5
18A
330
15C
100
AcDbEntity
  8
AM_6
100
AcDbText
 10
8.75
 20
-19.81828571428571
 30
0.0
 40
0.5
  1
15760
100
AcDbAttributeDefinition
  3

  2
CS
 70
     8
280
     0
  0
ATTDEF
  5
18B
330
15C
100
AcDbEntity
  8
AM_6
100
AcDbText
 10
8.75
 20
-20.31828571428571
 30
0.0
 40
0.5
  1
2980
100
AcDbAttributeDefinition
  3

  2
CD
 70
     8
280
     0
  0
ATTDEF
  5
18C
330
15C
100
AcDbEntity
  8
AM_6
100
AcDbText
 10
8.75
 20
-20.81828571428571
 30
0.0
 40
0.5
  1
19
100
AcDbAttributeDefinition
  3

  2
RN
 70
     8
280
     0
  0
ATTDEF
  5
18D
330
15C
100
AcDbEntity
  8
AM_6
100
AcDbText
 10
8.75
 20
-21.31828571428571
 30
0.0
 40
0.5
  1
.23
100
AcDbAttributeDefinition
  3

  2
RM
 70
     8
280
     0
  0
ATTDEF
  5
18E
330
15C
100
AcDbEntity
  8
AM_6
100
AcDbText
 10
8.75
 20
-21.81828571428571
 30
0.0
 40
0.5
  1
1.774
100
AcDbAttributeDefinition
  3

  2
PDI
 70
     8
280
     0
  0
ATTDEF
  5
18F
330
15C
100
AcDbEntity
  8
AM_6
100
AcDbText
 10
8.75
 20
-22.31828571428571
 30
0.0
 40
0.5
  1
.004-.012
100
AcDbAttributeDefinition
  3

  2
EP
 70
     8
280
     0
  0
ATTDEF
  5
190
330
15C
100
AcDbEntity
  8
AM_6
100
AcDbText
 10
8.75
 20
-22.81828571428571
 30
0.0
 40
0.5
  1
5/16-18*1/2
100
AcDbAttributeDefinition
  3

  2
CSS
 70
     8
280
     0
  0
ATTDEF
  5
191
330
15C
100
AcDbEntity
  8
AM_6
100
AcDbText
 10
8.75
 20
-23.31828571428571
 30
0.0
 40
0.5
  1
165
100
AcDbAttributeDefinition
  3

  2
CST
 70
     8
280
     0
  0
ATTDEF
  5
192
330
15C
100
AcDbEntity
  8
AM_6
100
AcDbText
 10
8.75
 20
-23.81828571428571
 30
0.0
 40
0.5
  1
C.I. ASTM A48 CLASS 30
100
AcDbAttributeDefinition
  3

  2
MH
 70
     8
280
     0
  0
ATTDEF
  5
193
330
15C
100
AcDbEntity
  8
AM_6
100
AcDbText
 10
8.75
 20
-24.31828571428571
 30
0.0
 40
0.5
  1
4118 CASE CARB.
100
AcDbAttributeDefinition
  3

  2
MC
 70
     8
280
     0
  0
ATTDEF
  5
194
330
15C
100
AcDbEntity
  8
AM_6
100
AcDbText
 10
8.75
 20
-24.81828571428571
 30
0.0
 40
0.5
  1
4118 CASE CARB.
100
AcDbAttributeDefinition
  3

  2
MCU
 70
     8
280
     0
  0
ATTDEF
  5
195
330
15C
100
AcDbEntity
  8
AM_6
100
AcDbText
 10
8.75
 20
-25.31828571428571
 30
0.0
 40
0.5
  1
STEEL
100
AcDbAttributeDefinition
  3

  2
MR
 70
     8
280
     0
  0
ATTDEF
  5
196
330
15C
100
AcDbEntity
  8
AM_6
100
AcDbText
 10
8.75
 20
-25.81828571428571
 30
0.0
 40
0.5
  1
4118 CASE CARB.
100
AcDbAttributeDefinition
  3

  2
MRO
 70
     8
280
     0
  0
ATTDEF
  5
197
330
15C
100
AcDbEntity
  8
AM_6
100
AcDbText
 10
8.75
 20
-26.31828571428571
 30
0.0
 40
0.5
  1
3.59*
100
AcDbAttributeDefinition
  3

  2
SM
 70
     8
280
     0
  0
ATTDEF
  5
198
330
15C
100
AcDbEntity
  8
AM_6
100
AcDbText
 10
8.75
 20
-26.81828571428571
 30
0.0
 40
0.5
  1
baldor
100
AcDbAttributeDefinition
  3

  2
COMPANY
 70
     8
280
     0
  0
LINE
  5
199
330
15C
100
AcDbEntity
  8
AM_9
100
AcDbLine
 10
2.557353840616714
 20
-0.9400000000000001
 30
0.0
 11
2.264999999999999
 21
-0.9400000000000001
 31
0.0
  0
LINE
  5
19A
330
15C
100
AcDbEntity
  8
AM_9
100
AcDbLine
 10
2.557353840616714
 20
0.9399999999999998
 30
0.0
 11
2.265
 21
0.94
 31
0.0
  0
LINE
  5
19B
330
15C
100
AcDbEntity
  8
AM_9
100
AcDbLine
 10
-2.265
 20
-0.9400000000000002
 30
0.0
 11
-2.557353840616714
 21
-0.9400000000000001
 31
0.0
  0
LINE
  5
19C
330
15C
100
AcDbEntity
  8
AM_9
100
AcDbLine
 10
-2.265
 20
0.9399999999999998
 30
0.0
 11
-2.557353840616714
 21
0.9399999999999998
 31
0.0
  0
LINE
  5
19D
330
15C
100
AcDbEntity
  8
AM_9
100
AcDbLine
 10
1.5
 20
-0.8952380952380952
 30
0.0
 11
1.5
 21
0.8952380952380952
 31
0.0
  0
LINE
  5
19E
330
15C
100
AcDbEntity
  8
AM_9
100
AcDbLine
 10
-1.5
 20
0.8952380952380952
 30
0.0
 11
-1.5
 21
-0.8952380952380952
 31
0.0
  0
LINE
  5
19F
330
15C
100
AcDbEntity
  8
AM_9
100
AcDbLine
 10
1.621621621621621
 20
1.04
 30
0.0
 11
1.621621621621621
 21
0.9352380952380952
 31
0.0
  0
LINE
  5
1A0
330
15C
100
AcDbEntity
  8
AM_9
100
AcDbLine
 10
-1.621621621621621
 20
0.9352380952380952
 30
0.0
 11
-1.621621621621621
 21
1.04
 31
0.0
  0
LINE
  5
1A1
330
15C
100
AcDbEntity
  8
AM_9
100
AcDbLine
 10
-1.581621621621621
 20
0.8952380952380952
 30
0.0
 11
1.581621621618059
 21
0.8952380952380952
 31
0.0
  0
LINE
  5
1A2
330
15C
100
AcDbEntity
  8
AM_9
100
AcDbLine
 10
-1.621621621621621
 20
0.9352380952380952
 30
0.0
 11
1.621621621621621
 21
0.9352380952380952
 31
0.0
  0
ARC
  5
1A3
330
15C
100
AcDbEntity
  8
AM_9
100
AcDbCircle
 10
1.581621621621622
 20
0.935238095238095
 30
0.0
 40
0.0399999999999998
100
AcDbArc
 50
270.0
 51
0.0
  0
ARC
  5
1A4
330
15C
100
AcDbEntity
  8
AM_9
100
AcDbCircle
 10
-1.581621621621622
 20
0.935238095238095
 30
0.0
 40
0.0399999999999996
100
AcDbArc
 50
180.0
 51
270.0
  0
LINE
  5
1A5
330
15C
100
AcDbEntity
  8
AM_9
100
AcDbLine
 10
-1.581621621621622
 20
-0.8952380952380952
 30
0.0
 11
1.58162162161806
 21
-0.8952380952380952
 31
0.0
  0
ARC
  5
1A6
330
15C
100
AcDbEntity
  8
AM_9
100
AcDbCircle
 10
1.581621621621622
 20
-0.9352380952380952
 30
0.0
 40
0.04
100
AcDbArc
 50
0.0
 51
90.0
  0
ARC
  5
1A7
330
15C
100
AcDbEntity
  8
AM_9
100
AcDbCircle
 10
-1.581621621621622
 20
-0.9352380952380952
 30
0.0
 40
0.04
100
AcDbArc
 50
90.0
 51
180.0
  0
LINE
  5
1A8
330
15C
100
AcDbEntity
  8
AM_9
100
AcDbLine
 10
-1.621621621621622
 20
-0.9352380952380948
 30
0.0
 11
1.621621621621622
 21
-0.9352380952380948
 31
0.0
  0
LINE
  5
1A9
330
15C
100
AcDbEntity
  8
AM_9
100
AcDbLine
 10
-1.621621621621622
 20
-1.04
 30
0.0
 11
-1.621621621621622
 21
-0.9352380952380948
 31
0.0
  0
LINE
  5
1AA
330
15C
100
AcDbEntity
  8
AM_9
100
AcDbLine
 10
1.621621621621622
 20
-0.9352380952380948
 30
0.0
 11
1.621621621621622
 21
-1.04
 31
0.0
  0
CIRCLE
  5
1AB
330
15C
100
AcDbEntity
  8
AM_9
100
AcDbCircle
 10
0.0
 20
0.0000000000000001
 30
0.0
 40
0.47
  0
LINE
  5
1AC
330
15C
100
AcDbEntity
  8
AM_7
100
AcDbLine
 10
1.90140625
 20
0.5874999999999999
 30
0.0
 11
2.39359375
 21
0.5874999999999999
 31
0.0
  0
LINE
  5
1AD
330
15C
100
AcDbEntity
  8
AM_7
100
AcDbLine
 10
2.1475
 20
0.3414062499999999
 30
0.0
 11
2.1475
 21
0.8335937499999999
 31
0.0
  0
LINE
  5
1AE
330
15C
100
AcDbEntity
  8
AM_7
100
AcDbLine
 10
1.90140625
 20
-0.5874999999999998
 30
0.0
 11
2.39359375
 21
-0.5874999999999998
 31
0.0
  0
LINE
  5
1AF
330
15C
100
AcDbEntity
  8
AM_7
100
AcDbLine
 10
2.1475
 20
-0.8335937499999998
 30
0.0
 11
2.1475
 21
-0.3414062499999998
 31
0.0
  0
LINE
  5
1B0
330
15C
100
AcDbEntity
  8
AM_7
100
AcDbLine
 10
-2.39359375
 20
0.5875000000000001
 30
0.0
 11
-1.90140625
 21
0.5875000000000001
 31
0.0
  0
LINE
  5
1B1
330
15C
100
AcDbEntity
  8
AM_7
100
AcDbLine
 10
-2.1475
 20
0.3414062500000001
 30
0.0
 11
-2.1475
 21
0.8335937500000001
 31
0.0
  0
LINE
  5
1B2
330
15C
100
AcDbEntity
  8
AM_7
100
AcDbLine
 10
-2.39359375
 20
-0.5874999999999998
 30
0.0
 11
-1.90140625
 21
-0.5874999999999998
 31
0.0
  0
LINE
  5
1B3
330
15C
100
AcDbEntity
  8
AM_7
100
AcDbLine
 10
-2.1475
 20
-0.8335937499999998
 30
0.0
 11
-2.1475
 21
-0.3414062499999998
 31
0.0
  0
LINE
  5
1B4
330
15C
100
AcDbEntity
  8
AM_7
100
AcDbLine
 10
-0.4935
 20
0.0000000000000001
 30
0.0
 11
0.4935
 21
0.0000000000000001
 31
0.0
  0
LINE
  5
1B5
330
15C
100
AcDbEntity
  8
AM_7
100
AcDbLine
 10
0.0
 20
-1.495625
 30
0.0
 11
0.0
 21
1.181714285714286
 31
0.0
  0
LINE
  5
1B6
330
15C
100
AcDbEntity
  8
AM_7
100
AcDbLine
 10
2.7375
 20
-0.0000000000000001
 30
0.0
 11
3.4525
 21
-0.0000000000000001
 31
0.0
  0
LINE
  5
1B7
330
15C
100
AcDbEntity
  8
AM_7
100
AcDbLine
 10
3.19
 20
-0.2625000000000001
 30
0.0
 11
3.19
 21
0.2625
 31
0.0
  0
LINE
  5
1B8
330
15C
100
AcDbEntity
  8
AM_7
100
AcDbLine
 10
-3.4525
 20
0.0000000000000003
 30
0.0
 11
-2.737499999999999
 21
0.0000000000000004
 31
0.0
  0
LINE
  5
1B9
330
15C
100
AcDbEntity
  8
AM_7
100
AcDbLine
 10
-3.19
 20
-0.2624999999999997
 30
0.0
 11
-3.19
 21
0.2625000000000003
 31
0.0
  0
LINE
  5
1BA
330
15C
100
AcDbEntity
  8
AM_7
100
AcDbLine
 10
3.0
 20
-0.2625000000000001
 30
0.0
 11
3.0
 21
0.2625
 31
0.0
  0
LINE
  5
1BB
330
15C
100
AcDbEntity
  8
AM_7
100
AcDbLine
 10
-3.0
 20
-0.2624999999999996
 30
0.0
 11
-3.0
 21
0.2625000000000004
 31
0.0
  0
LINE
  5
1BC
330
15C
100
AcDbEntity
  8
AM_4
100
AcDbLine
 10
3.562
 20
-0.9400000000000001
 30
0.0
 11
2.557353840616714
 21
-0.9400000000000001
 31
0.0
  0
LINE
  5
1BD
330
15C
100
AcDbEntity
  8
AM_4
100
AcDbLine
 10
3.562
 20
0.9399999999999998
 30
0.0
 11
2.557353840616714
 21
0.9399999999999998
 31
0.0
  0
LINE
  5
1BE
330
15C
100
AcDbEntity
  8
AM_4
100
AcDbLine
 10
3.75
 20
-0.7520000000000001
 30
0.0
 11
3.75
 21
0.7519999999999998
 31
0.0
  0
LINE
  5
1BF
330
15C
100
AcDbEntity
  8
AM_4
100
AcDbLine
 10
3.75
 20
0.7519999999999997
 30
0.0
 11
3.562
 21
0.9399999999999997
 31
0.0
  0
LINE
  5
1C0
330
15C
100
AcDbEntity
  8
AM_4
100
AcDbLine
 10
3.562
 20
-0.9400000000000001
 30
0.0
 11
3.75
 21
-0.7520000000000001
 31
0.0
  0
LINE
  5
1C1
330
15C
100
AcDbEntity
  8
AM_4
100
AcDbLine
 10
3.19
 20
0.2499999999999999
 30
0.0
 11
3.0
 21
0.2499999999999999
 31
0.0
  0
ARC
  5
1C2
330
15C
100
AcDbEntity
  8
AM_4
100
AcDbCircle
 10
3.19
 20
-0.0000000000000001
 30
0.0
 40
0.2499999999999999
100
AcDbArc
 50
270.0
 51
90.0
  0
LINE
  5
1C3
330
15C
100
AcDbEntity
  8
AM_4
100
AcDbLine
 10
3.0
 20
-0.2500000000000001
 30
0.0
 11
3.19
 21
-0.2500000000000001
 31
0.0
  0
ARC
  5
1C4
330
15C
100
AcDbEntity
  8
AM_4
100
AcDbCircle
 10
3.0
 20
-0.0000000000000001
 30
0.0
 40
0.25
100
AcDbArc
 50
90.0
 51
270.0
  0
LINE
  5
1C5
330
15C
100
AcDbEntity
  8
AM_4
100
AcDbLine
 10
3.549999999999999
 20
-0.9400000000000001
 30
0.0
 11
3.549999999999999
 21
0.9399999999999998
 31
0.0
  0
LINE
  5
1C6
330
15C
100
AcDbEntity
  8
AM_4
100
AcDbLine
 10
-2.557353840616714
 20
-0.9400000000000001
 30
0.0
 11
-3.562
 21
-0.9400000000000001
 31
0.0
  0
LINE
  5
1C7
330
15C
100
AcDbEntity
  8
AM_4
100
AcDbLine
 10
-2.557353840616714
 20
0.9399999999999998
 30
0.0
 11
-3.562
 21
0.9399999999999998
 31
0.0
  0
LINE
  5
1C8
330
15C
100
AcDbEntity
  8
AM_4
100
AcDbLine
 10
-3.562
 20
0.9399999999999998
 30
0.0
 11
-3.75
 21
0.7520000000000002
 31
0.0
  0
LINE
  5
1C9
330
15C
100
AcDbEntity
  8
AM_4
100
AcDbLine
 10
-3.75
 20
-0.7520000000000001
 30
0.0
 11
-3.75
 21
0.7519999999999998
 31
0.0
  0
LINE
  5
1CA
330
15C
100
AcDbEntity
  8
AM_4
100
AcDbLine
 10
-3.75
 20
-0.7520000000000004
 30
0.0
 11
-3.562
 21
-0.9400000000000001
 31
0.0
  0
LINE
  5
1CB
330
15C
100
AcDbEntity
  8
AM_4
100
AcDbLine
 10
-3.0
 20
0.2500000000000006
 30
0.0
 11
-3.19
 21
0.2500000000000003
 31
0.0
  0
ARC
  5
1CC
330
15C
100
AcDbEntity
  8
AM_4
100
AcDbCircle
 10
-3.0
 20
0.0000000000000005
 30
0.0
 40
0.2500000000000002
100
AcDbArc
 50
270.0
 51
90.0
  0
LINE
  5
1CD
330
15C
100
AcDbEntity
  8
AM_4
100
AcDbLine
 10
-3.19
 20
-0.2499999999999997
 30
0.0
 11
-3.0
 21
-0.2499999999999997
 31
0.0
  0
ARC
  5
1CE
330
15C
100
AcDbEntity
  8
AM_4
100
AcDbCircle
 10
-3.19
 20
0.0000000000000003
 30
0.0
 40
0.2499999999999999
100
AcDbArc
 50
90.0
 51
270.0
  0
LINE
  5
1CF
330
15C
100
AcDbEntity
  8
AM_4
100
AcDbLine
 10
-3.549999999999999
 20
-0.9400000000000001
 30
0.0
 11
-3.549999999999999
 21
0.9399999999999998
 31
0.0
  0
LINE
  5
1D0
330
15C
100
AcDbEntity
  8
AM_4
100
AcDbLine
 10
1.602234902787584
 20
-1.04
 30
0.0
 11
2.365
 21
-1.04
 31
0.0
  0
ARC
  5
1D1
330
15C
100
AcDbEntity
  8
AM_4
100
AcDbCircle
 10
2.365000000000002
 20
-0.805000000000001
 30
0.0
 40
0.234999999999999
100
AcDbArc
 50
270.0
 51
0.0000008537736463
  0
LINE
  5
1D2
330
15C
100
AcDbEntity
  8
AM_4
100
AcDbLine
 10
2.600000000000001
 20
-0.804999996498227
 30
0.0
 11
2.600000000000001
 21
-0.4699999999999996
 31
0.0
  0
ARC
  5
1D3
330
15C
100
AcDbEntity
  8
AM_4
100
AcDbCircle
 10
2.365000000000002
 20
-0.4699999999999979
 30
0.0
 40
0.2349999999999981
100
AcDbArc
 50
0.0
 51
62.24218163663271
  0
ARC
  5
1D4
330
15C
100
AcDbEntity
  8
AM_4
100
AcDbCircle
 10
2.567594845940746
 20
-0.085058019438973
 30
0.0
 40
0.2000000000000001
100
AcDbArc
 50
183.4947330094082
 51
242.2421816366324
  0
ARC
  5
1D5
330
15C
100
AcDbEntity
  8
AM_4
100
AcDbCircle
 10
3.960381471905906
 20
-0.0000000000000018
 30
0.0
 40
1.595381471905907
100
AcDbArc
 50
176.5052656129785
 51
183.494734876266
  0
ARC
  5
1D6
330
15C
100
AcDbEntity
  8
AM_4
100
AcDbCircle
 10
2.567594845940748
 20
0.0850580194389716
 30
0.0
 40
0.2000000000000024
100
AcDbArc
 50
117.7578183633678
 51
176.5052708932494
  0
ARC
  5
1D7
330
15C
100
AcDbEntity
  8
AM_4
100
AcDbCircle
 10
2.365000000000001
 20
0.4699999999999987
 30
0.0
 40
0.234999999999999
100
AcDbArc
 50
297.7578183633675
 51
0.0
  0
LINE
  5
1D8
330
15C
100
AcDbEntity
  8
AM_4
100
AcDbLine
 10
2.6
 20
0.4700000000000001
 30
0.0
 11
2.6
 21
0.805
 31
0.0
  0
ARC
  5
1D9
330
15C
100
AcDbEntity
  8
AM_4
100
AcDbCircle
 10
2.365
 20
0.8049999999999996
 30
0.0
 40
0.2350000000000003
100
AcDbArc
 50
0.0
 51
90.0
  0
LINE
  5
1DA
330
15C
100
AcDbEntity
  8
AM_4
100
AcDbLine
 10
2.364999999999999
 20
1.04
 30
0.0
 11
1.602234902787584
 21
1.04
 31
0.0
  0
LINE
  5
1DB
330
15C
100
AcDbEntity
  8
AM_4
100
AcDbLine
 10
-2.365000000000001
 20
-1.04
 30
0.0
 11
-1.602234902787584
 21
-1.04
 31
0.0
  0
ARC
  5
1DC
330
15C
100
AcDbEntity
  8
AM_4
100
AcDbCircle
 10
-2.365000000000002
 20
-0.805000000000001
 30
0.0
 40
0.2349999999999986
100
AcDbArc
 50
179.9999991462263
 51
270.0
  0
LINE
  5
1DD
330
15C
100
AcDbEntity
  8
AM_4
100
AcDbLine
 10
-1.602234902787584
 20
1.04
 30
0.0
 11
-2.365
 21
1.04
 31
0.0
  0
ARC
  5
1DE
330
15C
100
AcDbEntity
  8
AM_4
100
AcDbCircle
 10
-2.365000000000001
 20
0.8050000000000017
 30
0.0
 40
0.2349999999999983
100
AcDbArc
 50
90.0
 51
180.0
  0
LINE
  5
1DF
330
15C
100
AcDbEntity
  8
AM_4
100
AcDbLine
 10
-2.6
 20
0.8050000000000007
 30
0.0
 11
-2.6
 21
0.4699999999999999
 31
0.0
  0
ARC
  5
1E0
330
15C
100
AcDbEntity
  8
AM_4
100
AcDbCircle
 10
-2.365000000000001
 20
0.469999999999999
 30
0.0
 40
0.234999999999999
100
AcDbArc
 50
180.0
 51
242.2421816366325
  0
ARC
  5
1E1
330
15C
100
AcDbEntity
  8
AM_4
100
AcDbCircle
 10
-2.567594845940746
 20
0.0850580194389732
 30
0.0
 40
0.2000000000000001
100
AcDbArc
 50
3.494733009408182
 51
62.24218163663244
  0
ARC
  5
1E2
330
15C
100
AcDbEntity
  8
AM_4
100
AcDbCircle
 10
-3.960381471905732
 20
0.0000000000000074
 30
0.0
 40
1.595381471905732
100
AcDbArc
 50
356.5052656129777
 51
3.494734876266155
  0
ARC
  5
1E3
330
15C
100
AcDbEntity
  8
AM_4
100
AcDbCircle
 10
-2.567594845940746
 20
-0.085058019438974
 30
0.0
 40
0.1999999999999993
100
AcDbArc
 50
297.7578183633675
 51
356.505270893249
  0
ARC
  5
1E4
330
15C
100
AcDbEntity
  8
AM_4
100
AcDbCircle
 10
-2.365000000000002
 20
-0.4699999999999989
 30
0.0
 40
0.2349999999999989
100
AcDbArc
 50
117.7578183633674
 51
180.0
  0
LINE
  5
1E5
330
15C
100
AcDbEntity
  8
AM_4
100
AcDbLine
 10
-2.600000000000001
 20
-0.4699999999999991
 30
0.0
 11
-2.600000000000001
 21
-0.8049999964982275
 31
0.0
  0
LINE
  5
1E6
330
15C
100
AcDbEntity
  8
AM_4
100
AcDbLine
 10
2.265
 20
0.9400000000000002
 30
0.0
 11
-2.265
 21
0.9400000000000001
 31
0.0
  0
LINE
  5
1E7
330
15C
100
AcDbEntity
  8
AM_4
100
AcDbLine
 10
2.265
 20
-0.9399999999999998
 30
0.0
 11
-2.265
 21
-0.94
 31
0.0
  0
ARC
  5
1E8
330
15C
100
AcDbEntity
  8
AM_4
100
AcDbCircle
 10
2.264999999999999
 20
-0.4700000000000005
 30
0.0
 40
0.2350000000000008
100
AcDbArc
 50
0.0
 51
59.99999999999981
  0
ARC
  5
1E9
330
15C
100
AcDbEntity
  8
AM_4
100
AcDbCircle
 10
2.264999999999999
 20
0.7049999999999993
 30
0.0
 40
0.2350000000000008
100
AcDbArc
 50
0.0
 51
90.0
  0
ARC
  5
1EA
330
15C
100
AcDbEntity
  8
AM_4
100
AcDbCircle
 10
2.264999999999999
 20
0.4700000000000011
 30
0.0
 40
0.2350000000000012
100
AcDbArc
 50
300.0000000000004
 51
0.0000008537736463
  0
ARC
  5
1EB
330
15C
100
AcDbEntity
  8
AM_4
100
AcDbCircle
 10
2.265
 20
-0.7049999999999995
 30
0.0
 40
0.2350000000000003
100
AcDbArc
 50
270.0
 51
0.0
  0
ARC
  5
1EC
330
15C
100
AcDbEntity
  8
AM_4
100
AcDbCircle
 10
2.625936120442627
 20
0.0000000000000001
 30
0.0
 40
0.3609361204426271
100
AcDbArc
 50
132.412046226006
 51
227.5879537739939
  0
LINE
  5
1ED
330
15C
100
AcDbEntity
  8
AM_4
100
AcDbLine
 10
2.5
 20
0.4700000000000004
 30
0.0
 11
2.5
 21
0.7050000000000002
 31
0.0
  0
LINE
  5
1EE
330
15C
100
AcDbEntity
  8
AM_4
100
AcDbLine
 10
2.5
 20
-0.7049999999999993
 30
0.0
 11
2.5
 21
-0.4699999999999999
 31
0.0
  0
ARC
  5
1EF
330
15C
100
AcDbEntity
  8
AM_4
100
AcDbCircle
 10
-2.265
 20
-0.7049999999999997
 30
0.0
 40
0.2350000000000003
100
AcDbArc
 50
180.0
 51
270.0
  0
ARC
  5
1F0
330
15C
100
AcDbEntity
  8
AM_4
100
AcDbCircle
 10
-2.264999999999999
 20
0.7049999999999992
 30
0.0
 40
0.2350000000000009
100
AcDbArc
 50
90.0
 51
180.0
  0
ARC
  5
1F1
330
15C
100
AcDbEntity
  8
AM_4
100
AcDbCircle
 10
-2.264999999999999
 20
0.4700000000000006
 30
0.0
 40
0.2350000000000008
100
AcDbArc
 50
180.0
 51
239.9999999999998
  0
ARC
  5
1F2
330
15C
100
AcDbEntity
  8
AM_4
100
AcDbCircle
 10
-2.264999999999997
 20
-0.4700000000000022
 30
0.0
 40
0.2350000000000033
100
AcDbArc
 50
120.0000000000006
 51
180.0
  0
ARC
  5
1F3
330
15C
100
AcDbEntity
  8
AM_4
100
AcDbCircle
 10
-2.625936120442629
 20
0.0000000000000002
 30
0.0
 40
0.3609361204426284
100
AcDbArc
 50
312.4120462260061
 51
47.58795377399372
  0
LINE
  5
1F4
330
15C
100
AcDbEntity
  8
AM_4
100
AcDbLine
 10
-2.5
 20
-0.7049999999999993
 30
0.0
 11
-2.5
 21
-0.4700000000000015
 31
0.0
  0
LINE
  5
1F5
330
15C
100
AcDbEntity
  8
AM_4
100
AcDbLine
 10
-2.5
 20
0.47
 30
0.0
 11
-2.5
 21
0.705
 31
0.0
  0
LINE
  5
1F6
330
15C
100
AcDbEntity
  8
AM_4
100
AcDbLine
 10
-1.602234902787584
 20
0.9400000000000001
 30
0.0
 11
-1.602234902787584
 21
1.04
 31
0.0
  0
LINE
  5
1F7
330
15C
100
AcDbEntity
  8
AM_4
100
AcDbLine
 10
1.602234902787584
 20
1.04
 30
0.0
 11
1.602234902787584
 21
0.9400000000000001
 31
0.0
  0
LINE
  5
1F8
330
15C
100
AcDbEntity
  8
AM_4
100
AcDbLine
 10
-1.602234902787584
 20
-1.04
 30
0.0
 11
-1.602234902787584
 21
-0.9399999999999998
 31
0.0
  0
LINE
  5
1F9
330
15C
100
AcDbEntity
  8
AM_4
100
AcDbLine
 10
1.602234902787584
 20
-0.9399999999999998
 30
0.0
 11
1.602234902787584
 21
-1.04
 31
0.0
  0
CIRCLE
  5
1FA
330
15C
100
AcDbEntity
  8
AM_4
100
AcDbCircle
 10
2.1475
 20
0.5874999999999999
 30
0.0
 40
0.234375
  0
CIRCLE
  5
1FB
330
15C
100
AcDbEntity
  8
AM_4
100
AcDbCircle
 10
2.1475
 20
-0.5874999999999998
 30
0.0
 40
0.234375
  0
CIRCLE
  5
1FC
330
15C
100
AcDbEntity
  8
AM_4
100
AcDbCircle
 10
-2.1475
 20
0.5875000000000001
 30
0.0
 40
0.234375
  0
CIRCLE
  5
1FD
330
15C
100
AcDbEntity
  8
AM_4
100
AcDbCircle
 10
-2.1475
 20
-0.5874999999999998
 30
0.0
 40
0.234375
  0
LINE
  5
1FE
330
15C
100
AcDbEntity
  8
AM_4
100
AcDbLine
 10
-2.255753175473055
 20
0.775
 30
0.0
 11
-2.364006350946109
 21
0.5875000000000002
 31
0.0
  0
LINE
  5
1FF
330
15C
100
AcDbEntity
  8
AM_4
100
AcDbLine
 10
-2.039246824526945
 20
0.775
 30
0.0
 11
-2.255753175473055
 21
0.775
 31
0.0
  0
LINE
  5
200
330
15C
100
AcDbEntity
  8
AM_4
100
AcDbLine
 10
-1.930993649053891
 20
0.5875
 30
0.0
 11
-2.039246824526945
 21
0.775
 31
0.0
  0
LINE
  5
201
330
15C
100
AcDbEntity
  8
AM_4
100
AcDbLine
 10
-2.039246824526945
 20
0.4
 30
0.0
 11
-1.930993649053891
 21
0.5875
 31
0.0
  0
LINE
  5
202
330
15C
100
AcDbEntity
  8
AM_4
100
AcDbLine
 10
-2.255753175473055
 20
0.4000000000000002
 30
0.0
 11
-2.039246824526945
 21
0.4
 31
0.0
  0
LINE
  5
203
330
15C
100
AcDbEntity
  8
AM_4
100
AcDbLine
 10
-2.364006350946109
 20
0.5875000000000002
 30
0.0
 11
-2.255753175473055
 21
0.4000000000000002
 31
0.0
  0
LINE
  5
204
330
15C
100
AcDbEntity
  8
AM_4
100
AcDbLine
 10
2.039246824526945
 20
0.4
 30
0.0
 11
2.255753175473055
 21
0.3999999999999999
 31
0.0
  0
LINE
  5
205
330
15C
100
AcDbEntity
  8
AM_4
100
AcDbLine
 10
1.93099364905389
 20
0.5875
 30
0.0
 11
2.039246824526945
 21
0.4
 31
0.0
  0
LINE
  5
206
330
15C
100
AcDbEntity
  8
AM_4
100
AcDbLine
 10
2.039246824526945
 20
0.7749999999999998
 30
0.0
 11
1.93099364905389
 21
0.5875
 31
0.0
  0
LINE
  5
207
330
15C
100
AcDbEntity
  8
AM_4
100
AcDbLine
 10
2.255753175473055
 20
0.3999999999999999
 30
0.0
 11
2.364006350946109
 21
0.5874999999999998
 31
0.0
  0
LINE
  5
208
330
15C
100
AcDbEntity
  8
AM_4
100
AcDbLine
 10
2.364006350946109
 20
0.5874999999999998
 30
0.0
 11
2.255753175473055
 21
0.7749999999999998
 31
0.0
  0
LINE
  5
209
330
15C
100
AcDbEntity
  8
AM_4
100
AcDbLine
 10
2.255753175473055
 20
0.7749999999999998
 30
0.0
 11
2.039246824526945
 21
0.7749999999999998
 31
0.0
  0
LINE
  5
20A
330
15C
100
AcDbEntity
  8
AM_4
100
AcDbLine
 10
2.255753175473055
 20
-0.7749999999999999
 30
0.0
 11
2.364006350946109
 21
-0.5874999999999999
 31
0.0
  0
LINE
  5
20B
330
15C
100
AcDbEntity
  8
AM_4
100
AcDbLine
 10
2.364006350946109
 20
-0.5874999999999999
 30
0.0
 11
2.255753175473055
 21
-0.4
 31
0.0
  0
LINE
  5
20C
330
15C
100
AcDbEntity
  8
AM_4
100
AcDbLine
 10
2.255753175473055
 20
-0.4
 30
0.0
 11
2.039246824526945
 21
-0.4
 31
0.0
  0
LINE
  5
20D
330
15C
100
AcDbEntity
  8
AM_4
100
AcDbLine
 10
2.039246824526945
 20
-0.4
 30
0.0
 11
1.93099364905389
 21
-0.5874999999999997
 31
0.0
  0
LINE
  5
20E
330
15C
100
AcDbEntity
  8
AM_4
100
AcDbLine
 10
1.93099364905389
 20
-0.5874999999999997
 30
0.0
 11
2.039246824526945
 21
-0.7749999999999997
 31
0.0
  0
LINE
  5
20F
330
15C
100
AcDbEntity
  8
AM_4
100
AcDbLine
 10
2.039246824526945
 20
-0.7749999999999997
 30
0.0
 11
2.255753175473055
 21
-0.7749999999999999
 31
0.0
  0
LINE
  5
210
330
15C
100
AcDbEntity
  8
AM_4
100
AcDbLine
 10
-2.255753175473055
 20
-0.4
 30
0.0
 11
-2.364006350946109
 21
-0.5874999999999997
 31
0.0
  0
LINE
  5
211
330
15C
100
AcDbEntity
  8
AM_4
100
AcDbLine
 10
-2.364006350946109
 20
-0.5874999999999997
 30
0.0
 11
-2.255753175473055
 21
-0.7749999999999997
 31
0.0
  0
LINE
  5
212
330
15C
100
AcDbEntity
  8
AM_4
100
AcDbLine
 10
-2.255753175473055
 20
-0.7749999999999997
 30
0.0
 11
-2.039246824526945
 21
-0.7749999999999999
 31
0.0
  0
LINE
  5
213
330
15C
100
AcDbEntity
  8
AM_4
100
AcDbLine
 10
-2.039246824526945
 20
-0.7749999999999999
 30
0.0
 11
-1.930993649053891
 21
-0.5874999999999999
 31
0.0
  0
LINE
  5
214
330
15C
100
AcDbEntity
  8
AM_4
100
AcDbLine
 10
-1.930993649053891
 20
-0.5874999999999999
 30
0.0
 11
-2.039246824526945
 21
-0.4
 31
0.0
  0
LINE
  5
215
330
15C
100
AcDbEntity
  8
AM_4
100
AcDbLine
 10
-2.039246824526945
 20
-0.4
 30
0.0
 11
-2.255753175473055
 21
-0.4
 31
0.0
  0
LINE
  5
216
330
15C
100
AcDbEntity
  8
AM_4
100
AcDbLine
 10
-1.788854374844414
 20
-0.47349364905389
 30
0.0
 11
-1.61728939104911
 21
-0.9399999999999998
 31
0.0
  0
LINE
  5
217
330
15C
100
AcDbEntity
  8
AM_4
100
AcDbLine
 10
1.61728939104911
 20
-0.9399999999999998
 30
0.0
 11
1.788854374844414
 21
-0.47349364905389
 31
0.0
  0
LINE
  5
218
330
15C
100
AcDbEntity
  8
AM_4
100
AcDbLine
 10
0.8333333333333334
 20
-0.47349364905389
 30
0.0
 11
1.788854374844414
 21
-0.47349364905389
 31
0.0
  0
LINE
  5
219
330
15C
100
AcDbEntity
  8
AM_4
100
AcDbLine
 10
1.788854374844414
 20
-0.47349364905389
 30
0.0
 11
1.788854374844414
 21
0.4734936490538902
 31
0.0
  0
LINE
  5
21A
330
15C
100
AcDbEntity
  8
AM_4
100
AcDbLine
 10
-1.61728939104911
 20
0.9400000000000001
 30
0.0
 11
-1.788854374844395
 21
0.473493649053942
 31
0.0
  0
LINE
  5
21B
330
15C
100
AcDbEntity
  8
AM_4
100
AcDbLine
 10
0.8333333333333334
 20
0.4734936490538904
 30
0.0
 11
1.788854374844414
 21
0.4734936490538902
 31
0.0
  0
LINE
  5
21C
330
15C
100
AcDbEntity
  8
AM_4
100
AcDbLine
 10
1.788854374844414
 20
0.4734936490538902
 30
0.0
 11
1.61728939104911
 21
0.9400000000000001
 31
0.0
  0
LINE
  5
21D
330
15C
100
AcDbEntity
  8
AM_4
100
AcDbLine
 10
-1.788854374844414
 20
-0.47349364905389
 30
0.0
 11
-0.8333333333333334
 21
-0.47349364905389
 31
0.0
  0
LINE
  5
21E
330
15C
100
AcDbEntity
  8
AM_4
100
AcDbLine
 10
-1.788854374844395
 20
0.473493649053942
 30
0.0
 11
-0.8333333333333334
 21
0.4734936490538904
 31
0.0
  0
LINE
  5
21F
330
15C
100
AcDbEntity
  8
AM_4
100
AcDbLine
 10
-1.788854374844395
 20
0.473493649053942
 30
0.0
 11
-1.788854374844414
 21
-0.47349364905389
 31
0.0
  0
LINE
  5
220
330
15C
100
AcDbEntity
  8
AM_4
100
AcDbLine
 10
0.8333333333333334
 20
-0.9399999999999998
 30
0.0
 11
0.8333333333333334
 21
0.9400000000000001
 31
0.0
  0
LINE
  5
221
330
15C
100
AcDbEntity
  8
AM_4
100
AcDbLine
 10
0.7083333333333334
 20
-0.8149999999999997
 30
0.0
 11
0.7083333333333334
 21
0.815
 31
0.0
  0
LINE
  5
222
330
15C
100
AcDbEntity
  8
AM_4
100
AcDbLine
 10
0.7083333333333334
 20
-0.8149999999999997
 30
0.0
 11
-0.7083333333333335
 21
-0.8149999999999997
 31
0.0
  0
LINE
  5
223
330
15C
100
AcDbEntity
  8
AM_4
100
AcDbLine
 10
0.7083333333333334
 20
-0.815
 30
0.0
 11
0.8333333333333333
 21
-0.9399999999999998
 31
0.0
  0
LINE
  5
224
330
15C
100
AcDbEntity
  8
AM_4
100
AcDbLine
 10
0.7083333333333334
 20
0.815
 30
0.0
 11
-0.7083333333333329
 21
0.815
 31
0.0
  0
LINE
  5
225
330
15C
100
AcDbEntity
  8
AM_4
100
AcDbLine
 10
0.8333333333333334
 20
0.94
 30
0.0
 11
0.7083333333333335
 21
0.8150000000000001
 31
0.0
  0
LINE
  5
226
330
15C
100
AcDbEntity
  8
AM_4
100
AcDbLine
 10
-0.8333333333333334
 20
-0.9399999999999998
 30
0.0
 11
-0.8333333333333333
 21
0.9400000000000001
 31
0.0
  0
LINE
  5
227
330
15C
100
AcDbEntity
  8
AM_4
100
AcDbLine
 10
-0.8333333333333331
 20
-0.9400000000000001
 30
0.0
 11
-0.7083333333333331
 21
-0.8150000000000002
 31
0.0
  0
LINE
  5
228
330
15C
100
AcDbEntity
  8
AM_4
100
AcDbLine
 10
-0.7083333333333335
 20
-0.8149999999999997
 30
0.0
 11
-0.7083333333333329
 21
0.815
 31
0.0
  0
LINE
  5
229
330
15C
100
AcDbEntity
  8
AM_4
100
AcDbLine
 10
-0.7083333333333329
 20
0.815
 30
0.0
 11
-0.8333333333333331
 21
0.9400000000000001
 31
0.0
  0
LINE
  5
22A
330
15C
100
AcDbEntity
  8
AM_4
100
AcDbLine
 10
-0.625
 20
0.1250000074505806
 30
0.0
 11
-0.625
 21
-0.5249999999999996
 31
0.0
  0
ARC
  5
22B
330
15C
100
AcDbEntity
  8
AM_4
100
AcDbCircle
 10
-0.5249999999999997
 20
-0.5249999999999996
 30
0.0
 40
0.1000000000000003
100
AcDbArc
 50
180.0
 51
270.0
  0
LINE
  5
22C
330
15C
100
AcDbEntity
  8
AM_4
100
AcDbLine
 10
-0.5249999999999997
 20
-0.6249999999999999
 30
0.0
 11
0.1250000000000002
 21
-0.6249999999999999
 31
0.0
  0
ARC
  5
22D
330
15C
100
AcDbEntity
  8
AM_4
100
AcDbCircle
 10
0.1249999999999998
 20
-0.1249999999999996
 30
0.0
 40
0.5000000000000002
100
AcDbArc
 50
270.0
 51
0.0
  0
LINE
  5
22E
330
15C
100
AcDbEntity
  8
AM_4
100
AcDbLine
 10
0.6250000000000001
 20
-0.1249999999999996
 30
0.0
 11
0.625
 21
0.5250000000000002
 31
0.0
  0
ARC
  5
22F
330
15C
100
AcDbEntity
  8
AM_4
100
AcDbCircle
 10
0.5249999999999998
 20
0.525
 30
0.0
 40
0.1000000000000002
100
AcDbArc
 50
0.0
 51
90.0
  0
LINE
  5
230
330
15C
100
AcDbEntity
  8
AM_4
100
AcDbLine
 10
0.5249999999999997
 20
0.6250000000000001
 30
0.0
 11
-0.1250000000000002
 21
0.6250000000000001
 31
0.0
  0
ARC
  5
231
330
15C
100
AcDbEntity
  8
AM_4
100
AcDbCircle
 10
-0.1249999999999999
 20
0.1250000000000001
 30
0.0
 40
0.5
100
AcDbArc
 50
90.0
 51
180.0
  0
LINE
  5
232
330
15C
100
AcDbEntity
  8
AM_4
100
AcDbLine
 10
-0.525
 20
-0.3672649730810372
 30
0.0
 11
-0.525
 21
-0.4827350269189624
 31
0.0
  0
LINE
  5
233
330
15C
100
AcDbEntity
  8
AM_4
100
AcDbLine
 10
-0.525
 20
-0.4827350269189624
 30
0.0
 11
-0.425
 21
-0.540470053837925
 31
0.0
  0
LINE
  5
234
330
15C
100
AcDbEntity
  8
AM_4
100
AcDbLine
 10
-0.425
 20
-0.540470053837925
 30
0.0
 11
-0.325
 21
-0.4827350269189624
 31
0.0
  0
LINE
  5
235
330
15C
100
AcDbEntity
  8
AM_4
100
AcDbLine
 10
-0.325
 20
-0.4827350269189624
 30
0.0
 11
-0.325
 21
-0.3672649730810372
 31
0.0
  0
LINE
  5
236
330
15C
100
AcDbEntity
  8
AM_4
100
AcDbLine
 10
-0.325
 20
-0.3672649730810372
 30
0.0
 11
-0.425
 21
-0.3095299461620747
 31
0.0
  0
LINE
  5
237
330
15C
100
AcDbEntity
  8
AM_4
100
AcDbLine
 10
-0.425
 20
-0.3095299461620747
 30
0.0
 11
-0.525
 21
-0.3672649730810372
 31
0.0
  0
LINE
  5
238
330
15C
100
AcDbEntity
  8
AM_4
100
AcDbLine
 10
0.425
 20
0.5404700538379252
 30
0.0
 11
0.325
 21
0.4827350269189627
 31
0.0
  0
LINE
  5
239
330
15C
100
AcDbEntity
  8
AM_4
100
AcDbLine
 10
0.325
 20
0.4827350269189627
 30
0.0
 11
0.325
 21
0.3672649730810375
 31
0.0
  0
LINE
  5
23A
330
15C
100
AcDbEntity
  8
AM_4
100
AcDbLine
 10
0.325
 20
0.3672649730810375
 30
0.0
 11
0.425
 21
0.309529946162075
 31
0.0
  0
LINE
  5
23B
330
15C
100
AcDbEntity
  8
AM_4
100
AcDbLine
 10
0.425
 20
0.309529946162075
 30
0.0
 11
0.525
 21
0.3672649730810375
 31
0.0
  0
LINE
  5
23C
330
15C
100
AcDbEntity
  8
AM_4
100
AcDbLine
 10
0.525
 20
0.3672649730810375
 30
0.0
 11
0.525
 21
0.4827350269189627
 31
0.0
  0
LINE
  5
23D
330
15C
100
AcDbEntity
  8
AM_4
100
AcDbLine
 10
0.525
 20
0.4827350269189627
 30
0.0
 11
0.425
 21
0.5404700538379252
 31
0.0
  0
ENDBLK
  5
15F
330
15C
100
AcDbEntity
  8
0
100
AcDbBlockEnd
  0
ENDSEC
  0
SECTION
  2
ENTITIES
  0
INSERT
  5
6F
330
1F
100
AcDbEntity
  8
0
100
AcDbBlockReference
  2
1_023167_4
 10
0.0
 20
0.0
 30
0.0
  0
POINT
  5
23F
330
1F
100
AcDbEntity
  8
ConnectionPoints
100
AcDbPoint
 10
0.0
 20
-0.0049999999999998
 30
1.8625
  0
POINT
  5
240
330
1F
100
AcDbEntity
  8
ConnectionPoints
100
AcDbPoint
 10
0.0
 20
-0.0049999999999998
 30
1.8625
  0
POINT
  5
241
330
1F
100
AcDbEntity
  8
ConnectionPoints
100
AcDbPoint
 10
0.0
 20
-0.0049999999999999
 30
0.0
  0
POINT
  5
242
330
1F
100
AcDbEntity
  8
ConnectionPoints
100
AcDbPoint
 10
0.0
 20
-1.38
 30
0.0000000000000001
  0
POINT
  5
243
330
1F
100
AcDbEntity
  8
ConnectionPoints
100
AcDbPoint
 10
0.0
 20
1.15225
 30
-0.0000000000000001
  0
POINT
  5
244
330
1F
100
AcDbEntity
  8
ConnectionPoints
100
AcDbPoint
 10
0.0
 20
0.0
 30
0.0
  0
POINT
  5
245
330
1F
100
AcDbEntity
  8
ConnectionPoints
100
AcDbPoint
 10
0.0
 20
-1.38
 30
0.0000000000000001
  0
ENDSEC
  0
SECTION
  2
OBJECTS
  0
DICTIONARY
  5
C
330
0
100
AcDbDictionary
281
     1
  3
ACAD_DETAILVIEWSTYLE
350
24D
  3
ACAD_GROUP
350
D
  3
ACAD_LAYOUT
350
1A
  3
ACAD_MATERIAL
350
43
  3
ACAD_MLEADERSTYLE
350
6B
  3
ACAD_MLINESTYLE
350
17
  3
ACAD_PLOTSETTINGS
350
19
  3
ACAD_PLOTSTYLENAME
350
E
  3
ACAD_SCALELIST
350
47
  3
ACAD_SECTIONVIEWSTYLE
350
24E
  3
ACAD_TABLESTYLE
350
69
  3
ACAD_VISUALSTYLE
350
2A
  3
ACDB_RECOMPOSE_DATA
350
24A
  3
AcDbVariableDictionary
350
246
  0
SUN
  5
6D
330
29
100
AcDbSun
 90
        1
290
     0
 63
     7
421
 16777215
 40
1.0
291
     1
 91
  2455826
 92
 54000000
292
     0
 70
     2
 71
   256
280
     1
  0
DICTIONARY
  5
24D
102
{ACAD_REACTORS
330
C
102
}
330
C
100
AcDbDictionary
281
     1
  0
DICTIONARY
  5
D
102
{ACAD_REACTORS
330
C
102
}
330
C
100
AcDbDictionary
281
     1
  0
DICTIONARY
  5
1A
102
{ACAD_REACTORS
330
C
102
}
330
C
100
AcDbDictionary
281
     1
  3
Layout1
350
1E
  3
Layout2
350
26
  3
Model
350
22
  0
DICTIONARY
  5
43
102
{ACAD_REACTORS
330
C
102
}
330
C
100
AcDbDictionary
281
     1
  3
ByBlock
350
45
  3
ByLayer
350
44
  3
Global
350
46
  0
DICTIONARY
  5
6B
102
{ACAD_REACTORS
330
C
102
}
330
C
100
AcDbDictionary
281
     1
  3
Standard
350
6C
  0
DICTIONARY
  5
17
102
{ACAD_REACTORS
330
C
102
}
330
C
100
AcDbDictionary
281
     1
  3
Standard
350
18
  0
DICTIONARY
  5
19
102
{ACAD_REACTORS
330
C
102
}
330
C
100
AcDbDictionary
281
     1
  0
ACDBDICTIONARYWDFLT
  5
E
102
{ACAD_REACTORS
330
C
102
}
330
C
100
AcDbDictionary
281
     1
  3
Normal
350
F
100
AcDbDictionaryWithDefault
340
F
  0
DICTIONARY
  5
47
102
{ACAD_REACTORS
330
C
102
}
330
C
100
AcDbDictionary
281
     1
  3
A0
350
48
  3
A1
350
49
  3
A2
350
4A
  3
A3
350
4B
  3
A4
350
4C
  3
A5
350
4D
  3
A6
350
4E
  3
A7
350
4F
  3
A8
350
50
  3
A9
350
51
  3
B0
350
52
  3
B1
350
53
  3
B2
350
54
  3
B3
350
55
  3
B4
350
56
  3
B5
350
57
  3
B6
350
58
  3
B7
350
59
  3
B8
350
5A
  3
B9
350
5B
  3
C0
350
5C
  3
C1
350
5D
  3
C2
350
5E
  3
C3
350
5F
  3
C4
350
60
  3
C5
350
61
  3
C6
350
62
  3
C7
350
63
  3
C8
350
64
  3
C9
350
65
  3
D0
350
66
  3
D1
350
67
  3
D2
350
68
  0
DICTIONARY
  5
24E
102
{ACAD_REACTORS
330
C
102
}
330
C
100
AcDbDictionary
281
     1
  0
DICTIONARY
  5
69
102
{ACAD_REACTORS
330
C
102
}
330
C
100
AcDbDictionary
281
     1
  3
Standard
350
6A
  0
DICTIONARY
  5
2A
102
{ACAD_REACTORS
330
C
102
}
330
C
100
AcDbDictionary
281
     1
  3
2dWireframe
350
2F
  3
Basic
350
32
  3
Brighten
350
36
  3
ColorChange
350
3A
  3
Conceptual
350
34
  3
Dim
350
35
  3
EdgeColorOff
350
3D
  3
Facepattern
350
39
  3
Flat
350
2B
  3
FlatWithEdges
350
2C
  3
Gouraud
350
2D
  3
GouraudWithEdges
350
2E
  3
Hidden
350
31
  3
JitterOff
350
3B
  3
Linepattern
350
38
  3
OverhangOff
350
3C
  3
Realistic
350
33
  3
Shaded
350
42
  3
Shaded with edges
350
41
  3
Shades of Gray
350
3E
  3
Sketchy
350
3F
  3
Thicken
350
37
  3
Wireframe
350
30
  3
X-Ray
350
40
  0
XRECORD
  5
24A
102
{ACAD_REACTORS
330
C
102
}
330
C
100
AcDbXrecord
280
     1
 90
        1
330
6A
  0
DICTIONARY
  5
246
102
{ACAD_REACTORS
330
C
102
}
330
C
100
AcDbDictionary
281
     1
  3
CANNOSCALE
350
247
  3
CMLEADERSTYLE
350
24C
  3
CTABLESTYLE
350
24B
  0
LAYOUT
  5
1E
102
{ACAD_REACTORS
330
1A
102
}
330
1A
100
AcDbPlotSettings
  1

  2
none_device
  4

  6

 40
0.0
 41
0.0
 42
0.0
 43
0.0
 44
0.0
 45
0.0
 46
0.0
 47
0.0
 48
0.0
 49
0.0
140
0.0
141
0.0
142
1.0
143
1.0
 70
   688
 72
     0
 73
     0
 74
     5
  7

 75
    16
 76
     0
 77
     2
 78
   300
147
1.0
148
0.0
149
0.0
100
AcDbLayout
  1
Layout1
 70
     1
 71
     1
 10
0.0
 20
0.0
 11
12.0
 21
9.0
 12
0.0
 22
0.0
 32
0.0
 14
1.000000000000000E+20
 24
1.000000000000000E+20
 34
1.000000000000000E+20
 15
-1.000000000000000E+20
 25
-1.000000000000000E+20
 35
-1.000000000000000E+20
146
0.0
 13
0.0
 23
0.0
 33
0.0
 16
1.0
 26
0.0
 36
0.0
 17
0.0
 27
1.0
 37
0.0
 76
     0
330
1B
  0
LAYOUT
  5
26
102
{ACAD_REACTORS
330
1A
102
}
330
1A
100
AcDbPlotSettings
  1

  2
none_device
  4

  6

 40
0.0
 41
0.0
 42
0.0
 43
0.0
 44
0.0
 45
0.0
 46
0.0
 47
0.0
 48
0.0
 49
0.0
140
0.0
141
0.0
142
1.0
143
1.0
 70
   688
 72
     0
 73
     0
 74
     5
  7

 75
    16
 76
     0
 77
     2
 78
   300
147
1.0
148
0.0
149
0.0
100
AcDbLayout
  1
Layout2
 70
     1
 71
     2
 10
0.0
 20
0.0
 11
0.0
 21
0.0
 12
0.0
 22
0.0
 32
0.0
 14
0.0
 24
0.0
 34
0.0
 15
0.0
 25
0.0
 35
0.0
146
0.0
 13
0.0
 23
0.0
 33
0.0
 16
1.0
 26
0.0
 36
0.0
 17
0.0
 27
1.0
 37
0.0
 76
     0
330
23
  0
LAYOUT
  5
22
102
{ACAD_REACTORS
330
1A
102
}
330
1A
100
AcDbPlotSettings
  1

  2
none_device
  4
Letter_(8.50_x_11.00_Inches)
  6

 40
6.35
 41
6.35
 42
6.35000508
 43
6.35000508
 44
215.9
 45
279.4
 46
0.0
 47
0.0
 48
0.0
 49
0.0
140
0.0
141
0.0
142
1.0
143
1.0
 70
  1712
 72
     0
 73
     0
 74
     0
  7

 75
     0
 76
     0
 77
     2
 78
   300
147
1.0
148
0.0
149
0.0
100
AcDbLayout
  1
Model
 70
     1
 71
     0
 10
0.0
 20
0.0
 11
12.0
 21
9.0
 12
0.0
 22
0.0
 32
0.0
 14
1.000000000000000E+20
 24
1.000000000000000E+20
 34
1.000000000000000E+20
 15
-1.000000000000000E+20
 25
-1.000000000000000E+20
 35
-1.000000000000000E+20
146
0.0
 13
0.0
 23
0.0
 33
0.0
 16
1.0
 26
0.0
 36
0.0
 17
0.0
 27
1.0
 37
0.0
 76
     0
330
1F
331
29
  0
MATERIAL
  5
45
102
{ACAD_REACTORS
330
43
102
}
330
43
100
AcDbMaterial
  1
ByBlock
 72
     1
 94
      127
  0
MATERIAL
  5
44
102
{ACAD_REACTORS
330
43
102
}
330
43
100
AcDbMaterial
  1
ByLayer
 72
     1
 94
      127
  0
MATERIAL
  5
46
102
{ACAD_REACTORS
330
43
102
}
330
43
100
AcDbMaterial
  1
Global
 72
     1
 94
      127
  0
MLEADERSTYLE
  5
6C
102
{ACAD_REACTORS
330
6B
102
}
330
6B
100
AcDbMLeaderStyle
179
     2
170
     2
171
     1
172
     0
 90
        2
 40
0.0
 41
0.0
173
     1
 91
-1056964608
340
14
 92
       -2
290
     1
 42
0.09
291
     1
 43
0.36
  3
Standard
341
0
 44
0.18
300

342
11
174
     1
178
     6
175
     1
176
     0
 93
-1056964608
 45
0.18
292
     0
297
     0
 46
0.18
343
0
 94
-1056964608
 47
1.0
 49
1.0
140
1.0
293
     1
141
0.0
294
     1
177
     0
142
1.0
295
     0
296
     0
143
0.125
271
     0
272
     9
273
     9
298
     0
  0
MLINESTYLE
  5
18
102
{ACAD_REACTORS
330
17
102
}
330
17
100
AcDbMlineStyle
  2
Standard
 70
     0
  3

 62
   256
 51
90.0
 52
90.0
 71
     2
 49
0.5
 62
   256
  6
BYLAYER
 49
-0.5
 62
   256
  6
BYLAYER
  0
ACDBPLACEHOLDER
  5
F
102
{ACAD_REACTORS
330
E
102
}
330
E
  0
SCALE
  5
48
102
{ACAD_REACTORS
330
47
102
}
330
47
100
AcDbScale
 70
     0
300
1:1
140
1.0
141
1.0
290
     1
  0
SCALE
  5
49
102
{ACAD_REACTORS
330
47
102
}
330
47
100
AcDbScale
 70
     0
300
1:2
140
1.0
141
2.0
290
     0
  0
SCALE
  5
4A
102
{ACAD_REACTORS
330
47
102
}
330
47
100
AcDbScale
 70
     0
300
1:4
140
1.0
141
4.0
290
     0
  0
SCALE
  5
4B
102
{ACAD_REACTORS
330
47
102
}
330
47
100
AcDbScale
 70
     0
300
1:5
140
1.0
141
5.0
290
     0
  0
SCALE
  5
4C
102
{ACAD_REACTORS
330
47
102
}
330
47
100
AcDbScale
 70
     0
300
1:8
140
1.0
141
8.0
290
     0
  0
SCALE
  5
4D
102
{ACAD_REACTORS
330
47
102
}
330
47
100
AcDbScale
 70
     0
300
1:10
140
1.0
141
10.0
290
     0
  0
SCALE
  5
4E
102
{ACAD_REACTORS
330
47
102
}
330
47
100
AcDbScale
 70
     0
300
1:16
140
1.0
141
16.0
290
     0
  0
SCALE
  5
4F
102
{ACAD_REACTORS
330
47
102
}
330
47
100
AcDbScale
 70
     0
300
1:20
140
1.0
141
20.0
290
     0
  0
SCALE
  5
50
102
{ACAD_REACTORS
330
47
102
}
330
47
100
AcDbScale
 70
     0
300
1:30
140
1.0
141
30.0
290
     0
  0
SCALE
  5
51
102
{ACAD_REACTORS
330
47
102
}
330
47
100
AcDbScale
 70
     0
300
1:40
140
1.0
141
40.0
290
     0
  0
SCALE
  5
52
102
{ACAD_REACTORS
330
47
102
}
330
47
100
AcDbScale
 70
     0
300
1:50
140
1.0
141
50.0
290
     0
  0
SCALE
  5
53
102
{ACAD_REACTORS
330
47
102
}
330
47
100
AcDbScale
 70
     0
300
1:100
140
1.0
141
100.0
290
     0
  0
SCALE
  5
54
102
{ACAD_REACTORS
330
47
102
}
330
47
100
AcDbScale
 70
     0
300
2:1
140
2.0
141
1.0
290
     0
  0
SCALE
  5
55
102
{ACAD_REACTORS
330
47
102
}
330
47
100
AcDbScale
 70
     0
300
4:1
140
4.0
141
1.0
290
     0
  0
SCALE
  5
56
102
{ACAD_REACTORS
330
47
102
}
330
47
100
AcDbScale
 70
     0
300
8:1
140
8.0
141
1.0
290
     0
  0
SCALE
  5
57
102
{ACAD_REACTORS
330
47
102
}
330
47
100
AcDbScale
 70
     0
300
10:1
140
10.0
141
1.0
290
     0
  0
SCALE
  5
58
102
{ACAD_REACTORS
330
47
102
}
330
47
100
AcDbScale
 70
     0
300
100:1
140
100.0
141
1.0
290
     0
  0
SCALE
  5
59
102
{ACAD_REACTORS
330
47
102
}
330
47
100
AcDbScale
 70
     0
300
1/128" = 1'-0"
140
0.0078125
141
12.0
290
     0
  0
SCALE
  5
5A
102
{ACAD_REACTORS
330
47
102
}
330
47
100
AcDbScale
 70
     0
300
1/64" = 1'-0"
140
0.015625
141
12.0
290
     0
  0
SCALE
  5
5B
102
{ACAD_REACTORS
330
47
102
}
330
47
100
AcDbScale
 70
     0
300
1/32" = 1'-0"
140
0.03125
141
12.0
290
     0
  0
SCALE
  5
5C
102
{ACAD_REACTORS
330
47
102
}
330
47
100
AcDbScale
 70
     0
300
1/16" = 1'-0"
140
0.0625
141
12.0
290
     0
  0
SCALE
  5
5D
102
{ACAD_REACTORS
330
47
102
}
330
47
100
AcDbScale
 70
     0
300
3/32" = 1'-0"
140
0.09375
141
12.0
290
     0
  0
SCALE
  5
5E
102
{ACAD_REACTORS
330
47
102
}
330
47
100
AcDbScale
 70
     0
300
1/8" = 1'-0"
140
0.125
141
12.0
290
     0
  0
SCALE
  5
5F
102
{ACAD_REACTORS
330
47
102
}
330
47
100
AcDbScale
 70
     0
300
3/16" = 1'-0"
140
0.1875
141
12.0
290
     0
  0
SCALE
  5
60
102
{ACAD_REACTORS
330
47
102
}
330
47
100
AcDbScale
 70
     0
300
1/4" = 1'-0"
140
0.25
141
12.0
290
     0
  0
SCALE
  5
61
102
{ACAD_REACTORS
330
47
102
}
330
47
100
AcDbScale
 70
     0
300
3/8" = 1'-0"
140
0.375
141
12.0
290
     0
  0
SCALE
  5
62
102
{ACAD_REACTORS
330
47
102
}
330
47
100
AcDbScale
 70
     0
300
1/2" = 1'-0"
140
0.5
141
12.0
290
     0
  0
SCALE
  5
63
102
{ACAD_REACTORS
330
47
102
}
330
47
100
AcDbScale
 70
     0
300
3/4" = 1'-0"
140
0.75
141
12.0
290
     0
  0
SCALE
  5
64
102
{ACAD_REACTORS
330
47
102
}
330
47
100
AcDbScale
 70
     0
300
1" = 1'-0"
140
1.0
141
12.0
290
     0
  0
SCALE
  5
65
102
{ACAD_REACTORS
330
47
102
}
330
47
100
AcDbScale
 70
     0
300
1-1/2" = 1'-0"
140
1.5
141
12.0
290
     0
  0
SCALE
  5
66
102
{ACAD_REACTORS
330
47
102
}
330
47
100
AcDbScale
 70
     0
300
3" = 1'-0"
140
3.0
141
12.0
290
     0
  0
SCALE
  5
67
102
{ACAD_REACTORS
330
47
102
}
330
47
100
AcDbScale
 70
     0
300
6" = 1'-0"
140
6.0
141
12.0
290
     0
  0
SCALE
  5
68
102
{ACAD_REACTORS
330
47
102
}
330
47
100
AcDbScale
 70
     0
300
1'-0" = 1'-0"
140
12.0
141
12.0
290
     0
  0
TABLESTYLE
  5
6A
102
{ACAD_REACTORS
330
69
102
}
102
{ACAD_XDICTIONARY
360
248
102
}
330
69
100
AcDbTableStyle
  3
Standard
 70
     0
 71
     0
 40
0.06
 41
0.06
280
     0
281
     0
  7
Standard
140
0.18
170
     2
 62
     0
 63
   257
283
     0
 90
        4
 91
        0
  1

274
    -2
284
     1
 64
     0
275
    -2
285
     1
 65
     0
276
    -2
286
     1
 66
     0
277
    -2
287
     1
 67
     0
278
    -2
288
     1
 68
     0
279
    -2
289
     1
 69
     0
  7
Standard
140
0.25
170
     5
 62
     0
 63
   257
283
     0
 90
        4
 91
        0
  1

274
    -2
284
     1
 64
     0
275
    -2
285
     1
 65
     0
276
    -2
286
     1
 66
     0
277
    -2
287
     1
 67
     0
278
    -2
288
     1
 68
     0
279
    -2
289
     1
 69
     0
  7
Standard
140
0.18
170
     5
 62
     0
 63
   257
283
     0
 90
        4
 91
        0
  1

274
    -2
284
     1
 64
     0
275
    -2
285
     1
 65
     0
276
    -2
286
     1
 66
     0
277
    -2
287
     1
 67
     0
278
    -2
288
     1
 68
     0
279
    -2
289
     1
 69
     0
  0
VISUALSTYLE
  5
2F
102
{ACAD_REACTORS
330
2A
102
}
330
2A
100
AcDbVisualStyle
  2
2dWireframe
 70
     4
177
     3
291
     0
 70
    58
 90
        0
176
     1
 90
        2
176
     1
 90
        0
176
     1
 90
        0
176
     1
 40
0.6
176
     1
 40
30.0
176
     1
 62
     7
420
 16777215
176
     1
 90
        1
176
     1
 90
        4
176
     1
 62
     7
176
     1
 62
   257
176
     1
 90
        1
176
     1
 90
        1
176
     1
 40
1.0
176
     1
 90
        0
176
     1
 62
   257
176
     1
 40
1.0
176
     1
 90
        1
176
     1
 90
        6
176
     1
 90
        2
176
     1
 62
     7
176
     1
 90
        5
176
     1
 90
        0
176
     1
 90
        0
176
     1
290
     0
176
     1
 90
        1
176
     1
 40
0.0
176
     1
 90
        0
176
     1
290
     1
176
     1
290
     1
176
     1
290
     0
176
     1
290
     0
176
     1
290
     0
176
     1
290
     0
176
     1
290
     0
176
     1
290
     0
176
     1
290
     0
176
     1
 90
       50
176
     1
 40
0.0
176
     1
 40
1.0
176
     1
 90
        0
176
     1
 62
    18
420
        0
176
     1
 90
       50
176
     1
 90
        3
176
     1
 62
     5
420
      255
176
     1
290
     0
176
     1
 90
       50
176
     1
 90
       50
176
     1
 90
       50
176
     1
290
     0
176
     1
 90
       50
176
     1
 62
   256
176
     0
 40
1.0
176
     0
 90
        2
176
     1
  1
strokes_ogs.tif
176
     1
290
     0
176
     1
 40
1.0
176
     1
 40
1.0
176
     1
  0
VISUALSTYLE
  5
32
102
{ACAD_REACTORS
330
2A
102
}
330
2A
100
AcDbVisualStyle
  2
Basic
 70
     7
177
     3
291
     1
 70
    58
 90
        1
176
     1
 90
        0
176
     1
 90
        1
176
     1
 90
        0
176
     1
 40
0.6
176
     1
 40
30.0
176
     1
 62
     7
420
 16777215
176
     1
 90
        0
176
     1
 90
        4
176
     1
 62
     7
176
     1
 62
   257
176
     1
 90
        1
176
     1
 90
        1
176
     1
 40
1.0
176
     1
 90
        8
176
     1
 62
     7
176
     1
 40
1.0
176
     1
 90
        1
176
     1
 90
        6
176
     1
 90
        2
176
     1
 62
     7
176
     1
 90
        5
176
     1
 90
        0
176
     1
 90
        0
176
     1
290
     0
176
     1
 90
        1
176
     1
 40
0.0
176
     1
 90
        0
176
     1
290
     0
176
     1
290
     1
176
     1
290
     1
176
     1
290
     0
176
     1
290
     0
176
     1
290
     0
176
     1
290
     0
176
     1
290
     0
176
     1
290
     0
176
     1
 90
       50
176
     1
 40
0.0
176
     1
 40
1.0
176
     1
 90
        0
176
     1
 62
    18
420
        0
176
     1
 90
       50
176
     1
 90
        3
176
     1
 62
     5
420
      255
176
     1
290
     0
176
     1
 90
       50
176
     1
 90
       50
176
     1
 90
       50
176
     1
290
     0
176
     1
 90
       50
176
     1
 62
   256
176
     0
 40
1.0
176
     0
 90
        2
176
     1
  1
strokes_ogs.tif
176
     1
290
     0
176
     1
 40
1.0
176
     1
 40
1.0
176
     1
  0
VISUALSTYLE
  5
36
102
{ACAD_REACTORS
330
2A
102
}
330
2A
100
AcDbVisualStyle
  2
Brighten
 70
    12
177
     3
291
     1
 70
    58
 90
        2
176
     1
 90
        2
176
     1
 90
        0
176
     1
 90
        0
176
     1
 40
0.6
176
     1
 40
30.0
176
     1
 62
     7
420
 16777215
176
     1
 90
        1
176
     1
 90
        4
176
     1
 62
     7
176
     1
 62
   257
176
     1
 90
        1
176
     1
 90
        1
176
     1
 40
1.0
176
     1
 90
        8
176
     1
 62
     7
176
     1
 40
1.0
176
     1
 90
        1
176
     1
 90
        6
176
     1
 90
        2
176
     1
 62
     7
176
     1
 90
        5
176
     1
 90
        0
176
     1
 90
        0
176
     1
290
     0
176
     1
 90
        1
176
     1
 40
50.0
176
     1
 90
        0
176
     1
290
     0
176
     1
290
     1
176
     1
290
     1
176
     1
290
     0
176
     1
290
     0
176
     1
290
     0
176
     1
290
     0
176
     1
290
     0
176
     1
290
     0
176
     1
 90
       50
176
     1
 40
0.0
176
     1
 40
1.0
176
     1
 90
        0
176
     1
 62
    18
420
        0
176
     1
 90
       50
176
     1
 90
        3
176
     1
 62
     5
420
      255
176
     1
290
     0
176
     1
 90
       50
176
     1
 90
       50
176
     1
 90
       50
176
     1
290
     0
176
     1
 90
       50
176
     1
 62
   256
176
     0
 40
1.0
176
     0
 90
        2
176
     1
  1
strokes_ogs.tif
176
     1
290
     0
176
     1
 40
1.0
176
     1
 40
1.0
176
     1
  0
VISUALSTYLE
  5
3A
102
{ACAD_REACTORS
330
2A
102
}
330
2A
100
AcDbVisualStyle
  2
ColorChange
 70
    16
177
     3
291
     1
 70
    58
 90
        2
176
     1
 90
        2
176
     1
 90
        3
176
     1
 90
        0
176
     1
 40
0.6
176
     1
 40
30.0
176
     1
 62
     8
420
  8421504
176
     1
 90
        1
176
     1
 90
        4
176
     1
 62
     7
176
     1
 62
   257
176
     1
 90
        1
176
     1
 90
        1
176
     1
 40
1.0
176
     1
 90
        8
176
     1
 62
     8
420
  8421504
176
     1
 40
1.0
176
     1
 90
        1
176
     1
 90
        6
176
     1
 90
        2
176
     1
 62
     7
176
     1
 90
        5
176
     1
 90
        0
176
     1
 90
        0
176
     1
290
     0
176
     1
 90
        1
176
     1
 40
0.0
176
     1
 90
        0
176
     1
290
     0
176
     1
290
     1
176
     1
290
     1
176
     1
290
     0
176
     1
290
     0
176
     1
290
     0
176
     1
290
     0
176
     1
290
     0
176
     1
290
     0
176
     1
 90
       50
176
     1
 40
0.0
176
     1
 40
1.0
176
     1
 90
        0
176
     1
 62
    18
420
        0
176
     1
 90
       50
176
     1
 90
        3
176
     1
 62
     5
420
      255
176
     1
290
     0
176
     1
 90
       50
176
     1
 90
       50
176
     1
 90
       50
176
     1
290
     0
176
     1
 90
       50
176
     1
 62
   256
176
     0
 40
1.0
176
     0
 90
        2
176
     1
  1
strokes_ogs.tif
176
     1
290
     0
176
     1
 40
1.0
176
     1
 40
1.0
176
     1
  0
VISUALSTYLE
  5
34
102
{ACAD_REACTORS
330
2A
102
}
330
2A
100
AcDbVisualStyle
  2
Conceptual
 70
     9
177
     3
291
     0
 70
    58
 90
        3
176
     1
 90
        2
176
     1
 90
        0
176
     1
 90
        0
176
     1
 40
0.6
176
     1
 40
30.0
176
     1
 62
     7
420
 16777215
176
     1
 90
        2
176
     1
 90
        2
176
     1
 62
     7
176
     1
 62
   257
176
     1
 90
        1
176
     1
 90
        1
176
     1
 40
179.0
176
     1
 90
        8
176
     1
 62
     7
176
     1
 40
1.0
176
     1
 90
        1
176
     1
 90
        6
176
     1
 90
        2
176
     1
 62
     7
176
     1
 90
        3
176
     1
 90
        0
176
     1
 90
        0
176
     1
290
     0
176
     1
 90
        1
176
     1
 40
0.0
176
     1
 90
        0
176
     1
290
     0
176
     1
290
     1
176
     1
290
     1
176
     1
290
     0
176
     1
290
     0
176
     1
290
     0
176
     1
290
     0
176
     1
290
     0
176
     1
290
     0
176
     1
 90
       50
176
     1
 40
0.0
176
     1
 40
1.0
176
     1
 90
        0
176
     1
 62
    18
420
        0
176
     1
 90
       50
176
     1
 90
        3
176
     1
 62
     5
420
      255
176
     1
290
     0
176
     1
 90
       50
176
     1
 90
       50
176
     1
 90
       50
176
     1
290
     0
176
     1
 90
       50
176
     1
 62
   256
176
     0
 40
1.0
176
     0
 90
        2
176
     1
  1
strokes_ogs.tif
176
     1
290
     0
176
     1
 40
1.0
176
     1
 40
1.0
176
     1
  0
VISUALSTYLE
  5
35
102
{ACAD_REACTORS
330
2A
102
}
330
2A
100
AcDbVisualStyle
  2
Dim
 70
    11
177
     3
291
     1
 70
    58
 90
        2
176
     1
 90
        2
176
     1
 90
        0
176
     1
 90
        0
176
     1
 40
0.6
176
     1
 40
30.0
176
     1
 62
     7
420
 16777215
176
     1
 90
        1
176
     1
 90
        4
176
     1
 62
     7
176
     1
 62
   257
176
     1
 90
        1
176
     1
 90
        1
176
     1
 40
1.0
176
     1
 90
        8
176
     1
 62
     7
176
     1
 40
1.0
176
     1
 90
        1
176
     1
 90
        6
176
     1
 90
        2
176
     1
 62
     7
176
     1
 90
        5
176
     1
 90
        0
176
     1
 90
        0
176
     1
290
     0
176
     1
 90
        1
176
     1
 40
-50.0
176
     1
 90
        0
176
     1
290
     0
176
     1
290
     1
176
     1
290
     1
176
     1
290
     0
176
     1
290
     0
176
     1
290
     0
176
     1
290
     0
176
     1
290
     0
176
     1
290
     0
176
     1
 90
       50
176
     1
 40
0.0
176
     1
 40
1.0
176
     1
 90
        0
176
     1
 62
    18
420
        0
176
     1
 90
       50
176
     1
 90
        3
176
     1
 62
     5
420
      255
176
     1
290
     0
176
     1
 90
       50
176
     1
 90
       50
176
     1
 90
       50
176
     1
290
     0
176
     1
 90
       50
176
     1
 62
   256
176
     0
 40
1.0
176
     0
 90
        2
176
     1
  1
strokes_ogs.tif
176
     1
290
     0
176
     1
 40
1.0
176
     1
 40
1.0
176
     1
  0
VISUALSTYLE
  5
3D
102
{ACAD_REACTORS
330
2A
102
}
330
2A
100
AcDbVisualStyle
  2
EdgeColorOff
 70
    22
177
     3
291
     1
 70
    58
 90
        2
176
     0
 90
        2
176
     0
 90
        0
176
     0
 90
        0
176
     0
 40
0.6
176
     0
 40
30.0
176
     0
 62
     7
420
 16777215
176
     0
 90
        1
176
     0
 90
        4
176
     0
 62
     7
176
     0
 62
   257
176
     0
 90
        1
176
     0
 90
        1
176
     0
 40
1.0
176
     0
 90
        8
176
     2
 62
     7
176
     0
 40
1.0
176
     0
 90
        1
176
     0
 90
        6
176
     0
 90
        2
176
     0
 62
     7
176
     0
 90
        5
176
     0
 90
        0
176
     0
 90
        0
176
     0
290
     0
176
     0
 90
        1
176
     0
 40
0.0
176
     0
 90
        0
176
     0
290
     0
176
     0
290
     1
176
     0
290
     1
176
     0
290
     0
176
     0
290
     0
176
     0
290
     0
176
     0
290
     0
176
     0
290
     0
176
     0
290
     0
176
     0
 90
       50
176
     0
 40
0.0
176
     0
 40
1.0
176
     0
 90
        0
176
     0
 62
    18
420
        0
176
     0
 90
       50
176
     0
 90
        3
176
     0
 62
     5
420
      255
176
     0
290
     0
176
     0
 90
       50
176
     0
 90
       50
176
     0
 90
       50
176
     0
290
     0
176
     0
 90
       50
176
     0
 62
   256
176
     0
 40
1.0
176
     0
 90
        2
176
     0
  1
strokes_ogs.tif
176
     0
290
     0
176
     0
 40
1.0
176
     0
 40
1.0
176
     0
  0
VISUALSTYLE
  5
39
102
{ACAD_REACTORS
330
2A
102
}
330
2A
100
AcDbVisualStyle
  2
Facepattern
 70
    15
177
     3
291
     1
 70
    58
 90
        2
176
     1
 90
        2
176
     1
 90
        0
176
     1
 90
        0
176
     1
 40
0.6
176
     1
 40
30.0
176
     1
 62
     7
420
 16777215
176
     1
 90
        1
176
     1
 90
        4
176
     1
 62
     7
176
     1
 62
   257
176
     1
 90
        1
176
     1
 90
        1
176
     1
 40
1.0
176
     1
 90
        8
176
     1
 62
     7
176
     1
 40
1.0
176
     1
 90
        1
176
     1
 90
        6
176
     1
 90
        2
176
     1
 62
     7
176
     1
 90
        5
176
     1
 90
        0
176
     1
 90
        0
176
     1
290
     0
176
     1
 90
        1
176
     1
 40
0.0
176
     1
 90
        0
176
     1
290
     0
176
     1
290
     1
176
     1
290
     1
176
     1
290
     0
176
     1
290
     0
176
     1
290
     0
176
     1
290
     0
176
     1
290
     0
176
     1
290
     0
176
     1
 90
       50
176
     1
 40
0.0
176
     1
 40
1.0
176
     1
 90
        0
176
     1
 62
    18
420
        0
176
     1
 90
       50
176
     1
 90
        3
176
     1
 62
     5
420
      255
176
     1
290
     0
176
     1
 90
       50
176
     1
 90
       50
176
     1
 90
       50
176
     1
290
     0
176
     1
 90
       50
176
     1
 62
   256
176
     0
 40
1.0
176
     0
 90
        2
176
     1
  1
strokes_ogs.tif
176
     1
290
     0
176
     1
 40
1.0
176
     1
 40
1.0
176
     1
  0
VISUALSTYLE
  5
2B
102
{ACAD_REACTORS
330
2A
102
}
330
2A
100
AcDbVisualStyle
  2
Flat
 70
     0
177
     3
291
     1
 70
    58
 90
        2
176
     1
 90
        1
176
     1
 90
        1
176
     1
 90
        2
176
     1
 40
0.6
176
     1
 40
30.0
176
     1
 62
     7
420
 16777215
176
     1
 90
        0
176
     1
 90
        0
176
     1
 62
     7
176
     1
 62
   257
176
     1
 90
        1
176
     1
 90
        1
176
     1
 40
1.0
176
     1
 90
        8
176
     1
 62
     7
176
     1
 40
1.0
176
     1
 90
        1
176
     1
 90
        6
176
     1
 90
        2
176
     1
 62
     7
176
     1
 90
        5
176
     1
 90
        0
176
     1
 90
        0
176
     1
290
     0
176
     1
 90
       13
176
     1
 40
0.0
176
     1
 90
        0
176
     1
290
     0
176
     1
290
     1
176
     1
290
     1
176
     1
290
     0
176
     1
290
     0
176
     1
290
     0
176
     1
290
     0
176
     1
290
     0
176
     1
290
     0
176
     1
 90
       50
176
     1
 40
0.0
176
     1
 40
1.0
176
     1
 90
        0
176
     1
 62
    18
420
        0
176
     1
 90
       50
176
     1
 90
        3
176
     1
 62
     5
420
      255
176
     1
290
     0
176
     1
 90
       50
176
     1
 90
       50
176
     1
 90
       50
176
     1
290
     0
176
     1
 90
       50
176
     1
 62
   256
176
     0
 40
1.0
176
     0
 90
        2
176
     1
  1
strokes_ogs.tif
176
     1
290
     0
176
     1
 40
1.0
176
     1
 40
1.0
176
     1
  0
VISUALSTYLE
  5
2C
102
{ACAD_REACTORS
330
2A
102
}
330
2A
100
AcDbVisualStyle
  2
FlatWithEdges
 70
     1
177
     3
291
     1
 70
    58
 90
        2
176
     1
 90
        1
176
     1
 90
        1
176
     1
 90
        2
176
     1
 40
0.6
176
     1
 40
30.0
176
     1
 62
     7
420
 16777215
176
     1
 90
        1
176
     1
 90
        0
176
     1
 62
     7
176
     1
 62
   257
176
     1
 90
        1
176
     1
 90
        1
176
     1
 40
1.0
176
     1
 90
        0
176
     1
 62
   257
176
     1
 40
1.0
176
     1
 90
        1
176
     1
 90
        6
176
     1
 90
        2
176
     1
 62
     7
176
     1
 90
        5
176
     1
 90
        0
176
     1
 90
        0
176
     1
290
     0
176
     1
 90
       13
176
     1
 40
0.0
176
     1
 90
        0
176
     1
290
     0
176
     1
290
     1
176
     1
290
     1
176
     1
290
     0
176
     1
290
     0
176
     1
290
     0
176
     1
290
     0
176
     1
290
     0
176
     1
290
     0
176
     1
 90
       50
176
     1
 40
0.0
176
     1
 40
1.0
176
     1
 90
        0
176
     1
 62
    18
420
        0
176
     1
 90
       50
176
     1
 90
        3
176
     1
 62
     5
420
      255
176
     1
290
     0
176
     1
 90
       50
176
     1
 90
       50
176
     1
 90
       50
176
     1
290
     0
176
     1
 90
       50
176
     1
 62
   256
176
     0
 40
1.0
176
     0
 90
        2
176
     1
  1
strokes_ogs.tif
176
     1
290
     0
176
     1
 40
1.0
176
     1
 40
1.0
176
     1
  0
VISUALSTYLE
  5
2D
102
{ACAD_REACTORS
330
2A
102
}
330
2A
100
AcDbVisualStyle
  2
Gouraud
 70
     2
177
     3
291
     1
 70
    58
 90
        2
176
     1
 90
        2
176
     1
 90
        1
176
     1
 90
        2
176
     1
 40
0.6
176
     1
 40
30.0
176
     1
 62
     7
420
 16777215
176
     1
 90
        0
176
     1
 90
        0
176
     1
 62
     7
176
     1
 62
   257
176
     1
 90
        1
176
     1
 90
        1
176
     1
 40
1.0
176
     1
 90
        0
176
     1
 62
     7
176
     1
 40
1.0
176
     1
 90
        1
176
     1
 90
        6
176
     1
 90
        2
176
     1
 62
     7
176
     1
 90
        5
176
     1
 90
        0
176
     1
 90
        0
176
     1
290
     0
176
     1
 90
       13
176
     1
 40
0.0
176
     1
 90
        0
176
     1
290
     0
176
     1
290
     1
176
     1
290
     1
176
     1
290
     0
176
     1
290
     0
176
     1
290
     0
176
     1
290
     0
176
     1
290
     0
176
     1
290
     0
176
     1
 90
       50
176
     1
 40
0.0
176
     1
 40
1.0
176
     1
 90
        0
176
     1
 62
    18
420
        0
176
     1
 90
       50
176
     1
 90
        3
176
     1
 62
     5
420
      255
176
     1
290
     0
176
     1
 90
       50
176
     1
 90
       50
176
     1
 90
       50
176
     1
290
     0
176
     1
 90
       50
176
     1
 62
   256
176
     0
 40
1.0
176
     0
 90
        2
176
     1
  1
strokes_ogs.tif
176
     1
290
     0
176
     1
 40
1.0
176
     1
 40
1.0
176
     1
  0
VISUALSTYLE
  5
2E
102
{ACAD_REACTORS
330
2A
102
}
330
2A
100
AcDbVisualStyle
  2
GouraudWithEdges
 70
     3
177
     3
291
     1
 70
    58
 90
        2
176
     1
 90
        2
176
     1
 90
        1
176
     1
 90
        2
176
     1
 40
0.6
176
     1
 40
30.0
176
     1
 62
     7
420
 16777215
176
     1
 90
        1
176
     1
 90
        0
176
     1
 62
     7
176
     1
 62
   257
176
     1
 90
        1
176
     1
 90
        1
176
     1
 40
1.0
176
     1
 90
        0
176
     1
 62
   257
176
     1
 40
1.0
176
     1
 90
        1
176
     1
 90
        6
176
     1
 90
        2
176
     1
 62
     7
176
     1
 90
        5
176
     1
 90
        0
176
     1
 90
        0
176
     1
290
     0
176
     1
 90
       13
176
     1
 40
0.0
176
     1
 90
        0
176
     1
290
     0
176
     1
290
     1
176
     1
290
     1
176
     1
290
     0
176
     1
290
     0
176
     1
290
     0
176
     1
290
     0
176
     1
290
     0
176
     1
290
     0
176
     1
 90
       50
176
     1
 40
0.0
176
     1
 40
1.0
176
     1
 90
        0
176
     1
 62
    18
420
        0
176
     1
 90
       50
176
     1
 90
        3
176
     1
 62
     5
420
      255
176
     1
290
     0
176
     1
 90
       50
176
     1
 90
       50
176
     1
 90
       50
176
     1
290
     0
176
     1
 90
       50
176
     1
 62
   256
176
     0
 40
1.0
176
     0
 90
        2
176
     1
  1
strokes_ogs.tif
176
     1
290
     0
176
     1
 40
1.0
176
     1
 40
1.0
176
     1
  0
VISUALSTYLE
  5
31
102
{ACAD_REACTORS
330
2A
102
}
330
2A
100
AcDbVisualStyle
  2
Hidden
 70
     6
177
     3
291
     0
 70
    58
 90
        1
176
     1
 90
        2
176
     1
 90
        2
176
     1
 90
        0
176
     1
 40
0.6
176
     1
 40
30.0
176
     1
 62
     7
420
 16777215
176
     1
 90
        2
176
     1
 90
        2
176
     1
 62
     7
176
     1
 62
   257
176
     1
 90
        2
176
     1
 90
        1
176
     1
 40
40.0
176
     1
 90
        0
176
     1
 62
   257
176
     1
 40
1.0
176
     1
 90
        1
176
     1
 90
        6
176
     1
 90
        2
176
     1
 62
     7
176
     1
 90
        3
176
     1
 90
        0
176
     1
 90
        0
176
     1
290
     0
176
     1
 90
        1
176
     1
 40
0.0
176
     1
 90
        0
176
     1
290
     0
176
     1
290
     1
176
     1
290
     1
176
     1
290
     0
176
     1
290
     0
176
     1
290
     0
176
     1
290
     0
176
     1
290
     0
176
     1
290
     0
176
     1
 90
       50
176
     1
 40
0.0
176
     1
 40
1.0
176
     1
 90
        0
176
     1
 62
    18
420
        0
176
     1
 90
       50
176
     1
 90
        3
176
     1
 62
     5
420
      255
176
     1
290
     0
176
     1
 90
       50
176
     1
 90
       50
176
     1
 90
       50
176
     1
290
     0
176
     1
 90
       50
176
     1
 62
   256
176
     0
 40
1.0
176
     0
 90
        2
176
     1
  1
strokes_ogs.tif
176
     1
290
     0
176
     1
 40
1.0
176
     1
 40
1.0
176
     1
  0
VISUALSTYLE
  5
3B
102
{ACAD_REACTORS
330
2A
102
}
330
2A
100
AcDbVisualStyle
  2
JitterOff
 70
    20
177
     3
291
     1
 70
    58
 90
        2
176
     0
 90
        2
176
     0
 90
        0
176
     0
 90
        0
176
     0
 40
0.6
176
     0
 40
30.0
176
     0
 62
     7
420
 16777215
176
     0
 90
        1
176
     0
 90
        4
176
     0
 62
     7
176
     0
 62
   257
176
     0
 90
        1
176
     0
 90
        1
176
     0
 40
1.0
176
     0
 90
       10
176
     2
 62
     7
176
     0
 40
1.0
176
     0
 90
        1
176
     0
 90
        6
176
     0
 90
        2
176
     0
 62
     7
176
     0
 90
        5
176
     0
 90
        0
176
     0
 90
        0
176
     0
290
     0
176
     0
 90
        1
176
     0
 40
0.0
176
     0
 90
        0
176
     0
290
     0
176
     0
290
     1
176
     0
290
     1
176
     0
290
     0
176
     0
290
     0
176
     0
290
     0
176
     0
290
     0
176
     0
290
     0
176
     0
290
     0
176
     0
 90
       50
176
     0
 40
0.0
176
     0
 40
1.0
176
     0
 90
        0
176
     0
 62
    18
420
        0
176
     0
 90
       50
176
     0
 90
        3
176
     0
 62
     5
420
      255
176
     0
290
     0
176
     0
 90
       50
176
     0
 90
       50
176
     0
 90
       50
176
     0
290
     0
176
     0
 90
       50
176
     0
 62
   256
176
     0
 40
1.0
176
     0
 90
        2
176
     0
  1
strokes_ogs.tif
176
     0
290
     0
176
     0
 40
1.0
176
     0
 40
1.0
176
     0
  0
VISUALSTYLE
  5
38
102
{ACAD_REACTORS
330
2A
102
}
330
2A
100
AcDbVisualStyle
  2
Linepattern
 70
    14
177
     3
291
     1
 70
    58
 90
        2
176
     1
 90
        2
176
     1
 90
        0
176
     1
 90
        0
176
     1
 40
0.6
176
     1
 40
30.0
176
     1
 62
     7
420
 16777215
176
     1
 90
        1
176
     1
 90
        4
176
     1
 62
     7
176
     1
 62
   257
176
     1
 90
        7
176
     1
 90
        7
176
     1
 40
1.0
176
     1
 90
        8
176
     1
 62
     7
176
     1
 40
1.0
176
     1
 90
        1
176
     1
 90
        6
176
     1
 90
        2
176
     1
 62
     7
176
     1
 90
        5
176
     1
 90
        0
176
     1
 90
        0
176
     1
290
     0
176
     1
 90
        1
176
     1
 40
0.0
176
     1
 90
        0
176
     1
290
     0
176
     1
290
     1
176
     1
290
     1
176
     1
290
     0
176
     1
290
     0
176
     1
290
     0
176
     1
290
     0
176
     1
290
     0
176
     1
290
     0
176
     1
 90
       50
176
     1
 40
0.0
176
     1
 40
1.0
176
     1
 90
        0
176
     1
 62
    18
420
        0
176
     1
 90
       50
176
     1
 90
        3
176
     1
 62
     5
420
      255
176
     1
290
     0
176
     1
 90
       50
176
     1
 90
       50
176
     1
 90
       50
176
     1
290
     0
176
     1
 90
       50
176
     1
 62
   256
176
     0
 40
1.0
176
     0
 90
        2
176
     1
  1
strokes_ogs.tif
176
     1
290
     0
176
     1
 40
1.0
176
     1
 40
1.0
176
     1
  0
VISUALSTYLE
  5
3C
102
{ACAD_REACTORS
330
2A
102
}
330
2A
100
AcDbVisualStyle
  2
OverhangOff
 70
    21
177
     3
291
     1
 70
    58
 90
        2
176
     0
 90
        2
176
     0
 90
        0
176
     0
 90
        0
176
     0
 40
0.6
176
     0
 40
30.0
176
     0
 62
     7
420
 16777215
176
     0
 90
        1
176
     0
 90
        4
176
     0
 62
     7
176
     0
 62
   257
176
     0
 90
        1
176
     0
 90
        1
176
     0
 40
1.0
176
     0
 90
        9
176
     2
 62
     7
176
     0
 40
1.0
176
     0
 90
        1
176
     0
 90
        6
176
     0
 90
        2
176
     0
 62
     7
176
     0
 90
        5
176
     0
 90
        0
176
     0
 90
        0
176
     0
290
     0
176
     0
 90
        1
176
     0
 40
0.0
176
     0
 90
        0
176
     0
290
     0
176
     0
290
     1
176
     0
290
     1
176
     0
290
     0
176
     0
290
     0
176
     0
290
     0
176
     0
290
     0
176
     0
290
     0
176
     0
290
     0
176
     0
 90
       50
176
     0
 40
0.0
176
     0
 40
1.0
176
     0
 90
        0
176
     0
 62
    18
420
        0
176
     0
 90
       50
176
     0
 90
        3
176
     0
 62
     5
420
      255
176
     0
290
     0
176
     0
 90
       50
176
     0
 90
       50
176
     0
 90
       50
176
     0
290
     0
176
     0
 90
       50
176
     0
 62
   256
176
     0
 40
1.0
176
     0
 90
        2
176
     0
  1
strokes_ogs.tif
176
     0
290
     0
176
     0
 40
1.0
176
     0
 40
1.0
176
     0
  0
VISUALSTYLE
  5
33
102
{ACAD_REACTORS
330
2A
102
}
330
2A
100
AcDbVisualStyle
  2
Realistic
 70
     8
177
     3
291
     0
 70
    58
 90
        2
176
     1
 90
        3
176
     1
 90
        0
176
     1
 90
        2
176
     1
 40
0.6
176
     1
 40
30.0
176
     1
 62
     7
420
 16777215
176
     1
 90
        0
176
     1
 90
        0
176
     1
 62
     7
176
     1
 62
   257
176
     1
 90
        1
176
     1
 90
        1
176
     1
 40
1.0
176
     1
 90
        8
176
     1
 62
   257
176
     1
 40
1.0
176
     1
 90
        1
176
     1
 90
        6
176
     1
 90
        2
176
     1
 62
     7
176
     1
 90
        3
176
     1
 90
        0
176
     1
 90
        0
176
     1
290
     0
176
     1
 90
       13
176
     1
 40
0.0
176
     1
 90
        0
176
     1
290
     0
176
     1
290
     1
176
     1
290
     1
176
     1
290
     0
176
     1
290
     0
176
     1
290
     0
176
     1
290
     0
176
     1
290
     0
176
     1
290
     0
176
     1
 90
       50
176
     1
 40
0.0
176
     1
 40
1.0
176
     1
 90
        0
176
     1
 62
    18
420
        0
176
     1
 90
       50
176
     1
 90
        3
176
     1
 62
     5
420
      255
176
     1
290
     0
176
     1
 90
       50
176
     1
 90
       50
176
     1
 90
       50
176
     1
290
     0
176
     1
 90
       50
176
     1
 62
   256
176
     0
 40
1.0
176
     0
 90
        2
176
     1
  1
strokes_ogs.tif
176
     1
290
     0
176
     1
 40
1.0
176
     1
 40
1.0
176
     1
  0
VISUALSTYLE
  5
42
102
{ACAD_REACTORS
330
2A
102
}
330
2A
100
AcDbVisualStyle
  2
Shaded
 70
    27
177
     3
291
     0
 70
    58
 90
        2
176
     1
 90
        2
176
     1
 90
        1
176
     1
 90
        2
176
     1
 40
0.6
176
     1
 40
30.0
176
     1
 62
     7
420
 16777215
176
     1
 90
        0
176
     1
 90
        4
176
     1
 62
     7
176
     1
 62
   257
176
     1
 90
        1
176
     1
 90
        1
176
     1
 40
1.0
176
     1
 90
        8
176
     1
 62
   257
176
     1
 40
1.0
176
     1
 90
        1
176
     1
 90
        6
176
     1
 90
        2
176
     1
 62
     8
420
  7895160
176
     1
 90
        3
176
     1
 90
        0
176
     1
 90
        0
176
     1
290
     0
176
     1
 90
        5
176
     1
 40
0.0
176
     1
 90
        0
176
     1
290
     0
176
     1
290
     1
176
     1
290
     1
176
     1
290
     0
176
     1
290
     0
176
     1
290
     0
176
     1
290
     0
176
     1
290
     0
176
     1
290
     0
176
     1
 90
       50
176
     1
 40
0.0
176
     1
 40
1.0
176
     1
 90
        0
176
     1
 62
    18
420
        0
176
     1
 90
       50
176
     1
 90
        3
176
     1
 62
     5
420
      255
176
     1
290
     0
176
     1
 90
       50
176
     1
 90
       50
176
     1
 90
       50
176
     1
290
     0
176
     1
 90
       50
176
     1
 62
   256
176
     0
 40
1.0
176
     0
 90
        2
176
     1
  1
strokes_ogs.tif
176
     1
290
     0
176
     1
 40
1.0
176
     1
 40
1.0
176
     1
  0
VISUALSTYLE
  5
41
102
{ACAD_REACTORS
330
2A
102
}
330
2A
100
AcDbVisualStyle
  2
Shaded with edges
 70
    26
177
     3
291
     0
 70
    58
 90
        2
176
     1
 90
        2
176
     1
 90
        1
176
     1
 90
        2
176
     1
 40
0.6
176
     1
 40
30.0
176
     1
 62
     7
420
 16777215
176
     1
 90
        1
176
     1
 90
       10
176
     1
 62
     7
176
     1
 62
   257
176
     1
 90
        2
176
     1
 90
        1
176
     1
 40
1.0
176
     1
 90
        8
176
     1
 62
   257
176
     1
 40
1.0
176
     1
 90
        1
176
     1
 90
        6
176
     1
 90
        2
176
     1
 62
     7
176
     1
 90
        3
176
     1
 90
        0
176
     1
 90
        0
176
     1
290
     0
176
     1
 90
        5
176
     1
 40
0.0
176
     1
 90
        0
176
     1
290
     0
176
     1
290
     1
176
     1
290
     1
176
     1
290
     0
176
     1
290
     0
176
     1
290
     0
176
     1
290
     0
176
     1
290
     0
176
     1
290
     0
176
     1
 90
       50
176
     1
 40
0.0
176
     1
 40
1.0
176
     1
 90
        0
176
     1
 62
    18
420
        0
176
     1
 90
       50
176
     1
 90
        3
176
     1
 62
     5
420
      255
176
     1
290
     0
176
     1
 90
       50
176
     1
 90
       50
176
     1
 90
       50
176
     1
290
     0
176
     1
 90
       50
176
     1
 62
   256
176
     0
 40
1.0
176
     0
 90
        2
176
     1
  1
strokes_ogs.tif
176
     1
290
     0
176
     1
 40
1.0
176
     1
 40
1.0
176
     1
  0
VISUALSTYLE
  5
3E
102
{ACAD_REACTORS
330
2A
102
}
330
2A
100
AcDbVisualStyle
  2
Shades of Gray
 70
    23
177
     3
291
     0
 70
    58
 90
        2
176
     1
 90
        2
176
     1
 90
        3
176
     1
 90
        0
176
     1
 40
0.6
176
     1
 40
30.0
176
     1
 62
     7
420
 16777215
176
     1
 90
        2
176
     1
 90
        2
176
     1
 62
     7
176
     1
 62
     7
176
     1
 90
        1
176
     1
 90
        1
176
     1
 40
40.0
176
     1
 90
        8
176
     1
 62
     7
176
     1
 40
1.0
176
     1
 90
        1
176
     1
 90
        6
176
     1
 90
        2
176
     1
 62
     7
176
     1
 90
        3
176
     1
 90
        0
176
     1
 90
        0
176
     1
290
     0
176
     1
 90
        1
176
     1
 40
0.0
176
     1
 90
        0
176
     1
290
     0
176
     1
290
     1
176
     1
290
     1
176
     1
290
     0
176
     1
290
     0
176
     1
290
     0
176
     1
290
     0
176
     1
290
     0
176
     1
290
     0
176
     1
 90
       50
176
     1
 40
0.0
176
     1
 40
1.0
176
     1
 90
        0
176
     1
 62
    18
420
        0
176
     1
 90
       50
176
     1
 90
        3
176
     1
 62
     5
420
      255
176
     1
290
     0
176
     1
 90
       50
176
     1
 90
       50
176
     1
 90
       50
176
     1
290
     0
176
     1
 90
       50
176
     1
 62
   256
176
     0
 40
1.0
176
     0
 90
        2
176
     1
  1
strokes_ogs.tif
176
     1
290
     0
176
     1
 40
1.0
176
     1
 40
1.0
176
     1
  0
VISUALSTYLE
  5
3F
102
{ACAD_REACTORS
330
2A
102
}
330
2A
100
AcDbVisualStyle
  2
Sketchy
 70
    24
177
     3
291
     0
 70
    58
 90
        1
176
     1
 90
        2
176
     1
 90
        2
176
     1
 90
        0
176
     1
 40
0.6
176
     1
 40
30.0
176
     1
 62
     7
420
 16777215
176
     1
 90
        2
176
     1
 90
        2
176
     1
 62
     7
176
     1
 62
     7
176
     1
 90
        1
176
     1
 90
        1
176
     1
 40
40.0
176
     1
 90
       11
176
     1
 62
     7
176
     1
 40
1.0
176
     1
 90
        1
176
     1
 90
        6
176
     1
 90
        2
176
     1
 62
     7
176
     1
 90
        6
176
     1
 90
        0
176
     1
 90
        0
176
     1
290
     0
176
     1
 90
        1
176
     1
 40
0.0
176
     1
 90
        0
176
     1
290
     0
176
     1
290
     1
176
     1
290
     1
176
     1
290
     0
176
     1
290
     0
176
     1
290
     0
176
     1
290
     0
176
     1
290
     0
176
     1
290
     0
176
     1
 90
       50
176
     1
 40
0.0
176
     1
 40
1.0
176
     1
 90
        0
176
     1
 62
    18
420
        0
176
     1
 90
       50
176
     1
 90
        3
176
     1
 62
     5
420
      255
176
     1
290
     0
176
     1
 90
       50
176
     1
 90
       50
176
     1
 90
       50
176
     1
290
     0
176
     1
 90
       50
176
     1
 62
   256
176
     0
 40
1.0
176
     0
 90
        2
176
     1
  1
strokes_ogs.tif
176
     1
290
     0
176
     1
 40
1.0
176
     1
 40
1.0
176
     1
  0
VISUALSTYLE
  5
37
102
{ACAD_REACTORS
330
2A
102
}
330
2A
100
AcDbVisualStyle
  2
Thicken
 70
    13
177
     3
291
     1
 70
    58
 90
        2
176
     1
 90
        2
176
     1
 90
        0
176
     1
 90
        0
176
     1
 40
0.6
176
     1
 40
30.0
176
     1
 62
     7
420
 16777215
176
     1
 90
        1
176
     1
 90
        4
176
     1
 62
     7
176
     1
 62
   257
176
     1
 90
        1
176
     1
 90
        1
176
     1
 40
1.0
176
     1
 90
       12
176
     1
 62
     7
176
     1
 40
1.0
176
     1
 90
        1
176
     1
 90
        6
176
     1
 90
        2
176
     1
 62
     7
176
     1
 90
        5
176
     1
 90
        0
176
     1
 90
        0
176
     1
290
     0
176
     1
 90
        1
176
     1
 40
0.0
176
     1
 90
        0
176
     1
290
     0
176
     1
290
     1
176
     1
290
     1
176
     1
290
     0
176
     1
290
     0
176
     1
290
     0
176
     1
290
     0
176
     1
290
     0
176
     1
290
     0
176
     1
 90
       50
176
     1
 40
0.0
176
     1
 40
1.0
176
     1
 90
        0
176
     1
 62
    18
420
        0
176
     1
 90
       50
176
     1
 90
        3
176
     1
 62
     5
420
      255
176
     1
290
     0
176
     1
 90
       50
176
     1
 90
       50
176
     1
 90
       50
176
     1
290
     0
176
     1
 90
       50
176
     1
 62
   256
176
     0
 40
1.0
176
     0
 90
        2
176
     1
  1
strokes_ogs.tif
176
     1
290
     0
176
     1
 40
1.0
176
     1
 40
1.0
176
     1
  0
VISUALSTYLE
  5
30
102
{ACAD_REACTORS
330
2A
102
}
330
2A
100
AcDbVisualStyle
  2
Wireframe
 70
     5
177
     3
291
     0
 70
    58
 90
        0
176
     1
 90
        2
176
     1
 90
        0
176
     1
 90
        0
176
     1
 40
0.6
176
     1
 40
30.0
176
     1
 62
     7
420
 16777215
176
     1
 90
        1
176
     1
 90
        4
176
     1
 62
     7
176
     1
 62
   257
176
     1
 90
        1
176
     1
 90
        1
176
     1
 40
1.0
176
     1
 90
        0
176
     1
 62
   257
176
     1
 40
1.0
176
     1
 90
        1
176
     1
 90
        6
176
     1
 90
        2
176
     1
 62
     7
176
     1
 90
        3
176
     1
 90
        0
176
     1
 90
        0
176
     1
290
     0
176
     1
 90
        1
176
     1
 40
0.0
176
     1
 90
        0
176
     1
290
     0
176
     1
290
     1
176
     1
290
     1
176
     1
290
     0
176
     1
290
     0
176
     1
290
     0
176
     1
290
     0
176
     1
290
     0
176
     1
290
     0
176
     1
 90
       50
176
     1
 40
0.0
176
     1
 40
1.0
176
     1
 90
        0
176
     1
 62
    18
420
        0
176
     1
 90
       50
176
     1
 90
        3
176
     1
 62
     5
420
      255
176
     1
290
     0
176
     1
 90
       50
176
     1
 90
       50
176
     1
 90
       50
176
     1
290
     0
176
     1
 90
       50
176
     1
 62
   256
176
     0
 40
1.0
176
     0
 90
        2
176
     1
  1
strokes_ogs.tif
176
     1
290
     0
176
     1
 40
1.0
176
     1
 40
1.0
176
     1
  0
VISUALSTYLE
  5
40
102
{ACAD_REACTORS
330
2A
102
}
330
2A
100
AcDbVisualStyle
  2
X-Ray
 70
    25
177
     3
291
     0
 70
    58
 90
        2
176
     1
 90
        2
176
     1
 90
        1
176
     1
 90
        1
176
     1
 40
0.5
176
     1
 40
30.0
176
     1
 62
     7
420
 16777215
176
     1
 90
        1
176
     1
 90
        0
176
     1
 62
     7
176
     1
 62
   257
176
     1
 90
        1
176
     1
 90
        1
176
     1
 40
1.0
176
     1
 90
        8
176
     1
 62
     7
176
     1
 40
1.0
176
     1
 90
        1
176
     1
 90
        6
176
     1
 90
        2
176
     1
 62
     7
176
     1
 90
        3
176
     1
 90
        0
176
     1
 90
        0
176
     1
290
     0
176
     1
 90
       13
176
     1
 40
0.0
176
     1
 90
        0
176
     1
290
     0
176
     1
290
     1
176
     1
290
     1
176
     1
290
     0
176
     1
290
     0
176
     1
290
     0
176
     1
290
     0
176
     1
290
     0
176
     1
290
     0
176
     1
 90
       50
176
     1
 40
0.0
176
     1
 40
1.0
176
     1
 90
        0
176
     1
 62
    18
420
        0
176
     1
 90
       50
176
     1
 90
        3
176
     1
 62
     5
420
      255
176
     1
290
     0
176
     1
 90
       50
176
     1
 90
       50
176
     1
 90
       50
176
     1
290
     0
176
     1
 90
       50
176
     1
 62
   256
176
     0
 40
1.0
176
     0
 90
        2
176
     1
  1
strokes_ogs.tif
176
     1
290
     0
176
     1
 40
1.0
176
     1
 40
1.0
176
     1
  0
DICTIONARYVAR
  5
247
102
{ACAD_REACTORS
330
246
102
}
330
246
100
DictionaryVariables
280
     0
  1
1:1
  0
DICTIONARYVAR
  5
24C
102
{ACAD_REACTORS
330
246
102
}
330
246
100
DictionaryVariables
280
     0
  1
Standard
  0
DICTIONARYVAR
  5
24B
102
{ACAD_REACTORS
330
246
102
}
330
246
100
DictionaryVariables
280
     0
  1
Standard
  0
DICTIONARY
  5
248
330
6A
100
AcDbDictionary
280
     1
281
     1
  3
ACAD_ROUNDTRIP_2008_TABLESTYLE_CELLSTYLEMAP
360
249
  0
CELLSTYLEMAP
  5
249
102
{ACAD_REACTORS
330
248
102
}
330
248
100
AcDbCellStyleMap
 90
        3
300
CELLSTYLE
  1
TABLEFORMAT_BEGIN
 90
        5
170
     1
 91
        0
 92
    32768
 62
   257
 93
        1
300
CONTENTFORMAT
  1
CONTENTFORMAT_BEGIN
 90
        0
 91
        0
 92
        4
 93
        0
300

 40
0.0
140
1.0
 94
        5
 62
     0
340
11
144
0.25
309
CONTENTFORMAT_END
171
     1
301
MARGIN
  1
CELLMARGIN_BEGIN
 40
0.06
 40
0.06
 40
0.06
 40
0.06
 40
0.06
 40
0.06
309
CELLMARGIN_END
 94
        6
 95
        1
302
GRIDFORMAT
  1
GRIDFORMAT_BEGIN
 90
        0
 91
        1
 62
     0
 92
       -2
340
14
 93
        0
 40
0.045
309
GRIDFORMAT_END
 95
        2
302
GRIDFORMAT
  1
GRIDFORMAT_BEGIN
 90
        0
 91
        1
 62
     0
 92
       -2
340
14
 93
        0
 40
0.045
309
GRIDFORMAT_END
 95
        4
302
GRIDFORMAT
  1
GRIDFORMAT_BEGIN
 90
        0
 91
        1
 62
     0
 92
       -2
340
14
 93
        0
 40
0.045
309
GRIDFORMAT_END
 95
        8
302
GRIDFORMAT
  1
GRIDFORMAT_BEGIN
 90
        0
 91
        1
 62
     0
 92
       -2
340
14
 93
        0
 40
0.045
309
GRIDFORMAT_END
 95
       16
302
GRIDFORMAT
  1
GRIDFORMAT_BEGIN
 90
        0
 91
        1
 62
     0
 92
       -2
340
14
 93
        0
 40
0.045
309
GRIDFORMAT_END
 95
       32
302
GRIDFORMAT
  1
GRIDFORMAT_BEGIN
 90
        0
 91
        1
 62
     0
 92
       -2
340
14
 93
        0
 40
0.045
309
GRIDFORMAT_END
309
TABLEFORMAT_END
  1
CELLSTYLE_BEGIN
 90
        1
 91
        1
300
_TITLE
309
CELLSTYLE_END
300
CELLSTYLE
  1
TABLEFORMAT_BEGIN
 90
        5
170
     1
 91
        0
 92
        0
 62
   257
 93
        1
300
CONTENTFORMAT
  1
CONTENTFORMAT_BEGIN
 90
        0
 91
        0
 92
        4
 93
        0
300

 40
0.0
140
1.0
 94
        5
 62
     0
340
11
144
0.18
309
CONTENTFORMAT_END
171
     1
301
MARGIN
  1
CELLMARGIN_BEGIN
 40
0.06
 40
0.06
 40
0.06
 40
0.06
 40
0.06
 40
0.06
309
CELLMARGIN_END
 94
        6
 95
        1
302
GRIDFORMAT
  1
GRIDFORMAT_BEGIN
 90
        0
 91
        1
 62
     0
 92
       -2
340
14
 93
        0
 40
0.045
309
GRIDFORMAT_END
 95
        2
302
GRIDFORMAT
  1
GRIDFORMAT_BEGIN
 90
        0
 91
        1
 62
     0
 92
       -2
340
14
 93
        0
 40
0.045
309
GRIDFORMAT_END
 95
        4
302
GRIDFORMAT
  1
GRIDFORMAT_BEGIN
 90
        0
 91
        1
 62
     0
 92
       -2
340
14
 93
        0
 40
0.045
309
GRIDFORMAT_END
 95
        8
302
GRIDFORMAT
  1
GRIDFORMAT_BEGIN
 90
        0
 91
        1
 62
     0
 92
       -2
340
14
 93
        0
 40
0.045
309
GRIDFORMAT_END
 95
       16
302
GRIDFORMAT
  1
GRIDFORMAT_BEGIN
 90
        0
 91
        1
 62
     0
 92
       -2
340
14
 93
        0
 40
0.045
309
GRIDFORMAT_END
 95
       32
302
GRIDFORMAT
  1
GRIDFORMAT_BEGIN
 90
        0
 91
        1
 62
     0
 92
       -2
340
14
 93
        0
 40
0.045
309
GRIDFORMAT_END
309
TABLEFORMAT_END
  1
CELLSTYLE_BEGIN
 90
        2
 91
        1
300
_HEADER
309
CELLSTYLE_END
300
CELLSTYLE
  1
TABLEFORMAT_BEGIN
 90
        5
170
     1
 91
        0
 92
        0
 62
   257
 93
        1
300
CONTENTFORMAT
  1
CONTENTFORMAT_BEGIN
 90
        0
 91
        0
 92
        4
 93
        0
300

 40
0.0
140
1.0
 94
        2
 62
     0
340
11
144
0.18
309
CONTENTFORMAT_END
171
     1
301
MARGIN
  1
CELLMARGIN_BEGIN
 40
0.06
 40
0.06
 40
0.06
 40
0.06
 40
0.06
 40
0.06
309
CELLMARGIN_END
 94
        6
 95
        1
302
GRIDFORMAT
  1
GRIDFORMAT_BEGIN
 90
        0
 91
        1
 62
     0
 92
       -2
340
14
 93
        0
 40
0.045
309
GRIDFORMAT_END
 95
        2
302
GRIDFORMAT
  1
GRIDFORMAT_BEGIN
 90
        0
 91
        1
 62
     0
 92
       -2
340
14
 93
        0
 40
0.045
309
GRIDFORMAT_END
 95
        4
302
GRIDFORMAT
  1
GRIDFORMAT_BEGIN
 90
        0
 91
        1
 62
     0
 92
       -2
340
14
 93
        0
 40
0.045
309
GRIDFORMAT_END
 95
        8
302
GRIDFORMAT
  1
GRIDFORMAT_BEGIN
 90
        0
 91
        1
 62
     0
 92
       -2
340
14
 93
        0
 40
0.045
309
GRIDFORMAT_END
 95
       16
302
GRIDFORMAT
  1
GRIDFORMAT_BEGIN
 90
        0
 91
        1
 62
     0
 92
       -2
340
14
 93
        0
 40
0.045
309
GRIDFORMAT_END
 95
       32
302
GRIDFORMAT
  1
GRIDFORMAT_BEGIN
 90
        0
 91
        1
 62
     0
 92
       -2
340
14
 93
        0
 40
0.045
309
GRIDFORMAT_END
309
TABLEFORMAT_END
  1
CELLSTYLE_BEGIN
 90
        3
 91
        2
300
_DATA
309
CELLSTYLE_END
  0
ENDSEC
  0
EOF