0
SECTION
  2
HEADER
  9
$ACADVER
  1
AC1027
  9
$ACADMAINTVER
 70
     8
  9
$DWGCODEPAGE
  3
ANSI_1252
  9
$REQUIREDVERSIONS
160
                 0
  9
$COMMENTS
  1
File was created by Cadenas
  9
$CUSTOMPROPERTYTAG
  1
NN
  9
$CUSTOMPROPERTY
  1
Type E-Xtra TP Take-Up Bearing Inch Bore
  9
$CUSTOMPROPERTYTAG
  1
NT
  9
$CUSTOMPROPERTY
  1
Type E-xtra TP Take-Up Bearing -(Contact Seal) -Inch
  9
$CUSTOMPROPERTYTAG
  1
NB
  9
$CUSTOMPROPERTY
  1
023164
  9
$CUSTOMPROPERTYTAG
  1
NBSYN
  9
$CUSTOMPROPERTY
  1
$PN.
  9
$CUSTOMPROPERTYTAG
  1
LINA
  9
$CUSTOMPROPERTY
  1
023164
  9
$CUSTOMPROPERTYTAG
  1
SS
  9
$CUSTOMPROPERTY
  1
3-1/2
  9
$CUSTOMPROPERTYTAG
  1
PN
  9
$CUSTOMPROPERTY
  1
023164
  9
$CUSTOMPROPERTYTAG
  1
DESCRIPTION
  9
$CUSTOMPROPERTY
  1
TP-E-308R
  9
$CUSTOMPROPERTYTAG
  1
A
  9
$CUSTOMPROPERTY
  1
5
  9
$CUSTOMPROPERTYTAG
  1
B
  9
$CUSTOMPROPERTY
  1
8-5/16
  9
$CUSTOMPROPERTYTAG
  1
C
  9
$CUSTOMPROPERTY
  1
9-5/8
  9
$CUSTOMPROPERTYTAG
  1
D
  9
$CUSTOMPROPERTY
  1
4-1/2
  9
$CUSTOMPROPERTYTAG
  1
E
  9
$CUSTOMPROPERTY
  1
4
  9
$CUSTOMPROPERTYTAG
  1
F
  9
$CUSTOMPROPERTY
  1
3-5/32
  9
$CUSTOMPROPERTYTAG
  1
G
  9
$CUSTOMPROPERTY
  1
11/16
  9
$CUSTOMPROPERTYTAG
  1
H
  9
$CUSTOMPROPERTY
  1
13/16
  9
$CUSTOMPROPERTYTAG
  1
J
  9
$CUSTOMPROPERTY
  1
3-3/4
  9
$CUSTOMPROPERTYTAG
  1
L
  9
$CUSTOMPROPERTY
  1
5-7/16
  9
$CUSTOMPROPERTYTAG
  1
N
  9
$CUSTOMPROPERTY
  1
2-1/2
  9
$CUSTOMPROPERTYTAG
  1
U
  9
$CUSTOMPROPERTY
  1
2-1/4
  9
$CUSTOMPROPERTYTAG
  1
V
  9
$CUSTOMPROPERTY
  1
1-5/16
  9
$CUSTOMPROPERTYTAG
  1
W
  9
$CUSTOMPROPERTY
  1
2-1/8
  9
$CUSTOMPROPERTYTAG
  1
X
  9
$CUSTOMPROPERTY
  1
9-1/2
  9
$CUSTOMPROPERTYTAG
  1
Y
  9
$CUSTOMPROPERTY
  1
9
  9
$CUSTOMPROPERTYTAG
  1
COMPANY
  9
$CUSTOMPROPERTY
  1
baldor
  9
$INSBASE
 10
0.0
 20
0.0
 30
0.0
  9
$EXTMIN
 10
1.000000000000000E+20
 20
1.000000000000000E+20
 30
1.000000000000000E+20
  9
$EXTMAX
 10
-1.000000000000000E+20
 20
-1.000000000000000E+20
 30
-1.000000000000000E+20
  9
$LIMMIN
 10
0.0
 20
0.0
  9
$LIMMAX
 10
12.0
 20
9.0
  9
$ORTHOMODE
 70
     0
  9
$REGENMODE
 70
     1
  9
$FILLMODE
 70
     1
  9
$QTEXTMODE
 70
     0
  9
$MIRRTEXT
 70
     1
  9
$LTSCALE
 40
1.0
  9
$ATTMODE
 70
     1
  9
$TEXTSIZE
 40
0.2
  9
$TRACEWID
 40
0.05
  9
$TEXTSTYLE
  7
Standard
  9
$CLAYER
  8
0
  9
$CELTYPE
  6
ByLayer
  9
$CECOLOR
 62
   256
  9
$CELTSCALE
 40
1.0
  9
$DISPSILH
 70
     0
  9
$DIMSCALE
 40
1.0
  9
$DIMASZ
 40
0.18
  9
$DIMEXO
 40
0.0625
  9
$DIMDLI
 40
0.38
  9
$DIMRND
 40
0.0
  9
$DIMDLE
 40
0.0
  9
$DIMEXE
 40
0.18
  9
$DIMTP
 40
0.0
  9
$DIMTM
 40
0.0
  9
$DIMTXT
 40
0.18
  9
$DIMCEN
 40
0.09
  9
$DIMTSZ
 40
0.0
  9
$DIMTOL
 70
     0
  9
$DIMLIM
 70
     0
  9
$DIMTIH
 70
     1
  9
$DIMTOH
 70
     1
  9
$DIMSE1
 70
     0
  9
$DIMSE2
 70
     0
  9
$DIMTAD
 70
     0
  9
$DIMZIN
 70
     0
  9
$DIMBLK
  1

  9
$DIMASO
 70
     1
  9
$DIMSHO
 70
     1
  9
$DIMPOST
  1

  9
$DIMAPOST
  1

  9
$DIMALT
 70
     0
  9
$DIMALTD
 70
     2
  9
$DIMALTF
 40
25.4
  9
$DIMLFAC
 40
1.0
  9
$DIMTOFL
 70
     0
  9
$DIMTVP
 40
0.0
  9
$DIMTIX
 70
     0
  9
$DIMSOXD
 70
     0
  9
$DIMSAH
 70
     0
  9
$DIMBLK1
  1

  9
$DIMBLK2
  1

  9
$DIMSTYLE
  2
Standard
  9
$DIMCLRD
 70
     0
  9
$DIMCLRE
 70
     0
  9
$DIMCLRT
 70
     0
  9
$DIMTFAC
 40
1.0
  9
$DIMGAP
 40
0.09
  9
$DIMJUST
 70
     0
  9
$DIMSD1
 70
     0
  9
$DIMSD2
 70
     0
  9
$DIMTOLJ
 70
     1
  9
$DIMTZIN
 70
     0
  9
$DIMALTZ
 70
     0
  9
$DIMALTTZ
 70
     0
  9
$DIMUPT
 70
     0
  9
$DIMDEC
 70
     4
  9
$DIMTDEC
 70
     4
  9
$DIMALTU
 70
     2
  9
$DIMALTTD
 70
     2
  9
$DIMTXSTY
  7
Standard
  9
$DIMAUNIT
 70
     0
  9
$DIMADEC
 70
     0
  9
$DIMALTRND
 40
0.0
  9
$DIMAZIN
 70
     0
  9
$DIMDSEP
 70
    46
  9
$DIMATFIT
 70
     3
  9
$DIMFRAC
 70
     0
  9
$DIMLDRBLK
  1

  9
$DIMLUNIT
 70
     2
  9
$DIMLWD
 70
    -2
  9
$DIMLWE
 70
    -2
  9
$DIMTMOVE
 70
     0
  9
$DIMFXL
 40
1.0
  9
$DIMFXLON
 70
     0
  9
$DIMJOGANG
 40
0.7853981633974483
  9
$DIMTFILL
 70
     0
  9
$DIMTFILLCLR
 70
     0
  9
$DIMARCSYM
 70
     0
  9
$DIMLTYPE
  6

  9
$DIMLTEX1
  6

  9
$DIMLTEX2
  6

  9
$DIMTXTDIRECTION
 70
     0
  9
$LUNITS
 70
     2
  9
$LUPREC
 70
     4
  9
$SKETCHINC
 40
0.1
  9
$FILLETRAD
 40
0.5
  9
$AUNITS
 70
     0
  9
$AUPREC
 70
     0
  9
$MENU
  1
.
  9
$ELEVATION
 40
0.0
  9
$PELEVATION
 40
0.0
  9
$THICKNESS
 40
0.0
  9
$LIMCHECK
 70
     0
  9
$CHAMFERA
 40
0.0
  9
$CHAMFERB
 40
0.0
  9
$CHAMFERC
 40
0.0
  9
$CHAMFERD
 40
0.0
  9
$SKPOLY
 70
     0
  9
$TDCREATE
 40
2458168.979418993
  9
$TDUCREATE
 40
2458168.937752326
  9
$TDUPDATE
 40
2458168.979419178
  9
$TDUUPDATE
 40
2458168.937752511
  9
$TDINDWG
 40
0.0000000116
  9
$TDUSRTIMER
 40
0.0000000116
  9
$USRTIMER
 70
     1
  9
$ANGBASE
 50
0.0
  9
$ANGDIR
 70
     0
  9
$PDMODE
 70
     0
  9
$PDSIZE
 40
0.0
  9
$PLINEWID
 40
0.0
  9
$SPLFRAME
 70
     0
  9
$SPLINETYPE
 70
     6
  9
$SPLINESEGS
 70
     8
  9
$HANDSEED
  5
25B
  9
$SURFTAB1
 70
     6
  9
$SURFTAB2
 70
     6
  9
$SURFTYPE
 70
     6
  9
$SURFU
 70
     6
  9
$SURFV
 70
     6
  9
$UCSBASE
  2

  9
$UCSNAME
  2

  9
$UCSORG
 10
0.0
 20
0.0
 30
0.0
  9
$UCSXDIR
 10
1.0
 20
0.0
 30
0.0
  9
$UCSYDIR
 10
0.0
 20
1.0
 30
0.0
  9
$UCSORTHOREF
  2

  9
$UCSORTHOVIEW
 70
     0
  9
$UCSORGTOP
 10
0.0
 20
0.0
 30
0.0
  9
$UCSORGBOTTOM
 10
0.0
 20
0.0
 30
0.0
  9
$UCSORGLEFT
 10
0.0
 20
0.0
 30
0.0
  9
$UCSORGRIGHT
 10
0.0
 20
0.0
 30
0.0
  9
$UCSORGFRONT
 10
0.0
 20
0.0
 30
0.0
  9
$UCSORGBACK
 10
0.0
 20
0.0
 30
0.0
  9
$PUCSBASE
  2

  9
$PUCSNAME
  2

  9
$PUCSORG
 10
0.0
 20
0.0
 30
0.0
  9
$PUCSXDIR
 10
1.0
 20
0.0
 30
0.0
  9
$PUCSYDIR
 10
0.0
 20
1.0
 30
0.0
  9
$PUCSORTHOREF
  2

  9
$PUCSORTHOVIEW
 70
     0
  9
$PUCSORGTOP
 10
0.0
 20
0.0
 30
0.0
  9
$PUCSORGBOTTOM
 10
0.0
 20
0.0
 30
0.0
  9
$PUCSORGLEFT
 10
0.0
 20
0.0
 30
0.0
  9
$PUCSORGRIGHT
 10
0.0
 20
0.0
 30
0.0
  9
$PUCSORGFRONT
 10
0.0
 20
0.0
 30
0.0
  9
$PUCSORGBACK
 10
0.0
 20
0.0
 30
0.0
  9
$USERI1
 70
     0
  9
$USERI2
 70
     0
  9
$USERI3
 70
     0
  9
$USERI4
 70
     0
  9
$USERI5
 70
     0
  9
$USERR1
 40
0.0
  9
$USERR2
 40
0.0
  9
$USERR3
 40
0.0
  9
$USERR4
 40
0.0
  9
$USERR5
 40
0.0
  9
$WORLDVIEW
 70
     1
  9
$SHADEDGE
 70
     3
  9
$SHADEDIF
 70
    70
  9
$TILEMODE
 70
     1
  9
$MAXACTVP
 70
    64
  9
$PINSBASE
 10
0.0
 20
0.0
 30
0.0
  9
$PLIMCHECK
 70
     0
  9
$PEXTMIN
 10
1.000000000000000E+20
 20
1.000000000000000E+20
 30
1.000000000000000E+20
  9
$PEXTMAX
 10
-1.000000000000000E+20
 20
-1.000000000000000E+20
 30
-1.000000000000000E+20
  9
$PLIMMIN
 10
0.0
 20
0.0
  9
$PLIMMAX
 10
12.0
 20
9.0
  9
$UNITMODE
 70
     0
  9
$VISRETAIN
 70
     1
  9
$PLINEGEN
 70
     0
  9
$PSLTSCALE
 70
     1
  9
$TREEDEPTH
 70
  3020
  9
$CMLSTYLE
  2
Standard
  9
$CMLJUST
 70
     0
  9
$CMLSCALE
 40
1.0
  9
$PROXYGRAPHICS
 70
     1
  9
$MEASUREMENT
 70
     0
  9
$CELWEIGHT
370
    -1
  9
$ENDCAPS
280
     0
  9
$JOINSTYLE
280
     0
  9
$LWDISPLAY
290
     0
  9
$INSUNITS
 70
     1
  9
$HYPERLINKBASE
  1

  9
$STYLESHEET
  1

  9
$XEDIT
290
     1
  9
$CEPSNTYPE
380
     0
  9
$PSTYLEMODE
290
     1
  9
$FINGERPRINTGUID
  2
{8A9B237A-9B64-470B-A87E-A43E0F0AAAC6}
  9
$VERSIONGUID
  2
{FAEB1C32-E019-11D5-929B-00C0DF256EC4}
  9
$EXTNAMES
290
     1
  9
$PSVPSCALE
 40
0.0
  9
$OLESTARTUP
290
     0
  9
$SORTENTS
280
   127
  9
$INDEXCTL
280
     0
  9
$HIDETEXT
280
     1
  9
$XCLIPFRAME
280
     2
  9
$HALOGAP
280
     0
  9
$OBSCOLOR
 70
   257
  9
$OBSLTYPE
280
     0
  9
$INTERSECTIONDISPLAY
280
     0
  9
$INTERSECTIONCOLOR
 70
   257
  9
$DIMASSOC
280
     2
  9
$PROJECTNAME
  1

  9
$CAMERADISPLAY
290
     0
  9
$LENSLENGTH
 40
50.0
  9
$CAMERAHEIGHT
 40
0.0
  9
$STEPSPERSEC
 40
2.0
  9
$STEPSIZE
 40
6.0
  9
$3DDWFPREC
 40
2.0
  9
$PSOLWIDTH
 40
0.25
  9
$PSOLHEIGHT
 40
4.0
  9
$LOFTANG1
 40
1.570796326794897
  9
$LOFTANG2
 40
1.570796326794897
  9
$LOFTMAG1
 40
0.0
  9
$LOFTMAG2
 40
0.0
  9
$LOFTPARAM
 70
     7
  9
$LOFTNORMALS
280
     1
  9
$LATITUDE
 40
37.795
  9
$LONGITUDE
 40
-122.394
  9
$NORTHDIRECTION
 40
0.0
  9
$TIMEZONE
 70
 -8000
  9
$LIGHTGLYPHDISPLAY
280
     1
  9
$TILEMODELIGHTSYNCH
280
     1
  9
$CMATERIAL
347
44
  9
$SOLIDHIST
280
     0
  9
$SHOWHIST
280
     1
  9
$DWFFRAME
280
     2
  9
$DGNFRAME
280
     2
  9
$REALWORLDSCALE
290
     1
  9
$INTERFERECOLOR
 62
   256
  9
$CSHADOW
280
     0
  9
$SHADOWPLANELOCATION
 40
0.0
  0
ENDSEC
  0
SECTION
  2
CLASSES
  0
CLASS
  1
ACDBDICTIONARYWDFLT
  2
AcDbDictionaryWithDefault
  3
ObjectDBX Classes
 90
        0
 91
        4
280
     0
281
     0
  0
CLASS
  1
VISUALSTYLE
  2
AcDbVisualStyle
  3
ObjectDBX Classes
 90
     4095
 91
        4
280
     0
281
     0
  0
CLASS
  1
MATERIAL
  2
AcDbMaterial
  3
ObjectDBX Classes
 90
     1153
 91
        4
280
     0
281
     0
  0
CLASS
  1
SCALE
  2
AcDbScale
  3
ObjectDBX Classes
 90
     1153
 91
        4
280
     0
281
     0
  0
CLASS
  1
TABLESTYLE
  2
AcDbTableStyle
  3
ObjectDBX Classes
 90
     4095
 91
        4
280
     0
281
     0
  0
CLASS
  1
MLEADERSTYLE
  2
AcDbMLeaderStyle
  3
ACDB_MLEADERSTYLE_CLASS
 90
     4095
 91
        4
280
     0
281
     0
  0
CLASS
  1
SUN
  2
AcDbSun
  3
SCENEOE
 90
     1153
 91
        4
280
     0
281
     0
  0
CLASS
  1
DICTIONARYVAR
  2
AcDbDictionaryVar
  3
ObjectDBX Classes
 90
        0
 91
        4
280
     0
281
     0
  0
CLASS
  1
CELLSTYLEMAP
  2
AcDbCellStyleMap
  3
ObjectDBX Classes
 90
     1152
 91
        4
280
     0
281
     0
  0
ENDSEC
  0
SECTION
  2
TABLES
  0
TABLE
  2
VPORT
  5
8
330
0
100
AcDbSymbolTable
 70
     1
  0
VPORT
  5
29
330
8
100
AcDbSymbolTableRecord
100
AcDbViewportTableRecord
  2
*Active
 70
     0
 10
0.0
 20
0.0
 11
1.0
 21
1.0
 12
0.0875000000000004
 22
0.0
 13
0.0
 23
0.0
 14
0.5
 24
0.5
 15
0.5
 25
0.5
 16
0.0
 26
0.0
 36
1.0
 17
0.0
 27
0.0
 37
0.0
 40
5.61
 41
1.759090909090909
 42
50.0
 43
0.0
 44
0.0
 50
0.0
 51
0.0
 71
     0
 72
   100
 73
     1
 74
     3
 75
     0
 76
     0
 77
     0
 78
     0
281
     0
 65
     1
110
0.0
120
0.0
130
0.0
111
1.0
121
0.0
131
0.0
112
0.0
122
1.0
132
0.0
 79
     0
146
0.0
348
2F
 60
     3
 61
     5
292
     1
282
     1
141
0.0
142
0.0
 63
   250
361
6D
  0
ENDTAB
  0
TABLE
  2
LTYPE
  5
5
330
0
100
AcDbSymbolTable
 70
     3
  0
LTYPE
  5
14
330
5
100
AcDbSymbolTableRecord
100
AcDbLinetypeTableRecord
  2
ByBlock
 70
     0
  3

 72
    65
 73
     0
 40
0.0
  0
LTYPE
  5
15
330
5
100
AcDbSymbolTableRecord
100
AcDbLinetypeTableRecord
  2
ByLayer
 70
     0
  3

 72
    65
 73
     0
 40
0.0
  0
LTYPE
  5
16
330
5
100
AcDbSymbolTableRecord
100
AcDbLinetypeTableRecord
  2
Continuous
 70
     0
  3
Solid line
 72
    65
 73
     0
 40
0.0
  0
LTYPE
  5
9D
330
5
100
AcDbSymbolTableRecord
100
AcDbLinetypeTableRecord
  2
Dashed
 70
     0
  3

 72
    65
 73
     2
 40
2.0
 49
1.0
 74
     0
 49
-1.0
 74
     0
  0
LTYPE
  5
BC
330
5
100
AcDbSymbolTableRecord
100
AcDbLinetypeTableRecord
  2
Center
 70
     0
  3

 72
    65
 73
     4
 40
1.5
 49
0.45
 74
     0
 49
-0.5
 74
     0
 49
0.05
 74
     0
 49
-0.5
 74
     0
  0
ENDTAB
  0
TABLE
  2
LAYER
  5
2
330
0
100
AcDbSymbolTable
 70
     7
  0
LAYER
  5
10
330
2
100
AcDbSymbolTableRecord
100
AcDbLayerTableRecord
  2
0
 70
     0
 62
     7
  6
Continuous
370
    -3
390
F
347
46
348
0
  0
LAYER
  5
72
330
2
100
AcDbSymbolTableRecord
100
AcDbLayerTableRecord
  2
AM_6
 70
     0
 62
    -2
  6
Continuous
370
    35
390
F
347
46
348
0
  0
LAYER
  5
9E
330
2
100
AcDbSymbolTableRecord
100
AcDbLayerTableRecord
  2
AM_9
 70
     0
 62
     6
  6
Dashed
370
    25
390
F
347
46
348
0
  0
LAYER
  5
B6
330
2
100
AcDbSymbolTableRecord
100
AcDbLayerTableRecord
  2
AM_5
 70
     0
 62
     3
  6
Continuous
370
    25
390
F
347
46
348
0
  0
LAYER
  5
BD
330
2
100
AcDbSymbolTableRecord
100
AcDbLayerTableRecord
  2
AM_7
 70
     0
 62
     7
  6
Center
370
    25
390
F
347
46
348
0
  0
LAYER
  5
BF
330
2
100
AcDbSymbolTableRecord
100
AcDbLayerTableRecord
  2
AM_4
 70
     0
 62
     7
  6
Continuous
370
    50
390
F
347
46
348
0
  0
LAYER
  5
24A
330
2
100
AcDbSymbolTableRecord
100
AcDbLayerTableRecord
  2
ConnectionPoints
 70
     0
 62
     7
  6
Continuous
370
    50
390
F
347
46
348
0
  0
ENDTAB
  0
TABLE
  2
STYLE
  5
3
330
0
100
AcDbSymbolTable
 70
     1
  0
STYLE
  5
11
330
3
100
AcDbSymbolTableRecord
100
AcDbTextStyleTableRecord
  2
Standard
 70
     0
 40
0.0
 41
1.0
 50
0.0
 71
     0
 42
0.2
  3
txt
  4

  0
ENDTAB
  0
TABLE
  2
VIEW
  5
6
330
0
100
AcDbSymbolTable
 70
     0
  0
ENDTAB
  0
TABLE
  2
UCS
  5
7
330
0
100
AcDbSymbolTable
 70
     0
  0
ENDTAB
  0
TABLE
  2
APPID
  5
9
330
0
100
AcDbSymbolTable
 70
     1
  0
APPID
  5
12
330
9
100
AcDbSymbolTableRecord
100
AcDbRegAppTableRecord
  2
ACAD
 70
     0
  0
ENDTAB
  0
TABLE
  2
DIMSTYLE
  5
A
330
0
100
AcDbSymbolTable
 70
     1
100
AcDbDimStyleTable
  0
DIMSTYLE
105
27
330
A
100
AcDbSymbolTableRecord
100
AcDbDimStyleTableRecord
  2
Standard
 70
     0
178
     0
340
11
  0
ENDTAB
  0
TABLE
  2
BLOCK_RECORD
  5
1
330
0
100
AcDbSymbolTable
 70
     7
  0
BLOCK_RECORD
  5
1F
330
1
100
AcDbSymbolTableRecord
100
AcDbBlockTableRecord
  2
*Model_Space
340
22
 70
     0
280
     1
281
     0
  0
BLOCK_RECORD
  5
1B
330
1
100
AcDbSymbolTableRecord
100
AcDbBlockTableRecord
  2
*Paper_Space
340
1E
 70
     0
280
     1
281
     0
  0
BLOCK_RECORD
  5
23
330
1
100
AcDbSymbolTableRecord
100
AcDbBlockTableRecord
  2
*Paper_Space0
340
26
 70
     0
280
     1
281
     0
  0
BLOCK_RECORD
  5
6E
330
1
100
AcDbSymbolTableRecord
100
AcDbBlockTableRecord
  2
1_023164_4
340
0
102
{BLKREFS
331
6F
102
}
 70
     0
280
     1
281
     0
  0
BLOCK_RECORD
  5
8C
330
1
100
AcDbSymbolTableRecord
100
AcDbBlockTableRecord
  2
2_405016_Inch_0_in_023164_4
340
0
102
{BLKREFS
331
8D
102
}
 70
     0
280
     1
281
     0
  0
BLOCK_RECORD
  5
DE
330
1
100
AcDbSymbolTableRecord
100
AcDbBlockTableRecord
  2
3_3_1_2C_1_0_in_023164_4
340
0
102
{BLKREFS
331
DF
102
}
 70
     0
280
     1
281
     0
  0
BLOCK_RECORD
  5
11B
330
1
100
AcDbSymbolTableRecord
100
AcDbBlockTableRecord
  2
4_3_1_2C_2_0_in_023164_4
340
0
102
{BLKREFS
331
11C
102
}
 70
     0
280
     1
281
     0
  0
BLOCK_RECORD
  5
158
330
1
100
AcDbSymbolTableRecord
100
AcDbBlockTableRecord
  2
5_3_1_2I_0_in_023164_4
340
0
102
{BLKREFS
331
159
102
}
 70
     0
280
     1
281
     0
  0
BLOCK_RECORD
  5
190
330
1
100
AcDbSymbolTableRecord
100
AcDbBlockTableRecord
  2
6_023164H_0_in_023164_4
340
0
102
{BLKREFS
331
191
102
}
 70
     0
280
     1
281
     0
  0
ENDTAB
  0
ENDSEC
  0
SECTION
  2
BLOCKS
  0
BLOCK
  5
20
330
1F
100
AcDbEntity
  8
0
100
AcDbBlockBegin
  2
*Model_Space
 70
     0
 10
0.0
 20
0.0
 30
0.0
  3
*Model_Space
  1

  0
ENDBLK
  5
21
330
1F
100
AcDbEntity
  8
0
100
AcDbBlockEnd
  0
BLOCK
  5
1C
330
1B
100
AcDbEntity
 67
     1
  8
0
100
AcDbBlockBegin
  2
*Paper_Space
 70
     0
 10
0.0
 20
0.0
 30
0.0
  3
*Paper_Space
  1

  0
ENDBLK
  5
1D
330
1B
100
AcDbEntity
 67
     1
  8
0
100
AcDbBlockEnd
  0
BLOCK
  5
24
330
23
100
AcDbEntity
  8
0
100
AcDbBlockBegin
  2
*Paper_Space0
 70
     0
 10
0.0
 20
0.0
 30
0.0
  3
*Paper_Space0
  1

  0
ENDBLK
  5
25
330
23
100
AcDbEntity
  8
0
100
AcDbBlockEnd
  0
BLOCK
  5
70
330
6E
100
AcDbEntity
  8
0
100
AcDbBlockBegin
  2
1_023164_4
 70
     2
 10
0.0
 20
0.0
 30
0.0
  3
1_023164_4
  1

  0
ATTDEF
  5
73
330
6E
100
AcDbEntity
  8
AM_6
100
AcDbText
 10
9.925
 20
2.75
 30
0.0
 40
0.5
  1
Type E-Xtra TP Take-Up Bearing Inch Bore
100
AcDbAttributeDefinition
  3

  2
NN
 70
     8
280
     0
  0
ATTDEF
  5
74
330
6E
100
AcDbEntity
  8
AM_6
100
AcDbText
 10
9.925
 20
2.25
 30
0.0
 40
0.5
  1
Type E-xtra TP Take-Up Bearing -(Contact Seal) -Inch
100
AcDbAttributeDefinition
  3

  2
NT
 70
     8
280
     0
  0
ATTDEF
  5
75
330
6E
100
AcDbEntity
  8
AM_6
100
AcDbText
 10
9.925
 20
1.75
 30
0.0
 40
0.5
  1
023164
100
AcDbAttributeDefinition
  3

  2
NB
 70
     8
280
     0
  0
ATTDEF
  5
76
330
6E
100
AcDbEntity
  8
AM_6
100
AcDbText
 10
9.925
 20
1.25
 30
0.0
 40
0.5
  1
$PN.
100
AcDbAttributeDefinition
  3

  2
NBSYN
 70
     8
280
     0
  0
ATTDEF
  5
77
330
6E
100
AcDbEntity
  8
AM_6
100
AcDbText
 10
9.925
 20
0.75
 30
0.0
 40
0.5
  1
023164
100
AcDbAttributeDefinition
  3

  2
LINA
 70
     8
280
     0
  0
ATTDEF
  5
78
330
6E
100
AcDbEntity
  8
AM_6
100
AcDbText
 10
9.925
 20
0.25
 30
0.0
 40
0.5
  1
3-1/2
100
AcDbAttributeDefinition
  3

  2
SS
 70
     8
280
     0
  0
ATTDEF
  5
79
330
6E
100
AcDbEntity
  8
AM_6
100
AcDbText
 10
9.925
 20
-0.25
 30
0.0
 40
0.5
  1
023164
100
AcDbAttributeDefinition
  3

  2
PN
 70
     8
280
     0
  0
ATTDEF
  5
7A
330
6E
100
AcDbEntity
  8
AM_6
100
AcDbText
 10
9.925
 20
-0.75
 30
0.0
 40
0.5
  1
TP-E-308R
100
AcDbAttributeDefinition
  3

  2
DESCRIPTION
 70
     8
280
     0
  0
ATTDEF
  5
7B
330
6E
100
AcDbEntity
  8
AM_6
100
AcDbText
 10
9.925
 20
-1.25
 30
0.0
 40
0.5
  1
5
100
AcDbAttributeDefinition
  3

  2
A
 70
     8
280
     0
  0
ATTDEF
  5
7C
330
6E
100
AcDbEntity
  8
AM_6
100
AcDbText
 10
9.925
 20
-1.75
 30
0.0
 40
0.5
  1
8-5/16
100
AcDbAttributeDefinition
  3

  2
B
 70
     8
280
     0
  0
ATTDEF
  5
7D
330
6E
100
AcDbEntity
  8
AM_6
100
AcDbText
 10
9.925
 20
-2.25
 30
0.0
 40
0.5
  1
9-5/8
100
AcDbAttributeDefinition
  3

  2
C
 70
     8
280
     0
  0
ATTDEF
  5
7E
330
6E
100
AcDbEntity
  8
AM_6
100
AcDbText
 10
9.925
 20
-2.75
 30
0.0
 40
0.5
  1
4-1/2
100
AcDbAttributeDefinition
  3

  2
D
 70
     8
280
     0
  0
ATTDEF
  5
7F
330
6E
100
AcDbEntity
  8
AM_6
100
AcDbText
 10
9.925
 20
-3.25
 30
0.0
 40
0.5
  1
4
100
AcDbAttributeDefinition
  3

  2
E
 70
     8
280
     0
  0
ATTDEF
  5
80
330
6E
100
AcDbEntity
  8
AM_6
100
AcDbText
 10
9.925
 20
-3.75
 30
0.0
 40
0.5
  1
3-5/32
100
AcDbAttributeDefinition
  3

  2
F
 70
     8
280
     0
  0
ATTDEF
  5
81
330
6E
100
AcDbEntity
  8
AM_6
100
AcDbText
 10
9.925
 20
-4.25
 30
0.0
 40
0.5
  1
11/16
100
AcDbAttributeDefinition
  3

  2
G
 70
     8
280
     0
  0
ATTDEF
  5
82
330
6E
100
AcDbEntity
  8
AM_6
100
AcDbText
 10
9.925
 20
-4.75
 30
0.0
 40
0.5
  1
13/16
100
AcDbAttributeDefinition
  3

  2
H
 70
     8
280
     0
  0
ATTDEF
  5
83
330
6E
100
AcDbEntity
  8
AM_6
100
AcDbText
 10
9.925
 20
-5.25
 30
0.0
 40
0.5
  1
3-3/4
100
AcDbAttributeDefinition
  3

  2
J
 70
     8
280
     0
  0
ATTDEF
  5
84
330
6E
100
AcDbEntity
  8
AM_6
100
AcDbText
 10
9.925
 20
-5.75
 30
0.0
 40
0.5
  1
5-7/16
100
AcDbAttributeDefinition
  3

  2
L
 70
     8
280
     0
  0
ATTDEF
  5
85
330
6E
100
AcDbEntity
  8
AM_6
100
AcDbText
 10
9.925
 20
-6.25
 30
0.0
 40
0.5
  1
2-1/2
100
AcDbAttributeDefinition
  3

  2
N
 70
     8
280
     0
  0
ATTDEF
  5
86
330
6E
100
AcDbEntity
  8
AM_6
100
AcDbText
 10
9.925
 20
-6.75
 30
0.0
 40
0.5
  1
2-1/4
100
AcDbAttributeDefinition
  3

  2
U
 70
     8
280
     0
  0
ATTDEF
  5
87
330
6E
100
AcDbEntity
  8
AM_6
100
AcDbText
 10
9.925
 20
-7.25
 30
0.0
 40
0.5
  1
1-5/16
100
AcDbAttributeDefinition
  3

  2
V
 70
     8
280
     0
  0
ATTDEF
  5
88
330
6E
100
AcDbEntity
  8
AM_6
100
AcDbText
 10
9.925
 20
-7.75
 30
0.0
 40
0.5
  1
2-1/8
100
AcDbAttributeDefinition
  3

  2
W
 70
     8
280
     0
  0
ATTDEF
  5
89
330
6E
100
AcDbEntity
  8
AM_6
100
AcDbText
 10
9.925
 20
-8.25
 30
0.0
 40
0.5
  1
9-1/2
100
AcDbAttributeDefinition
  3

  2
X
 70
     8
280
     0
  0
ATTDEF
  5
8A
330
6E
100
AcDbEntity
  8
AM_6
100
AcDbText
 10
9.925
 20
-8.75
 30
0.0
 40
0.5
  1
9
100
AcDbAttributeDefinition
  3

  2
Y
 70
     8
280
     0
  0
ATTDEF
  5
8B
330
6E
100
AcDbEntity
  8
AM_6
100
AcDbText
 10
9.925
 20
-9.25
 30
0.0
 40
0.5
  1
baldor
100
AcDbAttributeDefinition
  3

  2
COMPANY
 70
     8
280
     0
  0
INSERT
  5
8D
330
6E
100
AcDbEntity
  8
0
100
AcDbBlockReference
  2
2_405016_Inch_0_in_023164_4
 10
0.0
 20
0.0
 30
0.0
  0
INSERT
  5
DF
330
6E
100
AcDbEntity
  8
0
100
AcDbBlockReference
  2
3_3_1_2C_1_0_in_023164_4
 10
0.0
 20
0.0
 30
0.0
  0
INSERT
  5
11C
330
6E
100
AcDbEntity
  8
0
100
AcDbBlockReference
  2
4_3_1_2C_2_0_in_023164_4
 10
0.0
 20
0.0
 30
0.0
  0
INSERT
  5
159
330
6E
100
AcDbEntity
  8
0
100
AcDbBlockReference
  2
5_3_1_2I_0_in_023164_4
 10
0.0
 20
0.0
 30
0.0
  0
INSERT
  5
191
330
6E
100
AcDbEntity
  8
0
100
AcDbBlockReference
  2
6_023164H_0_in_023164_4
 10
0.0
 20
0.0
 30
0.0
  0
ENDBLK
  5
71
330
6E
100
AcDbEntity
  8
0
100
AcDbBlockEnd
  0
BLOCK
  5
8E
330
8C
100
AcDbEntity
  8
0
100
AcDbBlockBegin
  2
2_405016_Inch_0_in_023164_4
 70
     2
 10
0.0
 20
0.0
 30
0.0
  3
2_405016_Inch_0_in_023164_4
  1

  0
ATTDEF
  5
90
330
8C
100
AcDbEntity
  8
AM_6
100
AcDbText
 10
9.925
 20
0.21875
 30
0.0
 40
0.5
  1
405016 -Inch
100
AcDbAttributeDefinition
  3

  2
NN
 70
     8
280
     0
  0
ATTDEF
  5
91
330
8C
100
AcDbEntity
  8
AM_6
100
AcDbText
 10
9.925
 20
-0.28125
 30
0.0
 40
0.5
  1
Grease Fitting
100
AcDbAttributeDefinition
  3

  2
NT
 70
     8
280
     0
  0
ATTDEF
  5
92
330
8C
100
AcDbEntity
  8
AM_6
100
AcDbText
 10
9.925
 20
-0.78125
 30
0.0
 40
0.5
  1
405016-Inch
100
AcDbAttributeDefinition
  3

  2
NB
 70
     8
280
     0
  0
ATTDEF
  5
93
330
8C
100
AcDbEntity
  8
AM_6
100
AcDbText
 10
9.925
 20
-1.28125
 30
0.0
 40
0.5
  1
$MN.-Inch
100
AcDbAttributeDefinition
  3

  2
NBSYN
 70
     8
280
     0
  0
ATTDEF
  5
94
330
8C
100
AcDbEntity
  8
AM_6
100
AcDbText
 10
9.925
 20
-1.78125
 30
0.0
 40
0.5
  1
405016
100
AcDbAttributeDefinition
  3

  2
LINA
 70
     8
280
     0
  0
ATTDEF
  5
95
330
8C
100
AcDbEntity
  8
AM_6
100
AcDbText
 10
9.925
 20
-2.28125
 30
0.0
 40
0.5
  1
405016
100
AcDbAttributeDefinition
  3

  2
MN
 70
     8
280
     0
  0
ATTDEF
  5
96
330
8C
100
AcDbEntity
  8
AM_6
100
AcDbText
 10
9.925
 20
-2.78125
 30
0.0
 40
0.5
  1
7/16 HEX
100
AcDbAttributeDefinition
  3

  2
H
 70
     8
280
     0
  0
ATTDEF
  5
97
330
8C
100
AcDbEntity
  8
AM_6
100
AcDbText
 10
9.925
 20
-3.28125
 30
0.0
 40
0.5
  1
0.383
100
AcDbAttributeDefinition
  3

  2
NDR
 70
     8
280
     0
  0
ATTDEF
  5
98
330
8C
100
AcDbEntity
  8
AM_6
100
AcDbText
 10
9.925
 20
-3.78125
 30
0.0
 40
0.5
  1
0.337
100
AcDbAttributeDefinition
  3

  2
KDR
 70
     8
280
     0
  0
ATTDEF
  5
99
330
8C
100
AcDbEntity
  8
AM_6
100
AcDbText
 10
9.925
 20
-4.28125
 30
0.0
 40
0.5
  1
0.1575
100
AcDbAttributeDefinition
  3

  2
BZE
 70
     8
280
     0
  0
ATTDEF
  5
9A
330
8C
100
AcDbEntity
  8
AM_6
100
AcDbText
 10
9.925
 20
-4.78125
 30
0.0
 40
0.5
  1
0.4375
100
AcDbAttributeDefinition
  3

  2
HEX
 70
     8
280
     0
  0
ATTDEF
  5
9B
330
8C
100
AcDbEntity
  8
AM_6
100
AcDbText
 10
9.925
 20
-5.28125
 30
0.0
 40
0.5
  1
0.281250
100
AcDbAttributeDefinition
  3

  2
HEX2
 70
     8
280
     0
  0
ATTDEF
  5
9C
330
8C
100
AcDbEntity
  8
AM_6
100
AcDbText
 10
9.925
 20
-5.78125
 30
0.0
 40
0.5
  1
baldor
100
AcDbAttributeDefinition
  3

  2
COMPANY
 70
     8
280
     0
  0
LINE
  5
9F
330
8C
100
AcDbEntity
  8
AM_9
100
AcDbLine
 10
4.08125
 20
0.1616637258772237
 30
0.0
 11
4.08125
 21
-0.1616637258772237
 31
0.0
  0
LINE
  5
A0
330
8C
100
AcDbEntity
  8
AM_9
100
AcDbLine
 10
4.08125
 20
-0.1616637258772237
 30
0.0
 11
4.105003564847762
 21
-0.1854172907249859
 31
0.0
  0
LINE
  5
A1
330
8C
100
AcDbEntity
  8
AM_9
100
AcDbLine
 10
4.105003564847762
 20
0.1854172907249859
 30
0.0
 11
4.08125
 21
0.1616637258772237
 31
0.0
  0
LINE
  5
A2
330
8C
100
AcDbEntity
  8
AM_9
100
AcDbLine
 10
4.378125
 20
0.21875
 30
0.0
 11
4.378125
 21
-0.21875
 31
0.0
  0
LINE
  5
A3
330
8C
100
AcDbEntity
  8
AM_9
100
AcDbLine
 10
4.378125
 20
-0.21875
 30
0.0
 11
4.478125
 21
-0.21875
 31
0.0
  0
LINE
  5
A4
330
8C
100
AcDbEntity
  8
AM_9
100
AcDbLine
 10
4.478125
 20
0.21875
 30
0.0
 11
4.478125
 21
-0.21875
 31
0.0
  0
LINE
  5
A5
330
8C
100
AcDbEntity
  8
AM_9
100
AcDbLine
 10
4.478125
 20
0.21875
 30
0.0
 11
4.378125
 21
0.21875
 31
0.0
  0
LINE
  5
A6
330
8C
100
AcDbEntity
  8
AM_9
100
AcDbLine
 10
4.105003564847762
 20
0.1854172907249859
 30
0.0
 11
4.105003564847762
 21
-0.1854172907249859
 31
0.0
  0
LINE
  5
A7
330
8C
100
AcDbEntity
  8
AM_9
100
AcDbLine
 10
4.105003564847762
 20
-0.1854172907249859
 30
0.0
 11
4.3
 21
-0.1915112338502295
 31
0.0
  0
LINE
  5
A8
330
8C
100
AcDbEntity
  8
AM_9
100
AcDbLine
 10
4.3
 20
0.1915112338502295
 30
0.0
 11
4.105003564847762
 21
0.1854172907249859
 31
0.0
  0
LINE
  5
A9
330
8C
100
AcDbEntity
  8
AM_9
100
AcDbLine
 10
4.3
 20
-0.2
 30
0.0
 11
4.378125
 21
-0.2
 31
0.0
  0
LINE
  5
AA
330
8C
100
AcDbEntity
  8
AM_9
100
AcDbLine
 10
4.378125
 20
0.2
 30
0.0
 11
4.3
 21
0.2
 31
0.0
  0
LINE
  5
AB
330
8C
100
AcDbEntity
  8
AM_9
100
AcDbLine
 10
4.478125
 20
-0.2
 30
0.0
 11
4.5
 21
-0.2
 31
0.0
  0
LINE
  5
AC
330
8C
100
AcDbEntity
  8
AM_9
100
AcDbLine
 10
4.5
 20
0.2
 30
0.0
 11
4.478125
 21
0.2
 31
0.0
  0
LWPOLYLINE
  5
AD
330
8C
100
AcDbEntity
  8
AM_9
100
AcDbPolyline
 90
        3
 70
     0
 43
0.0
 10
4.469057400303385
 20
0.21875
 10
4.47571047505038
 20
0.1643083897258504
 10
4.478125
 20
0.109375
  0
LWPOLYLINE
  5
AE
330
8C
100
AcDbEntity
  8
AM_9
100
AcDbPolyline
 90
        3
 70
     0
 43
0.0
 10
4.378125
 20
0.109375
 10
4.380518380785035
 20
0.1640625
 10
4.387192599696615
 20
0.21875
  0
LWPOLYLINE
  5
AF
330
8C
100
AcDbEntity
  8
AM_9
100
AcDbPolyline
 90
        3
 70
     0
 43
0.0
 10
4.387192599696615
 20
0.0
 10
4.38053952494962
 20
0.0544416102741496
 10
4.378125
 20
0.109375
  0
LWPOLYLINE
  5
B0
330
8C
100
AcDbEntity
  8
AM_9
100
AcDbPolyline
 90
        3
 70
     0
 43
0.0
 10
4.478125
 20
0.109375
 10
4.475731619214965
 20
0.0546875
 10
4.469057400303385
 20
0.0
  0
LWPOLYLINE
  5
B1
330
8C
100
AcDbEntity
  8
AM_9
100
AcDbPolyline
 90
        3
 70
     0
 43
0.0
 10
4.478125
 20
-0.1093749999999999
 10
4.475731619214965
 20
-0.1640625
 10
4.469057400303385
 20
-0.21875
  0
LWPOLYLINE
  5
B2
330
8C
100
AcDbEntity
  8
AM_9
100
AcDbPolyline
 90
        3
 70
     0
 43
0.0
 10
4.469057400303385
 20
0.0
 10
4.47571047505038
 20
-0.0544416102741496
 10
4.478125
 20
-0.1093749999999999
  0
LINE
  5
B3
330
8C
100
AcDbEntity
  8
AM_9
100
AcDbLine
 10
4.469057400303385
 20
0.0
 30
0.0
 11
4.387192599696615
 21
0.0
 31
0.0
  0
LWPOLYLINE
  5
B4
330
8C
100
AcDbEntity
  8
AM_9
100
AcDbPolyline
 90
        3
 70
     0
 43
0.0
 10
4.378125
 20
-0.109375
 10
4.380518380785035
 20
-0.0546875
 10
4.387192599696615
 20
0.0
  0
LWPOLYLINE
  5
B5
330
8C
100
AcDbEntity
  8
AM_9
100
AcDbPolyline
 90
        3
 70
     0
 43
0.0
 10
4.387192599696615
 20
-0.21875
 10
4.38053952494962
 20
-0.1643083897258504
 10
4.378125
 20
-0.109375
  0
LINE
  5
B7
330
8C
100
AcDbEntity
  8
AM_5
100
AcDbLine
 10
4.257862509955052
 20
0.1671831426298035
 30
0.0
 11
4.08125
 21
0.1616637258772237
 31
0.0
  0
LINE
  5
B8
330
8C
100
AcDbEntity
  8
AM_5
100
AcDbLine
 10
4.3
 20
0.1915112338502295
 30
0.0
 11
4.257862509955052
 21
0.1671831426298035
 31
0.0
  0
LINE
  5
B9
330
8C
100
AcDbEntity
  8
AM_5
100
AcDbLine
 10
4.257862509955052
 20
0.1901943714800314
 30
0.0
 11
4.257862509955052
 21
-0.1901943714800314
 31
0.0
  0
LINE
  5
BA
330
8C
100
AcDbEntity
  8
AM_5
100
AcDbLine
 10
4.257862509955052
 20
-0.1671831426298035
 30
0.0
 11
4.08125
 21
-0.1616637258772237
 31
0.0
  0
LINE
  5
BB
330
8C
100
AcDbEntity
  8
AM_5
100
AcDbLine
 10
4.3
 20
-0.1915112338502295
 30
0.0
 11
4.257862509955052
 21
-0.1671831426298035
 31
0.0
  0
LINE
  5
BE
330
8C
100
AcDbEntity
  8
AM_7
100
AcDbLine
 10
4.56983579112304
 20
0.0917749692859806
 30
0.0
 11
4.861208030815163
 21
-0.533074815178147
 31
0.0
  0
LINE
  5
C0
330
8C
100
AcDbEntity
  8
AM_4
100
AcDbLine
 10
4.601485901430354
 20
-0.305545857794963
 30
0.0
 11
4.580354988343319
 21
-0.2602304684431305
 31
0.0
  0
LINE
  5
C1
330
8C
100
AcDbEntity
  8
AM_4
100
AcDbLine
 10
4.584521122673158
 20
-0.2
 30
0.0
 11
4.60684663310065
 21
-0.2478772116156649
 31
0.0
  0
LINE
  5
C2
330
8C
100
AcDbEntity
  8
AM_4
100
AcDbLine
 10
4.806234346248713
 20
-0.1549011940327111
 30
0.0
 11
4.788026660150522
 21
-0.1158546851886722
 31
0.0
  0
LINE
  5
C3
330
8C
100
AcDbEntity
  8
AM_4
100
AcDbLine
 10
4.925000000000001
 20
-0.4250163462566365
 30
0.0
 11
4.737425753776376
 21
-0.5124836537433635
 31
0.0
  0
LINE
  5
C4
330
8C
100
AcDbEntity
  8
AM_4
100
AcDbLine
 10
4.925000000000001
 20
-0.4250163462566365
 30
0.0
 11
4.925000000000001
 21
-0.3406236008983355
 31
0.0
  0
LINE
  5
C5
330
8C
100
AcDbEntity
  8
AM_4
100
AcDbLine
 10
4.672777160155095
 20
-0.4582370426796164
 30
0.0
 11
4.737425753776376
 21
-0.5124836537433635
 31
0.0
  0
ARC
  5
C6
330
8C
100
AcDbEntity
  8
AM_4
100
AcDbCircle
 10
4.583403264167089
 20
-0.3941587959651978
 30
0.0
 40
0.0896158688558204
100
AcDbArc
 50
336.9222389899028
 51
78.43335991842604
  0
ARC
  5
C7
330
8C
100
AcDbEntity
  8
AM_4
100
AcDbCircle
 10
4.933361648150115
 20
-0.2309705214783651
 30
0.0
 40
0.0896158688558191
100
AcDbArc
 50
150.8170969074253
 51
253.0777610100984
  0
LINE
  5
C8
330
8C
100
AcDbEntity
  8
AM_4
100
AcDbLine
 10
4.907276838818908
 20
-0.3167060839535595
 30
0.0
 11
4.665847507618029
 21
-0.4292864299957689
 31
0.0
  0
LINE
  5
C9
330
8C
100
AcDbEntity
  8
AM_4
100
AcDbLine
 10
4.925000000000001
 20
-0.3406236008983355
 30
0.0
 11
4.672777160155095
 21
-0.4582370426796164
 31
0.0
  0
ARC
  5
CA
330
8C
100
AcDbEntity
  8
AM_4
100
AcDbCircle
 10
4.688846850397259
 20
-0.4390859316016414
 30
0.0
 40
0.0250000000000007
100
AcDbArc
 50
156.9222389899035
 51
230.0000000000003
  0
ARC
  5
CB
330
8C
100
AcDbEntity
  8
AM_4
100
AcDbCircle
 10
4.899999999999997
 20
-0.3406236008983382
 30
0.0
 40
0.0250000000000039
100
AcDbArc
 50
0.0
 51
73.07776101009242
  0
LINE
  5
CC
330
8C
100
AcDbEntity
  8
AM_4
100
AcDbLine
 10
4.836123900050392
 20
-0.1419585097669022
 30
0.0
 11
4.83399002222671
 21
-0.1419585097669022
 31
0.0
  0
LINE
  5
CD
330
8C
100
AcDbEntity
  8
AM_4
100
AcDbLine
 10
4.83399002222671
 20
-0.1419585097669022
 30
0.0
 11
4.580354988343319
 21
-0.2602304684431305
 31
0.0
  0
LINE
  5
CE
330
8C
100
AcDbEntity
  8
AM_4
100
AcDbLine
 10
4.835528908582453
 20
-0.1419585110678677
 30
0.0
 11
4.85617043248662
 21
-0.1862244019302201
 31
0.0
  0
LINE
  5
CF
330
8C
100
AcDbEntity
  8
AM_4
100
AcDbLine
 10
4.855120935313745
 20
-0.1872738991187349
 30
0.0
 11
4.8561875964768
 21
-0.1862072379556804
 31
0.0
  0
LINE
  5
D0
330
8C
100
AcDbEntity
  8
AM_4
100
AcDbLine
 10
4.855120935313745
 20
-0.1872738991187349
 30
0.0
 11
4.601485901430354
 21
-0.305545857794963
 31
0.0
  0
LWPOLYLINE
  5
D1
330
8C
100
AcDbEntity
  8
AM_4
100
AcDbPolyline
 90
        4
 70
     0
 43
0.0
 10
4.839779591422741
 20
-0.1510741298357569
 10
4.789673655314264
 20
-0.1639940363880804
 10
4.742151954474481
 20
-0.1876759562813857
 10
4.712092915312688
 20
-0.2099962668917053
  0
LWPOLYLINE
  5
D2
330
8C
100
AcDbEntity
  8
AM_4
100
AcDbPolyline
 90
        5
 70
     0
 43
0.0
 10
4.725588184814567
 20
-0.2389369657326275
 10
4.75901521239811
 20
-0.2295338871417795
 10
4.791443378377863
 20
-0.216687117104632
 10
4.822959325649376
 20
-0.1996402057054678
 10
4.852852618119652
 20
-0.1791093260592886
  0
LWPOLYLINE
  5
D3
330
8C
100
AcDbEntity
  8
AM_4
100
AcDbPolyline
 90
        3
 70
     0
 43
0.0
 10
4.712092915312688
 20
-0.2099962668917053
 10
4.682727141375751
 20
-0.2163479371246912
 10
4.654110144493329
 20
-0.2258378743019628
  0
LWPOLYLINE
  5
D4
330
8C
100
AcDbEntity
  8
AM_4
100
AcDbPolyline
 90
        3
 70
     0
 43
0.0
 10
4.632153317914338
 20
-0.2360765106845276
 10
4.614944149569911
 20
-0.246209193863185
 10
4.584404468701035
 20
-0.2689146070947221
  0
LINE
  5
D5
330
8C
100
AcDbEntity
  8
AM_4
100
AcDbLine
 10
4.598325133450933
 20
-0.2987675689889717
 30
0.0
 11
4.653284231001374
 21
-0.2813919000363598
 31
0.0
  0
LINE
  5
D6
330
8C
100
AcDbEntity
  8
AM_4
100
AcDbLine
 10
4.675241057580364
 20
-0.2711532636537956
 30
0.0
 11
4.725588184814567
 21
-0.2389369657326275
 31
0.0
  0
LINE
  5
D7
330
8C
100
AcDbEntity
  8
AM_4
100
AcDbLine
 10
4.712092915312688
 20
-0.2099962668917053
 30
0.0
 11
4.725588184814567
 21
-0.2389369657326275
 31
0.0
  0
LINE
  5
D8
330
8C
100
AcDbEntity
  8
AM_4
100
AcDbLine
 10
4.625
 20
-0.1790373738501778
 30
0.0
 11
4.788026660149407
 21
-0.1158546851891074
 31
0.0
  0
ARC
  5
D9
330
8C
100
AcDbEntity
  8
AM_4
100
AcDbCircle
 10
4.625
 20
0.0000000000000004
 30
0.0
 40
0.2
100
AcDbArc
 50
324.2285005761702
 51
90.0
  0
LWPOLYLINE
  5
DA
330
8C
100
AcDbEntity
  8
AM_4
100
AcDbPolyline
 90
        5
 70
     0
 43
0.0
 10
4.625
 20
-0.1790373738501783
 10
4.612711773328742
 20
-0.184262879520394
 10
4.594890090732852
 20
-0.1936098952159723
 10
4.585426786929244
 20
-0.1994144431868154
 10
4.584521123348303
 20
-0.1999999995615472
  0
LINE
  5
DB
330
8C
100
AcDbEntity
  8
AM_4
100
AcDbLine
 10
4.5
 20
-0.2
 30
0.0
 11
4.585803357050165
 21
-0.2
 31
0.0
  0
LINE
  5
DC
330
8C
100
AcDbEntity
  8
AM_4
100
AcDbLine
 10
4.625
 20
0.2
 30
0.0
 11
4.5
 21
0.2
 31
0.0
  0
LINE
  5
DD
330
8C
100
AcDbEntity
  8
AM_4
100
AcDbLine
 10
4.625
 20
0.2
 30
0.0
 11
4.625
 21
-0.1790373738501778
 31
0.0
  0
ENDBLK
  5
8F
330
8C
100
AcDbEntity
  8
0
100
AcDbBlockEnd
  0
BLOCK
  5
E0
330
DE
100
AcDbEntity
  8
0
100
AcDbBlockBegin
  2
3_3_1_2C_1_0_in_023164_4
 70
     2
 10
0.0
 20
0.0
 30
0.0
  3
3_3_1_2C_1_0_in_023164_4
  1

  0
ATTDEF
  5
E2
330
DE
100
AcDbEntity
  8
AM_6
100
AcDbText
 10
7.765625
 20
2.5
 30
0.0
 40
0.5
  1
E-Type Collar -Inch
100
AcDbAttributeDefinition
  3

  2
NN
 70
     8
280
     0
  0
ATTDEF
  5
E3
330
DE
100
AcDbEntity
  8
AM_6
100
AcDbText
 10
7.765625
 20
2.0
 30
0.0
 40
0.5
  1
E-Type Bearings
100
AcDbAttributeDefinition
  3

  2
NT
 70
     8
280
     0
  0
ATTDEF
  5
E4
330
DE
100
AcDbEntity
  8
AM_6
100
AcDbText
 10
7.765625
 20
1.5
 30
0.0
 40
0.5
  1
3-1/2C
100
AcDbAttributeDefinition
  3

  2
NB
 70
     8
280
     0
  0
ATTDEF
  5
E5
330
DE
100
AcDbEntity
  8
AM_6
100
AcDbText
 10
7.765625
 20
1.0
 30
0.0
 40
0.5
  1
$BORE.C
100
AcDbAttributeDefinition
  3

  2
NBSYN
 70
     8
280
     0
  0
ATTDEF
  5
E6
330
DE
100
AcDbEntity
  8
AM_6
100
AcDbText
 10
7.765625
 20
0.5
 30
0.0
 40
0.5
  1
3-1/2C
100
AcDbAttributeDefinition
  3

  2
LINA
 70
     8
280
     0
  0
ATTDEF
  5
E7
330
DE
100
AcDbEntity
  8
AM_6
100
AcDbText
 10
7.765625
 20
0.0
 30
0.0
 40
0.5
  1
3-1/2
100
AcDbAttributeDefinition
  3

  2
BORE
 70
     8
280
     0
  0
ATTDEF
  5
E8
330
DE
100
AcDbEntity
  8
AM_6
100
AcDbText
 10
7.765625
 20
-0.5
 30
0.0
 40
0.5
  1
5.53125
100
AcDbAttributeDefinition
  3

  2
L
 70
     8
280
     0
  0
ATTDEF
  5
E9
330
DE
100
AcDbEntity
  8
AM_6
100
AcDbText
 10
7.765625
 20
-1.0
 30
0.0
 40
0.5
  1
5.00
100
AcDbAttributeDefinition
  3

  2
A
 70
     8
280
     0
  0
ATTDEF
  5
EA
330
DE
100
AcDbEntity
  8
AM_6
100
AcDbText
 10
7.765625
 20
-1.5
 30
0.0
 40
0.5
  1
2.25
100
AcDbAttributeDefinition
  3

  2
B
 70
     8
280
     0
  0
ATTDEF
  5
EB
330
DE
100
AcDbEntity
  8
AM_6
100
AcDbText
 10
7.765625
 20
-2.0
 30
0.0
 40
0.5
  1
4.24
100
AcDbAttributeDefinition
  3

  2
C
 70
     8
280
     0
  0
ATTDEF
  5
EC
330
DE
100
AcDbEntity
  8
AM_6
100
AcDbText
 10
7.765625
 20
-2.5
 30
0.0
 40
0.5
  1
5.84
100
AcDbAttributeDefinition
  3

  2
D
 70
     8
280
     0
  0
ATTDEF
  5
ED
330
DE
100
AcDbEntity
  8
AM_6
100
AcDbText
 10
7.765625
 20
-3.0
 30
0.0
 40
0.5
  1
0.54
100
AcDbAttributeDefinition
  3

  2
E
 70
     8
280
     0
  0
ATTDEF
  5
EE
330
DE
100
AcDbEntity
  8
AM_6
100
AcDbText
 10
7.765625
 20
-3.5
 30
0.0
 40
0.5
  1
0.44
100
AcDbAttributeDefinition
  3

  2
F
 70
     8
280
     0
  0
ATTDEF
  5
EF
330
DE
100
AcDbEntity
  8
AM_6
100
AcDbText
 10
7.765625
 20
-4.0
 30
0.0
 40
0.5
  1
1/2-13
100
AcDbAttributeDefinition
  3

  2
CS
 70
     8
280
     0
  0
ATTDEF
  5
F0
330
DE
100
AcDbEntity
  8
AM_6
100
AcDbText
 10
7.765625
 20
-4.5
 30
0.0
 40
0.5
  1
0.5000
100
AcDbAttributeDefinition
  3

  2
NDM
 70
     8
280
     0
  0
ATTDEF
  5
F1
330
DE
100
AcDbEntity
  8
AM_6
100
AcDbText
 10
7.765625
 20
-5.0
 30
0.0
 40
0.5
  1
0.4170
100
AcDbAttributeDefinition
  3

  2
KDM
 70
     8
280
     0
  0
ATTDEF
  5
F2
330
DE
100
AcDbEntity
  8
AM_6
100
AcDbText
 10
7.765625
 20
-5.5
 30
0.0
 40
0.5
  1
baldor
100
AcDbAttributeDefinition
  3

  2
COMPANY
 70
     8
280
     0
  0
LINE
  5
F3
330
DE
100
AcDbEntity
  8
AM_9
100
AcDbLine
 10
1.969969530266635
 20
2.244311121479204
 30
0.0
 11
1.962411952222413
 21
2.253737587194122
 31
0.0
  0
LINE
  5
F4
330
DE
100
AcDbEntity
  8
AM_9
100
AcDbLine
 10
1.962447331171141
 20
1.866306540494042
 30
0.0
 11
1.969969530266635
 21
1.875688878520796
 31
0.0
  0
LWPOLYLINE
  5
F5
330
DE
100
AcDbEntity
  8
AM_9
100
AcDbPolyline
 90
       26
 70
     0
 43
0.0
 10
1.962316483007135
 20
2.253856663589652
 10
1.961051546707628
 20
2.255399301159092
 10
1.947087664439575
 20
2.268325513416767
 10
1.931475014306416
 20
2.275449863970397
 10
1.91486873961592
 20
2.276182956173145
 10
1.897290567707817
 20
2.27020631638895
 10
1.88012310275642
 20
2.257861595767471
 10
1.863121344995305
 20
2.23871033895681
 10
1.848188856513798
 20
2.214763064002313
 10
1.834798403295655
 20
2.184851475392249
 10
1.824829471455856
 20
2.153136256702723
 10
1.817555612532122
 20
2.117273549354084
 10
1.813972334005232
 20
2.082772149730406
 10
1.813542404827317
 20
2.046484095318383
 10
1.816155997567253
 20
2.01299329392418
 10
1.821738777799565
 20
1.979890231451798
 10
1.829782609905177
 20
1.949636014858393
 10
1.840305869484069
 20
1.921581632183136
 10
1.852925318190556
 20
1.896772845840065
 10
1.867346265822438
 20
1.875816305205841
 10
1.883182164726888
 20
1.85945351547205
 10
1.899937273545567
 20
1.848466031346462
 10
1.916864534348004
 20
1.843566681920978
 10
1.933712070633784
 20
1.84516139722598
 10
1.949344828139693
 20
1.853299965631898
 10
1.96232321849182
 20
1.866151736415577
  0
LWPOLYLINE
  5
F6
330
DE
100
AcDbEntity
  8
AM_9
100
AcDbPolyline
 90
        3
 70
     0
 43
0.0
 10
1.968363263152536
 20
1.874532292132324
 10
1.974288227812514
 20
1.884615013553354
 10
1.983506809367209
 20
1.905064722724611
  0
LINE
  5
F7
330
DE
100
AcDbEntity
  8
AM_9
100
AcDbLine
 10
1.966547091303109
 20
1.871826978678226
 30
0.0
 11
1.968363263152536
 21
1.874532292132324
 31
0.0
  0
LWPOLYLINE
  5
F8
330
DE
100
AcDbEntity
  8
AM_9
100
AcDbPolyline
 90
        3
 70
     0
 43
0.0
 10
1.96232321849182
 20
1.866151736415577
 10
1.964004495680673
 20
1.868311707043658
 10
1.966547091303109
 20
1.871826978678226
  0
LINE
  5
F9
330
DE
100
AcDbEntity
  8
AM_9
100
AcDbLine
 10
1.928909968279886
 20
1.85165
 30
0.0
 11
2.468759754193158
 21
1.85165
 31
0.0
  0
LINE
  5
FA
330
DE
100
AcDbEntity
  8
AM_9
100
AcDbLine
 10
2.468759754193158
 20
2.26835
 30
0.0
 11
1.928909968279886
 21
2.26835
 31
0.0
  0
LINE
  5
FB
330
DE
100
AcDbEntity
  8
AM_9
100
AcDbLine
 10
2.42770019220641
 20
1.875688878520796
 30
0.0
 11
2.455389621381951
 21
1.841152224944528
 31
0.0
  0
LINE
  5
FC
330
DE
100
AcDbEntity
  8
AM_9
100
AcDbLine
 10
2.455252783728223
 20
2.278677099285559
 30
0.0
 11
2.42770019220641
 21
2.244311121479205
 31
0.0
  0
LWPOLYLINE
  5
FD
330
DE
100
AcDbEntity
  8
AM_9
100
AcDbPolyline
 90
        3
 70
     0
 43
0.0
 10
2.455528415399668
 20
1.840979109066673
 10
2.442744060941903
 20
1.859423890105266
 10
2.434460396356322
 20
1.874429305903052
  0
ELLIPSE
  5
FE
330
DE
100
AcDbEntity
  8
AM_9
100
AcDbEllipse
 10
2.468759754193184
 20
2.060000000000015
 30
0.0
 11
-3.827327409035568E-17
 21
-0.2083500000000165
 31
0.0
210
0.0
220
0.0
230
1.0
 40
0.4226182617407315
 41
3.467665160595931
 42
6.76115865639872
  0
LINE
  5
FF
330
DE
100
AcDbEntity
  8
AM_9
100
AcDbLine
 10
1.965846609986492
 20
2.249172368009738
 30
0.0
 11
1.962316483007135
 21
2.253856663589652
 31
0.0
  0
LWPOLYLINE
  5
100
330
DE
100
AcDbEntity
  8
AM_9
100
AcDbPolyline
 90
       13
 70
     0
 43
0.0
 10
1.983506809367209
 20
1.905064722724611
 10
1.991292722534423
 20
1.928921760141795
 10
1.997717451009552
 20
1.95648482574691
 10
2.002846214304052
 20
1.989487237530668
 10
2.00600214839496
 20
2.025842931974717
 10
2.006935615896044
 20
2.060328885050799
 10
2.005906439132565
 20
2.09585032082609
 10
2.003084461019511
 20
2.128499192500931
 10
1.99835699884462
 20
2.16014053645612
 10
1.991886481077463
 20
2.188905203869766
 10
1.983511289409567
 20
2.214923585882261
 10
1.97322551026448
 20
2.237346179249616
 10
1.965846609986492
 20
2.249172368009738
  0
LWPOLYLINE
  5
101
330
DE
100
AcDbEntity
  8
AM_9
100
AcDbPolyline
 90
       38
 70
     0
 43
0.0
 10
-0.1525908869650605
 20
1.898527269720325
 10
-0.1259886918648298
 20
1.879156530532244
 10
-0.0969011993527945
 20
1.863735721553158
 10
-0.0601483122673203
 20
1.850981308949331
 10
-0.0217997415978727
 20
1.844320148061696
 10
0.0182626021219691
 20
1.844046838535621
 10
0.0578161857670823
 20
1.850371643799554
 10
0.0960006208654286
 20
1.86336464503481
 10
0.1314057857517333
 20
1.882630222958654
 10
0.1623648628248059
 20
1.907329963640262
 10
0.1885173308554269
 20
1.937054845632422
 10
0.2080380210344366
 20
1.969493259689729
 10
0.2215168359027609
 20
2.004880521281623
 10
0.228066341887306
 20
2.039950344360223
 10
0.2284809118833042
 20
2.075628263858183
 10
0.2229743388492988
 20
2.109512587883563
 10
0.2119749822590031
 20
2.142022607819821
 10
0.1956507245277143
 20
2.172517053153457
 10
0.1746840101079703
 20
2.200020869556716
 10
0.1484135812781059
 20
2.224898641905716
 10
0.1185296680442598
 20
2.245319014011169
 10
0.0839243140038643
 20
2.261534341330013
 10
0.0471486636507383
 20
2.27201166016802
 10
0.0076440140060864
 20
2.276524871196479
 10
-0.0320702946762945
 20
2.274525336237965
 10
-0.0714687990552741
 20
2.26579246465159
 10
-0.1088211003883741
 20
2.250581458022958
 10
-0.142676593054934
 20
2.229361093349508
 10
-0.1723269765095779
 20
2.20260832287007
 10
-0.1958875223409001
 20
2.172130238998791
 10
-0.213685788648234
 20
2.137961439144591
 10
-0.2244295143053159
 20
2.103226657961343
 10
-0.2289548148614201
 20
2.067142861238748
 10
-0.2272077606935479
 20
2.032581780542767
 10
-0.2197199621199237
 20
1.998801935484985
 10
-0.2068102465120322
 20
1.966994881265923
 10
-0.1889701101834047
 20
1.937677427931419
 10
-0.1525908869650605
 20
1.898527269720325
  0
LINE
  5
102
330
DE
100
AcDbEntity
  8
AM_9
100
AcDbLine
 10
-2.12
 20
2.5
 30
0.0
 11
-2.12
 21
1.62
 31
0.0
  0
LINE
  5
103
330
DE
100
AcDbEntity
  8
AM_9
100
AcDbLine
 10
2.12
 20
1.62
 30
0.0
 11
2.12
 21
2.5
 31
0.0
  0
ARC
  5
104
330
DE
100
AcDbEntity
  8
AM_9
100
AcDbCircle
 10
0.0
 20
2.06
 30
0.0
 40
0.20835
100
AcDbArc
 50
242.6141443699921
 51
297.3858556300079
  0
LWPOLYLINE
  5
105
330
DE
100
AcDbEntity
  8
AM_9
100
AcDbPolyline
 90
       10
 70
     0
 43
0.0
 10
2.570142780980729
 20
1.874519513206132
 10
2.56494505123857
 20
1.86232696986577
 10
2.553471202190536
 20
1.841511939567762
 10
2.539295232172681
 20
1.824392854716466
 10
2.523194073991689
 20
1.813532865482273
 10
2.507179483164243
 20
1.810005520892252
 10
2.490157316919769
 20
1.813189910085175
 10
2.473914274374252
 20
1.822562414249223
 10
2.457722266895498
 20
1.838310804003542
 10
2.455528415399668
 20
1.840979109066673
  0
LWPOLYLINE
  5
106
330
DE
100
AcDbEntity
  8
AM_9
100
AcDbPolyline
 90
       10
 70
     0
 43
0.0
 10
0.1605623562816708
 20
1.874503091847102
 10
0.153240940611207
 20
1.867915814673119
 10
0.1187243559288506
 20
1.842891104021224
 10
0.0818203024063751
 20
1.825081310450273
 10
0.0423797867683302
 20
1.813947779689951
 10
0.0032742311847093
 20
1.810050537462284
 10
-0.0359269305884865
 20
1.812830771049183
 10
-0.0733384723060913
 20
1.822041235355647
 10
-0.108728745923157
 20
1.837258966098945
 10
-0.155039917389114
 20
1.86945614888546
  0
LINE
  5
107
330
DE
100
AcDbEntity
  8
AM_9
100
AcDbLine
 10
-0.155039917389114
 20
1.86945614888546
 30
0.0
 11
-0.1607372143737943
 21
1.874668057376629
 31
0.0
  0
LINE
  5
108
330
DE
100
AcDbEntity
  8
AM_9
100
AcDbLine
 10
-2.765625
 20
1.875
 30
0.0
 11
-2.765625
 21
1.62
 31
0.0
  0
LINE
  5
109
330
DE
100
AcDbEntity
  8
AM_9
100
AcDbLine
 10
2.765625
 20
1.62
 30
0.0
 11
2.765625
 21
1.875
 31
0.0
  0
LINE
  5
10A
330
DE
100
AcDbEntity
  8
AM_9
100
AcDbLine
 10
2.765625
 20
1.62
 30
0.0
 11
-2.765625
 21
1.62
 31
0.0
  0
ELLIPSE
  5
10B
330
DE
100
AcDbEntity
  8
AM_9
100
AcDbEllipse
 10
1.928909968279886
 20
2.06
 30
0.0
 11
-3.827327409035266E-17
 21
-0.20835
 31
0.0
210
0.0
220
0.0
230
1.0
 40
0.4226182617406988
 41
0.0
 42
6.283185307179586
  0
LINE
  5
10C
330
DE
100
AcDbEntity
  8
AM_7
100
AcDbLine
 10
-0.2187674999999998
 20
2.06
 30
0.0
 11
0.2187675
 21
2.06
 31
0.0
  0
ELLIPSE
  5
10D
330
DE
100
AcDbEntity
  8
AM_4
100
AcDbEllipse
 10
2.468759754193158
 20
2.06
 30
0.0
 11
-3.827327409035262E-17
 21
-0.2083499999999998
 31
0.0
210
0.0
220
0.0
230
1.0
 40
0.4226182617406992
 41
0.4779733492194627
 42
3.46766516059565
  0
LWPOLYLINE
  5
10E
330
DE
100
AcDbEntity
  8
AM_4
100
AcDbPolyline
 90
       13
 70
     0
 43
0.0
 10
2.434460396356322
 20
1.874429305903052
 10
2.428897931990052
 20
1.886174387082822
 10
2.416935027063982
 20
1.917620076383417
 10
2.407178668307283
 20
1.953592237731818
 10
2.400235279663299
 20
1.992825692305774
 10
2.396428395554313
 20
2.034954074112151
 10
2.396125775901384
 20
2.077718291680144
 10
2.399474668434289
 20
2.12119329861714
 10
2.40622270700306
 20
2.16201189771363
 10
2.416503758248804
 20
2.201039362641246
 10
2.429133664926417
 20
2.234354545975526
 10
2.444535310360981
 20
2.263480912538765
 10
2.455523304004532
 20
2.279014514944927
  0
LWPOLYLINE
  5
10F
330
DE
100
AcDbEntity
  8
AM_4
100
AcDbPolyline
 90
       19
 70
     0
 43
0.0
 10
2.455523304004532
 20
2.279014514944927
 10
2.460603027171995
 20
2.284990278917518
 10
2.47825257883326
 20
2.300549553365496
 10
2.495030385246984
 20
2.30841968821041
 10
2.512158678369924
 20
2.309605652863203
 10
2.527690946785376
 20
2.304230782875942
 10
2.542605225082472
 20
2.292317720695634
 10
2.555806718441057
 20
2.274830081559216
 10
2.567713094425966
 20
2.251433278534374
 10
2.577822575591163
 20
2.223087997504319
 10
2.586151308852412
 20
2.189811943954918
 10
2.592415720444671
 20
2.152687282490253
 10
2.5965283364961
 20
2.11208246672326
 10
2.59827855068709
 20
2.069889342403728
 10
2.597586446219105
 20
2.026236460859731
 10
2.594435491155946
 20
1.98417059397395
 10
2.588638914485878
 20
1.943084660893379
 10
2.582457428707677
 20
1.913905885719618
 10
2.574634428376004
 20
1.886876531429714
  0
ARC
  5
110
330
DE
100
AcDbEntity
  8
AM_4
100
AcDbCircle
 10
0.0
 20
2.06
 30
0.0
 40
0.20835
100
AcDbArc
 50
297.3858556300079
 51
242.6141443699921
  0
LINE
  5
111
330
DE
100
AcDbEntity
  8
AM_4
100
AcDbLine
 10
2.618958333333333
 20
2.5
 30
0.0
 11
-2.618958333333333
 21
2.5
 31
0.0
  0
ARC
  5
112
330
DE
100
AcDbEntity
  8
AM_4
100
AcDbCircle
 10
-2.618958333333333
 20
2.353333333333333
 30
0.0
 40
0.1466666666666665
100
AcDbArc
 50
90.0
 51
179.9999991462263
  0
ARC
  5
113
330
DE
100
AcDbEntity
  8
AM_4
100
AcDbCircle
 10
2.618958333333333
 20
2.353333333333333
 30
0.0
 40
0.1466666666666665
100
AcDbArc
 50
0.0000008537736463
 51
90.0
  0
LINE
  5
114
330
DE
100
AcDbEntity
  8
AM_4
100
AcDbLine
 10
2.574634428376004
 20
1.886876531429714
 30
0.0
 11
2.570142780980729
 21
1.874519513206132
 31
0.0
  0
LWPOLYLINE
  5
115
330
DE
100
AcDbEntity
  8
AM_4
100
AcDbPolyline
 90
       30
 70
     0
 43
0.0
 10
-0.1607372143737943
 20
1.874668057376629
 10
-0.1804239789493059
 20
1.895595106237953
 10
-0.2017211716926927
 20
1.925168227803888
 10
-0.2205236466944784
 20
1.962363309203199
 10
-0.2330818434599956
 20
2.002120924653908
 10
-0.2391296750601523
 20
2.044714561147385
 10
-0.2381209174520325
 20
2.087727338148771
 10
-0.2298110092450282
 20
2.130591772637654
 10
-0.2144441719139547
 20
2.171444182224608
 10
-0.1924392089482646
 20
2.208817166659082
 10
-0.1643545253342442
 20
2.241844775217019
 10
-0.1318266620266816
 20
2.268674417529129
 10
-0.0951223794872425
 20
2.289425905261162
 10
-0.0569998582220309
 20
2.30278192417686
 10
-0.0171394613874379
 20
2.309358550585322
 10
0.0217786826970352
 20
2.308937410158271
 10
0.0600739975072309
 20
2.302002634740324
 10
0.096320482336793
 20
2.288855825897105
 10
0.1299429946821767
 20
2.269992761535576
 10
0.160714079707678
 20
2.24532565185167
 10
0.1871394913565952
 20
2.216043588687772
 10
0.2093364764556079
 20
2.181505497673463
 10
0.2257070417688266
 20
2.143837169016963
 10
0.2360887131145663
 20
2.102483553050221
 10
0.2396014485355031
 20
2.059981881092285
 10
0.235929960992062
 20
2.01658008263652
 10
0.2250985051697148
 20
1.974402289691657
 10
0.2072428721602564
 20
1.934662822324092
 10
0.1828871966169606
 20
1.898562444813533
 10
0.1605623562816708
 20
1.874503091847102
  0
LINE
  5
116
330
DE
100
AcDbEntity
  8
AM_4
100
AcDbLine
 10
-2.765625
 20
2.353333333333333
 30
0.0
 11
-2.765625
 21
1.875
 31
0.0
  0
LINE
  5
117
330
DE
100
AcDbEntity
  8
AM_4
100
AcDbLine
 10
2.765625
 20
1.875
 30
0.0
 11
2.765625
 21
2.353333333333333
 31
0.0
  0
LINE
  5
118
330
DE
100
AcDbEntity
  8
AM_4
100
AcDbLine
 10
2.765625
 20
2.353333333333333
 30
0.0
 11
-2.765625
 21
2.353333333333333
 31
0.0
  0
ARC
  5
119
330
DE
100
AcDbEntity
  8
AM_5
100
AcDbCircle
 10
0.0000000000000004
 20
2.06
 30
0.0
 40
0.2500000000000002
100
AcDbArc
 50
75.00000000000006
 51
15.00000000000002
  0
ARC
  5
11A
330
DE
100
AcDbEntity
  8
AM_5
100
AcDbCircle
 10
0.0000000000000117
 20
2.060000000000036
 30
0.0
 40
0.2499999999999621
100
AcDbArc
 50
63.85157066748063
 51
75.00000000000043
  0
ENDBLK
  5
E1
330
DE
100
AcDbEntity
  8
0
100
AcDbBlockEnd
  0
BLOCK
  5
11D
330
11B
100
AcDbEntity
  8
0
100
AcDbBlockBegin
  2
4_3_1_2C_2_0_in_023164_4
 70
     2
 10
0.0
 20
0.0
 30
0.0
  3
4_3_1_2C_2_0_in_023164_4
  1

  0
ATTDEF
  5
11F
330
11B
100
AcDbEntity
  8
AM_6
100
AcDbText
 10
7.765625
 20
-1.62
 30
0.0
 40
0.5
  1
E-Type Collar -Inch
100
AcDbAttributeDefinition
  3

  2
NN
 70
     8
280
     0
  0
ATTDEF
  5
120
330
11B
100
AcDbEntity
  8
AM_6
100
AcDbText
 10
7.765625
 20
-2.12
 30
0.0
 40
0.5
  1
E-Type Bearings
100
AcDbAttributeDefinition
  3

  2
NT
 70
     8
280
     0
  0
ATTDEF
  5
121
330
11B
100
AcDbEntity
  8
AM_6
100
AcDbText
 10
7.765625
 20
-2.62
 30
0.0
 40
0.5
  1
3-1/2C
100
AcDbAttributeDefinition
  3

  2
NB
 70
     8
280
     0
  0
ATTDEF
  5
122
330
11B
100
AcDbEntity
  8
AM_6
100
AcDbText
 10
7.765625
 20
-3.12
 30
0.0
 40
0.5
  1
$BORE.C
100
AcDbAttributeDefinition
  3

  2
NBSYN
 70
     8
280
     0
  0
ATTDEF
  5
123
330
11B
100
AcDbEntity
  8
AM_6
100
AcDbText
 10
7.765625
 20
-3.62
 30
0.0
 40
0.5
  1
3-1/2C
100
AcDbAttributeDefinition
  3

  2
LINA
 70
     8
280
     0
  0
ATTDEF
  5
124
330
11B
100
AcDbEntity
  8
AM_6
100
AcDbText
 10
7.765625
 20
-4.12
 30
0.0
 40
0.5
  1
3-1/2
100
AcDbAttributeDefinition
  3

  2
BORE
 70
     8
280
     0
  0
ATTDEF
  5
125
330
11B
100
AcDbEntity
  8
AM_6
100
AcDbText
 10
7.765625
 20
-4.62
 30
0.0
 40
0.5
  1
5.53125
100
AcDbAttributeDefinition
  3

  2
L
 70
     8
280
     0
  0
ATTDEF
  5
126
330
11B
100
AcDbEntity
  8
AM_6
100
AcDbText
 10
7.765625
 20
-5.12
 30
0.0
 40
0.5
  1
5.00
100
AcDbAttributeDefinition
  3

  2
A
 70
     8
280
     0
  0
ATTDEF
  5
127
330
11B
100
AcDbEntity
  8
AM_6
100
AcDbText
 10
7.765625
 20
-5.62
 30
0.0
 40
0.5
  1
2.25
100
AcDbAttributeDefinition
  3

  2
B
 70
     8
280
     0
  0
ATTDEF
  5
128
330
11B
100
AcDbEntity
  8
AM_6
100
AcDbText
 10
7.765625
 20
-6.12
 30
0.0
 40
0.5
  1
4.24
100
AcDbAttributeDefinition
  3

  2
C
 70
     8
280
     0
  0
ATTDEF
  5
129
330
11B
100
AcDbEntity
  8
AM_6
100
AcDbText
 10
7.765625
 20
-6.62
 30
0.0
 40
0.5
  1
5.84
100
AcDbAttributeDefinition
  3

  2
D
 70
     8
280
     0
  0
ATTDEF
  5
12A
330
11B
100
AcDbEntity
  8
AM_6
100
AcDbText
 10
7.765625
 20
-7.12
 30
0.0
 40
0.5
  1
0.54
100
AcDbAttributeDefinition
  3

  2
E
 70
     8
280
     0
  0
ATTDEF
  5
12B
330
11B
100
AcDbEntity
  8
AM_6
100
AcDbText
 10
7.765625
 20
-7.62
 30
0.0
 40
0.5
  1
0.44
100
AcDbAttributeDefinition
  3

  2
F
 70
     8
280
     0
  0
ATTDEF
  5
12C
330
11B
100
AcDbEntity
  8
AM_6
100
AcDbText
 10
7.765625
 20
-8.120000000000001
 30
0.0
 40
0.5
  1
1/2-13
100
AcDbAttributeDefinition
  3

  2
CS
 70
     8
280
     0
  0
ATTDEF
  5
12D
330
11B
100
AcDbEntity
  8
AM_6
100
AcDbText
 10
7.765625
 20
-8.620000000000001
 30
0.0
 40
0.5
  1
0.5000
100
AcDbAttributeDefinition
  3

  2
NDM
 70
     8
280
     0
  0
ATTDEF
  5
12E
330
11B
100
AcDbEntity
  8
AM_6
100
AcDbText
 10
7.765625
 20
-9.120000000000001
 30
0.0
 40
0.5
  1
0.4170
100
AcDbAttributeDefinition
  3

  2
KDM
 70
     8
280
     0
  0
ATTDEF
  5
12F
330
11B
100
AcDbEntity
  8
AM_6
100
AcDbText
 10
7.765625
 20
-9.620000000000001
 30
0.0
 40
0.5
  1
baldor
100
AcDbAttributeDefinition
  3

  2
COMPANY
 70
     8
280
     0
  0
LINE
  5
130
330
11B
100
AcDbEntity
  8
AM_9
100
AcDbLine
 10
1.969969530266636
 20
-1.875688878520796
 30
0.0
 11
1.962436053441967
 21
-1.866292473933726
 31
0.0
  0
LINE
  5
131
330
11B
100
AcDbEntity
  8
AM_9
100
AcDbLine
 10
1.96249472472746
 20
-2.253634346158913
 30
0.0
 11
1.969969530266636
 21
-2.244311121479204
 31
0.0
  0
LWPOLYLINE
  5
132
330
11B
100
AcDbEntity
  8
AM_9
100
AcDbPolyline
 90
       26
 70
     0
 43
0.0
 10
1.962315731194076
 20
-1.866142398927413
 10
1.96031657946436
 20
-1.863735721553158
 10
1.946014882870694
 20
-1.850981308949331
 10
1.930483893718179
 20
-1.844320148061696
 10
1.913578400786142
 20
-1.844046838535621
 10
1.896223688997207
 20
-1.850371643799554
 10
1.878825935204822
 20
-1.86336464503481
 10
1.862143516095993
 20
-1.882630222958654
 10
1.84710905846286
 20
-1.907329963640261
 10
1.83409008481678
 20
-1.937054845632422
 10
1.824179144847845
 20
-1.969493259689729
 10
1.817237921763321
 20
-2.004880521281622
 10
1.813839003546537
 20
-2.039950344360223
 10
1.813621110897539
 20
-2.075628263858183
 10
1.816484086818899
 20
-2.109512587883563
 10
1.822159288106486
 20
-2.14202260781982
 10
1.830487206545547
 20
-2.172517053153456
 10
1.841014215827946
 20
-2.200020869556716
 10
1.853934568965852
 20
-2.224898641905716
 10
1.868274295838921
 20
-2.245319014011168
 10
1.884395058555988
 20
-2.261534341330013
 10
1.900971393890077
 20
-2.27201166016802
 10
1.918124926796097
 20
-2.276524871196479
 10
1.934706143552195
 20
-2.274525336237965
 10
1.950480021138408
 20
-2.26579246465159
 10
1.96232196053999
 20
-2.253849832561349
  0
LWPOLYLINE
  5
133
330
11B
100
AcDbEntity
  8
AM_9
100
AcDbPolyline
 90
       12
 70
     0
 43
0.0
 10
1.969527503708527
 20
-2.243643384337563
 10
1.97731140244859
 20
-2.229361093349508
 10
1.987842815470787
 20
-2.20260832287007
 10
1.99593854063961
 20
-2.172130238998791
 10
2.001894853762626
 20
-2.137961439144591
 10
2.005425651105265
 20
-2.103226657961343
 10
2.006895193392169
 20
-2.067142861238747
 10
2.006329904540799
 20
-2.032581780542767
 10
2.00388304802168
 20
-1.998801935484985
 10
1.999610670500976
 20
-1.966994881265923
 10
1.993586491174249
 20
-1.937677427931419
 10
1.980876747911817
 20
-1.898527269720325
  0
LWPOLYLINE
  5
134
330
11B
100
AcDbEntity
  8
AM_9
100
AcDbPolyline
 90
        3
 70
     0
 43
0.0
 10
1.96232196053999
 20
-2.253849832561349
 10
1.964829367174535
 20
-2.250581458022958
 10
1.969527503708527
 20
-2.243643384337563
  0
LINE
  5
135
330
11B
100
AcDbEntity
  8
AM_9
100
AcDbLine
 10
1.928909968279886
 20
-2.26835
 30
0.0
 11
2.468759754193158
 21
-2.26835
 31
0.0
  0
LINE
  5
136
330
11B
100
AcDbEntity
  8
AM_9
100
AcDbLine
 10
2.468759754193158
 20
-1.85165
 30
0.0
 11
1.928909968279886
 21
-1.85165
 31
0.0
  0
ELLIPSE
  5
137
330
11B
100
AcDbEntity
  8
AM_9
100
AcDbEllipse
 10
2.468759754193159
 20
-2.060000000000001
 30
0.0
 11
-3.827327409035254E-17
 21
-0.2083499999999994
 31
0.0
210
0.0
220
0.0
230
1.0
 40
0.4226182617407065
 41
2.663619304370352
 42
5.945514046955634
  0
LINE
  5
138
330
11B
100
AcDbEntity
  8
AM_9
100
AcDbLine
 10
2.42770019220641
 20
-2.244311121479205
 30
0.0
 11
2.455238400430553
 21
-2.278659159191317
 31
0.0
  0
LINE
  5
139
330
11B
100
AcDbEntity
  8
AM_9
100
AcDbLine
 10
2.455417582961736
 20
-1.841117348841147
 30
0.0
 11
2.42770019220641
 21
-1.875688878520796
 31
0.0
  0
LWPOLYLINE
  5
13A
330
11B
100
AcDbEntity
  8
AM_9
100
AcDbPolyline
 90
        4
 70
     0
 43
0.0
 10
2.434423168743499
 20
-1.874503091847102
 10
2.437892931360194
 20
-1.867915814673118
 10
2.454021752565456
 20
-1.842891104021224
 10
2.455521581612547
 20
-1.840987633746642
  0
LWPOLYLINE
  5
13B
330
11B
100
AcDbEntity
  8
AM_9
100
AcDbPolyline
 90
        8
 70
     0
 43
0.0
 10
2.455521581612547
 20
-1.840987633746642
 10
2.470828216591896
 20
-1.825081310450273
 10
2.488302698187129
 20
-1.81394777968995
 10
2.505118275031466
 20
-1.810050537462284
 10
2.521479350183621
 20
-1.812830771049182
 10
2.536617447875447
 20
-1.822041235355647
 10
2.550520426500118
 20
-1.837258966098944
 10
2.568088496355109
 20
-1.869456148857068
  0
LWPOLYLINE
  5
13C
330
11B
100
AcDbEntity
  8
AM_9
100
AcDbPolyline
 90
        6
 70
     0
 43
0.0
 10
0.0059913238698183
 20
-1.843407716725249
 10
-0.029642325508354
 20
-1.845161397225979
 10
-0.0685666345133421
 20
-1.853299965631897
 10
-0.1066302390272933
 20
-1.868311707043657
 10
-0.1343473742913629
 20
-1.884615013553354
 10
-0.159986555811746
 20
-1.905064722724611
  0
LWPOLYLINE
  5
13D
330
11B
100
AcDbEntity
  8
AM_9
100
AcDbPolyline
 90
       34
 70
     0
 43
0.0
 10
-0.159986555811746
 20
-1.905064722724611
 10
-0.182281888037872
 20
-1.928921760141794
 10
-0.2011604523234221
 20
-1.956484825746909
 10
-0.2165671828156271
 20
-1.989487237530668
 10
-0.2262049663605153
 20
-2.025842931974717
 10
-0.2290795232288547
 20
-2.060328885050799
 10
-0.2259108595954708
 20
-2.09585032082609
 10
-0.2172904772749014
 20
-2.128499192500931
 10
-0.203064894497397
 20
-2.16014053645612
 10
-0.1840077830173843
 20
-2.188905203869766
 10
-0.1599992104012865
 20
-2.214923585882261
 10
-0.1314413405763095
 20
-2.237346179249616
 10
-0.0988315880532858
 20
-2.255399301159092
 10
-0.0628452739432501
 20
-2.268325513416767
 10
-0.0242007993715099
 20
-2.275449863970397
 10
0.0152712729049052
 20
-2.276182956173145
 10
0.0554285413922742
 20
-2.270206316388949
 10
0.0932081860078283
 20
-2.257861595767471
 10
0.1293621007158061
 20
-2.238710338956809
 10
0.1601727600496683
 20
-2.214763064002312
 10
0.187109775992516
 20
-2.184851475392248
 10
0.2067655250673396
 20
-2.153136256702722
 10
0.220903184276739
 20
-2.117273549354084
 10
0.2278064170443369
 20
-2.082772149730406
 10
0.2286320082509655
 20
-2.046484095318382
 10
0.2236043142561953
 20
-2.01299329392418
 10
0.21279329893227
 20
-1.979890231451797
 10
0.1970406545663652
 20
-1.949636014858393
 10
0.1761067969000716
 20
-1.921581632183136
 10
0.150490749802942
 20
-1.896772845840065
 10
0.1204884042803835
 20
-1.875816305205841
 10
0.0865736510791597
 20
-1.85945351547205
 10
0.0494815543811856
 20
-1.848466031346461
 10
0.0120701095771131
 20
-1.843635382627088
  0
LINE
  5
13E
330
11B
100
AcDbEntity
  8
AM_9
100
AcDbLine
 10
1.968404671260874
 20
-1.874595946131974
 30
0.0
 11
1.962315731194076
 21
-1.866142398927413
 31
0.0
  0
LINE
  5
13F
330
11B
100
AcDbEntity
  8
AM_9
100
AcDbLine
 10
1.969792449546971
 20
-1.87678195363352
 30
0.0
 11
1.968404671260874
 21
-1.874595946131974
 31
0.0
  0
LWPOLYLINE
  5
140
330
11B
100
AcDbEntity
  8
AM_9
100
AcDbPolyline
 90
        3
 70
     0
 43
0.0
 10
1.980876747911817
 20
-1.898527269720325
 10
1.971220258317906
 20
-1.879156530532244
 10
1.969792449546971
 20
-1.87678195363352
  0
LINE
  5
141
330
11B
100
AcDbEntity
  8
AM_9
100
AcDbLine
 10
2.12
 20
-2.5
 30
0.0
 11
2.12
 21
-1.62
 31
0.0
  0
LINE
  5
142
330
11B
100
AcDbEntity
  8
AM_9
100
AcDbLine
 10
-2.12
 20
-1.62
 30
0.0
 11
-2.12
 21
-2.5
 31
0.0
  0
ARC
  5
143
330
11B
100
AcDbEntity
  8
AM_9
100
AcDbCircle
 10
0.0
 20
-2.06
 30
0.0
 40
0.2083499999999998
100
AcDbArc
 50
62.61414436999205
 51
117.385855630008
  0
LWPOLYLINE
  5
144
330
11B
100
AcDbEntity
  8
AM_9
100
AcDbPolyline
 90
       11
 70
     0
 43
0.0
 10
-0.1605797778725846
 20
-1.874519513206131
 10
-0.1466151085990734
 20
-1.86232696986577
 10
-0.1163791247903692
 20
-1.841511939567762
 10
-0.0800685494273319
 20
-1.824392854716465
 10
-0.0401075660036862
 20
-1.813532865482273
 10
-0.0015910917863086
 20
-1.810005520892252
 10
0.0381242237546716
 20
-1.813189910085175
 10
0.0749440761204486
 20
-1.822562414249223
 10
0.1106839500356834
 20
-1.838310804003541
 10
0.1429491919906712
 20
-1.859423890105265
 10
0.1604840336852437
 20
-1.874429305903052
  0
LINE
  5
145
330
11B
100
AcDbEntity
  8
AM_9
100
AcDbLine
 10
-2.765625
 20
-1.62
 30
0.0
 11
2.765625
 21
-1.62
 31
0.0
  0
LINE
  5
146
330
11B
100
AcDbEntity
  8
AM_9
100
AcDbLine
 10
2.568088496355109
 20
-1.869456148857068
 30
0.0
 11
2.57020101370225
 21
-1.874668057376629
 31
0.0
  0
LINE
  5
147
330
11B
100
AcDbEntity
  8
AM_9
100
AcDbLine
 10
2.765625
 20
-1.875
 30
0.0
 11
2.765625
 21
-1.62
 31
0.0
  0
LINE
  5
148
330
11B
100
AcDbEntity
  8
AM_9
100
AcDbLine
 10
-2.765625
 20
-1.62
 30
0.0
 11
-2.765625
 21
-1.875
 31
0.0
  0
ELLIPSE
  5
149
330
11B
100
AcDbEntity
  8
AM_9
100
AcDbEllipse
 10
1.928909968279886
 20
-2.06
 30
0.0
 11
-3.827327409035270E-17
 21
-0.2083500000000003
 31
0.0
210
0.0
220
0.0
230
1.0
 40
0.4226182617406972
 41
0.0
 42
6.283185307179586
  0
LINE
  5
14A
330
11B
100
AcDbEntity
  8
AM_7
100
AcDbLine
 10
-0.2187675000000001
 20
-2.06
 30
0.0
 11
0.2187674999999998
 21
-2.06
 31
0.0
  0
ELLIPSE
  5
14B
330
11B
100
AcDbEntity
  8
AM_4
100
AcDbEllipse
 10
2.468759754193158
 20
-2.06
 30
0.0
 11
-3.827327409035262E-17
 21
-0.2083499999999998
 31
0.0
210
0.0
220
0.0
230
1.0
 40
0.4226182617407013
 41
5.945514046955646
 42
8.94680461154992
  0
LWPOLYLINE
  5
14C
330
11B
100
AcDbEntity
  8
AM_4
100
AcDbPolyline
 90
       13
 70
     0
 43
0.0
 10
2.455516714671396
 20
-2.279006294264277
 10
2.448822987244066
 20
-2.269992761535575
 10
2.434350196667221
 20
-2.24532565185167
 10
2.421674022543416
 20
-2.216043588687772
 10
2.410848127008145
 20
-2.181505497673463
 10
2.402758375290724
 20
-2.143837169016963
 10
2.397584453112596
 20
-2.10248355305022
 10
2.39582323828733
 20
-2.059981881092285
 10
2.397664023572559
 20
-2.01658008263652
 10
2.403060653872013
 20
-1.974402289691657
 10
2.411876320240033
 20
-1.934662822324092
 10
2.423729514258
 20
-1.898562444813533
 10
2.434423168743499
 20
-1.874503091847102
  0
ARC
  5
14D
330
11B
100
AcDbEntity
  8
AM_4
100
AcDbCircle
 10
0.0
 20
-2.06
 30
0.0
 40
0.2083499999999998
100
AcDbArc
 50
117.385855630008
 51
62.61414436999207
  0
LINE
  5
14E
330
11B
100
AcDbEntity
  8
AM_4
100
AcDbLine
 10
-2.618958333333333
 20
-2.5
 30
0.0
 11
2.618958333314419
 21
-2.5
 31
0.0
  0
ARC
  5
14F
330
11B
100
AcDbEntity
  8
AM_4
100
AcDbCircle
 10
2.618958333333333
 20
-2.353333333333333
 30
0.0
 40
0.1466666666666665
100
AcDbArc
 50
270.0
 51
0.0000008537736463
  0
ARC
  5
150
330
11B
100
AcDbEntity
  8
AM_4
100
AcDbCircle
 10
-2.618958333333333
 20
-2.353333333333333
 30
0.0
 40
0.1466666666666665
100
AcDbArc
 50
179.9999991462263
 51
270.0
  0
LINE
  5
151
330
11B
100
AcDbEntity
  8
AM_4
100
AcDbLine
 10
-2.765625
 20
-2.353333333333333
 30
0.0
 11
2.765625
 21
-2.353333333333333
 31
0.0
  0
LWPOLYLINE
  5
152
330
11B
100
AcDbEntity
  8
AM_4
100
AcDbPolyline
 90
       30
 70
     0
 43
0.0
 10
0.1604840336852437
 20
-1.874429305903052
 10
0.1721400476344461
 20
-1.886174387082822
 10
0.196896618873888
 20
-1.917620076383417
 10
0.2167835486013565
 20
-1.953592237731818
 10
0.2307768560049755
 20
-1.992825692305774
 10
0.2383941113182138
 20
-2.034954074112151
 10
0.2389979822378551
 20
-2.077718291680144
 10
0.2323018541289049
 20
-2.121193298617139
 10
0.2187179161544784
 20
-2.16201189771363
 10
0.1977813592424338
 20
-2.201039362641246
 10
0.1716479714717849
 20
-2.234354545975526
 10
0.1391290631863576
 20
-2.263480912538765
 10
0.1043925105882328
 20
-2.284990278917517
 10
0.0652079837590481
 20
-2.300549553365496
 10
0.0268770278015247
 20
-2.308419688210409
 10
-0.0134419435199896
 20
-2.309605652863203
 10
-0.0511383608301642
 20
-2.304230782875941
 10
-0.0884484157510986
 20
-2.292317720695634
 10
-0.1224699899371711
 20
-2.274830081559216
 10
-0.1540304933083627
 20
-2.251433278534374
 10
-0.1815368421344609
 20
-2.223087997504319
 10
-0.2047254909735529
 20
-2.189811943954918
 10
-0.2225016106036312
 20
-2.152687282490252
 10
-0.2343362195250159
 20
-2.112082466723259
 10
-0.2394136169842785
 20
-2.069889342403728
 10
-0.2374028479375772
 20
-2.026236460859731
 10
-0.2282971011500161
 20
-1.98417059397395
 10
-0.2117489816435712
 20
-1.943084660893379
 10
-0.1943800210082332
 20
-1.913905885719618
 10
-0.1727888099394485
 20
-1.886876531480668
  0
LINE
  5
153
330
11B
100
AcDbEntity
  8
AM_4
100
AcDbLine
 10
-0.1727888099394485
 20
-1.886876531480668
 30
0.0
 11
-0.1605797778725846
 21
-1.874519513206131
 31
0.0
  0
LWPOLYLINE
  5
154
330
11B
100
AcDbEntity
  8
AM_4
100
AcDbPolyline
 90
       19
 70
     0
 43
0.0
 10
2.57020101370225
 20
-1.874668057376629
 10
2.577418204676445
 20
-1.895595106237953
 10
2.585082250319259
 20
-1.925168227803887
 10
2.591724972279837
 20
-1.962363309203199
 10
2.596094628666732
 20
-2.002120924653908
 10
2.598182949068788
 20
-2.044714561147385
 10
2.597833758752223
 20
-2.087727338148771
 10
2.594963032873581
 20
-2.130591772637654
 10
2.589589177443513
 20
-2.171444182224608
 10
2.581760634177392
 20
-2.208817166659082
 10
2.571536738313013
 20
-2.241844775217019
 10
2.559368565260038
 20
-2.268674417529128
 10
2.545224910501124
 20
-2.289425905261161
 10
2.530060604781306
 20
-2.302781924176859
 10
2.51370278901504
 20
-2.309358550585322
 10
2.497222195244605
 20
-2.308937410158271
 10
2.480527711377978
 20
-2.302002634740324
 10
2.464277718773783
 20
-2.288855825897105
 10
2.455516714671396
 20
-2.279006294264277
  0
LINE
  5
155
330
11B
100
AcDbEntity
  8
AM_4
100
AcDbLine
 10
2.765625
 20
-2.353333333333333
 30
0.0
 11
2.765625
 21
-1.875
 31
0.0
  0
LINE
  5
156
330
11B
100
AcDbEntity
  8
AM_4
100
AcDbLine
 10
-2.765625
 20
-1.875
 30
0.0
 11
-2.765625
 21
-2.353333333333333
 31
0.0
  0
CIRCLE
  5
157
330
11B
100
AcDbEntity
  8
AM_5
100
AcDbCircle
 10
0.0000000000000003
 20
-2.06
 30
0.0
 40
0.2500000000000002
  0
ENDBLK
  5
11E
330
11B
100
AcDbEntity
  8
0
100
AcDbBlockEnd
  0
BLOCK
  5
15A
330
158
100
AcDbEntity
  8
0
100
AcDbBlockBegin
  2
5_3_1_2I_0_in_023164_4
 70
     2
 10
0.0
 20
0.0
 30
0.0
  3
5_3_1_2I_0_in_023164_4
  1

  0
ATTDEF
  5
15C
330
158
100
AcDbEntity
  8
AM_6
100
AcDbText
 10
7.92
 20
2.75
 30
0.0
 40
0.5
  1
E-Type Insert -Inch
100
AcDbAttributeDefinition
  3

  2
NN
 70
     8
280
     0
  0
ATTDEF
  5
15D
330
158
100
AcDbEntity
  8
AM_6
100
AcDbText
 10
7.92
 20
2.25
 30
0.0
 40
0.5
  1
E-Type Bearings
100
AcDbAttributeDefinition
  3

  2
NT
 70
     8
280
     0
  0
ATTDEF
  5
15E
330
158
100
AcDbEntity
  8
AM_6
100
AcDbText
 10
7.92
 20
1.75
 30
0.0
 40
0.5
  1
3-1/2I
100
AcDbAttributeDefinition
  3

  2
NB
 70
     8
280
     0
  0
ATTDEF
  5
15F
330
158
100
AcDbEntity
  8
AM_6
100
AcDbText
 10
7.92
 20
1.25
 30
0.0
 40
0.5
  1
$BORE.I
100
AcDbAttributeDefinition
  3

  2
NBSYN
 70
     8
280
     0
  0
ATTDEF
  5
160
330
158
100
AcDbEntity
  8
AM_6
100
AcDbText
 10
7.92
 20
0.75
 30
0.0
 40
0.5
  1
3-1/2I
100
AcDbAttributeDefinition
  3

  2
LINA
 70
     8
280
     0
  0
ATTDEF
  5
161
330
158
100
AcDbEntity
  8
AM_6
100
AcDbText
 10
7.92
 20
0.25
 30
0.0
 40
0.5
  1
3-1/2
100
AcDbAttributeDefinition
  3

  2
BORE
 70
     8
280
     0
  0
ATTDEF
  5
162
330
158
100
AcDbEntity
  8
AM_6
100
AcDbText
 10
7.92
 20
-0.25
 30
0.0
 40
0.5
  1
5.00
100
AcDbAttributeDefinition
  3

  2
A
 70
     8
280
     0
  0
ATTDEF
  5
163
330
158
100
AcDbEntity
  8
AM_6
100
AcDbText
 10
7.92
 20
-0.75
 30
0.0
 40
0.5
  1
2.25
100
AcDbAttributeDefinition
  3

  2
B
 70
     8
280
     0
  0
ATTDEF
  5
164
330
158
100
AcDbEntity
  8
AM_6
100
AcDbText
 10
7.92
 20
-1.25
 30
0.0
 40
0.5
  1
4.24
100
AcDbAttributeDefinition
  3

  2
C
 70
     8
280
     0
  0
ATTDEF
  5
165
330
158
100
AcDbEntity
  8
AM_6
100
AcDbText
 10
7.92
 20
-1.75
 30
0.0
 40
0.5
  1
5.84
100
AcDbAttributeDefinition
  3

  2
D
 70
     8
280
     0
  0
ATTDEF
  5
166
330
158
100
AcDbEntity
  8
AM_6
100
AcDbText
 10
7.92
 20
-2.25
 30
0.0
 40
0.5
  1
0.54
100
AcDbAttributeDefinition
  3

  2
E
 70
     8
280
     0
  0
ATTDEF
  5
167
330
158
100
AcDbEntity
  8
AM_6
100
AcDbText
 10
7.92
 20
-2.75
 30
0.0
 40
0.5
  1
0.44
100
AcDbAttributeDefinition
  3

  2
F
 70
     8
280
     0
  0
ATTDEF
  5
168
330
158
100
AcDbEntity
  8
AM_6
100
AcDbText
 10
7.92
 20
-3.25
 30
0.0
 40
0.5
  1
baldor
100
AcDbAttributeDefinition
  3

  2
COMPANY
 70
     8
280
     0
  0
LINE
  5
169
330
158
100
AcDbEntity
  8
AM_9
100
AcDbLine
 10
1.921270411568945
 20
2.33
 30
0.0
 11
1.586015397269271
 21
2.33
 31
0.0
  0
LINE
  5
16A
330
158
100
AcDbEntity
  8
AM_9
100
AcDbLine
 10
1.585913240754471
 20
1.79
 30
0.0
 11
1.921367366337284
 21
1.79
 31
0.0
  0
LWPOLYLINE
  5
16B
330
158
100
AcDbEntity
  8
AM_9
100
AcDbPolyline
 90
       16
 70
     0
 43
0.0
 10
1.658972824016475
 20
1.874565358522644
 10
1.666034359441123
 20
1.901677907323225
 10
1.673220610800633
 20
1.94127222977127
 10
1.677982437899045
 20
1.983153909595356
 10
1.680636676991609
 20
2.028533272925942
 10
1.681065814376517
 20
2.073066409810735
 10
1.679339899786797
 20
2.118515633265861
 10
1.675562128572522
 20
2.160826154391048
 10
1.669474316190902
 20
2.201467835321359
 10
1.661301156463926
 20
2.237376433405309
 10
1.650592262542314
 20
2.269251165957467
 10
1.637850387510994
 20
2.294664041791906
 10
1.622528019451731
 20
2.314033440540459
 10
1.605787531231232
 20
2.325671802599382
 10
1.586941387210477
 20
2.329991527723405
 10
1.586043897547688
 20
2.329999999712011
  0
LWPOLYLINE
  5
16C
330
158
100
AcDbEntity
  8
AM_9
100
AcDbPolyline
 90
        7
 70
     0
 43
0.0
 10
1.586029114160909
 20
1.790000000938311
 10
1.598372174570195
 20
1.791641248539816
 10
1.615602431763418
 20
1.800123922794616
 10
1.631540431548707
 20
1.816144362945957
 10
1.645085006381353
 20
1.838461427550466
 10
1.656790270598242
 20
1.867647515083582
 10
1.658972824016475
 20
1.874565358522644
  0
LWPOLYLINE
  5
16D
330
158
100
AcDbEntity
  8
AM_9
100
AcDbPolyline
 90
       10
 70
     0
 43
0.0
 10
1.586043897547688
 20
2.329999999712011
 10
1.567756521905612
 20
2.326686595159805
 10
1.547524983960666
 20
2.315755560980837
 10
1.528069926610653
 20
2.298141997804907
 10
1.509004367991968
 20
2.273356923477601
 10
1.491958855343593
 20
2.243118701546488
 10
1.476908828174014
 20
2.206772969368417
 10
1.46530600112651
 20
2.167103144023651
 10
1.457147119314733
 20
2.123123642655275
 10
1.452940904898358
 20
2.06
  0
LWPOLYLINE
  5
16E
330
158
100
AcDbEntity
  8
AM_9
100
AcDbPolyline
 90
        7
 70
     0
 43
0.0
 10
1.996066979929188
 20
1.874583692759468
 10
1.986779804361681
 20
1.849660164087472
 10
1.973234752836881
 20
1.824205749338025
 10
1.957647662893998
 20
1.805415506013689
 10
1.940309279796161
 20
1.793956312213228
 10
1.9215992953357
 20
1.790000533557966
 10
1.921374064685299
 20
1.790000000025109
  0
LWPOLYLINE
  5
16F
330
158
100
AcDbEntity
  8
AM_9
100
AcDbPolyline
 90
       16
 70
     0
 43
0.0
 10
1.921362434061032
 20
2.329999998947693
 10
1.933945910148141
 20
2.328304267439845
 10
1.951657013168143
 20
2.319496683309979
 10
1.967761806228692
 20
2.303498960689549
 10
1.981957578358235
 20
2.280601450434246
 10
1.99402701940013
 20
2.251574295305775
 10
2.003880508434523
 20
2.216881860238628
 10
2.011396389034433
 20
2.177747335731764
 10
2.016530469753956
 20
2.135192600984268
 10
2.019303849163162
 20
2.090484654766669
 10
2.019703637865599
 20
2.045208129285627
 10
2.017780425357765
 20
2.00035100277207
 10
2.013527633302181
 20
1.95735407718894
 10
2.006962635267339
 20
1.917226163107392
 10
1.998013945701898
 20
1.880937595018888
 10
1.996066979929188
 20
1.874583692759468
  0
LWPOLYLINE
  5
170
330
158
100
AcDbEntity
  8
AM_9
100
AcDbPolyline
 90
        6
 70
     0
 43
0.0
 10
1.830125303592576
 20
1.874687145178106
 10
1.828100789346451
 20
1.879041916526437
 10
1.813940359124422
 20
1.915168206321805
 10
1.802860983418575
 20
1.955593915196048
 10
1.795370778340242
 20
1.999004913387995
 10
1.791619363453729
 20
2.06
  0
LWPOLYLINE
  5
171
330
158
100
AcDbEntity
  8
AM_9
100
AcDbPolyline
 90
        6
 70
     0
 43
0.0
 10
1.921374064685299
 20
1.790000000025109
 10
1.90213235550042
 20
1.793721604390507
 10
1.882387097124381
 20
1.804847562523248
 10
1.863021857539151
 20
1.823146476811262
 10
1.844723043114975
 20
1.848004024015004
 10
1.830125303592576
 20
1.874687145178106
  0
LINE
  5
172
330
158
100
AcDbEntity
  8
AM_9
100
AcDbLine
 10
1.921270411568945
 20
-1.79
 30
0.0
 11
1.586015397269271
 21
-1.79
 31
0.0
  0
LINE
  5
173
330
158
100
AcDbEntity
  8
AM_9
100
AcDbLine
 10
1.585913240754471
 20
-2.33
 30
0.0
 11
1.921367366337284
 21
-2.33
 31
0.0
  0
LWPOLYLINE
  5
174
330
158
100
AcDbEntity
  8
AM_9
100
AcDbPolyline
 90
        7
 70
     0
 43
0.0
 10
1.658956977174734
 20
-1.87451302017683
 10
1.650592262542314
 20
-1.850748834042533
 10
1.637850387510994
 20
-1.825335958208095
 10
1.622528019451731
 20
-1.805966559459541
 10
1.605787531231232
 20
-1.794328197400618
 10
1.586941387210477
 20
-1.790008472276596
 10
1.586043897547688
 20
-1.790000000287989
  0
LWPOLYLINE
  5
175
330
158
100
AcDbEntity
  8
AM_9
100
AcDbPolyline
 90
       16
 70
     0
 43
0.0
 10
1.586029114160909
 20
-2.329999999061689
 10
1.598372174570195
 20
-2.328358751460184
 10
1.615602431763418
 20
-2.319876077205385
 10
1.631540431548707
 20
-2.303855637054043
 10
1.645085006381353
 20
-2.281538572449534
 10
1.656790270598242
 20
-2.252352484916418
 10
1.666034359441123
 20
-2.218322092676775
 10
1.673220610800633
 20
-2.17872777022873
 10
1.677982437899045
 20
-2.136846090404644
 10
1.680636676991609
 20
-2.091466727074058
 10
1.681065814376517
 20
-2.046933590189265
 10
1.679339899786797
 20
-2.00148436673414
 10
1.675562128572522
 20
-1.959173845608952
 10
1.669474316190902
 20
-1.918532164678641
 10
1.661301156463926
 20
-1.882623566594692
 10
1.658956977174734
 20
-1.87451302017683
  0
LWPOLYLINE
  5
176
330
158
100
AcDbEntity
  8
AM_9
100
AcDbPolyline
 90
       10
 70
     0
 43
0.0
 10
1.586043897547688
 20
-1.790000000287989
 10
1.567756521905612
 20
-1.793313404840195
 10
1.547524983960666
 20
-1.804244439019163
 10
1.528069926610653
 20
-1.821858002195093
 10
1.509004367991968
 20
-1.8466430765224
 10
1.491958855343593
 20
-1.876881298453512
 10
1.476908828174014
 20
-1.913227030631584
 10
1.46530600112651
 20
-1.95289685597635
 10
1.457147119314733
 20
-1.996876357344725
 10
1.452940904898358
 20
-2.06
  0
LWPOLYLINE
  5
177
330
158
100
AcDbEntity
  8
AM_9
100
AcDbPolyline
 90
       16
 70
     0
 43
0.0
 10
1.996069376549891
 20
-1.874591190830441
 10
2.003880508434523
 20
-1.903118139761372
 10
2.011396389034433
 20
-1.942252664268236
 10
2.016530469753956
 20
-1.984807399015732
 10
2.019303849163162
 20
-2.029515345233332
 10
2.019703637865599
 20
-2.074791870714373
 10
2.017780425357765
 20
-2.11964899722793
 10
2.013527633302181
 20
-2.162645922811061
 10
2.006962635267339
 20
-2.202773836892609
 10
1.998013945701898
 20
-2.239062404981112
 10
1.986779804361681
 20
-2.270339835912528
 10
1.973234752836881
 20
-2.295794250661976
 10
1.957647662893998
 20
-2.314584493986311
 10
1.940309279796161
 20
-2.326043687786772
 10
1.9215992953357
 20
-2.329999466442034
 10
1.921374064685299
 20
-2.329999999974892
  0
LWPOLYLINE
  5
178
330
158
100
AcDbEntity
  8
AM_9
100
AcDbPolyline
 90
        7
 70
     0
 43
0.0
 10
1.921362434061032
 20
-1.790000001052307
 10
1.933945910148141
 20
-1.791695732560156
 10
1.951657013168143
 20
-1.800503316690021
 10
1.967761806228692
 20
-1.816501039310451
 10
1.981957578358235
 20
-1.839398549565755
 10
1.99402701940013
 20
-1.868425704694225
 10
1.996069376549891
 20
-1.874591190830441
  0
LWPOLYLINE
  5
179
330
158
100
AcDbEntity
  8
AM_9
100
AcDbPolyline
 90
       10
 70
     0
 43
0.0
 10
1.921374064685299
 20
-2.329999999974892
 10
1.90213235550042
 20
-2.326278395609493
 10
1.882387097124381
 20
-2.315152437476752
 10
1.863021857539151
 20
-2.296853523188738
 10
1.844723043114975
 20
-2.271995975984996
 10
1.828100789346451
 20
-2.240958083473564
 10
1.813940359124422
 20
-2.204831793678195
 10
1.802860983418575
 20
-2.164406084803952
 10
1.795370778340242
 20
-2.120995086612005
 10
1.791619363453729
 20
-2.06
  0
LWPOLYLINE
  5
17A
330
158
100
AcDbEntity
  8
AM_9
100
AcDbPolyline
 90
       11
 70
     0
 43
0.0
 10
1.452940904898358
 20
2.06
 10
1.455009344116143
 20
2.015616521963449
 10
1.461347712536235
 20
1.971233043926897
 10
1.471284997777845
 20
1.930588305409507
 10
1.484896010532315
 20
1.892482531051051
 10
1.500944279651331
 20
1.859817823097777
 10
1.519530923135524
 20
1.831951254035386
 10
1.53896302843414
 20
1.811114674129145
 10
1.559499370535521
 20
1.796877063011768
 10
1.579081486341717
 20
1.790492420312656
 10
1.586029114160909
 20
1.790000000938311
  0
LWPOLYLINE
  5
17B
330
158
100
AcDbEntity
  8
AM_9
100
AcDbPolyline
 90
       11
 70
     0
 43
0.0
 10
1.452940904898358
 20
-2.06
 10
1.455009344116143
 20
-2.104383478036552
 10
1.461347712536235
 20
-2.148766956073103
 10
1.471284997777845
 20
-2.189411694590494
 10
1.484896010532315
 20
-2.227517468948949
 10
1.500944279651331
 20
-2.260182176902223
 10
1.519530923135524
 20
-2.288048745964614
 10
1.53896302843414
 20
-2.308885325870855
 10
1.559499370535521
 20
-2.323122936988233
 10
1.579081486341717
 20
-2.329507579687344
 10
1.586029114160909
 20
-2.329999999061689
  0
LINE
  5
17C
330
158
100
AcDbEntity
  8
AM_9
100
AcDbLine
 10
1.75
 20
-2.5
 30
0.0
 11
1.75
 21
2.5
 31
0.0
  0
LINE
  5
17D
330
158
100
AcDbEntity
  8
AM_9
100
AcDbLine
 10
-1.75
 20
2.5
 30
0.0
 11
-1.75
 21
-2.5
 31
0.0
  0
LWPOLYLINE
  5
17E
330
158
100
AcDbEntity
  8
AM_9
100
AcDbPolyline
 90
        6
 70
     0
 43
0.0
 10
-0.1964133690229907
 20
1.874738594226864
 10
-0.1999349987864695
 20
1.878544781667062
 10
-0.2278678378796728
 20
1.915168206321805
 10
-0.2487354888145436
 20
1.95497306724373
 10
-0.2630201501961286
 20
1.999004913387995
 10
-0.27
 20
2.06
  0
LWPOLYLINE
  5
17F
330
158
100
AcDbEntity
  8
AM_9
100
AcDbPolyline
 90
       11
 70
     0
 43
0.0
 10
0.196251762236767
 20
1.874567408962277
 10
0.1692842385701956
 20
1.849660164087472
 10
0.1320653180129143
 20
1.824503180959598
 10
0.089926277704205
 20
1.805415506013689
 10
0.0465451987187157
 20
1.79404221298064
 10
0.0005367690536257
 20
1.790000533557966
 10
-0.0438748455910508
 20
1.793588667800408
 10
-0.0883019458996909
 20
1.804847562523248
 10
-0.1290144998894824
 20
1.822818089184131
 10
-0.1672055805473276
 20
1.848004024015004
 10
-0.1964133690229907
 20
1.874738594226864
  0
LWPOLYLINE
  5
180
330
158
100
AcDbEntity
  8
AM_9
100
AcDbPolyline
 90
       25
 70
     0
 43
0.0
 10
-0.27
 20
2.06
 10
-0.2663109624359738
 20
2.104480009964313
 10
-0.25492374321412
 20
2.148960019928626
 10
-0.2368092205423459
 20
2.189697313257163
 10
-0.2114584403169832
 20
2.227884865365252
 10
-0.1808094215700311
 20
2.260519208734502
 10
-0.1440910850326242
 20
2.288336942289506
 10
-0.1042189316590731
 20
2.309075117753343
 10
-0.0601411733322968
 20
2.323216715408073
 10
-0.0158400238825024
 20
2.329534958110079
 10
0.0302129123648885
 20
2.328304267439845
 10
0.0738673687355326
 20
2.319699079390146
 10
0.1166544304478383
 20
2.303498960689549
 10
0.155123404917114
 20
2.280990337451485
 10
0.1902611084223357
 20
2.251574295305775
 10
0.2193545132907287
 20
2.217428070873614
 10
0.2429723542464683
 20
2.177747335731764
 10
0.259130564105496
 20
2.135837660475304
 10
0.2682735279966271
 20
2.090484654766669
 10
0.2696294820557047
 20
2.045859900765113
 10
0.2633286864921906
 20
2.00035100277207
 10
0.2499656807466769
 20
1.95793551818164
 10
0.2291628929363625
 20
1.917226163107391
 10
0.2024906266450752
 20
1.881401158679893
 10
0.196251762236767
 20
1.874567408962277
  0
LWPOLYLINE
  5
181
330
158
100
AcDbEntity
  8
AM_9
100
AcDbPolyline
 90
       11
 70
     0
 43
0.0
 10
1.791619363453729
 20
2.06
 10
1.793680201484576
 20
2.105118390831229
 10
1.799695598181415
 20
2.148960019928626
 10
1.809442929689218
 20
2.190246770506825
 10
1.822424575100469
 20
2.227884865365252
 10
1.838205700397183
 20
2.26093226445307
 10
1.85603388027071
 20
2.288336942289506
 10
1.875290061888233
 20
2.30930443801334
 10
1.895182462775094
 20
2.323216715408073
 10
1.914901538821924
 20
2.329545046610922
 10
1.921362434061032
 20
2.329999998947693
  0
LINE
  5
182
330
158
100
AcDbEntity
  8
AM_9
100
AcDbLine
 10
2.12
 20
1.125
 30
0.0
 11
2.12
 21
2.5
 31
0.0
  0
LINE
  5
183
330
158
100
AcDbEntity
  8
AM_9
100
AcDbLine
 10
-2.12
 20
2.5
 30
0.0
 11
-2.12
 21
1.125
 31
0.0
  0
LWPOLYLINE
  5
184
330
158
100
AcDbEntity
  8
AM_9
100
AcDbPolyline
 90
       24
 70
     0
 43
0.0
 10
0.1962838653585844
 20
-1.874601391051893
 10
0.2193545132907287
 20
-1.902571929126387
 10
0.2429723542464683
 20
-1.942252664268236
 10
0.259130564105496
 20
-1.984162339524696
 10
0.2682735279966271
 20
-2.029515345233332
 10
0.2696294820557047
 20
-2.074140099234887
 10
0.2633286864921906
 20
-2.11964899722793
 10
0.2499656807466769
 20
-2.16206448181836
 10
0.2291628929363625
 20
-2.202773836892609
 10
0.2024906266450752
 20
-2.238598841320107
 10
0.1692842385701956
 20
-2.270339835912528
 10
0.1320653180129143
 20
-2.295496819040402
 10
0.089926277704205
 20
-2.314584493986311
 10
0.0465451987187157
 20
-2.32595778701936
 10
0.0005367690536257
 20
-2.329999466442034
 10
-0.0438748455910508
 20
-2.326411332199593
 10
-0.0883019458996909
 20
-2.315152437476752
 10
-0.1290144998894824
 20
-2.297181910815869
 10
-0.1672055805473276
 20
-2.271995975984996
 10
-0.1999349987864695
 20
-2.241455218332939
 10
-0.2278678378796728
 20
-2.204831793678195
 10
-0.2487354888145436
 20
-2.16502693275627
 10
-0.2630201501961286
 20
-2.120995086612005
 10
-0.27
 20
-2.06
  0
LWPOLYLINE
  5
185
330
158
100
AcDbEntity
  8
AM_9
100
AcDbPolyline
 90
       12
 70
     0
 43
0.0
 10
-0.1960575925214262
 20
-1.874362125592049
 10
-0.1808094215700311
 20
-1.859480791265498
 10
-0.1440910850326242
 20
-1.831663057710494
 10
-0.1042189316590731
 20
-1.810924882246658
 10
-0.0601411733322968
 20
-1.796783284591927
 10
-0.0158400238825024
 20
-1.790465041889922
 10
0.0302129123648885
 20
-1.791695732560156
 10
0.0738673687355326
 20
-1.800300920609855
 10
0.1166544304478383
 20
-1.816501039310451
 10
0.155123404917114
 20
-1.839009662548515
 10
0.1902611084223357
 20
-1.868425704694225
 10
0.1962838653585844
 20
-1.874601391051893
  0
LWPOLYLINE
  5
186
330
158
100
AcDbEntity
  8
AM_9
100
AcDbPolyline
 90
        6
 70
     0
 43
0.0
 10
-0.27
 20
-2.06
 10
-0.2663109624359738
 20
-2.015519990035687
 10
-0.25492374321412
 20
-1.971039980071375
 10
-0.2368092205423459
 20
-1.930302686742837
 10
-0.2114584403169832
 20
-1.892115134634748
 10
-0.1960575925214262
 20
-1.874362125592049
  0
LWPOLYLINE
  5
187
330
158
100
AcDbEntity
  8
AM_9
100
AcDbPolyline
 90
        7
 70
     0
 43
0.0
 10
1.830294815011761
 20
-1.874333401163581
 10
1.838205700397183
 20
-1.859067735546931
 10
1.85603388027071
 20
-1.831663057710494
 10
1.875290061888233
 20
-1.81069556198666
 10
1.895182462775094
 20
-1.796783284591927
 10
1.914901538821924
 20
-1.790454953389078
 10
1.921362434061032
 20
-1.790000001052307
  0
LWPOLYLINE
  5
188
330
158
100
AcDbEntity
  8
AM_9
100
AcDbPolyline
 90
        6
 70
     0
 43
0.0
 10
1.791619363453729
 20
-2.06
 10
1.793680201484576
 20
-2.014881609168771
 10
1.799695598181415
 20
-1.971039980071375
 10
1.809442929689218
 20
-1.929753229493176
 10
1.822424575100469
 20
-1.892115134634748
 10
1.830294815011761
 20
-1.874333401163581
  0
LINE
  5
189
330
158
100
AcDbEntity
  8
AM_9
100
AcDbLine
 10
2.12
 20
-2.5
 30
0.0
 11
2.12
 21
-1.125
 31
0.0
  0
LINE
  5
18A
330
158
100
AcDbEntity
  8
AM_9
100
AcDbLine
 10
-2.12
 20
-1.125
 30
0.0
 11
-2.12
 21
-2.5
 31
0.0
  0
LINE
  5
18B
330
158
100
AcDbEntity
  8
AM_9
100
AcDbLine
 10
-2.92
 20
-1.125
 30
0.0
 11
2.92
 21
-1.125
 31
0.0
  0
LINE
  5
18C
330
158
100
AcDbEntity
  8
AM_9
100
AcDbLine
 10
-2.92
 20
1.125
 30
0.0
 11
2.92
 21
1.125
 31
0.0
  0
LINE
  5
18D
330
158
100
AcDbEntity
  8
AM_9
100
AcDbLine
 10
2.92
 20
-1.125
 30
0.0
 11
2.92
 21
1.125
 31
0.0
  0
LINE
  5
18E
330
158
100
AcDbEntity
  8
AM_9
100
AcDbLine
 10
-2.92
 20
1.125
 30
0.0
 11
-2.92
 21
-1.125
 31
0.0
  0
LINE
  5
18F
330
158
100
AcDbEntity
  8
AM_7
100
AcDbLine
 10
0.0
 20
-2.75
 30
0.0
 11
0.0
 21
2.75
 31
0.0
  0
ENDBLK
  5
15B
330
158
100
AcDbEntity
  8
0
100
AcDbBlockEnd
  0
BLOCK
  5
192
330
190
100
AcDbEntity
  8
0
100
AcDbBlockBegin
  2
6_023164H_0_in_023164_4
 70
     2
 10
0.0
 20
0.0
 30
0.0
  3
6_023164H_0_in_023164_4
  1

  0
ATTDEF
  5
194
330
190
100
AcDbEntity
  8
AM_6
100
AcDbText
 10
9.862187500000001
 20
1.875
 30
0.0
 40
0.5
  1
TP-E-Housing
100
AcDbAttributeDefinition
  3

  2
NN
 70
     8
280
     0
  0
ATTDEF
  5
195
330
190
100
AcDbEntity
  8
AM_6
100
AcDbText
 10
9.862187500000001
 20
1.375
 30
0.0
 40
0.5
  1
Type E-xtra TP Take-Up Bearing (Contact Seal) -Inch
100
AcDbAttributeDefinition
  3

  2
NT
 70
     8
280
     0
  0
ATTDEF
  5
196
330
190
100
AcDbEntity
  8
AM_6
100
AcDbText
 10
9.862187500000001
 20
0.875
 30
0.0
 40
0.5
  1
023164H
100
AcDbAttributeDefinition
  3

  2
NB
 70
     8
280
     0
  0
ATTDEF
  5
197
330
190
100
AcDbEntity
  8
AM_6
100
AcDbText
 10
9.862187500000001
 20
0.375
 30
0.0
 40
0.5
  1
$PN.H
100
AcDbAttributeDefinition
  3

  2
NBSYN
 70
     8
280
     0
  0
ATTDEF
  5
198
330
190
100
AcDbEntity
  8
AM_6
100
AcDbText
 10
9.862187500000001
 20
-0.125
 30
0.0
 40
0.5
  1
023164
100
AcDbAttributeDefinition
  3

  2
LINA
 70
     8
280
     0
  0
ATTDEF
  5
199
330
190
100
AcDbEntity
  8
AM_6
100
AcDbText
 10
9.862187500000001
 20
-0.625
 30
0.0
 40
0.5
  1
3-1/2
100
AcDbAttributeDefinition
  3

  2
SS
 70
     8
280
     0
  0
ATTDEF
  5
19A
330
190
100
AcDbEntity
  8
AM_6
100
AcDbText
 10
9.862187500000001
 20
-1.125
 30
0.0
 40
0.5
  1
023164
100
AcDbAttributeDefinition
  3

  2
PN
 70
     8
280
     0
  0
ATTDEF
  5
19B
330
190
100
AcDbEntity
  8
AM_6
100
AcDbText
 10
9.862187500000001
 20
-1.625
 30
0.0
 40
0.5
  1
TP-E-308R
100
AcDbAttributeDefinition
  3

  2
DESCRIPTION
 70
     8
280
     0
  0
ATTDEF
  5
19C
330
190
100
AcDbEntity
  8
AM_6
100
AcDbText
 10
9.862187500000001
 20
-2.125
 30
0.0
 40
0.5
  1
5
100
AcDbAttributeDefinition
  3

  2
A
 70
     8
280
     0
  0
ATTDEF
  5
19D
330
190
100
AcDbEntity
  8
AM_6
100
AcDbText
 10
9.862187500000001
 20
-2.625
 30
0.0
 40
0.5
  1
4-1/2
100
AcDbAttributeDefinition
  3

  2
D
 70
     8
280
     0
  0
ATTDEF
  5
19E
330
190
100
AcDbEntity
  8
AM_6
100
AcDbText
 10
9.862187500000001
 20
-3.125
 30
0.0
 40
0.5
  1
4
100
AcDbAttributeDefinition
  3

  2
E
 70
     8
280
     0
  0
ATTDEF
  5
19F
330
190
100
AcDbEntity
  8
AM_6
100
AcDbText
 10
9.862187500000001
 20
-3.625
 30
0.0
 40
0.5
  1
3-5/32
100
AcDbAttributeDefinition
  3

  2
F
 70
     8
280
     0
  0
ATTDEF
  5
1A0
330
190
100
AcDbEntity
  8
AM_6
100
AcDbText
 10
9.862187500000001
 20
-4.125
 30
0.0
 40
0.5
  1
11/16
100
AcDbAttributeDefinition
  3

  2
G
 70
     8
280
     0
  0
ATTDEF
  5
1A1
330
190
100
AcDbEntity
  8
AM_6
100
AcDbText
 10
9.862187500000001
 20
-4.625
 30
0.0
 40
0.5
  1
13/16
100
AcDbAttributeDefinition
  3

  2
H
 70
     8
280
     0
  0
ATTDEF
  5
1A2
330
190
100
AcDbEntity
  8
AM_6
100
AcDbText
 10
9.862187500000001
 20
-5.125
 30
0.0
 40
0.5
  1
3-3/4
100
AcDbAttributeDefinition
  3

  2
J
 70
     8
280
     0
  0
ATTDEF
  5
1A3
330
190
100
AcDbEntity
  8
AM_6
100
AcDbText
 10
9.862187500000001
 20
-5.625
 30
0.0
 40
0.5
  1
5-7/16
100
AcDbAttributeDefinition
  3

  2
L
 70
     8
280
     0
  0
ATTDEF
  5
1A4
330
190
100
AcDbEntity
  8
AM_6
100
AcDbText
 10
9.862187500000001
 20
-6.125
 30
0.0
 40
0.5
  1
2-1/2
100
AcDbAttributeDefinition
  3

  2
N
 70
     8
280
     0
  0
ATTDEF
  5
1A5
330
190
100
AcDbEntity
  8
AM_6
100
AcDbText
 10
9.862187500000001
 20
-6.625
 30
0.0
 40
0.5
  1
2-1/4
100
AcDbAttributeDefinition
  3

  2
U
 70
     8
280
     0
  0
ATTDEF
  5
1A6
330
190
100
AcDbEntity
  8
AM_6
100
AcDbText
 10
9.862187500000001
 20
-7.125
 30
0.0
 40
0.5
  1
1-5/16
100
AcDbAttributeDefinition
  3

  2
V
 70
     8
280
     0
  0
ATTDEF
  5
1A7
330
190
100
AcDbEntity
  8
AM_6
100
AcDbText
 10
9.862187500000001
 20
-7.625
 30
0.0
 40
0.5
  1
2-1/8
100
AcDbAttributeDefinition
  3

  2
W
 70
     8
280
     0
  0
ATTDEF
  5
1A8
330
190
100
AcDbEntity
  8
AM_6
100
AcDbText
 10
9.862187500000001
 20
-8.125
 30
0.0
 40
0.5
  1
baldor
100
AcDbAttributeDefinition
  3

  2
COMPANY
 70
     8
280
     0
  0
LINE
  5
1A9
330
190
100
AcDbEntity
  8
AM_9
100
AcDbLine
 10
4.75
 20
0.8124999999999998
 30
0.0
 11
2.5
 21
0.8124999999999998
 31
0.0
  0
LINE
  5
1AA
330
190
100
AcDbEntity
  8
AM_9
100
AcDbLine
 10
4.75
 20
-0.8125000000000003
 30
0.0
 11
2.5
 21
-0.8125000000000003
 31
0.0
  0
LINE
  5
1AB
330
190
100
AcDbEntity
  8
AM_9
100
AcDbLine
 10
-2.5
 20
0.8124999999999998
 30
0.0
 11
-4.75
 21
0.8124999999999998
 31
0.0
  0
LINE
  5
1AC
330
190
100
AcDbEntity
  8
AM_9
100
AcDbLine
 10
-2.5
 20
-0.8125000000000003
 30
0.0
 11
-4.75
 21
-0.8125000000000003
 31
0.0
  0
LINE
  5
1AD
330
190
100
AcDbEntity
  8
AM_9
100
AcDbLine
 10
2.5
 20
0.8531249999999998
 30
0.0
 11
2.5
 21
-0.8531250000000002
 31
0.0
  0
LINE
  5
1AE
330
190
100
AcDbEntity
  8
AM_9
100
AcDbLine
 10
-2.5
 20
0.8531249999999998
 30
0.0
 11
-2.5
 21
-0.8531250000000002
 31
0.0
  0
LINE
  5
1AF
330
190
100
AcDbEntity
  8
AM_9
100
AcDbLine
 10
2.5
 20
0.8531249999999998
 30
0.0
 11
-2.5
 21
0.8531249999999998
 31
0.0
  0
LINE
  5
1B0
330
190
100
AcDbEntity
  8
AM_9
100
AcDbLine
 10
2.5
 20
-0.8531250000000002
 30
0.0
 11
-2.5
 21
-0.8531250000000002
 31
0.0
  0
LINE
  5
1B1
330
190
100
AcDbEntity
  8
AM_9
100
AcDbLine
 10
4.5
 20
1.21875
 30
0.0
 11
-4.500000000000001
 21
1.21875
 31
0.0
  0
LINE
  5
1B2
330
190
100
AcDbEntity
  8
AM_9
100
AcDbLine
 10
4.75
 20
0.1561249499599606
 30
0.0
 11
4.75
 21
-0.5066201864337615
 31
0.0
  0
LINE
  5
1B3
330
190
100
AcDbEntity
  8
AM_9
100
AcDbLine
 10
4.5
 20
-1.21875
 30
0.0
 11
-4.500000000000001
 21
-1.21875
 31
0.0
  0
LINE
  5
1B4
330
190
100
AcDbEntity
  8
AM_9
100
AcDbLine
 10
4.5
 20
-0.4518960674157307
 30
0.0
 11
2.425618681794869
 21
-0.4518960674157306
 31
0.0
  0
LINE
  5
1B5
330
190
100
AcDbEntity
  8
AM_9
100
AcDbLine
 10
4.75
 20
-0.4518960674157307
 30
0.0
 11
4.667378258910517
 21
-0.4518960674157307
 31
0.0
  0
LWPOLYLINE
  5
1B6
330
190
100
AcDbEntity
  8
AM_9
100
AcDbPolyline
 90
        8
 70
     0
 43
0.0
 10
4.75
 20
-0.4311418381785479
 10
4.749656282875732
 20
-0.4079932914004412
 10
4.748305058557336
 20
-0.3876983911908953
 10
4.74543518253341
 20
-0.3708460041597124
 10
4.740664387685959
 20
-0.3578713028160073
 10
4.73393076208992
 20
-0.3493277967541766
 10
4.72509833209937
 20
-0.3447072167416949
 10
4.719303588165795
 20
-0.3438017285993131
  0
LINE
  5
1B7
330
190
100
AcDbEntity
  8
AM_9
100
AcDbLine
 10
-2.425618681794869
 20
-0.4518960674157307
 30
0.0
 11
-4.500000000000001
 21
-0.4518960674157307
 31
0.0
  0
LINE
  5
1B8
330
190
100
AcDbEntity
  8
AM_9
100
AcDbLine
 10
-2.425618681794868
 20
0.4518960674157301
 30
0.0
 11
-4.500000000000001
 21
0.4518960674157301
 31
0.0
  0
LINE
  5
1B9
330
190
100
AcDbEntity
  8
AM_9
100
AcDbLine
 10
4.5
 20
0.4518960674157301
 30
0.0
 11
2.425618681794869
 21
0.4518960674157304
 31
0.0
  0
LINE
  5
1BA
330
190
100
AcDbEntity
  8
AM_9
100
AcDbLine
 10
4.717442641000409
 20
-0.3437500000000001
 30
0.0
 11
4.657497509828426
 21
-0.3437500000000001
 31
0.0
  0
LINE
  5
1BB
330
190
100
AcDbEntity
  8
AM_9
100
AcDbLine
 10
4.717442641000409
 20
-0.3437500000000002
 30
0.0
 11
4.719303588165799
 21
-0.3438017285993132
 31
0.0
  0
LINE
  5
1BC
330
190
100
AcDbEntity
  8
AM_9
100
AcDbLine
 10
4.719303588165797
 20
-0.3438017285993131
 30
0.0
 11
4.719303588165795
 21
0.176371293750021
 31
0.0
  0
ARC
  5
1BD
330
190
100
AcDbEntity
  8
AM_9
100
AcDbCircle
 10
-4.000000000000001
 20
0.4000000000000006
 30
0.0
 40
0.0999999999999994
100
AcDbArc
 50
90.0
 51
180.0
  0
LINE
  5
1BE
330
190
100
AcDbEntity
  8
AM_9
100
AcDbLine
 10
-4.1
 20
0.4
 30
0.0
 11
-4.1
 21
-0.4
 31
0.0
  0
ARC
  5
1BF
330
190
100
AcDbEntity
  8
AM_9
100
AcDbCircle
 10
-4.000000000000001
 20
-0.4000000000000006
 30
0.0
 40
0.0999999999999996
100
AcDbArc
 50
180.0
 51
270.0
  0
LWPOLYLINE
  5
1C0
330
190
100
AcDbEntity
  8
AM_9
100
AcDbPolyline
 90
       11
 70
     0
 43
0.0
 10
4.113476257749989
 20
-0.3437499999999998
 10
4.113917607097299
 20
-0.3361539843332993
 10
4.117287912419528
 20
-0.2701990066596761
 10
4.120197374336003
 20
-0.1945295980149422
 10
4.12220012055626
 20
-0.1155877398280363
 10
4.12320845176386
 20
-0.031010459942495
 10
4.123068464023406
 20
0.0518241271110793
 10
4.121791255011204
 20
0.1355531667396033
 10
4.119575006650828
 20
0.2130881037148106
 10
4.116518525541029
 20
0.2867317303896411
 10
4.113476257749989
 20
0.3437499999999998
  0
LWPOLYLINE
  5
1C1
330
190
100
AcDbEntity
  8
AM_9
100
AcDbPolyline
 90
       11
 70
     0
 43
0.0
 10
4.104675090269001
 20
0.3437499999999998
 10
4.106288156936886
 20
0.2962130710590455
 10
4.107842534038597
 20
0.2432729043873937
 10
4.109568959361193
 20
0.1675919109704745
 10
4.11074471416021
 20
0.0848881067976774
 10
4.111152870496297
 20
0.0022133971108348
 10
4.110763495698455
 20
-0.0829103003254308
 10
4.109649515399417
 20
-0.1632465490629927
 10
4.10789782339153
 20
-0.2411983242415194
 10
4.106344421886215
 20
-0.2944435679616246
 10
4.104675090269001
 20
-0.3437499999999998
  0
LINE
  5
1C2
330
190
100
AcDbEntity
  8
AM_9
100
AcDbLine
 10
4.000000000000001
 20
-0.5
 30
0.0
 11
4.2
 21
-0.5
 31
0.0
  0
LINE
  5
1C3
330
190
100
AcDbEntity
  8
AM_9
100
AcDbLine
 10
4.2
 20
0.5
 30
0.0
 11
4.0
 21
0.5
 31
0.0
  0
LINE
  5
1C4
330
190
100
AcDbEntity
  8
AM_9
100
AcDbLine
 10
4.2
 20
0.5
 30
0.0
 11
4.2
 21
-0.5
 31
0.0
  0
LINE
  5
1C5
330
190
100
AcDbEntity
  8
AM_9
100
AcDbLine
 10
4.3
 20
0.4000000000000006
 30
0.0
 11
4.3
 21
-0.399999999364375
 31
0.0
  0
ARC
  5
1C6
330
190
100
AcDbEntity
  8
AM_9
100
AcDbCircle
 10
4.2
 20
-0.4000000000000009
 30
0.0
 40
0.0999999999999991
100
AcDbArc
 50
270.0
 51
0.0
  0
ARC
  5
1C7
330
190
100
AcDbEntity
  8
AM_9
100
AcDbCircle
 10
4.200000000000001
 20
0.4000000000000009
 30
0.0
 40
0.0999999999999988
100
AcDbArc
 50
0.0
 51
90.0
  0
LINE
  5
1C8
330
190
100
AcDbEntity
  8
AM_9
100
AcDbLine
 10
-2.621745756743395
 20
0.3437499999999998
 30
0.0
 11
-4.49499159413517
 21
0.34375
 31
0.0
  0
LINE
  5
1C9
330
190
100
AcDbEntity
  8
AM_9
100
AcDbLine
 10
4.49499159413517
 20
0.34375
 30
0.0
 11
2.621745756743395
 21
0.3437499999999998
 31
0.0
  0
LINE
  5
1CA
330
190
100
AcDbEntity
  8
AM_9
100
AcDbLine
 10
4.49499159413517
 20
-0.3437499999999998
 30
0.0
 11
2.621745756743396
 21
-0.3437500000000001
 31
0.0
  0
LINE
  5
1CB
330
190
100
AcDbEntity
  8
AM_9
100
AcDbLine
 10
-2.621745756743396
 20
-0.3437500000000001
 30
0.0
 11
-4.494991594135171
 21
-0.3437499999999998
 31
0.0
  0
LINE
  5
1CC
330
190
100
AcDbEntity
  8
AM_9
100
AcDbLine
 10
-4.49499159413517
 20
1.40625
 30
0.0
 11
-4.49499159413517
 21
0.34375
 31
0.0
  0
LINE
  5
1CD
330
190
100
AcDbEntity
  8
AM_9
100
AcDbLine
 10
-4.481100236321726
 20
-0.3437499999999997
 30
0.0
 11
-4.481100236321726
 21
0.34375
 31
0.0
  0
LINE
  5
1CE
330
190
100
AcDbEntity
  8
AM_9
100
AcDbLine
 10
-4.494991594135171
 20
-0.3437499999999998
 30
0.0
 11
-4.494991594135171
 21
-1.40625
 31
0.0
  0
LINE
  5
1CF
330
190
100
AcDbEntity
  8
AM_9
100
AcDbLine
 10
4.49499159413517
 20
0.34375
 30
0.0
 11
4.49499159413517
 21
1.40625
 31
0.0
  0
LINE
  5
1D0
330
190
100
AcDbEntity
  8
AM_9
100
AcDbLine
 10
4.49499159413517
 20
-1.40625
 30
0.0
 11
4.49499159413517
 21
-0.3437499999999998
 31
0.0
  0
LINE
  5
1D1
330
190
100
AcDbEntity
  8
AM_9
100
AcDbLine
 10
4.481100236321726
 20
-0.3437499999999997
 30
0.0
 11
4.481100236321726
 21
0.34375
 31
0.0
  0
LWPOLYLINE
  5
1D2
330
190
100
AcDbEntity
  8
AM_9
100
AcDbPolyline
 90
        5
 70
     0
 43
0.0
 10
4.49612711766452
 20
1.455399896797709
 10
4.496477182098786
 20
1.462892318464522
 10
4.497913215582293
 20
1.488824937001913
 10
4.499292828317546
 20
1.51314832989509
 10
4.5
 20
1.536593550581128
  0
LWPOLYLINE
  5
1D3
330
190
100
AcDbEntity
  8
AM_9
100
AcDbPolyline
 90
        3
 70
     0
 43
0.0
 10
4.49499159413517
 20
1.40625
 10
4.495379648429981
 20
1.434571159232261
 10
4.49612711766452
 20
1.455399896797709
  0
LINE
  5
1D4
330
190
100
AcDbEntity
  8
AM_9
100
AcDbLine
 10
4.49499159413517
 20
1.40625
 30
0.0
 11
3.278454496998378
 21
1.40625
 31
0.0
  0
LINE
  5
1D5
330
190
100
AcDbEntity
  8
AM_9
100
AcDbLine
 10
-3.278454496998378
 20
1.40625
 30
0.0
 11
-4.49499159413517
 21
1.40625
 31
0.0
  0
LWPOLYLINE
  5
1D6
330
190
100
AcDbEntity
  8
AM_9
100
AcDbPolyline
 90
        3
 70
     0
 43
0.0
 10
-4.496037070780879
 20
1.453323786572627
 10
-4.495497810819444
 20
1.438666486718625
 10
-4.49499159413517
 20
1.40625
  0
LWPOLYLINE
  5
1D7
330
190
100
AcDbEntity
  8
AM_9
100
AcDbPolyline
 90
        5
 70
     0
 43
0.0
 10
-4.5
 20
1.536593550581118
 10
-4.49944734702265
 20
1.516358682025979
 10
-4.498125811354943
 20
1.492408395701218
 10
-4.496672472315877
 20
1.466769445363461
 10
-4.496037070780879
 20
1.453323786572627
  0
LWPOLYLINE
  5
1D8
330
190
100
AcDbEntity
  8
AM_9
100
AcDbPolyline
 90
        5
 70
     0
 43
0.0
 10
-4.496127117664521
 20
-1.455399896797724
 10
-4.496477182098786
 20
-1.462892318464522
 10
-4.497913215582293
 20
-1.488824937001912
 10
-4.499292828317547
 20
-1.51314832989509
 10
-4.5
 20
-1.536593550581117
  0
LWPOLYLINE
  5
1D9
330
190
100
AcDbEntity
  8
AM_9
100
AcDbPolyline
 90
        3
 70
     0
 43
0.0
 10
-4.494991594135171
 20
-1.40625
 10
-4.495379648429982
 20
-1.434571159232261
 10
-4.496127117664521
 20
-1.455399896797724
  0
LINE
  5
1DA
330
190
100
AcDbEntity
  8
AM_9
100
AcDbLine
 10
-3.278454496998378
 20
-1.40625
 30
0.0
 11
-4.494991594135171
 21
-1.40625
 31
0.0
  0
LINE
  5
1DB
330
190
100
AcDbEntity
  8
AM_9
100
AcDbLine
 10
4.49499159413517
 20
-1.40625
 30
0.0
 11
3.278454496998378
 21
-1.40625
 31
0.0
  0
LWPOLYLINE
  5
1DC
330
190
100
AcDbEntity
  8
AM_9
100
AcDbPolyline
 90
        3
 70
     0
 43
0.0
 10
4.496037070780878
 20
-1.453323786572621
 10
4.495497810819444
 20
-1.438666486718639
 10
4.49499159413517
 20
-1.40625
  0
LWPOLYLINE
  5
1DD
330
190
100
AcDbEntity
  8
AM_9
100
AcDbPolyline
 90
        5
 70
     0
 43
0.0
 10
4.5
 20
-1.536593550581127
 10
4.49944734702265
 20
-1.51635868202599
 10
4.498125811354943
 20
-1.49240839570123
 10
4.496672472315877
 20
-1.466769445363474
 10
4.496037070780878
 20
-1.453323786572621
  0
LINE
  5
1DE
330
190
100
AcDbEntity
  8
AM_9
100
AcDbLine
 10
2.92
 20
-1.75
 30
0.0
 11
2.92
 21
1.75
 31
0.0
  0
LINE
  5
1DF
330
190
100
AcDbEntity
  8
AM_9
100
AcDbLine
 10
-2.92
 20
1.75
 30
0.0
 11
-2.92
 21
-1.75
 31
0.0
  0
LINE
  5
1E0
330
190
100
AcDbEntity
  8
AM_9
100
AcDbLine
 10
3.337142857142858
 20
-1.875
 30
0.0
 11
3.337142857142858
 21
-1.84375
 31
0.0
  0
LINE
  5
1E1
330
190
100
AcDbEntity
  8
AM_9
100
AcDbLine
 10
-3.337142857142858
 20
-1.84375
 30
0.0
 11
-3.337142857142858
 21
-1.875
 31
0.0
  0
LINE
  5
1E2
330
190
100
AcDbEntity
  8
AM_9
100
AcDbLine
 10
-3.243392857142858
 20
1.75
 30
0.0
 11
3.243392857131887
 21
1.75
 31
0.0
  0
ARC
  5
1E3
330
190
100
AcDbEntity
  8
AM_9
100
AcDbCircle
 10
3.243392857142857
 20
1.84375
 30
0.0
 40
0.0937500000000004
100
AcDbArc
 50
270.0
 51
0.0
  0
ARC
  5
1E4
330
190
100
AcDbEntity
  8
AM_9
100
AcDbCircle
 10
-3.243392857142857
 20
1.84375
 30
0.0
 40
0.0937500000000004
100
AcDbArc
 50
180.0
 51
270.0
  0
LINE
  5
1E5
330
190
100
AcDbEntity
  8
AM_9
100
AcDbLine
 10
-3.337142857142858
 20
1.843750000000001
 30
0.0
 11
3.337142857142858
 21
1.843750000000001
 31
0.0
  0
LINE
  5
1E6
330
190
100
AcDbEntity
  8
AM_9
100
AcDbLine
 10
3.337142857142858
 20
1.843750000000001
 30
0.0
 11
3.337142857142858
 21
1.875
 31
0.0
  0
LINE
  5
1E7
330
190
100
AcDbEntity
  8
AM_9
100
AcDbLine
 10
-3.337142857142858
 20
1.875
 30
0.0
 11
-3.337142857142858
 21
1.843750000000001
 31
0.0
  0
LINE
  5
1E8
330
190
100
AcDbEntity
  8
AM_9
100
AcDbLine
 10
-3.337142857142858
 20
-1.84375
 30
0.0
 11
3.337142857142858
 21
-1.84375
 31
0.0
  0
LINE
  5
1E9
330
190
100
AcDbEntity
  8
AM_9
100
AcDbLine
 10
-3.243392857142857
 20
-1.75
 30
0.0
 11
3.243392857131886
 21
-1.75
 31
0.0
  0
ARC
  5
1EA
330
190
100
AcDbEntity
  8
AM_9
100
AcDbCircle
 10
3.243392857142857
 20
-1.84375
 30
0.0
 40
0.0937500000000004
100
AcDbArc
 50
0.0
 51
90.0
  0
ARC
  5
1EB
330
190
100
AcDbEntity
  8
AM_9
100
AcDbCircle
 10
-3.243392857142857
 20
-1.84375
 30
0.0
 40
0.0937500000000004
100
AcDbArc
 50
90.0
 51
180.0
  0
LWPOLYLINE
  5
1EC
330
190
100
AcDbEntity
  8
AM_9
100
AcDbPolyline
 90
        6
 70
     0
 43
0.0
 10
-3.983486420524112
 20
0.3437499999999998
 10
-3.988640622246944
 20
0.3990664273507468
 10
-3.993443465055955
 20
0.4445117642966472
 10
-3.997103968839593
 20
0.4762773747651944
 10
-3.999408804219999
 20
0.4952482037044084
 10
-4.0
 20
0.5
  0
LINE
  5
1ED
330
190
100
AcDbEntity
  8
AM_9
100
AcDbLine
 10
-3.27845449699838
 20
0.34375
 30
0.0
 11
-3.278454496998378
 21
1.40625
 31
0.0
  0
LWPOLYLINE
  5
1EE
330
190
100
AcDbEntity
  8
AM_9
100
AcDbPolyline
 90
       11
 70
     0
 43
0.0
 10
-3.278454496998378
 20
1.40625
 10
-3.277203325811384
 20
1.430983148827031
 10
-3.27370457784673
 20
1.454005241134407
 10
-3.268136312956361
 20
1.475778136015288
 10
-3.260298917868865
 20
1.496733833144115
 10
-3.250716381975552
 20
1.515487683917047
 10
-3.238084372672866
 20
1.533812875421079
 10
-3.223956149985748
 20
1.548936992089421
 10
-3.205730884754645
 20
1.562675271068405
 10
-3.18633244794261
 20
1.572013489977791
 10
-3.151342960802145
 20
1.578125
  0
LWPOLYLINE
  5
1EF
330
190
100
AcDbEntity
  8
AM_9
100
AcDbPolyline
 90
        9
 70
     0
 43
0.0
 10
3.151342960802145
 20
1.578125
 10
3.17971138423199
 20
1.574155435315634
 10
3.20667815308249
 20
1.56206928227558
 10
3.231349146654903
 20
1.541609128391499
 10
3.245924208946454
 20
1.523098413167602
 10
3.258441248393181
 20
1.500837222894421
 10
3.26841371614373
 20
1.474808668118082
 10
3.275202797018691
 20
1.44593748788079
 10
3.278454496998378
 20
1.40625
  0
LINE
  5
1F0
330
190
100
AcDbEntity
  8
AM_9
100
AcDbLine
 10
3.278454496998378
 20
1.40625
 30
0.0
 11
3.27845449699838
 21
0.34375
 31
0.0
  0
LWPOLYLINE
  5
1F1
330
190
100
AcDbEntity
  8
AM_9
100
AcDbPolyline
 90
        7
 70
     0
 43
0.0
 10
2.425618681794869
 20
0.4518960674157304
 10
2.444849909224459
 20
0.4231307483429771
 10
2.468898278766489
 20
0.3988720132062308
 10
2.495517493034682
 20
0.3796141662140827
 10
2.538742394785804
 20
0.3586617090336268
 10
2.583553132156739
 20
0.3468944507685316
 10
2.621745756743395
 20
0.3437499999999998
  0
LWPOLYLINE
  5
1F2
330
190
100
AcDbEntity
  8
AM_9
100
AcDbPolyline
 90
       14
 70
     0
 43
0.0
 10
-1.106107428185318
 20
1.125114444058369
 10
-1.191617561857257
 20
1.114603144393432
 10
-1.357718911843917
 20
1.087807743695961
 10
-1.519593233992706
 20
1.053723757086678
 10
-1.644016612074762
 20
1.020726754935609
 10
-1.765223299284754
 20
0.9811172182409432
 10
-1.882199928189248
 20
0.9339663985339162
 10
-1.993933131354812
 20
0.8783455473457616
 10
-2.077637411198281
 20
0.8278380396114141
 10
-2.157264528431119
 20
0.7706455544629642
 10
-2.231810212853275
 20
0.7065390844284941
 10
-2.300270194264699
 20
0.6352896220360853
 10
-2.367703465457417
 20
0.5480919930695834
 10
-2.425618681794868
 20
0.4518960674157301
  0
LWPOLYLINE
  5
1F3
330
190
100
AcDbEntity
  8
AM_9
100
AcDbPolyline
 90
       13
 70
     0
 43
0.0
 10
1.105615593418178
 20
1.125173347244189
 10
0.9631416442618165
 20
1.140478960813822
 10
0.7779615308378447
 20
1.155042042232372
 10
0.5675630945939586
 20
1.166862486560261
 10
0.3546957762811955
 20
1.174594373390786
 10
0.1403693820868909
 20
1.178465123795069
 10
-0.0744062818016195
 20
1.178702158844232
 10
-0.2886214091970006
 20
1.175532899609397
 10
-0.5012661939119168
 20
1.169184767161687
 10
-0.6761135000600553
 20
1.16140077056322
 10
-0.8499986404463253
 20
1.150385363872238
 10
-1.022105399551726
 20
1.135124253133916
 10
-1.106107428185318
 20
1.125114444058369
  0
LWPOLYLINE
  5
1F4
330
190
100
AcDbEntity
  8
AM_9
100
AcDbPolyline
 90
       14
 70
     0
 43
0.0
 10
2.425618681794869
 20
0.4518960674157304
 10
2.37631424215439
 20
0.5353569801465741
 10
2.323701588054053
 20
0.6071981287646406
 10
2.265305600361903
 20
0.6733217288174566
 10
2.201963897323771
 20
0.7336564881859579
 10
2.134514097185487
 20
0.7881311147510804
 10
2.027842562578972
 20
0.8589340062551902
 10
1.914011874556795
 20
0.9192846704635453
 10
1.794472479477458
 20
0.9701967486578809
 10
1.670674823699468
 20
1.012683882119931
 10
1.501255738743615
 20
1.058226314958434
 10
1.326031807597113
 20
1.09365222228289
 10
1.146246089642377
 20
1.120542729199341
 10
1.105615593418178
 20
1.125173347244189
  0
LWPOLYLINE
  5
1F5
330
190
100
AcDbEntity
  8
AM_9
100
AcDbPolyline
 90
        8
 70
     0
 43
0.0
 10
-2.621745756743395
 20
0.3437499999999998
 10
-2.570555960613222
 20
0.349367775062116
 10
-2.520191257289961
 20
0.3663672246130192
 10
-2.490160480513457
 20
0.3830075447553346
 10
-2.4621044281974
 20
0.4049088459471664
 10
-2.444672969227146
 20
0.4233443511520585
 10
-2.429561773649425
 20
0.4448185632373042
 10
-2.425618681794868
 20
0.4518960674157301
  0
LINE
  5
1F6
330
190
100
AcDbEntity
  8
AM_9
100
AcDbLine
 10
4.0
 20
0.5
 30
0.0
 11
4.0
 21
1.578125
 31
0.0
  0
LINE
  5
1F7
330
190
100
AcDbEntity
  8
AM_9
100
AcDbLine
 10
-4.0
 20
1.578125
 30
0.0
 11
-4.000000000000002
 21
0.34375
 31
0.0
  0
LWPOLYLINE
  5
1F8
330
190
100
AcDbEntity
  8
AM_9
100
AcDbPolyline
 90
        7
 70
     0
 43
0.0
 10
3.999999999999917
 20
0.4999999999993303
 10
3.999976068400224
 20
0.4998085111065222
 10
3.99878855619737
 20
0.4902141544009577
 10
3.996055204847779
 20
0.4673940523701925
 10
3.991930591029984
 20
0.4307085367171195
 10
3.987888613582775
 20
0.3914787278296849
 10
3.983486420524111
 20
0.3437499999999994
  0
LWPOLYLINE
  5
1F9
330
190
100
AcDbEntity
  8
AM_9
100
AcDbPolyline
 90
       10
 70
     0
 43
0.0
 10
-3.151342960802144
 20
-1.578125
 10
-3.177988542983363
 20
-1.574620073905481
 10
-3.203543233979325
 20
-1.563983248947136
 10
-3.223161083373456
 20
-1.549641428207714
 10
-3.240928900503745
 20
-1.530164651046758
 10
-3.253643274817407
 20
-1.510300490139355
 10
-3.264212794419124
 20
-1.48716971107414
 10
-3.272181433253917
 20
-1.460897703874525
 10
-3.277047010379393
 20
-1.432473191815627
 10
-3.278454496998378
 20
-1.40625
  0
LINE
  5
1FA
330
190
100
AcDbEntity
  8
AM_9
100
AcDbLine
 10
-3.278454496998378
 20
-1.40625
 30
0.0
 11
-3.278454496998378
 21
-0.3437499999999998
 31
0.0
  0
LWPOLYLINE
  5
1FB
330
190
100
AcDbEntity
  8
AM_9
100
AcDbPolyline
 90
        7
 70
     0
 43
0.0
 10
-4.0
 20
-0.5
 10
-3.99969717344873
 20
-0.4975715820801682
 10
-3.99878855619737
 20
-0.4902141544009577
 10
-3.996055204847779
 20
-0.4673940523701925
 10
-3.991930591029984
 20
-0.4307085367171195
 10
-3.987888613582775
 20
-0.3914787278296849
 10
-3.983486420524112
 20
-0.3437499999999998
  0
LWPOLYLINE
  5
1FC
330
190
100
AcDbEntity
  8
AM_9
100
AcDbPolyline
 90
        8
 70
     0
 43
0.0
 10
-2.425618681794869
 20
-0.4518960674157307
 10
-2.432301743723629
 20
-0.4403526240323745
 10
-2.450061753816075
 20
-0.4170964114935759
 10
-2.470431414120459
 20
-0.3975989290460047
 10
-2.505531185072869
 20
-0.3737556268610565
 10
-2.542844528812849
 20
-0.3572229250740008
 10
-2.582170342221664
 20
-0.3471182621970181
 10
-2.621745756743396
 20
-0.3437500000000001
  0
LWPOLYLINE
  5
1FD
330
190
100
AcDbEntity
  8
AM_9
100
AcDbPolyline
 90
       14
 70
     0
 43
0.0
 10
1.103872479911438
 20
-1.125381710135752
 10
1.148196118273194
 20
-1.119978147397963
 10
1.298943887940966
 20
-1.09803084029984
 10
1.446856607274985
 20
-1.070290514999904
 10
1.591082765236747
 20
-1.035699143762523
 10
1.730770850787746
 20
-0.9931986988520672
 10
1.84058543417839
 20
-0.9518507301932326
 10
1.946653782870013
 20
-0.903307221471972
 10
2.047853299709638
 20
-0.8468365711928589
 10
2.143061387544288
 20
-0.7817071778604677
 10
2.228501641951011
 20
-0.7096203566547501
 10
2.306592949950103
 20
-0.6278361728904163
 10
2.375539608627973
 20
-0.5365251009756129
 10
2.425618681794869
 20
-0.4518960674157306
  0
LWPOLYLINE
  5
1FE
330
190
100
AcDbEntity
  8
AM_9
100
AcDbPolyline
 90
       13
 70
     0
 43
0.0
 10
-1.105790112947939
 20
-1.125152452047457
 10
-0.9562395447236496
 20
-1.141599062810571
 10
-0.7677577350989248
 20
-1.156534026332123
 10
-0.5771179924782648
 20
-1.166737956478482
 10
-0.3852081051915439
 20
-1.173162707428363
 10
-0.1929158615686365
 20
-1.17676013336048
 10
0.0065992284285984
 20
-1.178268932912069
 10
0.2066724405921065
 20
-1.177256872644283
 10
0.406449689841953
 20
-1.173183474089647
 10
0.6050768910982031
 20
-1.165508258780688
 10
0.801699959280922
 20
-1.153690748249931
 10
0.9954648093101746
 20
-1.137190464029902
 10
1.103872479911438
 20
-1.125381710135752
  0
LWPOLYLINE
  5
1FF
330
190
100
AcDbEntity
  8
AM_9
100
AcDbPolyline
 90
       15
 70
     0
 43
0.0
 10
-2.425618681794869
 20
-0.4518960674157307
 10
-2.383544369615001
 20
-0.5242155719152116
 10
-2.335925121970071
 20
-0.591734599392568
 10
-2.283503963532968
 20
-0.6540932298724341
 10
-2.210121207156392
 20
-0.7264608289025558
 10
-2.130359152636669
 20
-0.791109752712776
 10
-2.04531230793381
 20
-0.8483590923369337
 10
-1.956075181007836
 20
-0.8985279388088679
 10
-1.838260717116207
 20
-0.9528814067840486
 10
-1.715116017983971
 20
-0.9986008901090093
 10
-1.587588853863346
 20
-1.036663707458196
 10
-1.456626995006549
 20
-1.068047177506056
 10
-1.323178211665796
 20
-1.093728618927033
 10
-1.141675633022565
 20
-1.120981211735112
 10
-1.105790112947939
 20
-1.125152452047457
  0
LWPOLYLINE
  5
200
330
190
100
AcDbEntity
  8
AM_9
100
AcDbPolyline
 90
        7
 70
     0
 43
0.0
 10
2.621745756743396
 20
-0.3437500000000001
 10
2.58615601175144
 20
-0.3464818648483684
 10
2.537332822557637
 20
-0.3591726896530081
 10
2.49047887305375
 20
-0.3828135335096665
 10
2.46811652357539
 20
-0.3995445894001257
 10
2.447605242487575
 20
-0.4198769090519232
 10
2.425618681794869
 20
-0.4518960674157306
  0
LWPOLYLINE
  5
201
330
190
100
AcDbEntity
  8
AM_9
100
AcDbPolyline
 90
        6
 70
     0
 43
0.0
 10
3.983486420524112
 20
-0.3437499999999998
 10
3.988640622246944
 20
-0.3990664273507468
 10
3.993443465055955
 20
-0.4445117642966472
 10
3.997103968839593
 20
-0.4762773747651944
 10
3.999408804219999
 20
-0.4952482037044084
 10
3.999999999999917
 20
-0.4999999999993303
  0
LINE
  5
202
330
190
100
AcDbEntity
  8
AM_9
100
AcDbLine
 10
3.278454496998378
 20
-0.3437499999999998
 30
0.0
 11
3.278454496998378
 21
-1.40625
 31
0.0
  0
LWPOLYLINE
  5
203
330
190
100
AcDbEntity
  8
AM_9
100
AcDbPolyline
 90
       11
 70
     0
 43
0.0
 10
3.278454496998378
 20
-1.40625
 10
3.278109386924678
 20
-1.419267037584906
 10
3.275687719738533
 20
-1.442837261451764
 10
3.271087090761079
 20
-1.465413997218731
 10
3.255734897193964
 20
-1.506359594813955
 10
3.244333697802663
 20
-1.52544297862902
 10
3.231375143972945
 20
-1.541581238357526
 10
3.214570737426824
 20
-1.556696243064559
 10
3.19649867472664
 20
-1.567724841025045
 10
3.174283506157716
 20
-1.575545110134095
 10
3.151342960802144
 20
-1.578125
  0
LINE
  5
204
330
190
100
AcDbEntity
  8
AM_9
100
AcDbLine
 10
4.0
 20
-1.578124999999999
 30
0.0
 11
4.0
 21
-0.5000000000000001
 31
0.0
  0
LINE
  5
205
330
190
100
AcDbEntity
  8
AM_9
100
AcDbLine
 10
-4.000000000000002
 20
-0.34375
 30
0.0
 11
-4.0
 21
-1.578125
 31
0.0
  0
LINE
  5
206
330
190
100
AcDbEntity
  8
AM_7
100
AcDbLine
 10
-4.52
 20
0.0
 30
0.0
 11
4.8621875
 21
0.0
 31
0.0
  0
LINE
  5
207
330
190
100
AcDbEntity
  8
AM_4
100
AcDbLine
 10
-4.749999999999999
 20
-1.21875
 30
0.0
 11
-4.749999999999999
 21
1.21875
 31
0.0
  0
LINE
  5
208
330
190
100
AcDbEntity
  8
AM_4
100
AcDbLine
 10
-4.500000000000001
 20
1.21875
 30
0.0
 11
-4.749999999999999
 21
1.21875
 31
0.0
  0
LINE
  5
209
330
190
100
AcDbEntity
  8
AM_4
100
AcDbLine
 10
4.75
 20
1.21875
 30
0.0
 11
4.5
 21
1.21875
 31
0.0
  0
LINE
  5
20A
330
190
100
AcDbEntity
  8
AM_4
100
AcDbLine
 10
4.75
 20
-0.5066201864337615
 30
0.0
 11
4.75
 21
-1.21875
 31
0.0
  0
LINE
  5
20B
330
190
100
AcDbEntity
  8
AM_4
100
AcDbLine
 10
-4.500000000000001
 20
-1.21875
 30
0.0
 11
-4.749999999999999
 21
-1.21875
 31
0.0
  0
LINE
  5
20C
330
190
100
AcDbEntity
  8
AM_4
100
AcDbLine
 10
4.75
 20
-1.21875
 30
0.0
 11
4.5
 21
-1.21875
 31
0.0
  0
LINE
  5
20D
330
190
100
AcDbEntity
  8
AM_4
100
AcDbLine
 10
4.75
 20
0.1561249499599606
 30
0.0
 11
4.75
 21
1.21875
 31
0.0
  0
LINE
  5
20E
330
190
100
AcDbEntity
  8
AM_4
100
AcDbLine
 10
4.667378258910517
 20
-0.4518960674157307
 30
0.0
 11
4.5
 21
-0.4518960674157307
 31
0.0
  0
LINE
  5
20F
330
190
100
AcDbEntity
  8
AM_4
100
AcDbLine
 10
-4.500000000000001
 20
-0.4518960674157307
 30
0.0
 11
-4.749999999999999
 21
-0.4518960674157307
 31
0.0
  0
LWPOLYLINE
  5
210
330
190
100
AcDbEntity
  8
AM_4
100
AcDbPolyline
 90
        8
 70
     0
 43
0.0
 10
-4.719303588165793
 20
-0.343801728599313
 10
-4.729477558231064
 20
-0.3463886470232416
 10
-4.737496536976571
 20
-0.3529998252025137
 10
-4.743293173682235
 20
-0.3638273309451296
 10
-4.747064651325088
 20
-0.3786337575468958
 10
-4.749073252721478
 20
-0.3965305548912745
 10
-4.749896102547356
 20
-0.4173825682986119
 10
-4.75
 20
-0.4311418381785373
  0
LINE
  5
211
330
190
100
AcDbEntity
  8
AM_4
100
AcDbLine
 10
-4.500000000000001
 20
0.4518960674157301
 30
0.0
 11
-4.749999999999999
 21
0.4518960674157301
 31
0.0
  0
LWPOLYLINE
  5
212
330
190
100
AcDbEntity
  8
AM_4
100
AcDbPolyline
 90
        8
 70
     0
 43
0.0
 10
-4.75
 20
0.4311418381785367
 10
-4.749656282875732
 20
0.4079932914004314
 10
-4.748305058557336
 20
0.3876983911908872
 10
-4.745435182533409
 20
0.3708460041597061
 10
-4.740664387685956
 20
0.3578713028160028
 10
-4.733930762089917
 20
0.3493277967541737
 10
-4.725098332099366
 20
0.3447072167416935
 10
-4.719303588165793
 20
0.3438017285993127
  0
LINE
  5
213
330
190
100
AcDbEntity
  8
AM_4
100
AcDbLine
 10
4.75
 20
0.4518960674157301
 30
0.0
 11
4.5
 21
0.4518960674157301
 31
0.0
  0
LWPOLYLINE
  5
214
330
190
100
AcDbEntity
  8
AM_4
100
AcDbPolyline
 90
        8
 70
     0
 43
0.0
 10
4.719303588165795
 20
0.343801728599313
 10
4.729477558231066
 20
0.3463886470232417
 10
4.737496536976572
 20
0.3529998252025139
 10
4.743293173682235
 20
0.3638273309451302
 10
4.747064651325088
 20
0.3786337575468968
 10
4.749073252721478
 20
0.3965305548912758
 10
4.749896102547356
 20
0.4173825682986138
 10
4.75
 20
0.4311418381785475
  0
LINE
  5
215
330
190
100
AcDbEntity
  8
AM_4
100
AcDbLine
 10
4.500000000000001
 20
0.3437499999999997
 30
0.0
 11
4.717442639871031
 21
0.3437499999999998
 31
0.0
  0
LINE
  5
216
330
190
100
AcDbEntity
  8
AM_4
100
AcDbLine
 10
4.657497509828426
 20
-0.3437500000000001
 30
0.0
 11
4.499999999999999
 21
-0.34375
 31
0.0
  0
LINE
  5
217
330
190
100
AcDbEntity
  8
AM_4
100
AcDbLine
 10
4.719303588165795
 20
0.176371293750021
 30
0.0
 11
4.719303588165797
 21
0.343801728599313
 31
0.0
  0
LINE
  5
218
330
190
100
AcDbEntity
  8
AM_4
100
AcDbLine
 10
4.719303588165797
 20
0.343801728599313
 30
0.0
 11
4.717442639871029
 21
0.3437499999999998
 31
0.0
  0
LINE
  5
219
330
190
100
AcDbEntity
  8
AM_4
100
AcDbLine
 10
-4.500000000000001
 20
-0.34375
 30
0.0
 11
-4.717442641000408
 21
-0.3437500000000001
 31
0.0
  0
LINE
  5
21A
330
190
100
AcDbEntity
  8
AM_4
100
AcDbLine
 10
-4.717442639871027
 20
0.3437499999999998
 30
0.0
 11
-4.500000000000001
 21
0.3437499999999997
 31
0.0
  0
LINE
  5
21B
330
190
100
AcDbEntity
  8
AM_4
100
AcDbLine
 10
-4.717442639871027
 20
0.3437499999999998
 30
0.0
 11
-4.719303588165793
 21
0.3438017285993126
 31
0.0
  0
LINE
  5
21C
330
190
100
AcDbEntity
  8
AM_4
100
AcDbLine
 10
-4.719303588165793
 20
-0.343801728599313
 30
0.0
 11
-4.719303588165793
 21
0.343801728599313
 31
0.0
  0
LINE
  5
21D
330
190
100
AcDbEntity
  8
AM_4
100
AcDbLine
 10
-4.719303588165793
 20
-0.343801728599313
 30
0.0
 11
-4.717442641000408
 21
-0.3437500000000002
 31
0.0
  0
LINE
  5
21E
330
190
100
AcDbEntity
  8
AM_4
100
AcDbLine
 10
-3.82
 20
-1.875
 30
0.0
 11
3.819999999999609
 21
-1.875
 31
0.0
  0
ARC
  5
21F
330
190
100
AcDbEntity
  8
AM_4
100
AcDbCircle
 10
3.820000000000001
 20
-1.695000000000001
 30
0.0
 40
0.1799999999999995
100
AcDbArc
 50
270.0
 51
0.0
  0
ARC
  5
220
330
190
100
AcDbEntity
  8
AM_4
100
AcDbCircle
 10
-3.820000000000001
 20
-1.695000000000001
 30
0.0
 40
0.1799999999999993
100
AcDbArc
 50
180.0
 51
270.0
  0
LINE
  5
221
330
190
100
AcDbEntity
  8
AM_4
100
AcDbLine
 10
4.0
 20
1.578125
 30
0.0
 11
4.0
 21
1.695000000000001
 31
0.0
  0
LINE
  5
222
330
190
100
AcDbEntity
  8
AM_4
100
AcDbLine
 10
-4.0
 20
1.695000000000001
 30
0.0
 11
-4.0
 21
1.578125
 31
0.0
  0
LINE
  5
223
330
190
100
AcDbEntity
  8
AM_4
100
AcDbLine
 10
-4.0
 20
1.695000000000001
 30
0.0
 11
4.0
 21
1.695000000000001
 31
0.0
  0
LINE
  5
224
330
190
100
AcDbEntity
  8
AM_4
100
AcDbLine
 10
-3.820000000000001
 20
1.875
 30
0.0
 11
3.819999999999609
 21
1.875
 31
0.0
  0
ARC
  5
225
330
190
100
AcDbEntity
  8
AM_4
100
AcDbCircle
 10
3.820000000000001
 20
1.695000000000001
 30
0.0
 40
0.1799999999999988
100
AcDbArc
 50
0.0
 51
90.0
  0
ARC
  5
226
330
190
100
AcDbEntity
  8
AM_4
100
AcDbCircle
 10
-3.820000000000001
 20
1.695000000000001
 30
0.0
 40
0.179999999999999
100
AcDbArc
 50
90.0
 51
180.0
  0
LINE
  5
227
330
190
100
AcDbEntity
  8
AM_4
100
AcDbLine
 10
-4.0
 20
-1.695000000000001
 30
0.0
 11
4.0
 21
-1.695000000000001
 31
0.0
  0
LINE
  5
228
330
190
100
AcDbEntity
  8
AM_4
100
AcDbLine
 10
4.0
 20
-1.695000000000001
 30
0.0
 11
4.0
 21
-1.578124999999999
 31
0.0
  0
LINE
  5
229
330
190
100
AcDbEntity
  8
AM_4
100
AcDbLine
 10
-4.0
 20
-1.578125
 30
0.0
 11
-4.0
 21
-1.695000000000001
 31
0.0
  0
LINE
  5
22A
330
190
100
AcDbEntity
  8
AM_4
100
AcDbLine
 10
2.15
 20
-1.578125
 30
0.0
 11
2.15
 21
-0.6874999999999997
 31
0.0
  0
LINE
  5
22B
330
190
100
AcDbEntity
  8
AM_4
100
AcDbLine
 10
2.15
 20
0.6875
 30
0.0
 11
2.15
 21
1.578124999999999
 31
0.0
  0
LINE
  5
22C
330
190
100
AcDbEntity
  8
AM_4
100
AcDbLine
 10
-2.150000000000001
 20
-1.578125
 30
0.0
 11
-2.150000000000001
 21
-0.6874999999999997
 31
0.0
  0
LINE
  5
22D
330
190
100
AcDbEntity
  8
AM_4
100
AcDbLine
 10
-2.150000000000001
 20
0.6875000000000002
 30
0.0
 11
-2.150000000000001
 21
1.578124999999999
 31
0.0
  0
LINE
  5
22E
330
190
100
AcDbEntity
  8
AM_4
100
AcDbLine
 10
-2.25
 20
1.578125
 30
0.0
 11
-2.25
 21
0.6875
 31
0.0
  0
LINE
  5
22F
330
190
100
AcDbEntity
  8
AM_4
100
AcDbLine
 10
4.5
 20
1.578125
 30
0.0
 11
-4.500000000000001
 21
1.578125
 31
0.0
  0
LINE
  5
230
330
190
100
AcDbEntity
  8
AM_4
100
AcDbLine
 10
-2.25
 20
-0.6874999999999997
 30
0.0
 11
-2.25
 21
-1.578125
 31
0.0
  0
LINE
  5
231
330
190
100
AcDbEntity
  8
AM_4
100
AcDbLine
 10
-4.500000000000001
 20
-1.578125
 30
0.0
 11
-4.500000000000001
 21
1.578125
 31
0.0
  0
LINE
  5
232
330
190
100
AcDbEntity
  8
AM_4
100
AcDbLine
 10
4.5
 20
-1.578125
 30
0.0
 11
-4.500000000000001
 21
-1.578125
 31
0.0
  0
LINE
  5
233
330
190
100
AcDbEntity
  8
AM_4
100
AcDbLine
 10
3.1875
 20
1.0
 30
0.0
 11
4.5
 21
1.0
 31
0.0
  0
LINE
  5
234
330
190
100
AcDbEntity
  8
AM_4
100
AcDbLine
 10
4.5
 20
-0.9999999999999997
 30
0.0
 11
3.1875
 21
-0.9999999999999997
 31
0.0
  0
LINE
  5
235
330
190
100
AcDbEntity
  8
AM_4
100
AcDbLine
 10
2.25
 20
0.6875
 30
0.0
 11
2.25
 21
1.578125
 31
0.0
  0
LINE
  5
236
330
190
100
AcDbEntity
  8
AM_4
100
AcDbLine
 10
3.1875
 20
1.0
 30
0.0
 11
3.1875
 21
-0.9999999999999997
 31
0.0
  0
LINE
  5
237
330
190
100
AcDbEntity
  8
AM_4
100
AcDbLine
 10
4.242857142857144
 20
1.0
 30
0.0
 11
4.242857142857144
 21
1.234375
 31
0.0
  0
LINE
  5
238
330
190
100
AcDbEntity
  8
AM_4
100
AcDbLine
 10
2.25
 20
-1.578125
 30
0.0
 11
2.25
 21
-0.6874999999999997
 31
0.0
  0
LINE
  5
239
330
190
100
AcDbEntity
  8
AM_4
100
AcDbLine
 10
4.5
 20
1.578125
 30
0.0
 11
4.5
 21
-1.578125
 31
0.0
  0
LWPOLYLINE
  5
23A
330
190
100
AcDbEntity
  8
AM_4
100
AcDbPolyline
 90
       19
 70
     0
 43
0.0
 10
4.242857159559255
 20
-1.234375
 10
4.265268636202239
 20
-1.235353507660664
 10
4.287509547848437
 20
-1.238281580697152
 10
4.309410627730792
 20
-1.243136934705635
 10
4.330805195407166
 20
-1.249882617510367
 10
4.351530425299148
 20
-1.25846729039205
 10
4.371428585893025
 20
-1.268825618806485
 10
4.390348240171837
 20
-1.28087876961991
 10
4.408145398142527
 20
-1.294535011076744
 10
4.424684612686717
 20
-1.309690410933635
 10
4.439840010395076
 20
-1.326229627446591
 10
4.453496249539964
 20
-1.344026787191299
 10
4.465549397895625
 20
-1.36294644303588
 10
4.475907723725184
 20
-1.382844604975359
 10
4.484492393914548
 20
-1.403569835982535
 10
4.491238073940012
 20
-1.424964404535209
 10
4.49609342510343
 20
-1.4468654850483
 10
4.499021495250705
 20
-1.46910639707487
 10
4.5
 20
-1.491517857142856
  0
LINE
  5
23B
330
190
100
AcDbEntity
  8
AM_4
100
AcDbLine
 10
4.242857142857144
 20
1.234375
 30
0.0
 11
2.25
 21
1.234375
 31
0.0
  0
LWPOLYLINE
  5
23C
330
190
100
AcDbEntity
  8
AM_4
100
AcDbPolyline
 90
       19
 70
     0
 43
0.0
 10
4.5
 20
1.491517857142857
 10
4.499021493795021
 20
1.469106380436316
 10
4.496093422203139
 20
1.446865468599932
 10
4.491238069617189
 20
1.424964388402209
 10
4.484492388202091
 20
1.403569820287685
 10
4.475907716666568
 20
1.382844589838106
 10
4.46554938954457
 20
1.362946428571429
 10
4.453496239960027
 20
1.344026773509731
 10
4.439839999659167
 20
1.326229614652033
 10
4.424684600876541
 20
1.309690399123459
 10
4.408145385347968
 20
1.294535000340834
 10
4.39034822649027
 20
1.280878760039974
 10
4.371428571428573
 20
1.26882561045543
 10
4.351530410161896
 20
1.258467283333433
 10
4.330805179712317
 20
1.249882611797909
 10
4.309410611597793
 20
1.243136930382811
 10
4.28750953140007
 20
1.23828157779686
 10
4.265268619563686
 20
1.235353506204979
 10
4.242857161628696
 20
1.234375
  0
LINE
  5
23D
330
190
100
AcDbEntity
  8
AM_4
100
AcDbLine
 10
-3.1875
 20
1.0
 30
0.0
 11
-4.5
 21
1.0
 31
0.0
  0
LWPOLYLINE
  5
23E
330
190
100
AcDbEntity
  8
AM_4
100
AcDbPolyline
 90
       19
 70
     0
 43
0.0
 10
-4.242857142857142
 20
1.234375
 10
-4.265268619563683
 20
1.23535350620498
 10
-4.287509531400067
 20
1.238281577796861
 10
-4.309410611597791
 20
1.243136930382811
 10
-4.330805179712314
 20
1.249882611797909
 10
-4.351530410161894
 20
1.258467283333433
 10
-4.371428571428571
 20
1.26882561045543
 10
-4.390348226490269
 20
1.280878760039974
 10
-4.408145385347966
 20
1.294535000340834
 10
-4.424684600876541
 20
1.309690399123459
 10
-4.439839999659165
 20
1.326229614652033
 10
-4.453496239960026
 20
1.344026773509731
 10
-4.46554938954457
 20
1.362946428571429
 10
-4.475907716666566
 20
1.382844589838106
 10
-4.48449238820209
 20
1.403569820287685
 10
-4.491238069617189
 20
1.424964388402209
 10
-4.496093422203139
 20
1.446865468599932
 10
-4.49902149379502
 20
1.469106380436317
 10
-4.5
 20
1.491517857142858
  0
LINE
  5
23F
330
190
100
AcDbEntity
  8
AM_4
100
AcDbLine
 10
-4.5
 20
-0.9999999999999997
 30
0.0
 11
-3.1875
 21
-0.9999999999999997
 31
0.0
  0
LWPOLYLINE
  5
240
330
190
100
AcDbEntity
  8
AM_4
100
AcDbPolyline
 90
       19
 70
     0
 43
0.0
 10
-4.5
 20
-1.491517857142858
 10
-4.499021493795021
 20
-1.469106380436317
 10
-4.496093422203139
 20
-1.446865468599932
 10
-4.491238069617189
 20
-1.424964388402209
 10
-4.48449238820209
 20
-1.403569820287685
 10
-4.475907716666567
 20
-1.382844589838106
 10
-4.46554938954457
 20
-1.362946428571429
 10
-4.453496239960026
 20
-1.344026773509731
 10
-4.439839999659165
 20
-1.326229614652033
 10
-4.424684600876541
 20
-1.309690399123459
 10
-4.408145385347967
 20
-1.294535000340834
 10
-4.390348226490269
 20
-1.280878760039973
 10
-4.371428571428571
 20
-1.26882561045543
 10
-4.351530410161894
 20
-1.258467283333432
 10
-4.330805179712315
 20
-1.249882611797909
 10
-4.309410611597791
 20
-1.24313693038281
 10
-4.287509531400068
 20
-1.23828157779686
 10
-4.265268619563684
 20
-1.235353506204979
 10
-4.242857142857143
 20
-1.234374999999999
  0
LINE
  5
241
330
190
100
AcDbEntity
  8
AM_4
100
AcDbLine
 10
4.242857142857144
 20
-1.234375
 30
0.0
 11
4.242857142857144
 21
-0.9999999999999994
 31
0.0
  0
LINE
  5
242
330
190
100
AcDbEntity
  8
AM_4
100
AcDbLine
 10
4.242857142857144
 20
-1.234375
 30
0.0
 11
2.25
 21
-1.234375
 31
0.0
  0
LINE
  5
243
330
190
100
AcDbEntity
  8
AM_4
100
AcDbLine
 10
-3.1875
 20
1.0
 30
0.0
 11
-3.1875
 21
-0.9999999999999997
 31
0.0
  0
LINE
  5
244
330
190
100
AcDbEntity
  8
AM_4
100
AcDbLine
 10
3.1875
 20
0.6875
 30
0.0
 11
-3.187499999999999
 21
0.6875000000000002
 31
0.0
  0
LINE
  5
245
330
190
100
AcDbEntity
  8
AM_4
100
AcDbLine
 10
-2.25
 20
1.234375
 30
0.0
 11
-4.242857142857142
 21
1.234375
 31
0.0
  0
LINE
  5
246
330
190
100
AcDbEntity
  8
AM_4
100
AcDbLine
 10
-4.242857142857142
 20
1.0
 30
0.0
 11
-4.242857142857142
 21
1.234375
 31
0.0
  0
LINE
  5
247
330
190
100
AcDbEntity
  8
AM_4
100
AcDbLine
 10
-4.242857142857142
 20
-1.234375
 30
0.0
 11
-4.242857142857142
 21
-0.9999999999999994
 31
0.0
  0
LINE
  5
248
330
190
100
AcDbEntity
  8
AM_4
100
AcDbLine
 10
-2.25
 20
-1.234375
 30
0.0
 11
-4.242857142857142
 21
-1.234375
 31
0.0
  0
LINE
  5
249
330
190
100
AcDbEntity
  8
AM_4
100
AcDbLine
 10
-3.187499999999999
 20
-0.6874999999999997
 30
0.0
 11
3.1875
 21
-0.6874999999999997
 31
0.0
  0
ENDBLK
  5
193
330
190
100
AcDbEntity
  8
0
100
AcDbBlockEnd
  0
ENDSEC
  0
SECTION
  2
ENTITIES
  0
INSERT
  5
6F
330
1F
100
AcDbEntity
  8
0
100
AcDbBlockReference
  2
1_023164_4
 10
0.0
 20
0.0
 30
0.0
  0
POINT
  5
24B
330
1F
100
AcDbEntity
  8
ConnectionPoints
100
AcDbPoint
 10
0.0
 20
2.5
 30
-0.0000000000000002
  0
POINT
  5
24C
330
1F
100
AcDbEntity
  8
ConnectionPoints
100
AcDbPoint
 10
0.0
 20
-2.5
 30
0.0000000000000002
  0
POINT
  5
24D
330
1F
100
AcDbEntity
  8
ConnectionPoints
100
AcDbPoint
 10
0.0
 20
-2.5
 30
0.0000000000000002
  0
POINT
  5
24E
330
1F
100
AcDbEntity
  8
ConnectionPoints
100
AcDbPoint
 10
0.0
 20
2.5
 30
-0.0000000000000002
  0
POINT
  5
24F
330
1F
100
AcDbEntity
  8
ConnectionPoints
100
AcDbPoint
 10
0.0
 20
0.0
 30
0.0
  0
POINT
  5
250
330
1F
100
AcDbEntity
  8
ConnectionPoints
100
AcDbPoint
 10
4.3
 20
0.0
 30
0.0
  0
POINT
  5
251
330
1F
100
AcDbEntity
  8
ConnectionPoints
100
AcDbPoint
 10
0.0
 20
0.0
 30
0.0
  0
ENDSEC
  0
SECTION
  2
OBJECTS
  0
DICTIONARY
  5
C
330
0
100
AcDbDictionary
281
     1
  3
ACAD_DETAILVIEWSTYLE
350
259
  3
ACAD_GROUP
350
D
  3
ACAD_LAYOUT
350
1A
  3
ACAD_MATERIAL
350
43
  3
ACAD_MLEADERSTYLE
350
6B
  3
ACAD_MLINESTYLE
350
17
  3
ACAD_PLOTSETTINGS
350
19
  3
ACAD_PLOTSTYLENAME
350
E
  3
ACAD_SCALELIST
350
47
  3
ACAD_SECTIONVIEWSTYLE
350
25A
  3
ACAD_TABLESTYLE
350
69
  3
ACAD_VISUALSTYLE
350
2A
  3
ACDB_RECOMPOSE_DATA
350
256
  3
AcDbVariableDictionary
350
252
  0
SUN
  5
6D
330
29
100
AcDbSun
 90
        1
290
     0
 63
     7
421
 16777215
 40
1.0
291
     1
 91
  2455826
 92
 54000000
292
     0
 70
     2
 71
   256
280
     1
  0
DICTIONARY
  5
259
102
{ACAD_REACTORS
330
C
102
}
330
C
100
AcDbDictionary
281
     1
  0
DICTIONARY
  5
D
102
{ACAD_REACTORS
330
C
102
}
330
C
100
AcDbDictionary
281
     1
  0
DICTIONARY
  5
1A
102
{ACAD_REACTORS
330
C
102
}
330
C
100
AcDbDictionary
281
     1
  3
Layout1
350
1E
  3
Layout2
350
26
  3
Model
350
22
  0
DICTIONARY
  5
43
102
{ACAD_REACTORS
330
C
102
}
330
C
100
AcDbDictionary
281
     1
  3
ByBlock
350
45
  3
ByLayer
350
44
  3
Global
350
46
  0
DICTIONARY
  5
6B
102
{ACAD_REACTORS
330
C
102
}
330
C
100
AcDbDictionary
281
     1
  3
Standard
350
6C
  0
DICTIONARY
  5
17
102
{ACAD_REACTORS
330
C
102
}
330
C
100
AcDbDictionary
281
     1
  3
Standard
350
18
  0
DICTIONARY
  5
19
102
{ACAD_REACTORS
330
C
102
}
330
C
100
AcDbDictionary
281
     1
  0
ACDBDICTIONARYWDFLT
  5
E
102
{ACAD_REACTORS
330
C
102
}
330
C
100
AcDbDictionary
281
     1
  3
Normal
350
F
100
AcDbDictionaryWithDefault
340
F
  0
DICTIONARY
  5
47
102
{ACAD_REACTORS
330
C
102
}
330
C
100
AcDbDictionary
281
     1
  3
A0
350
48
  3
A1
350
49
  3
A2
350
4A
  3
A3
350
4B
  3
A4
350
4C
  3
A5
350
4D
  3
A6
350
4E
  3
A7
350
4F
  3
A8
350
50
  3
A9
350
51
  3
B0
350
52
  3
B1
350
53
  3
B2
350
54
  3
B3
350
55
  3
B4
350
56
  3
B5
350
57
  3
B6
350
58
  3
B7
350
59
  3
B8
350
5A
  3
B9
350
5B
  3
C0
350
5C
  3
C1
350
5D
  3
C2
350
5E
  3
C3
350
5F
  3
C4
350
60
  3
C5
350
61
  3
C6
350
62
  3
C7
350
63
  3
C8
350
64
  3
C9
350
65
  3
D0
350
66
  3
D1
350
67
  3
D2
350
68
  0
DICTIONARY
  5
25A
102
{ACAD_REACTORS
330
C
102
}
330
C
100
AcDbDictionary
281
     1
  0
DICTIONARY
  5
69
102
{ACAD_REACTORS
330
C
102
}
330
C
100
AcDbDictionary
281
     1
  3
Standard
350
6A
  0
DICTIONARY
  5
2A
102
{ACAD_REACTORS
330
C
102
}
330
C
100
AcDbDictionary
281
     1
  3
2dWireframe
350
2F
  3
Basic
350
32
  3
Brighten
350
36
  3
ColorChange
350
3A
  3
Conceptual
350
34
  3
Dim
350
35
  3
EdgeColorOff
350
3D
  3
Facepattern
350
39
  3
Flat
350
2B
  3
FlatWithEdges
350
2C
  3
Gouraud
350
2D
  3
GouraudWithEdges
350
2E
  3
Hidden
350
31
  3
JitterOff
350
3B
  3
Linepattern
350
38
  3
OverhangOff
350
3C
  3
Realistic
350
33
  3
Shaded
350
42
  3
Shaded with edges
350
41
  3
Shades of Gray
350
3E
  3
Sketchy
350
3F
  3
Thicken
350
37
  3
Wireframe
350
30
  3
X-Ray
350
40
  0
XRECORD
  5
256
102
{ACAD_REACTORS
330
C
102
}
330
C
100
AcDbXrecord
280
     1
 90
        1
330
6A
  0
DICTIONARY
  5
252
102
{ACAD_REACTORS
330
C
102
}
330
C
100
AcDbDictionary
281
     1
  3
CANNOSCALE
350
253
  3
CMLEADERSTYLE
350
258
  3
CTABLESTYLE
350
257
  0
LAYOUT
  5
1E
102
{ACAD_REACTORS
330
1A
102
}
330
1A
100
AcDbPlotSettings
  1

  2
none_device
  4

  6

 40
0.0
 41
0.0
 42
0.0
 43
0.0
 44
0.0
 45
0.0
 46
0.0
 47
0.0
 48
0.0
 49
0.0
140
0.0
141
0.0
142
1.0
143
1.0
 70
   688
 72
     0
 73
     0
 74
     5
  7

 75
    16
 76
     0
 77
     2
 78
   300
147
1.0
148
0.0
149
0.0
100
AcDbLayout
  1
Layout1
 70
     1
 71
     1
 10
0.0
 20
0.0
 11
12.0
 21
9.0
 12
0.0
 22
0.0
 32
0.0
 14
1.000000000000000E+20
 24
1.000000000000000E+20
 34
1.000000000000000E+20
 15
-1.000000000000000E+20
 25
-1.000000000000000E+20
 35
-1.000000000000000E+20
146
0.0
 13
0.0
 23
0.0
 33
0.0
 16
1.0
 26
0.0
 36
0.0
 17
0.0
 27
1.0
 37
0.0
 76
     0
330
1B
  0
LAYOUT
  5
26
102
{ACAD_REACTORS
330
1A
102
}
330
1A
100
AcDbPlotSettings
  1

  2
none_device
  4

  6

 40
0.0
 41
0.0
 42
0.0
 43
0.0
 44
0.0
 45
0.0
 46
0.0
 47
0.0
 48
0.0
 49
0.0
140
0.0
141
0.0
142
1.0
143
1.0
 70
   688
 72
     0
 73
     0
 74
     5
  7

 75
    16
 76
     0
 77
     2
 78
   300
147
1.0
148
0.0
149
0.0
100
AcDbLayout
  1
Layout2
 70
     1
 71
     2
 10
0.0
 20
0.0
 11
0.0
 21
0.0
 12
0.0
 22
0.0
 32
0.0
 14
0.0
 24
0.0
 34
0.0
 15
0.0
 25
0.0
 35
0.0
146
0.0
 13
0.0
 23
0.0
 33
0.0
 16
1.0
 26
0.0
 36
0.0
 17
0.0
 27
1.0
 37
0.0
 76
     0
330
23
  0
LAYOUT
  5
22
102
{ACAD_REACTORS
330
1A
102
}
330
1A
100
AcDbPlotSettings
  1

  2
none_device
  4
Letter_(8.50_x_11.00_Inches)
  6

 40
6.35
 41
6.35
 42
6.35000508
 43
6.35000508
 44
215.9
 45
279.4
 46
0.0
 47
0.0
 48
0.0
 49
0.0
140
0.0
141
0.0
142
1.0
143
1.0
 70
  1712
 72
     0
 73
     0
 74
     0
  7

 75
     0
 76
     0
 77
     2
 78
   300
147
1.0
148
0.0
149
0.0
100
AcDbLayout
  1
Model
 70
     1
 71
     0
 10
0.0
 20
0.0
 11
12.0
 21
9.0
 12
0.0
 22
0.0
 32
0.0
 14
1.000000000000000E+20
 24
1.000000000000000E+20
 34
1.000000000000000E+20
 15
-1.000000000000000E+20
 25
-1.000000000000000E+20
 35
-1.000000000000000E+20
146
0.0
 13
0.0
 23
0.0
 33
0.0
 16
1.0
 26
0.0
 36
0.0
 17
0.0
 27
1.0
 37
0.0
 76
     0
330
1F
331
29
  0
MATERIAL
  5
45
102
{ACAD_REACTORS
330
43
102
}
330
43
100
AcDbMaterial
  1
ByBlock
 72
     1
 94
      127
  0
MATERIAL
  5
44
102
{ACAD_REACTORS
330
43
102
}
330
43
100
AcDbMaterial
  1
ByLayer
 72
     1
 94
      127
  0
MATERIAL
  5
46
102
{ACAD_REACTORS
330
43
102
}
330
43
100
AcDbMaterial
  1
Global
 72
     1
 94
      127
  0
MLEADERSTYLE
  5
6C
102
{ACAD_REACTORS
330
6B
102
}
330
6B
100
AcDbMLeaderStyle
179
     2
170
     2
171
     1
172
     0
 90
        2
 40
0.0
 41
0.0
173
     1
 91
-1056964608
340
14
 92
       -2
290
     1
 42
0.09
291
     1
 43
0.36
  3
Standard
341
0
 44
0.18
300

342
11
174
     1
178
     6
175
     1
176
     0
 93
-1056964608
 45
0.18
292
     0
297
     0
 46
0.18
343
0
 94
-1056964608
 47
1.0
 49
1.0
140
1.0
293
     1
141
0.0
294
     1
177
     0
142
1.0
295
     0
296
     0
143
0.125
271
     0
272
     9
273
     9
298
     0
  0
MLINESTYLE
  5
18
102
{ACAD_REACTORS
330
17
102
}
330
17
100
AcDbMlineStyle
  2
Standard
 70
     0
  3

 62
   256
 51
90.0
 52
90.0
 71
     2
 49
0.5
 62
   256
  6
BYLAYER
 49
-0.5
 62
   256
  6
BYLAYER
  0
ACDBPLACEHOLDER
  5
F
102
{ACAD_REACTORS
330
E
102
}
330
E
  0
SCALE
  5
48
102
{ACAD_REACTORS
330
47
102
}
330
47
100
AcDbScale
 70
     0
300
1:1
140
1.0
141
1.0
290
     1
  0
SCALE
  5
49
102
{ACAD_REACTORS
330
47
102
}
330
47
100
AcDbScale
 70
     0
300
1:2
140
1.0
141
2.0
290
     0
  0
SCALE
  5
4A
102
{ACAD_REACTORS
330
47
102
}
330
47
100
AcDbScale
 70
     0
300
1:4
140
1.0
141
4.0
290
     0
  0
SCALE
  5
4B
102
{ACAD_REACTORS
330
47
102
}
330
47
100
AcDbScale
 70
     0
300
1:5
140
1.0
141
5.0
290
     0
  0
SCALE
  5
4C
102
{ACAD_REACTORS
330
47
102
}
330
47
100
AcDbScale
 70
     0
300
1:8
140
1.0
141
8.0
290
     0
  0
SCALE
  5
4D
102
{ACAD_REACTORS
330
47
102
}
330
47
100
AcDbScale
 70
     0
300
1:10
140
1.0
141
10.0
290
     0
  0
SCALE
  5
4E
102
{ACAD_REACTORS
330
47
102
}
330
47
100
AcDbScale
 70
     0
300
1:16
140
1.0
141
16.0
290
     0
  0
SCALE
  5
4F
102
{ACAD_REACTORS
330
47
102
}
330
47
100
AcDbScale
 70
     0
300
1:20
140
1.0
141
20.0
290
     0
  0
SCALE
  5
50
102
{ACAD_REACTORS
330
47
102
}
330
47
100
AcDbScale
 70
     0
300
1:30
140
1.0
141
30.0
290
     0
  0
SCALE
  5
51
102
{ACAD_REACTORS
330
47
102
}
330
47
100
AcDbScale
 70
     0
300
1:40
140
1.0
141
40.0
290
     0
  0
SCALE
  5
52
102
{ACAD_REACTORS
330
47
102
}
330
47
100
AcDbScale
 70
     0
300
1:50
140
1.0
141
50.0
290
     0
  0
SCALE
  5
53
102
{ACAD_REACTORS
330
47
102
}
330
47
100
AcDbScale
 70
     0
300
1:100
140
1.0
141
100.0
290
     0
  0
SCALE
  5
54
102
{ACAD_REACTORS
330
47
102
}
330
47
100
AcDbScale
 70
     0
300
2:1
140
2.0
141
1.0
290
     0
  0
SCALE
  5
55
102
{ACAD_REACTORS
330
47
102
}
330
47
100
AcDbScale
 70
     0
300
4:1
140
4.0
141
1.0
290
     0
  0
SCALE
  5
56
102
{ACAD_REACTORS
330
47
102
}
330
47
100
AcDbScale
 70
     0
300
8:1
140
8.0
141
1.0
290
     0
  0
SCALE
  5
57
102
{ACAD_REACTORS
330
47
102
}
330
47
100
AcDbScale
 70
     0
300
10:1
140
10.0
141
1.0
290
     0
  0
SCALE
  5
58
102
{ACAD_REACTORS
330
47
102
}
330
47
100
AcDbScale
 70
     0
300
100:1
140
100.0
141
1.0
290
     0
  0
SCALE
  5
59
102
{ACAD_REACTORS
330
47
102
}
330
47
100
AcDbScale
 70
     0
300
1/128" = 1'-0"
140
0.0078125
141
12.0
290
     0
  0
SCALE
  5
5A
102
{ACAD_REACTORS
330
47
102
}
330
47
100
AcDbScale
 70
     0
300
1/64" = 1'-0"
140
0.015625
141
12.0
290
     0
  0
SCALE
  5
5B
102
{ACAD_REACTORS
330
47
102
}
330
47
100
AcDbScale
 70
     0
300
1/32" = 1'-0"
140
0.03125
141
12.0
290
     0
  0
SCALE
  5
5C
102
{ACAD_REACTORS
330
47
102
}
330
47
100
AcDbScale
 70
     0
300
1/16" = 1'-0"
140
0.0625
141
12.0
290
     0
  0
SCALE
  5
5D
102
{ACAD_REACTORS
330
47
102
}
330
47
100
AcDbScale
 70
     0
300
3/32" = 1'-0"
140
0.09375
141
12.0
290
     0
  0
SCALE
  5
5E
102
{ACAD_REACTORS
330
47
102
}
330
47
100
AcDbScale
 70
     0
300
1/8" = 1'-0"
140
0.125
141
12.0
290
     0
  0
SCALE
  5
5F
102
{ACAD_REACTORS
330
47
102
}
330
47
100
AcDbScale
 70
     0
300
3/16" = 1'-0"
140
0.1875
141
12.0
290
     0
  0
SCALE
  5
60
102
{ACAD_REACTORS
330
47
102
}
330
47
100
AcDbScale
 70
     0
300
1/4" = 1'-0"
140
0.25
141
12.0
290
     0
  0
SCALE
  5
61
102
{ACAD_REACTORS
330
47
102
}
330
47
100
AcDbScale
 70
     0
300
3/8" = 1'-0"
140
0.375
141
12.0
290
     0
  0
SCALE
  5
62
102
{ACAD_REACTORS
330
47
102
}
330
47
100
AcDbScale
 70
     0
300
1/2" = 1'-0"
140
0.5
141
12.0
290
     0
  0
SCALE
  5
63
102
{ACAD_REACTORS
330
47
102
}
330
47
100
AcDbScale
 70
     0
300
3/4" = 1'-0"
140
0.75
141
12.0
290
     0
  0
SCALE
  5
64
102
{ACAD_REACTORS
330
47
102
}
330
47
100
AcDbScale
 70
     0
300
1" = 1'-0"
140
1.0
141
12.0
290
     0
  0
SCALE
  5
65
102
{ACAD_REACTORS
330
47
102
}
330
47
100
AcDbScale
 70
     0
300
1-1/2" = 1'-0"
140
1.5
141
12.0
290
     0
  0
SCALE
  5
66
102
{ACAD_REACTORS
330
47
102
}
330
47
100
AcDbScale
 70
     0
300
3" = 1'-0"
140
3.0
141
12.0
290
     0
  0
SCALE
  5
67
102
{ACAD_REACTORS
330
47
102
}
330
47
100
AcDbScale
 70
     0
300
6" = 1'-0"
140
6.0
141
12.0
290
     0
  0
SCALE
  5
68
102
{ACAD_REACTORS
330
47
102
}
330
47
100
AcDbScale
 70
     0
300
1'-0" = 1'-0"
140
12.0
141
12.0
290
     0
  0
TABLESTYLE
  5
6A
102
{ACAD_REACTORS
330
69
102
}
102
{ACAD_XDICTIONARY
360
254
102
}
330
69
100
AcDbTableStyle
  3
Standard
 70
     0
 71
     0
 40
0.06
 41
0.06
280
     0
281
     0
  7
Standard
140
0.18
170
     2
 62
     0
 63
   257
283
     0
 90
        4
 91
        0
  1

274
    -2
284
     1
 64
     0
275
    -2
285
     1
 65
     0
276
    -2
286
     1
 66
     0
277
    -2
287
     1
 67
     0
278
    -2
288
     1
 68
     0
279
    -2
289
     1
 69
     0
  7
Standard
140
0.25
170
     5
 62
     0
 63
   257
283
     0
 90
        4
 91
        0
  1

274
    -2
284
     1
 64
     0
275
    -2
285
     1
 65
     0
276
    -2
286
     1
 66
     0
277
    -2
287
     1
 67
     0
278
    -2
288
     1
 68
     0
279
    -2
289
     1
 69
     0
  7
Standard
140
0.18
170
     5
 62
     0
 63
   257
283
     0
 90
        4
 91
        0
  1

274
    -2
284
     1
 64
     0
275
    -2
285
     1
 65
     0
276
    -2
286
     1
 66
     0
277
    -2
287
     1
 67
     0
278
    -2
288
     1
 68
     0
279
    -2
289
     1
 69
     0
  0
VISUALSTYLE
  5
2F
102
{ACAD_REACTORS
330
2A
102
}
330
2A
100
AcDbVisualStyle
  2
2dWireframe
 70
     4
177
     3
291
     0
 70
    58
 90
        0
176
     1
 90
        2
176
     1
 90
        0
176
     1
 90
        0
176
     1
 40
0.6
176
     1
 40
30.0
176
     1
 62
     7
420
 16777215
176
     1
 90
        1
176
     1
 90
        4
176
     1
 62
     7
176
     1
 62
   257
176
     1
 90
        1
176
     1
 90
        1
176
     1
 40
1.0
176
     1
 90
        0
176
     1
 62
   257
176
     1
 40
1.0
176
     1
 90
        1
176
     1
 90
        6
176
     1
 90
        2
176
     1
 62
     7
176
     1
 90
        5
176
     1
 90
        0
176
     1
 90
        0
176
     1
290
     0
176
     1
 90
        1
176
     1
 40
0.0
176
     1
 90
        0
176
     1
290
     1
176
     1
290
     1
176
     1
290
     0
176
     1
290
     0
176
     1
290
     0
176
     1
290
     0
176
     1
290
     0
176
     1
290
     0
176
     1
290
     0
176
     1
 90
       50
176
     1
 40
0.0
176
     1
 40
1.0
176
     1
 90
        0
176
     1
 62
    18
420
        0
176
     1
 90
       50
176
     1
 90
        3
176
     1
 62
     5
420
      255
176
     1
290
     0
176
     1
 90
       50
176
     1
 90
       50
176
     1
 90
       50
176
     1
290
     0
176
     1
 90
       50
176
     1
 62
   256
176
     0
 40
1.0
176
     0
 90
        2
176
     1
  1
strokes_ogs.tif
176
     1
290
     0
176
     1
 40
1.0
176
     1
 40
1.0
176
     1
  0
VISUALSTYLE
  5
32
102
{ACAD_REACTORS
330
2A
102
}
330
2A
100
AcDbVisualStyle
  2
Basic
 70
     7
177
     3
291
     1
 70
    58
 90
        1
176
     1
 90
        0
176
     1
 90
        1
176
     1
 90
        0
176
     1
 40
0.6
176
     1
 40
30.0
176
     1
 62
     7
420
 16777215
176
     1
 90
        0
176
     1
 90
        4
176
     1
 62
     7
176
     1
 62
   257
176
     1
 90
        1
176
     1
 90
        1
176
     1
 40
1.0
176
     1
 90
        8
176
     1
 62
     7
176
     1
 40
1.0
176
     1
 90
        1
176
     1
 90
        6
176
     1
 90
        2
176
     1
 62
     7
176
     1
 90
        5
176
     1
 90
        0
176
     1
 90
        0
176
     1
290
     0
176
     1
 90
        1
176
     1
 40
0.0
176
     1
 90
        0
176
     1
290
     0
176
     1
290
     1
176
     1
290
     1
176
     1
290
     0
176
     1
290
     0
176
     1
290
     0
176
     1
290
     0
176
     1
290
     0
176
     1
290
     0
176
     1
 90
       50
176
     1
 40
0.0
176
     1
 40
1.0
176
     1
 90
        0
176
     1
 62
    18
420
        0
176
     1
 90
       50
176
     1
 90
        3
176
     1
 62
     5
420
      255
176
     1
290
     0
176
     1
 90
       50
176
     1
 90
       50
176
     1
 90
       50
176
     1
290
     0
176
     1
 90
       50
176
     1
 62
   256
176
     0
 40
1.0
176
     0
 90
        2
176
     1
  1
strokes_ogs.tif
176
     1
290
     0
176
     1
 40
1.0
176
     1
 40
1.0
176
     1
  0
VISUALSTYLE
  5
36
102
{ACAD_REACTORS
330
2A
102
}
330
2A
100
AcDbVisualStyle
  2
Brighten
 70
    12
177
     3
291
     1
 70
    58
 90
        2
176
     1
 90
        2
176
     1
 90
        0
176
     1
 90
        0
176
     1
 40
0.6
176
     1
 40
30.0
176
     1
 62
     7
420
 16777215
176
     1
 90
        1
176
     1
 90
        4
176
     1
 62
     7
176
     1
 62
   257
176
     1
 90
        1
176
     1
 90
        1
176
     1
 40
1.0
176
     1
 90
        8
176
     1
 62
     7
176
     1
 40
1.0
176
     1
 90
        1
176
     1
 90
        6
176
     1
 90
        2
176
     1
 62
     7
176
     1
 90
        5
176
     1
 90
        0
176
     1
 90
        0
176
     1
290
     0
176
     1
 90
        1
176
     1
 40
50.0
176
     1
 90
        0
176
     1
290
     0
176
     1
290
     1
176
     1
290
     1
176
     1
290
     0
176
     1
290
     0
176
     1
290
     0
176
     1
290
     0
176
     1
290
     0
176
     1
290
     0
176
     1
 90
       50
176
     1
 40
0.0
176
     1
 40
1.0
176
     1
 90
        0
176
     1
 62
    18
420
        0
176
     1
 90
       50
176
     1
 90
        3
176
     1
 62
     5
420
      255
176
     1
290
     0
176
     1
 90
       50
176
     1
 90
       50
176
     1
 90
       50
176
     1
290
     0
176
     1
 90
       50
176
     1
 62
   256
176
     0
 40
1.0
176
     0
 90
        2
176
     1
  1
strokes_ogs.tif
176
     1
290
     0
176
     1
 40
1.0
176
     1
 40
1.0
176
     1
  0
VISUALSTYLE
  5
3A
102
{ACAD_REACTORS
330
2A
102
}
330
2A
100
AcDbVisualStyle
  2
ColorChange
 70
    16
177
     3
291
     1
 70
    58
 90
        2
176
     1
 90
        2
176
     1
 90
        3
176
     1
 90
        0
176
     1
 40
0.6
176
     1
 40
30.0
176
     1
 62
     8
420
  8421504
176
     1
 90
        1
176
     1
 90
        4
176
     1
 62
     7
176
     1
 62
   257
176
     1
 90
        1
176
     1
 90
        1
176
     1
 40
1.0
176
     1
 90
        8
176
     1
 62
     8
420
  8421504
176
     1
 40
1.0
176
     1
 90
        1
176
     1
 90
        6
176
     1
 90
        2
176
     1
 62
     7
176
     1
 90
        5
176
     1
 90
        0
176
     1
 90
        0
176
     1
290
     0
176
     1
 90
        1
176
     1
 40
0.0
176
     1
 90
        0
176
     1
290
     0
176
     1
290
     1
176
     1
290
     1
176
     1
290
     0
176
     1
290
     0
176
     1
290
     0
176
     1
290
     0
176
     1
290
     0
176
     1
290
     0
176
     1
 90
       50
176
     1
 40
0.0
176
     1
 40
1.0
176
     1
 90
        0
176
     1
 62
    18
420
        0
176
     1
 90
       50
176
     1
 90
        3
176
     1
 62
     5
420
      255
176
     1
290
     0
176
     1
 90
       50
176
     1
 90
       50
176
     1
 90
       50
176
     1
290
     0
176
     1
 90
       50
176
     1
 62
   256
176
     0
 40
1.0
176
     0
 90
        2
176
     1
  1
strokes_ogs.tif
176
     1
290
     0
176
     1
 40
1.0
176
     1
 40
1.0
176
     1
  0
VISUALSTYLE
  5
34
102
{ACAD_REACTORS
330
2A
102
}
330
2A
100
AcDbVisualStyle
  2
Conceptual
 70
     9
177
     3
291
     0
 70
    58
 90
        3
176
     1
 90
        2
176
     1
 90
        0
176
     1
 90
        0
176
     1
 40
0.6
176
     1
 40
30.0
176
     1
 62
     7
420
 16777215
176
     1
 90
        2
176
     1
 90
        2
176
     1
 62
     7
176
     1
 62
   257
176
     1
 90
        1
176
     1
 90
        1
176
     1
 40
179.0
176
     1
 90
        8
176
     1
 62
     7
176
     1
 40
1.0
176
     1
 90
        1
176
     1
 90
        6
176
     1
 90
        2
176
     1
 62
     7
176
     1
 90
        3
176
     1
 90
        0
176
     1
 90
        0
176
     1
290
     0
176
     1
 90
        1
176
     1
 40
0.0
176
     1
 90
        0
176
     1
290
     0
176
     1
290
     1
176
     1
290
     1
176
     1
290
     0
176
     1
290
     0
176
     1
290
     0
176
     1
290
     0
176
     1
290
     0
176
     1
290
     0
176
     1
 90
       50
176
     1
 40
0.0
176
     1
 40
1.0
176
     1
 90
        0
176
     1
 62
    18
420
        0
176
     1
 90
       50
176
     1
 90
        3
176
     1
 62
     5
420
      255
176
     1
290
     0
176
     1
 90
       50
176
     1
 90
       50
176
     1
 90
       50
176
     1
290
     0
176
     1
 90
       50
176
     1
 62
   256
176
     0
 40
1.0
176
     0
 90
        2
176
     1
  1
strokes_ogs.tif
176
     1
290
     0
176
     1
 40
1.0
176
     1
 40
1.0
176
     1
  0
VISUALSTYLE
  5
35
102
{ACAD_REACTORS
330
2A
102
}
330
2A
100
AcDbVisualStyle
  2
Dim
 70
    11
177
     3
291
     1
 70
    58
 90
        2
176
     1
 90
        2
176
     1
 90
        0
176
     1
 90
        0
176
     1
 40
0.6
176
     1
 40
30.0
176
     1
 62
     7
420
 16777215
176
     1
 90
        1
176
     1
 90
        4
176
     1
 62
     7
176
     1
 62
   257
176
     1
 90
        1
176
     1
 90
        1
176
     1
 40
1.0
176
     1
 90
        8
176
     1
 62
     7
176
     1
 40
1.0
176
     1
 90
        1
176
     1
 90
        6
176
     1
 90
        2
176
     1
 62
     7
176
     1
 90
        5
176
     1
 90
        0
176
     1
 90
        0
176
     1
290
     0
176
     1
 90
        1
176
     1
 40
-50.0
176
     1
 90
        0
176
     1
290
     0
176
     1
290
     1
176
     1
290
     1
176
     1
290
     0
176
     1
290
     0
176
     1
290
     0
176
     1
290
     0
176
     1
290
     0
176
     1
290
     0
176
     1
 90
       50
176
     1
 40
0.0
176
     1
 40
1.0
176
     1
 90
        0
176
     1
 62
    18
420
        0
176
     1
 90
       50
176
     1
 90
        3
176
     1
 62
     5
420
      255
176
     1
290
     0
176
     1
 90
       50
176
     1
 90
       50
176
     1
 90
       50
176
     1
290
     0
176
     1
 90
       50
176
     1
 62
   256
176
     0
 40
1.0
176
     0
 90
        2
176
     1
  1
strokes_ogs.tif
176
     1
290
     0
176
     1
 40
1.0
176
     1
 40
1.0
176
     1
  0
VISUALSTYLE
  5
3D
102
{ACAD_REACTORS
330
2A
102
}
330
2A
100
AcDbVisualStyle
  2
EdgeColorOff
 70
    22
177
     3
291
     1
 70
    58
 90
        2
176
     0
 90
        2
176
     0
 90
        0
176
     0
 90
        0
176
     0
 40
0.6
176
     0
 40
30.0
176
     0
 62
     7
420
 16777215
176
     0
 90
        1
176
     0
 90
        4
176
     0
 62
     7
176
     0
 62
   257
176
     0
 90
        1
176
     0
 90
        1
176
     0
 40
1.0
176
     0
 90
        8
176
     2
 62
     7
176
     0
 40
1.0
176
     0
 90
        1
176
     0
 90
        6
176
     0
 90
        2
176
     0
 62
     7
176
     0
 90
        5
176
     0
 90
        0
176
     0
 90
        0
176
     0
290
     0
176
     0
 90
        1
176
     0
 40
0.0
176
     0
 90
        0
176
     0
290
     0
176
     0
290
     1
176
     0
290
     1
176
     0
290
     0
176
     0
290
     0
176
     0
290
     0
176
     0
290
     0
176
     0
290
     0
176
     0
290
     0
176
     0
 90
       50
176
     0
 40
0.0
176
     0
 40
1.0
176
     0
 90
        0
176
     0
 62
    18
420
        0
176
     0
 90
       50
176
     0
 90
        3
176
     0
 62
     5
420
      255
176
     0
290
     0
176
     0
 90
       50
176
     0
 90
       50
176
     0
 90
       50
176
     0
290
     0
176
     0
 90
       50
176
     0
 62
   256
176
     0
 40
1.0
176
     0
 90
        2
176
     0
  1
strokes_ogs.tif
176
     0
290
     0
176
     0
 40
1.0
176
     0
 40
1.0
176
     0
  0
VISUALSTYLE
  5
39
102
{ACAD_REACTORS
330
2A
102
}
330
2A
100
AcDbVisualStyle
  2
Facepattern
 70
    15
177
     3
291
     1
 70
    58
 90
        2
176
     1
 90
        2
176
     1
 90
        0
176
     1
 90
        0
176
     1
 40
0.6
176
     1
 40
30.0
176
     1
 62
     7
420
 16777215
176
     1
 90
        1
176
     1
 90
        4
176
     1
 62
     7
176
     1
 62
   257
176
     1
 90
        1
176
     1
 90
        1
176
     1
 40
1.0
176
     1
 90
        8
176
     1
 62
     7
176
     1
 40
1.0
176
     1
 90
        1
176
     1
 90
        6
176
     1
 90
        2
176
     1
 62
     7
176
     1
 90
        5
176
     1
 90
        0
176
     1
 90
        0
176
     1
290
     0
176
     1
 90
        1
176
     1
 40
0.0
176
     1
 90
        0
176
     1
290
     0
176
     1
290
     1
176
     1
290
     1
176
     1
290
     0
176
     1
290
     0
176
     1
290
     0
176
     1
290
     0
176
     1
290
     0
176
     1
290
     0
176
     1
 90
       50
176
     1
 40
0.0
176
     1
 40
1.0
176
     1
 90
        0
176
     1
 62
    18
420
        0
176
     1
 90
       50
176
     1
 90
        3
176
     1
 62
     5
420
      255
176
     1
290
     0
176
     1
 90
       50
176
     1
 90
       50
176
     1
 90
       50
176
     1
290
     0
176
     1
 90
       50
176
     1
 62
   256
176
     0
 40
1.0
176
     0
 90
        2
176
     1
  1
strokes_ogs.tif
176
     1
290
     0
176
     1
 40
1.0
176
     1
 40
1.0
176
     1
  0
VISUALSTYLE
  5
2B
102
{ACAD_REACTORS
330
2A
102
}
330
2A
100
AcDbVisualStyle
  2
Flat
 70
     0
177
     3
291
     1
 70
    58
 90
        2
176
     1
 90
        1
176
     1
 90
        1
176
     1
 90
        2
176
     1
 40
0.6
176
     1
 40
30.0
176
     1
 62
     7
420
 16777215
176
     1
 90
        0
176
     1
 90
        0
176
     1
 62
     7
176
     1
 62
   257
176
     1
 90
        1
176
     1
 90
        1
176
     1
 40
1.0
176
     1
 90
        8
176
     1
 62
     7
176
     1
 40
1.0
176
     1
 90
        1
176
     1
 90
        6
176
     1
 90
        2
176
     1
 62
     7
176
     1
 90
        5
176
     1
 90
        0
176
     1
 90
        0
176
     1
290
     0
176
     1
 90
       13
176
     1
 40
0.0
176
     1
 90
        0
176
     1
290
     0
176
     1
290
     1
176
     1
290
     1
176
     1
290
     0
176
     1
290
     0
176
     1
290
     0
176
     1
290
     0
176
     1
290
     0
176
     1
290
     0
176
     1
 90
       50
176
     1
 40
0.0
176
     1
 40
1.0
176
     1
 90
        0
176
     1
 62
    18
420
        0
176
     1
 90
       50
176
     1
 90
        3
176
     1
 62
     5
420
      255
176
     1
290
     0
176
     1
 90
       50
176
     1
 90
       50
176
     1
 90
       50
176
     1
290
     0
176
     1
 90
       50
176
     1
 62
   256
176
     0
 40
1.0
176
     0
 90
        2
176
     1
  1
strokes_ogs.tif
176
     1
290
     0
176
     1
 40
1.0
176
     1
 40
1.0
176
     1
  0
VISUALSTYLE
  5
2C
102
{ACAD_REACTORS
330
2A
102
}
330
2A
100
AcDbVisualStyle
  2
FlatWithEdges
 70
     1
177
     3
291
     1
 70
    58
 90
        2
176
     1
 90
        1
176
     1
 90
        1
176
     1
 90
        2
176
     1
 40
0.6
176
     1
 40
30.0
176
     1
 62
     7
420
 16777215
176
     1
 90
        1
176
     1
 90
        0
176
     1
 62
     7
176
     1
 62
   257
176
     1
 90
        1
176
     1
 90
        1
176
     1
 40
1.0
176
     1
 90
        0
176
     1
 62
   257
176
     1
 40
1.0
176
     1
 90
        1
176
     1
 90
        6
176
     1
 90
        2
176
     1
 62
     7
176
     1
 90
        5
176
     1
 90
        0
176
     1
 90
        0
176
     1
290
     0
176
     1
 90
       13
176
     1
 40
0.0
176
     1
 90
        0
176
     1
290
     0
176
     1
290
     1
176
     1
290
     1
176
     1
290
     0
176
     1
290
     0
176
     1
290
     0
176
     1
290
     0
176
     1
290
     0
176
     1
290
     0
176
     1
 90
       50
176
     1
 40
0.0
176
     1
 40
1.0
176
     1
 90
        0
176
     1
 62
    18
420
        0
176
     1
 90
       50
176
     1
 90
        3
176
     1
 62
     5
420
      255
176
     1
290
     0
176
     1
 90
       50
176
     1
 90
       50
176
     1
 90
       50
176
     1
290
     0
176
     1
 90
       50
176
     1
 62
   256
176
     0
 40
1.0
176
     0
 90
        2
176
     1
  1
strokes_ogs.tif
176
     1
290
     0
176
     1
 40
1.0
176
     1
 40
1.0
176
     1
  0
VISUALSTYLE
  5
2D
102
{ACAD_REACTORS
330
2A
102
}
330
2A
100
AcDbVisualStyle
  2
Gouraud
 70
     2
177
     3
291
     1
 70
    58
 90
        2
176
     1
 90
        2
176
     1
 90
        1
176
     1
 90
        2
176
     1
 40
0.6
176
     1
 40
30.0
176
     1
 62
     7
420
 16777215
176
     1
 90
        0
176
     1
 90
        0
176
     1
 62
     7
176
     1
 62
   257
176
     1
 90
        1
176
     1
 90
        1
176
     1
 40
1.0
176
     1
 90
        0
176
     1
 62
     7
176
     1
 40
1.0
176
     1
 90
        1
176
     1
 90
        6
176
     1
 90
        2
176
     1
 62
     7
176
     1
 90
        5
176
     1
 90
        0
176
     1
 90
        0
176
     1
290
     0
176
     1
 90
       13
176
     1
 40
0.0
176
     1
 90
        0
176
     1
290
     0
176
     1
290
     1
176
     1
290
     1
176
     1
290
     0
176
     1
290
     0
176
     1
290
     0
176
     1
290
     0
176
     1
290
     0
176
     1
290
     0
176
     1
 90
       50
176
     1
 40
0.0
176
     1
 40
1.0
176
     1
 90
        0
176
     1
 62
    18
420
        0
176
     1
 90
       50
176
     1
 90
        3
176
     1
 62
     5
420
      255
176
     1
290
     0
176
     1
 90
       50
176
     1
 90
       50
176
     1
 90
       50
176
     1
290
     0
176
     1
 90
       50
176
     1
 62
   256
176
     0
 40
1.0
176
     0
 90
        2
176
     1
  1
strokes_ogs.tif
176
     1
290
     0
176
     1
 40
1.0
176
     1
 40
1.0
176
     1
  0
VISUALSTYLE
  5
2E
102
{ACAD_REACTORS
330
2A
102
}
330
2A
100
AcDbVisualStyle
  2
GouraudWithEdges
 70
     3
177
     3
291
     1
 70
    58
 90
        2
176
     1
 90
        2
176
     1
 90
        1
176
     1
 90
        2
176
     1
 40
0.6
176
     1
 40
30.0
176
     1
 62
     7
420
 16777215
176
     1
 90
        1
176
     1
 90
        0
176
     1
 62
     7
176
     1
 62
   257
176
     1
 90
        1
176
     1
 90
        1
176
     1
 40
1.0
176
     1
 90
        0
176
     1
 62
   257
176
     1
 40
1.0
176
     1
 90
        1
176
     1
 90
        6
176
     1
 90
        2
176
     1
 62
     7
176
     1
 90
        5
176
     1
 90
        0
176
     1
 90
        0
176
     1
290
     0
176
     1
 90
       13
176
     1
 40
0.0
176
     1
 90
        0
176
     1
290
     0
176
     1
290
     1
176
     1
290
     1
176
     1
290
     0
176
     1
290
     0
176
     1
290
     0
176
     1
290
     0
176
     1
290
     0
176
     1
290
     0
176
     1
 90
       50
176
     1
 40
0.0
176
     1
 40
1.0
176
     1
 90
        0
176
     1
 62
    18
420
        0
176
     1
 90
       50
176
     1
 90
        3
176
     1
 62
     5
420
      255
176
     1
290
     0
176
     1
 90
       50
176
     1
 90
       50
176
     1
 90
       50
176
     1
290
     0
176
     1
 90
       50
176
     1
 62
   256
176
     0
 40
1.0
176
     0
 90
        2
176
     1
  1
strokes_ogs.tif
176
     1
290
     0
176
     1
 40
1.0
176
     1
 40
1.0
176
     1
  0
VISUALSTYLE
  5
31
102
{ACAD_REACTORS
330
2A
102
}
330
2A
100
AcDbVisualStyle
  2
Hidden
 70
     6
177
     3
291
     0
 70
    58
 90
        1
176
     1
 90
        2
176
     1
 90
        2
176
     1
 90
        0
176
     1
 40
0.6
176
     1
 40
30.0
176
     1
 62
     7
420
 16777215
176
     1
 90
        2
176
     1
 90
        2
176
     1
 62
     7
176
     1
 62
   257
176
     1
 90
        2
176
     1
 90
        1
176
     1
 40
40.0
176
     1
 90
        0
176
     1
 62
   257
176
     1
 40
1.0
176
     1
 90
        1
176
     1
 90
        6
176
     1
 90
        2
176
     1
 62
     7
176
     1
 90
        3
176
     1
 90
        0
176
     1
 90
        0
176
     1
290
     0
176
     1
 90
        1
176
     1
 40
0.0
176
     1
 90
        0
176
     1
290
     0
176
     1
290
     1
176
     1
290
     1
176
     1
290
     0
176
     1
290
     0
176
     1
290
     0
176
     1
290
     0
176
     1
290
     0
176
     1
290
     0
176
     1
 90
       50
176
     1
 40
0.0
176
     1
 40
1.0
176
     1
 90
        0
176
     1
 62
    18
420
        0
176
     1
 90
       50
176
     1
 90
        3
176
     1
 62
     5
420
      255
176
     1
290
     0
176
     1
 90
       50
176
     1
 90
       50
176
     1
 90
       50
176
     1
290
     0
176
     1
 90
       50
176
     1
 62
   256
176
     0
 40
1.0
176
     0
 90
        2
176
     1
  1
strokes_ogs.tif
176
     1
290
     0
176
     1
 40
1.0
176
     1
 40
1.0
176
     1
  0
VISUALSTYLE
  5
3B
102
{ACAD_REACTORS
330
2A
102
}
330
2A
100
AcDbVisualStyle
  2
JitterOff
 70
    20
177
     3
291
     1
 70
    58
 90
        2
176
     0
 90
        2
176
     0
 90
        0
176
     0
 90
        0
176
     0
 40
0.6
176
     0
 40
30.0
176
     0
 62
     7
420
 16777215
176
     0
 90
        1
176
     0
 90
        4
176
     0
 62
     7
176
     0
 62
   257
176
     0
 90
        1
176
     0
 90
        1
176
     0
 40
1.0
176
     0
 90
       10
176
     2
 62
     7
176
     0
 40
1.0
176
     0
 90
        1
176
     0
 90
        6
176
     0
 90
        2
176
     0
 62
     7
176
     0
 90
        5
176
     0
 90
        0
176
     0
 90
        0
176
     0
290
     0
176
     0
 90
        1
176
     0
 40
0.0
176
     0
 90
        0
176
     0
290
     0
176
     0
290
     1
176
     0
290
     1
176
     0
290
     0
176
     0
290
     0
176
     0
290
     0
176
     0
290
     0
176
     0
290
     0
176
     0
290
     0
176
     0
 90
       50
176
     0
 40
0.0
176
     0
 40
1.0
176
     0
 90
        0
176
     0
 62
    18
420
        0
176
     0
 90
       50
176
     0
 90
        3
176
     0
 62
     5
420
      255
176
     0
290
     0
176
     0
 90
       50
176
     0
 90
       50
176
     0
 90
       50
176
     0
290
     0
176
     0
 90
       50
176
     0
 62
   256
176
     0
 40
1.0
176
     0
 90
        2
176
     0
  1
strokes_ogs.tif
176
     0
290
     0
176
     0
 40
1.0
176
     0
 40
1.0
176
     0
  0
VISUALSTYLE
  5
38
102
{ACAD_REACTORS
330
2A
102
}
330
2A
100
AcDbVisualStyle
  2
Linepattern
 70
    14
177
     3
291
     1
 70
    58
 90
        2
176
     1
 90
        2
176
     1
 90
        0
176
     1
 90
        0
176
     1
 40
0.6
176
     1
 40
30.0
176
     1
 62
     7
420
 16777215
176
     1
 90
        1
176
     1
 90
        4
176
     1
 62
     7
176
     1
 62
   257
176
     1
 90
        7
176
     1
 90
        7
176
     1
 40
1.0
176
     1
 90
        8
176
     1
 62
     7
176
     1
 40
1.0
176
     1
 90
        1
176
     1
 90
        6
176
     1
 90
        2
176
     1
 62
     7
176
     1
 90
        5
176
     1
 90
        0
176
     1
 90
        0
176
     1
290
     0
176
     1
 90
        1
176
     1
 40
0.0
176
     1
 90
        0
176
     1
290
     0
176
     1
290
     1
176
     1
290
     1
176
     1
290
     0
176
     1
290
     0
176
     1
290
     0
176
     1
290
     0
176
     1
290
     0
176
     1
290
     0
176
     1
 90
       50
176
     1
 40
0.0
176
     1
 40
1.0
176
     1
 90
        0
176
     1
 62
    18
420
        0
176
     1
 90
       50
176
     1
 90
        3
176
     1
 62
     5
420
      255
176
     1
290
     0
176
     1
 90
       50
176
     1
 90
       50
176
     1
 90
       50
176
     1
290
     0
176
     1
 90
       50
176
     1
 62
   256
176
     0
 40
1.0
176
     0
 90
        2
176
     1
  1
strokes_ogs.tif
176
     1
290
     0
176
     1
 40
1.0
176
     1
 40
1.0
176
     1
  0
VISUALSTYLE
  5
3C
102
{ACAD_REACTORS
330
2A
102
}
330
2A
100
AcDbVisualStyle
  2
OverhangOff
 70
    21
177
     3
291
     1
 70
    58
 90
        2
176
     0
 90
        2
176
     0
 90
        0
176
     0
 90
        0
176
     0
 40
0.6
176
     0
 40
30.0
176
     0
 62
     7
420
 16777215
176
     0
 90
        1
176
     0
 90
        4
176
     0
 62
     7
176
     0
 62
   257
176
     0
 90
        1
176
     0
 90
        1
176
     0
 40
1.0
176
     0
 90
        9
176
     2
 62
     7
176
     0
 40
1.0
176
     0
 90
        1
176
     0
 90
        6
176
     0
 90
        2
176
     0
 62
     7
176
     0
 90
        5
176
     0
 90
        0
176
     0
 90
        0
176
     0
290
     0
176
     0
 90
        1
176
     0
 40
0.0
176
     0
 90
        0
176
     0
290
     0
176
     0
290
     1
176
     0
290
     1
176
     0
290
     0
176
     0
290
     0
176
     0
290
     0
176
     0
290
     0
176
     0
290
     0
176
     0
290
     0
176
     0
 90
       50
176
     0
 40
0.0
176
     0
 40
1.0
176
     0
 90
        0
176
     0
 62
    18
420
        0
176
     0
 90
       50
176
     0
 90
        3
176
     0
 62
     5
420
      255
176
     0
290
     0
176
     0
 90
       50
176
     0
 90
       50
176
     0
 90
       50
176
     0
290
     0
176
     0
 90
       50
176
     0
 62
   256
176
     0
 40
1.0
176
     0
 90
        2
176
     0
  1
strokes_ogs.tif
176
     0
290
     0
176
     0
 40
1.0
176
     0
 40
1.0
176
     0
  0
VISUALSTYLE
  5
33
102
{ACAD_REACTORS
330
2A
102
}
330
2A
100
AcDbVisualStyle
  2
Realistic
 70
     8
177
     3
291
     0
 70
    58
 90
        2
176
     1
 90
        3
176
     1
 90
        0
176
     1
 90
        2
176
     1
 40
0.6
176
     1
 40
30.0
176
     1
 62
     7
420
 16777215
176
     1
 90
        0
176
     1
 90
        0
176
     1
 62
     7
176
     1
 62
   257
176
     1
 90
        1
176
     1
 90
        1
176
     1
 40
1.0
176
     1
 90
        8
176
     1
 62
   257
176
     1
 40
1.0
176
     1
 90
        1
176
     1
 90
        6
176
     1
 90
        2
176
     1
 62
     7
176
     1
 90
        3
176
     1
 90
        0
176
     1
 90
        0
176
     1
290
     0
176
     1
 90
       13
176
     1
 40
0.0
176
     1
 90
        0
176
     1
290
     0
176
     1
290
     1
176
     1
290
     1
176
     1
290
     0
176
     1
290
     0
176
     1
290
     0
176
     1
290
     0
176
     1
290
     0
176
     1
290
     0
176
     1
 90
       50
176
     1
 40
0.0
176
     1
 40
1.0
176
     1
 90
        0
176
     1
 62
    18
420
        0
176
     1
 90
       50
176
     1
 90
        3
176
     1
 62
     5
420
      255
176
     1
290
     0
176
     1
 90
       50
176
     1
 90
       50
176
     1
 90
       50
176
     1
290
     0
176
     1
 90
       50
176
     1
 62
   256
176
     0
 40
1.0
176
     0
 90
        2
176
     1
  1
strokes_ogs.tif
176
     1
290
     0
176
     1
 40
1.0
176
     1
 40
1.0
176
     1
  0
VISUALSTYLE
  5
42
102
{ACAD_REACTORS
330
2A
102
}
330
2A
100
AcDbVisualStyle
  2
Shaded
 70
    27
177
     3
291
     0
 70
    58
 90
        2
176
     1
 90
        2
176
     1
 90
        1
176
     1
 90
        2
176
     1
 40
0.6
176
     1
 40
30.0
176
     1
 62
     7
420
 16777215
176
     1
 90
        0
176
     1
 90
        4
176
     1
 62
     7
176
     1
 62
   257
176
     1
 90
        1
176
     1
 90
        1
176
     1
 40
1.0
176
     1
 90
        8
176
     1
 62
   257
176
     1
 40
1.0
176
     1
 90
        1
176
     1
 90
        6
176
     1
 90
        2
176
     1
 62
     8
420
  7895160
176
     1
 90
        3
176
     1
 90
        0
176
     1
 90
        0
176
     1
290
     0
176
     1
 90
        5
176
     1
 40
0.0
176
     1
 90
        0
176
     1
290
     0
176
     1
290
     1
176
     1
290
     1
176
     1
290
     0
176
     1
290
     0
176
     1
290
     0
176
     1
290
     0
176
     1
290
     0
176
     1
290
     0
176
     1
 90
       50
176
     1
 40
0.0
176
     1
 40
1.0
176
     1
 90
        0
176
     1
 62
    18
420
        0
176
     1
 90
       50
176
     1
 90
        3
176
     1
 62
     5
420
      255
176
     1
290
     0
176
     1
 90
       50
176
     1
 90
       50
176
     1
 90
       50
176
     1
290
     0
176
     1
 90
       50
176
     1
 62
   256
176
     0
 40
1.0
176
     0
 90
        2
176
     1
  1
strokes_ogs.tif
176
     1
290
     0
176
     1
 40
1.0
176
     1
 40
1.0
176
     1
  0
VISUALSTYLE
  5
41
102
{ACAD_REACTORS
330
2A
102
}
330
2A
100
AcDbVisualStyle
  2
Shaded with edges
 70
    26
177
     3
291
     0
 70
    58
 90
        2
176
     1
 90
        2
176
     1
 90
        1
176
     1
 90
        2
176
     1
 40
0.6
176
     1
 40
30.0
176
     1
 62
     7
420
 16777215
176
     1
 90
        1
176
     1
 90
       10
176
     1
 62
     7
176
     1
 62
   257
176
     1
 90
        2
176
     1
 90
        1
176
     1
 40
1.0
176
     1
 90
        8
176
     1
 62
   257
176
     1
 40
1.0
176
     1
 90
        1
176
     1
 90
        6
176
     1
 90
        2
176
     1
 62
     7
176
     1
 90
        3
176
     1
 90
        0
176
     1
 90
        0
176
     1
290
     0
176
     1
 90
        5
176
     1
 40
0.0
176
     1
 90
        0
176
     1
290
     0
176
     1
290
     1
176
     1
290
     1
176
     1
290
     0
176
     1
290
     0
176
     1
290
     0
176
     1
290
     0
176
     1
290
     0
176
     1
290
     0
176
     1
 90
       50
176
     1
 40
0.0
176
     1
 40
1.0
176
     1
 90
        0
176
     1
 62
    18
420
        0
176
     1
 90
       50
176
     1
 90
        3
176
     1
 62
     5
420
      255
176
     1
290
     0
176
     1
 90
       50
176
     1
 90
       50
176
     1
 90
       50
176
     1
290
     0
176
     1
 90
       50
176
     1
 62
   256
176
     0
 40
1.0
176
     0
 90
        2
176
     1
  1
strokes_ogs.tif
176
     1
290
     0
176
     1
 40
1.0
176
     1
 40
1.0
176
     1
  0
VISUALSTYLE
  5
3E
102
{ACAD_REACTORS
330
2A
102
}
330
2A
100
AcDbVisualStyle
  2
Shades of Gray
 70
    23
177
     3
291
     0
 70
    58
 90
        2
176
     1
 90
        2
176
     1
 90
        3
176
     1
 90
        0
176
     1
 40
0.6
176
     1
 40
30.0
176
     1
 62
     7
420
 16777215
176
     1
 90
        2
176
     1
 90
        2
176
     1
 62
     7
176
     1
 62
     7
176
     1
 90
        1
176
     1
 90
        1
176
     1
 40
40.0
176
     1
 90
        8
176
     1
 62
     7
176
     1
 40
1.0
176
     1
 90
        1
176
     1
 90
        6
176
     1
 90
        2
176
     1
 62
     7
176
     1
 90
        3
176
     1
 90
        0
176
     1
 90
        0
176
     1
290
     0
176
     1
 90
        1
176
     1
 40
0.0
176
     1
 90
        0
176
     1
290
     0
176
     1
290
     1
176
     1
290
     1
176
     1
290
     0
176
     1
290
     0
176
     1
290
     0
176
     1
290
     0
176
     1
290
     0
176
     1
290
     0
176
     1
 90
       50
176
     1
 40
0.0
176
     1
 40
1.0
176
     1
 90
        0
176
     1
 62
    18
420
        0
176
     1
 90
       50
176
     1
 90
        3
176
     1
 62
     5
420
      255
176
     1
290
     0
176
     1
 90
       50
176
     1
 90
       50
176
     1
 90
       50
176
     1
290
     0
176
     1
 90
       50
176
     1
 62
   256
176
     0
 40
1.0
176
     0
 90
        2
176
     1
  1
strokes_ogs.tif
176
     1
290
     0
176
     1
 40
1.0
176
     1
 40
1.0
176
     1
  0
VISUALSTYLE
  5
3F
102
{ACAD_REACTORS
330
2A
102
}
330
2A
100
AcDbVisualStyle
  2
Sketchy
 70
    24
177
     3
291
     0
 70
    58
 90
        1
176
     1
 90
        2
176
     1
 90
        2
176
     1
 90
        0
176
     1
 40
0.6
176
     1
 40
30.0
176
     1
 62
     7
420
 16777215
176
     1
 90
        2
176
     1
 90
        2
176
     1
 62
     7
176
     1
 62
     7
176
     1
 90
        1
176
     1
 90
        1
176
     1
 40
40.0
176
     1
 90
       11
176
     1
 62
     7
176
     1
 40
1.0
176
     1
 90
        1
176
     1
 90
        6
176
     1
 90
        2
176
     1
 62
     7
176
     1
 90
        6
176
     1
 90
        0
176
     1
 90
        0
176
     1
290
     0
176
     1
 90
        1
176
     1
 40
0.0
176
     1
 90
        0
176
     1
290
     0
176
     1
290
     1
176
     1
290
     1
176
     1
290
     0
176
     1
290
     0
176
     1
290
     0
176
     1
290
     0
176
     1
290
     0
176
     1
290
     0
176
     1
 90
       50
176
     1
 40
0.0
176
     1
 40
1.0
176
     1
 90
        0
176
     1
 62
    18
420
        0
176
     1
 90
       50
176
     1
 90
        3
176
     1
 62
     5
420
      255
176
     1
290
     0
176
     1
 90
       50
176
     1
 90
       50
176
     1
 90
       50
176
     1
290
     0
176
     1
 90
       50
176
     1
 62
   256
176
     0
 40
1.0
176
     0
 90
        2
176
     1
  1
strokes_ogs.tif
176
     1
290
     0
176
     1
 40
1.0
176
     1
 40
1.0
176
     1
  0
VISUALSTYLE
  5
37
102
{ACAD_REACTORS
330
2A
102
}
330
2A
100
AcDbVisualStyle
  2
Thicken
 70
    13
177
     3
291
     1
 70
    58
 90
        2
176
     1
 90
        2
176
     1
 90
        0
176
     1
 90
        0
176
     1
 40
0.6
176
     1
 40
30.0
176
     1
 62
     7
420
 16777215
176
     1
 90
        1
176
     1
 90
        4
176
     1
 62
     7
176
     1
 62
   257
176
     1
 90
        1
176
     1
 90
        1
176
     1
 40
1.0
176
     1
 90
       12
176
     1
 62
     7
176
     1
 40
1.0
176
     1
 90
        1
176
     1
 90
        6
176
     1
 90
        2
176
     1
 62
     7
176
     1
 90
        5
176
     1
 90
        0
176
     1
 90
        0
176
     1
290
     0
176
     1
 90
        1
176
     1
 40
0.0
176
     1
 90
        0
176
     1
290
     0
176
     1
290
     1
176
     1
290
     1
176
     1
290
     0
176
     1
290
     0
176
     1
290
     0
176
     1
290
     0
176
     1
290
     0
176
     1
290
     0
176
     1
 90
       50
176
     1
 40
0.0
176
     1
 40
1.0
176
     1
 90
        0
176
     1
 62
    18
420
        0
176
     1
 90
       50
176
     1
 90
        3
176
     1
 62
     5
420
      255
176
     1
290
     0
176
     1
 90
       50
176
     1
 90
       50
176
     1
 90
       50
176
     1
290
     0
176
     1
 90
       50
176
     1
 62
   256
176
     0
 40
1.0
176
     0
 90
        2
176
     1
  1
strokes_ogs.tif
176
     1
290
     0
176
     1
 40
1.0
176
     1
 40
1.0
176
     1
  0
VISUALSTYLE
  5
30
102
{ACAD_REACTORS
330
2A
102
}
330
2A
100
AcDbVisualStyle
  2
Wireframe
 70
     5
177
     3
291
     0
 70
    58
 90
        0
176
     1
 90
        2
176
     1
 90
        0
176
     1
 90
        0
176
     1
 40
0.6
176
     1
 40
30.0
176
     1
 62
     7
420
 16777215
176
     1
 90
        1
176
     1
 90
        4
176
     1
 62
     7
176
     1
 62
   257
176
     1
 90
        1
176
     1
 90
        1
176
     1
 40
1.0
176
     1
 90
        0
176
     1
 62
   257
176
     1
 40
1.0
176
     1
 90
        1
176
     1
 90
        6
176
     1
 90
        2
176
     1
 62
     7
176
     1
 90
        3
176
     1
 90
        0
176
     1
 90
        0
176
     1
290
     0
176
     1
 90
        1
176
     1
 40
0.0
176
     1
 90
        0
176
     1
290
     0
176
     1
290
     1
176
     1
290
     1
176
     1
290
     0
176
     1
290
     0
176
     1
290
     0
176
     1
290
     0
176
     1
290
     0
176
     1
290
     0
176
     1
 90
       50
176
     1
 40
0.0
176
     1
 40
1.0
176
     1
 90
        0
176
     1
 62
    18
420
        0
176
     1
 90
       50
176
     1
 90
        3
176
     1
 62
     5
420
      255
176
     1
290
     0
176
     1
 90
       50
176
     1
 90
       50
176
     1
 90
       50
176
     1
290
     0
176
     1
 90
       50
176
     1
 62
   256
176
     0
 40
1.0
176
     0
 90
        2
176
     1
  1
strokes_ogs.tif
176
     1
290
     0
176
     1
 40
1.0
176
     1
 40
1.0
176
     1
  0
VISUALSTYLE
  5
40
102
{ACAD_REACTORS
330
2A
102
}
330
2A
100
AcDbVisualStyle
  2
X-Ray
 70
    25
177
     3
291
     0
 70
    58
 90
        2
176
     1
 90
        2
176
     1
 90
        1
176
     1
 90
        1
176
     1
 40
0.5
176
     1
 40
30.0
176
     1
 62
     7
420
 16777215
176
     1
 90
        1
176
     1
 90
        0
176
     1
 62
     7
176
     1
 62
   257
176
     1
 90
        1
176
     1
 90
        1
176
     1
 40
1.0
176
     1
 90
        8
176
     1
 62
     7
176
     1
 40
1.0
176
     1
 90
        1
176
     1
 90
        6
176
     1
 90
        2
176
     1
 62
     7
176
     1
 90
        3
176
     1
 90
        0
176
     1
 90
        0
176
     1
290
     0
176
     1
 90
       13
176
     1
 40
0.0
176
     1
 90
        0
176
     1
290
     0
176
     1
290
     1
176
     1
290
     1
176
     1
290
     0
176
     1
290
     0
176
     1
290
     0
176
     1
290
     0
176
     1
290
     0
176
     1
290
     0
176
     1
 90
       50
176
     1
 40
0.0
176
     1
 40
1.0
176
     1
 90
        0
176
     1
 62
    18
420
        0
176
     1
 90
       50
176
     1
 90
        3
176
     1
 62
     5
420
      255
176
     1
290
     0
176
     1
 90
       50
176
     1
 90
       50
176
     1
 90
       50
176
     1
290
     0
176
     1
 90
       50
176
     1
 62
   256
176
     0
 40
1.0
176
     0
 90
        2
176
     1
  1
strokes_ogs.tif
176
     1
290
     0
176
     1
 40
1.0
176
     1
 40
1.0
176
     1
  0
DICTIONARYVAR
  5
253
102
{ACAD_REACTORS
330
252
102
}
330
252
100
DictionaryVariables
280
     0
  1
1:1
  0
DICTIONARYVAR
  5
258
102
{ACAD_REACTORS
330
252
102
}
330
252
100
DictionaryVariables
280
     0
  1
Standard
  0
DICTIONARYVAR
  5
257
102
{ACAD_REACTORS
330
252
102
}
330
252
100
DictionaryVariables
280
     0
  1
Standard
  0
DICTIONARY
  5
254
330
6A
100
AcDbDictionary
280
     1
281
     1
  3
ACAD_ROUNDTRIP_2008_TABLESTYLE_CELLSTYLEMAP
360
255
  0
CELLSTYLEMAP
  5
255
102
{ACAD_REACTORS
330
254
102
}
330
254
100
AcDbCellStyleMap
 90
        3
300
CELLSTYLE
  1
TABLEFORMAT_BEGIN
 90
        5
170
     1
 91
        0
 92
    32768
 62
   257
 93
        1
300
CONTENTFORMAT
  1
CONTENTFORMAT_BEGIN
 90
        0
 91
        0
 92
        4
 93
        0
300

 40
0.0
140
1.0
 94
        5
 62
     0
340
11
144
0.25
309
CONTENTFORMAT_END
171
     1
301
MARGIN
  1
CELLMARGIN_BEGIN
 40
0.06
 40
0.06
 40
0.06
 40
0.06
 40
0.06
 40
0.06
309
CELLMARGIN_END
 94
        6
 95
        1
302
GRIDFORMAT
  1
GRIDFORMAT_BEGIN
 90
        0
 91
        1
 62
     0
 92
       -2
340
14
 93
        0
 40
0.045
309
GRIDFORMAT_END
 95
        2
302
GRIDFORMAT
  1
GRIDFORMAT_BEGIN
 90
        0
 91
        1
 62
     0
 92
       -2
340
14
 93
        0
 40
0.045
309
GRIDFORMAT_END
 95
        4
302
GRIDFORMAT
  1
GRIDFORMAT_BEGIN
 90
        0
 91
        1
 62
     0
 92
       -2
340
14
 93
        0
 40
0.045
309
GRIDFORMAT_END
 95
        8
302
GRIDFORMAT
  1
GRIDFORMAT_BEGIN
 90
        0
 91
        1
 62
     0
 92
       -2
340
14
 93
        0
 40
0.045
309
GRIDFORMAT_END
 95
       16
302
GRIDFORMAT
  1
GRIDFORMAT_BEGIN
 90
        0
 91
        1
 62
     0
 92
       -2
340
14
 93
        0
 40
0.045
309
GRIDFORMAT_END
 95
       32
302
GRIDFORMAT
  1
GRIDFORMAT_BEGIN
 90
        0
 91
        1
 62
     0
 92
       -2
340
14
 93
        0
 40
0.045
309
GRIDFORMAT_END
309
TABLEFORMAT_END
  1
CELLSTYLE_BEGIN
 90
        1
 91
        1
300
_TITLE
309
CELLSTYLE_END
300
CELLSTYLE
  1
TABLEFORMAT_BEGIN
 90
        5
170
     1
 91
        0
 92
        0
 62
   257
 93
        1
300
CONTENTFORMAT
  1
CONTENTFORMAT_BEGIN
 90
        0
 91
        0
 92
        4
 93
        0
300

 40
0.0
140
1.0
 94
        5
 62
     0
340
11
144
0.18
309
CONTENTFORMAT_END
171
     1
301
MARGIN
  1
CELLMARGIN_BEGIN
 40
0.06
 40
0.06
 40
0.06
 40
0.06
 40
0.06
 40
0.06
309
CELLMARGIN_END
 94
        6
 95
        1
302
GRIDFORMAT
  1
GRIDFORMAT_BEGIN
 90
        0
 91
        1
 62
     0
 92
       -2
340
14
 93
        0
 40
0.045
309
GRIDFORMAT_END
 95
        2
302
GRIDFORMAT
  1
GRIDFORMAT_BEGIN
 90
        0
 91
        1
 62
     0
 92
       -2
340
14
 93
        0
 40
0.045
309
GRIDFORMAT_END
 95
        4
302
GRIDFORMAT
  1
GRIDFORMAT_BEGIN
 90
        0
 91
        1
 62
     0
 92
       -2
340
14
 93
        0
 40
0.045
309
GRIDFORMAT_END
 95
        8
302
GRIDFORMAT
  1
GRIDFORMAT_BEGIN
 90
        0
 91
        1
 62
     0
 92
       -2
340
14
 93
        0
 40
0.045
309
GRIDFORMAT_END
 95
       16
302
GRIDFORMAT
  1
GRIDFORMAT_BEGIN
 90
        0
 91
        1
 62
     0
 92
       -2
340
14
 93
        0
 40
0.045
309
GRIDFORMAT_END
 95
       32
302
GRIDFORMAT
  1
GRIDFORMAT_BEGIN
 90
        0
 91
        1
 62
     0
 92
       -2
340
14
 93
        0
 40
0.045
309
GRIDFORMAT_END
309
TABLEFORMAT_END
  1
CELLSTYLE_BEGIN
 90
        2
 91
        1
300
_HEADER
309
CELLSTYLE_END
300
CELLSTYLE
  1
TABLEFORMAT_BEGIN
 90
        5
170
     1
 91
        0
 92
        0
 62
   257
 93
        1
300
CONTENTFORMAT
  1
CONTENTFORMAT_BEGIN
 90
        0
 91
        0
 92
        4
 93
        0
300

 40
0.0
140
1.0
 94
        2
 62
     0
340
11
144
0.18
309
CONTENTFORMAT_END
171
     1
301
MARGIN
  1
CELLMARGIN_BEGIN
 40
0.06
 40
0.06
 40
0.06
 40
0.06
 40
0.06
 40
0.06
309
CELLMARGIN_END
 94
        6
 95
        1
302
GRIDFORMAT
  1
GRIDFORMAT_BEGIN
 90
        0
 91
        1
 62
     0
 92
       -2
340
14
 93
        0
 40
0.045
309
GRIDFORMAT_END
 95
        2
302
GRIDFORMAT
  1
GRIDFORMAT_BEGIN
 90
        0
 91
        1
 62
     0
 92
       -2
340
14
 93
        0
 40
0.045
309
GRIDFORMAT_END
 95
        4
302
GRIDFORMAT
  1
GRIDFORMAT_BEGIN
 90
        0
 91
        1
 62
     0
 92
       -2
340
14
 93
        0
 40
0.045
309
GRIDFORMAT_END
 95
        8
302
GRIDFORMAT
  1
GRIDFORMAT_BEGIN
 90
        0
 91
        1
 62
     0
 92
       -2
340
14
 93
        0
 40
0.045
309
GRIDFORMAT_END
 95
       16
302
GRIDFORMAT
  1
GRIDFORMAT_BEGIN
 90
        0
 91
        1
 62
     0
 92
       -2
340
14
 93
        0
 40
0.045
309
GRIDFORMAT_END
 95
       32
302
GRIDFORMAT
  1
GRIDFORMAT_BEGIN
 90
        0
 91
        1
 62
     0
 92
       -2
340
14
 93
        0
 40
0.045
309
GRIDFORMAT_END
309
TABLEFORMAT_END
  1
CELLSTYLE_BEGIN
 90
        3
 91
        2
300
_DATA
309
CELLSTYLE_END
  0
ENDSEC
  0
EOF