0
SECTION
  2
HEADER
  9
$ACADVER
  1
AC1027
  9
$ACADMAINTVER
 70
     8
  9
$DWGCODEPAGE
  3
ANSI_1252
  9
$REQUIREDVERSIONS
160
                 0
  9
$COMMENTS
  1
File was created by Cadenas
  9
$CUSTOMPROPERTYTAG
  1
NN
  9
$CUSTOMPROPERTY
  1
Type E-Xtra TP Take-Up Bearing Inch Bore
  9
$CUSTOMPROPERTYTAG
  1
NT
  9
$CUSTOMPROPERTY
  1
Type E-xtra TP Take-Up Bearing -(Contact Seal) -Inch
  9
$CUSTOMPROPERTYTAG
  1
NB
  9
$CUSTOMPROPERTY
  1
023153
  9
$CUSTOMPROPERTYTAG
  1
NBSYN
  9
$CUSTOMPROPERTY
  1
$PN.
  9
$CUSTOMPROPERTYTAG
  1
LINA
  9
$CUSTOMPROPERTY
  1
023153
  9
$CUSTOMPROPERTYTAG
  1
SS
  9
$CUSTOMPROPERTY
  1
2-3/16
  9
$CUSTOMPROPERTYTAG
  1
PN
  9
$CUSTOMPROPERTY
  1
023153
  9
$CUSTOMPROPERTYTAG
  1
DESCRIPTION
  9
$CUSTOMPROPERTY
  1
TP-E-203R
  9
$CUSTOMPROPERTYTAG
  1
A
  9
$CUSTOMPROPERTY
  1
3-3/4
  9
$CUSTOMPROPERTYTAG
  1
B
  9
$CUSTOMPROPERTY
  1
5-13/16
  9
$CUSTOMPROPERTYTAG
  1
C
  9
$CUSTOMPROPERTY
  1
6-7/8
  9
$CUSTOMPROPERTYTAG
  1
D
  9
$CUSTOMPROPERTY
  1
3-3/8
  9
$CUSTOMPROPERTYTAG
  1
E
  9
$CUSTOMPROPERTY
  1
2-3/4
  9
$CUSTOMPROPERTYTAG
  1
F
  9
$CUSTOMPROPERTY
  1
2-3/8
  9
$CUSTOMPROPERTYTAG
  1
G
  9
$CUSTOMPROPERTY
  1
9/16
  9
$CUSTOMPROPERTYTAG
  1
H
  9
$CUSTOMPROPERTY
  1
13/16
  9
$CUSTOMPROPERTYTAG
  1
J
  9
$CUSTOMPROPERTY
  1
2-9/16
  9
$CUSTOMPROPERTYTAG
  1
L
  9
$CUSTOMPROPERTY
  1
3-3/4
  9
$CUSTOMPROPERTYTAG
  1
N
  9
$CUSTOMPROPERTY
  1
1-7/8
  9
$CUSTOMPROPERTYTAG
  1
U
  9
$CUSTOMPROPERTY
  1
1-3/8
  9
$CUSTOMPROPERTYTAG
  1
V
  9
$CUSTOMPROPERTY
  1
13/16
  9
$CUSTOMPROPERTYTAG
  1
W
  9
$CUSTOMPROPERTY
  1
1-3/8
  9
$CUSTOMPROPERTYTAG
  1
X
  9
$CUSTOMPROPERTY
  1
6-3/4
  9
$CUSTOMPROPERTYTAG
  1
Y
  9
$CUSTOMPROPERTY
  1
7
  9
$CUSTOMPROPERTYTAG
  1
COMPANY
  9
$CUSTOMPROPERTY
  1
baldor
  9
$INSBASE
 10
0.0
 20
0.0
 30
0.0
  9
$EXTMIN
 10
1.000000000000000E+20
 20
1.000000000000000E+20
 30
1.000000000000000E+20
  9
$EXTMAX
 10
-1.000000000000000E+20
 20
-1.000000000000000E+20
 30
-1.000000000000000E+20
  9
$LIMMIN
 10
0.0
 20
0.0
  9
$LIMMAX
 10
12.0
 20
9.0
  9
$ORTHOMODE
 70
     0
  9
$REGENMODE
 70
     1
  9
$FILLMODE
 70
     1
  9
$QTEXTMODE
 70
     0
  9
$MIRRTEXT
 70
     1
  9
$LTSCALE
 40
1.0
  9
$ATTMODE
 70
     1
  9
$TEXTSIZE
 40
0.2
  9
$TRACEWID
 40
0.05
  9
$TEXTSTYLE
  7
Standard
  9
$CLAYER
  8
0
  9
$CELTYPE
  6
ByLayer
  9
$CECOLOR
 62
   256
  9
$CELTSCALE
 40
1.0
  9
$DISPSILH
 70
     0
  9
$DIMSCALE
 40
1.0
  9
$DIMASZ
 40
0.18
  9
$DIMEXO
 40
0.0625
  9
$DIMDLI
 40
0.38
  9
$DIMRND
 40
0.0
  9
$DIMDLE
 40
0.0
  9
$DIMEXE
 40
0.18
  9
$DIMTP
 40
0.0
  9
$DIMTM
 40
0.0
  9
$DIMTXT
 40
0.18
  9
$DIMCEN
 40
0.09
  9
$DIMTSZ
 40
0.0
  9
$DIMTOL
 70
     0
  9
$DIMLIM
 70
     0
  9
$DIMTIH
 70
     1
  9
$DIMTOH
 70
     1
  9
$DIMSE1
 70
     0
  9
$DIMSE2
 70
     0
  9
$DIMTAD
 70
     0
  9
$DIMZIN
 70
     0
  9
$DIMBLK
  1

  9
$DIMASO
 70
     1
  9
$DIMSHO
 70
     1
  9
$DIMPOST
  1

  9
$DIMAPOST
  1

  9
$DIMALT
 70
     0
  9
$DIMALTD
 70
     2
  9
$DIMALTF
 40
25.4
  9
$DIMLFAC
 40
1.0
  9
$DIMTOFL
 70
     0
  9
$DIMTVP
 40
0.0
  9
$DIMTIX
 70
     0
  9
$DIMSOXD
 70
     0
  9
$DIMSAH
 70
     0
  9
$DIMBLK1
  1

  9
$DIMBLK2
  1

  9
$DIMSTYLE
  2
Standard
  9
$DIMCLRD
 70
     0
  9
$DIMCLRE
 70
     0
  9
$DIMCLRT
 70
     0
  9
$DIMTFAC
 40
1.0
  9
$DIMGAP
 40
0.09
  9
$DIMJUST
 70
     0
  9
$DIMSD1
 70
     0
  9
$DIMSD2
 70
     0
  9
$DIMTOLJ
 70
     1
  9
$DIMTZIN
 70
     0
  9
$DIMALTZ
 70
     0
  9
$DIMALTTZ
 70
     0
  9
$DIMUPT
 70
     0
  9
$DIMDEC
 70
     4
  9
$DIMTDEC
 70
     4
  9
$DIMALTU
 70
     2
  9
$DIMALTTD
 70
     2
  9
$DIMTXSTY
  7
Standard
  9
$DIMAUNIT
 70
     0
  9
$DIMADEC
 70
     0
  9
$DIMALTRND
 40
0.0
  9
$DIMAZIN
 70
     0
  9
$DIMDSEP
 70
    46
  9
$DIMATFIT
 70
     3
  9
$DIMFRAC
 70
     0
  9
$DIMLDRBLK
  1

  9
$DIMLUNIT
 70
     2
  9
$DIMLWD
 70
    -2
  9
$DIMLWE
 70
    -2
  9
$DIMTMOVE
 70
     0
  9
$DIMFXL
 40
1.0
  9
$DIMFXLON
 70
     0
  9
$DIMJOGANG
 40
0.7853981633974483
  9
$DIMTFILL
 70
     0
  9
$DIMTFILLCLR
 70
     0
  9
$DIMARCSYM
 70
     0
  9
$DIMLTYPE
  6

  9
$DIMLTEX1
  6

  9
$DIMLTEX2
  6

  9
$DIMTXTDIRECTION
 70
     0
  9
$LUNITS
 70
     2
  9
$LUPREC
 70
     4
  9
$SKETCHINC
 40
0.1
  9
$FILLETRAD
 40
0.5
  9
$AUNITS
 70
     0
  9
$AUPREC
 70
     0
  9
$MENU
  1
.
  9
$ELEVATION
 40
0.0
  9
$PELEVATION
 40
0.0
  9
$THICKNESS
 40
0.0
  9
$LIMCHECK
 70
     0
  9
$CHAMFERA
 40
0.0
  9
$CHAMFERB
 40
0.0
  9
$CHAMFERC
 40
0.0
  9
$CHAMFERD
 40
0.0
  9
$SKPOLY
 70
     0
  9
$TDCREATE
 40
2458168.97567412
  9
$TDUCREATE
 40
2458168.934007454
  9
$TDUPDATE
 40
2458168.975674479
  9
$TDUUPDATE
 40
2458168.934007812
  9
$TDINDWG
 40
0.0000000116
  9
$TDUSRTIMER
 40
0.0000000116
  9
$USRTIMER
 70
     1
  9
$ANGBASE
 50
0.0
  9
$ANGDIR
 70
     0
  9
$PDMODE
 70
     0
  9
$PDSIZE
 40
0.0
  9
$PLINEWID
 40
0.0
  9
$SPLFRAME
 70
     0
  9
$SPLINETYPE
 70
     6
  9
$SPLINESEGS
 70
     8
  9
$HANDSEED
  5
23D
  9
$SURFTAB1
 70
     6
  9
$SURFTAB2
 70
     6
  9
$SURFTYPE
 70
     6
  9
$SURFU
 70
     6
  9
$SURFV
 70
     6
  9
$UCSBASE
  2

  9
$UCSNAME
  2

  9
$UCSORG
 10
0.0
 20
0.0
 30
0.0
  9
$UCSXDIR
 10
1.0
 20
0.0
 30
0.0
  9
$UCSYDIR
 10
0.0
 20
1.0
 30
0.0
  9
$UCSORTHOREF
  2

  9
$UCSORTHOVIEW
 70
     0
  9
$UCSORGTOP
 10
0.0
 20
0.0
 30
0.0
  9
$UCSORGBOTTOM
 10
0.0
 20
0.0
 30
0.0
  9
$UCSORGLEFT
 10
0.0
 20
0.0
 30
0.0
  9
$UCSORGRIGHT
 10
0.0
 20
0.0
 30
0.0
  9
$UCSORGFRONT
 10
0.0
 20
0.0
 30
0.0
  9
$UCSORGBACK
 10
0.0
 20
0.0
 30
0.0
  9
$PUCSBASE
  2

  9
$PUCSNAME
  2

  9
$PUCSORG
 10
0.0
 20
0.0
 30
0.0
  9
$PUCSXDIR
 10
1.0
 20
0.0
 30
0.0
  9
$PUCSYDIR
 10
0.0
 20
1.0
 30
0.0
  9
$PUCSORTHOREF
  2

  9
$PUCSORTHOVIEW
 70
     0
  9
$PUCSORGTOP
 10
0.0
 20
0.0
 30
0.0
  9
$PUCSORGBOTTOM
 10
0.0
 20
0.0
 30
0.0
  9
$PUCSORGLEFT
 10
0.0
 20
0.0
 30
0.0
  9
$PUCSORGRIGHT
 10
0.0
 20
0.0
 30
0.0
  9
$PUCSORGFRONT
 10
0.0
 20
0.0
 30
0.0
  9
$PUCSORGBACK
 10
0.0
 20
0.0
 30
0.0
  9
$USERI1
 70
     0
  9
$USERI2
 70
     0
  9
$USERI3
 70
     0
  9
$USERI4
 70
     0
  9
$USERI5
 70
     0
  9
$USERR1
 40
0.0
  9
$USERR2
 40
0.0
  9
$USERR3
 40
0.0
  9
$USERR4
 40
0.0
  9
$USERR5
 40
0.0
  9
$WORLDVIEW
 70
     1
  9
$SHADEDGE
 70
     3
  9
$SHADEDIF
 70
    70
  9
$TILEMODE
 70
     1
  9
$MAXACTVP
 70
    64
  9
$PINSBASE
 10
0.0
 20
0.0
 30
0.0
  9
$PLIMCHECK
 70
     0
  9
$PEXTMIN
 10
1.000000000000000E+20
 20
1.000000000000000E+20
 30
1.000000000000000E+20
  9
$PEXTMAX
 10
-1.000000000000000E+20
 20
-1.000000000000000E+20
 30
-1.000000000000000E+20
  9
$PLIMMIN
 10
0.0
 20
0.0
  9
$PLIMMAX
 10
12.0
 20
9.0
  9
$UNITMODE
 70
     0
  9
$VISRETAIN
 70
     1
  9
$PLINEGEN
 70
     0
  9
$PSLTSCALE
 70
     1
  9
$TREEDEPTH
 70
  3020
  9
$CMLSTYLE
  2
Standard
  9
$CMLJUST
 70
     0
  9
$CMLSCALE
 40
1.0
  9
$PROXYGRAPHICS
 70
     1
  9
$MEASUREMENT
 70
     0
  9
$CELWEIGHT
370
    -1
  9
$ENDCAPS
280
     0
  9
$JOINSTYLE
280
     0
  9
$LWDISPLAY
290
     0
  9
$INSUNITS
 70
     1
  9
$HYPERLINKBASE
  1

  9
$STYLESHEET
  1

  9
$XEDIT
290
     1
  9
$CEPSNTYPE
380
     0
  9
$PSTYLEMODE
290
     1
  9
$FINGERPRINTGUID
  2
{67624B5A-42BE-443E-98F7-2EAD7A39FA01}
  9
$VERSIONGUID
  2
{FAEB1C32-E019-11D5-929B-00C0DF256EC4}
  9
$EXTNAMES
290
     1
  9
$PSVPSCALE
 40
0.0
  9
$OLESTARTUP
290
     0
  9
$SORTENTS
280
   127
  9
$INDEXCTL
280
     0
  9
$HIDETEXT
280
     1
  9
$XCLIPFRAME
280
     2
  9
$HALOGAP
280
     0
  9
$OBSCOLOR
 70
   257
  9
$OBSLTYPE
280
     0
  9
$INTERSECTIONDISPLAY
280
     0
  9
$INTERSECTIONCOLOR
 70
   257
  9
$DIMASSOC
280
     2
  9
$PROJECTNAME
  1

  9
$CAMERADISPLAY
290
     0
  9
$LENSLENGTH
 40
50.0
  9
$CAMERAHEIGHT
 40
0.0
  9
$STEPSPERSEC
 40
2.0
  9
$STEPSIZE
 40
6.0
  9
$3DDWFPREC
 40
2.0
  9
$PSOLWIDTH
 40
0.25
  9
$PSOLHEIGHT
 40
4.0
  9
$LOFTANG1
 40
1.570796326794897
  9
$LOFTANG2
 40
1.570796326794897
  9
$LOFTMAG1
 40
0.0
  9
$LOFTMAG2
 40
0.0
  9
$LOFTPARAM
 70
     7
  9
$LOFTNORMALS
280
     1
  9
$LATITUDE
 40
37.795
  9
$LONGITUDE
 40
-122.394
  9
$NORTHDIRECTION
 40
0.0
  9
$TIMEZONE
 70
 -8000
  9
$LIGHTGLYPHDISPLAY
280
     1
  9
$TILEMODELIGHTSYNCH
280
     1
  9
$CMATERIAL
347
44
  9
$SOLIDHIST
280
     0
  9
$SHOWHIST
280
     1
  9
$DWFFRAME
280
     2
  9
$DGNFRAME
280
     2
  9
$REALWORLDSCALE
290
     1
  9
$INTERFERECOLOR
 62
   256
  9
$CSHADOW
280
     0
  9
$SHADOWPLANELOCATION
 40
0.0
  0
ENDSEC
  0
SECTION
  2
CLASSES
  0
CLASS
  1
ACDBDICTIONARYWDFLT
  2
AcDbDictionaryWithDefault
  3
ObjectDBX Classes
 90
        0
 91
        4
280
     0
281
     0
  0
CLASS
  1
VISUALSTYLE
  2
AcDbVisualStyle
  3
ObjectDBX Classes
 90
     4095
 91
        4
280
     0
281
     0
  0
CLASS
  1
MATERIAL
  2
AcDbMaterial
  3
ObjectDBX Classes
 90
     1153
 91
        4
280
     0
281
     0
  0
CLASS
  1
SCALE
  2
AcDbScale
  3
ObjectDBX Classes
 90
     1153
 91
        4
280
     0
281
     0
  0
CLASS
  1
TABLESTYLE
  2
AcDbTableStyle
  3
ObjectDBX Classes
 90
     4095
 91
        4
280
     0
281
     0
  0
CLASS
  1
MLEADERSTYLE
  2
AcDbMLeaderStyle
  3
ACDB_MLEADERSTYLE_CLASS
 90
     4095
 91
        4
280
     0
281
     0
  0
CLASS
  1
SUN
  2
AcDbSun
  3
SCENEOE
 90
     1153
 91
        4
280
     0
281
     0
  0
CLASS
  1
DICTIONARYVAR
  2
AcDbDictionaryVar
  3
ObjectDBX Classes
 90
        0
 91
        4
280
     0
281
     0
  0
CLASS
  1
CELLSTYLEMAP
  2
AcDbCellStyleMap
  3
ObjectDBX Classes
 90
     1152
 91
        4
280
     0
281
     0
  0
ENDSEC
  0
SECTION
  2
TABLES
  0
TABLE
  2
VPORT
  5
8
330
0
100
AcDbSymbolTable
 70
     1
  0
VPORT
  5
29
330
8
100
AcDbSymbolTableRecord
100
AcDbViewportTableRecord
  2
*Active
 70
     0
 10
0.0
 20
0.0
 11
1.0
 21
1.0
 12
0.0
 22
-0.2291406249999994
 13
0.0
 23
0.0
 14
0.5
 24
0.5
 15
0.5
 25
0.5
 16
0.0
 26
0.0
 36
1.0
 17
0.0
 27
0.0
 37
0.0
 40
7.607446874999999
 41
0.5530764879643015
 42
50.0
 43
0.0
 44
0.0
 50
0.0
 51
0.0
 71
     0
 72
   100
 73
     1
 74
     3
 75
     0
 76
     0
 77
     0
 78
     0
281
     0
 65
     1
110
0.0
120
0.0
130
0.0
111
1.0
121
0.0
131
0.0
112
0.0
122
1.0
132
0.0
 79
     0
146
0.0
348
2F
 60
     3
 61
     5
292
     1
282
     1
141
0.0
142
0.0
 63
   250
361
6D
  0
ENDTAB
  0
TABLE
  2
LTYPE
  5
5
330
0
100
AcDbSymbolTable
 70
     3
  0
LTYPE
  5
14
330
5
100
AcDbSymbolTableRecord
100
AcDbLinetypeTableRecord
  2
ByBlock
 70
     0
  3

 72
    65
 73
     0
 40
0.0
  0
LTYPE
  5
15
330
5
100
AcDbSymbolTableRecord
100
AcDbLinetypeTableRecord
  2
ByLayer
 70
     0
  3

 72
    65
 73
     0
 40
0.0
  0
LTYPE
  5
16
330
5
100
AcDbSymbolTableRecord
100
AcDbLinetypeTableRecord
  2
Continuous
 70
     0
  3
Solid line
 72
    65
 73
     0
 40
0.0
  0
LTYPE
  5
9D
330
5
100
AcDbSymbolTableRecord
100
AcDbLinetypeTableRecord
  2
Dashed
 70
     0
  3

 72
    65
 73
     2
 40
2.0
 49
1.0
 74
     0
 49
-1.0
 74
     0
  0
LTYPE
  5
1A8
330
5
100
AcDbSymbolTableRecord
100
AcDbLinetypeTableRecord
  2
Center
 70
     0
  3

 72
    65
 73
     4
 40
1.5
 49
0.45
 74
     0
 49
-0.5
 74
     0
 49
0.05
 74
     0
 49
-0.5
 74
     0
  0
ENDTAB
  0
TABLE
  2
LAYER
  5
2
330
0
100
AcDbSymbolTable
 70
     7
  0
LAYER
  5
10
330
2
100
AcDbSymbolTableRecord
100
AcDbLayerTableRecord
  2
0
 70
     0
 62
     7
  6
Continuous
370
    -3
390
F
347
46
348
0
  0
LAYER
  5
72
330
2
100
AcDbSymbolTableRecord
100
AcDbLayerTableRecord
  2
AM_6
 70
     0
 62
    -2
  6
Continuous
370
    35
390
F
347
46
348
0
  0
LAYER
  5
9E
330
2
100
AcDbSymbolTableRecord
100
AcDbLayerTableRecord
  2
AM_9
 70
     0
 62
     6
  6
Dashed
370
    25
390
F
347
46
348
0
  0
LAYER
  5
C9
330
2
100
AcDbSymbolTableRecord
100
AcDbLayerTableRecord
  2
AM_4
 70
     0
 62
     7
  6
Continuous
370
    50
390
F
347
46
348
0
  0
LAYER
  5
EE
330
2
100
AcDbSymbolTableRecord
100
AcDbLayerTableRecord
  2
AM_5
 70
     0
 62
     3
  6
Continuous
370
    25
390
F
347
46
348
0
  0
LAYER
  5
1A9
330
2
100
AcDbSymbolTableRecord
100
AcDbLayerTableRecord
  2
AM_7
 70
     0
 62
     7
  6
Center
370
    25
390
F
347
46
348
0
  0
LAYER
  5
22C
330
2
100
AcDbSymbolTableRecord
100
AcDbLayerTableRecord
  2
ConnectionPoints
 70
     0
 62
     7
  6
Continuous
370
    50
390
F
347
46
348
0
  0
ENDTAB
  0
TABLE
  2
STYLE
  5
3
330
0
100
AcDbSymbolTable
 70
     1
  0
STYLE
  5
11
330
3
100
AcDbSymbolTableRecord
100
AcDbTextStyleTableRecord
  2
Standard
 70
     0
 40
0.0
 41
1.0
 50
0.0
 71
     0
 42
0.2
  3
txt
  4

  0
ENDTAB
  0
TABLE
  2
VIEW
  5
6
330
0
100
AcDbSymbolTable
 70
     0
  0
ENDTAB
  0
TABLE
  2
UCS
  5
7
330
0
100
AcDbSymbolTable
 70
     0
  0
ENDTAB
  0
TABLE
  2
APPID
  5
9
330
0
100
AcDbSymbolTable
 70
     1
  0
APPID
  5
12
330
9
100
AcDbSymbolTableRecord
100
AcDbRegAppTableRecord
  2
ACAD
 70
     0
  0
ENDTAB
  0
TABLE
  2
DIMSTYLE
  5
A
330
0
100
AcDbSymbolTable
 70
     1
100
AcDbDimStyleTable
  0
DIMSTYLE
105
27
330
A
100
AcDbSymbolTableRecord
100
AcDbDimStyleTableRecord
  2
Standard
 70
     0
178
     0
340
11
  0
ENDTAB
  0
TABLE
  2
BLOCK_RECORD
  5
1
330
0
100
AcDbSymbolTable
 70
     7
  0
BLOCK_RECORD
  5
1F
330
1
100
AcDbSymbolTableRecord
100
AcDbBlockTableRecord
  2
*Model_Space
340
22
 70
     0
280
     1
281
     0
  0
BLOCK_RECORD
  5
1B
330
1
100
AcDbSymbolTableRecord
100
AcDbBlockTableRecord
  2
*Paper_Space
340
1E
 70
     0
280
     1
281
     0
  0
BLOCK_RECORD
  5
23
330
1
100
AcDbSymbolTableRecord
100
AcDbBlockTableRecord
  2
*Paper_Space0
340
26
 70
     0
280
     1
281
     0
  0
BLOCK_RECORD
  5
6E
330
1
100
AcDbSymbolTableRecord
100
AcDbBlockTableRecord
  2
1_023153_2
340
0
102
{BLKREFS
331
6F
102
}
 70
     0
280
     1
281
     0
  0
BLOCK_RECORD
  5
8C
330
1
100
AcDbSymbolTableRecord
100
AcDbBlockTableRecord
  2
2_405016_Inch_0_in_023153_2
340
0
102
{BLKREFS
331
8D
102
}
 70
     0
280
     1
281
     0
  0
BLOCK_RECORD
  5
F0
330
1
100
AcDbSymbolTableRecord
100
AcDbBlockTableRecord
  2
3_2_3_16C_1_0_in_023153_2
340
0
102
{BLKREFS
331
F1
102
}
 70
     0
280
     1
281
     0
  0
BLOCK_RECORD
  5
128
330
1
100
AcDbSymbolTableRecord
100
AcDbBlockTableRecord
  2
4_2_3_16C_2_0_in_023153_2
340
0
102
{BLKREFS
331
129
102
}
 70
     0
280
     1
281
     0
  0
BLOCK_RECORD
  5
15F
330
1
100
AcDbSymbolTableRecord
100
AcDbBlockTableRecord
  2
5_2_3_16I_0_in_023153_2
340
0
102
{BLKREFS
331
160
102
}
 70
     0
280
     1
281
     0
  0
BLOCK_RECORD
  5
1AF
330
1
100
AcDbSymbolTableRecord
100
AcDbBlockTableRecord
  2
6_023153H_0_in_023153_2
340
0
102
{BLKREFS
331
1B0
102
}
 70
     0
280
     1
281
     0
  0
ENDTAB
  0
ENDSEC
  0
SECTION
  2
BLOCKS
  0
BLOCK
  5
20
330
1F
100
AcDbEntity
  8
0
100
AcDbBlockBegin
  2
*Model_Space
 70
     0
 10
0.0
 20
0.0
 30
0.0
  3
*Model_Space
  1

  0
ENDBLK
  5
21
330
1F
100
AcDbEntity
  8
0
100
AcDbBlockEnd
  0
BLOCK
  5
1C
330
1B
100
AcDbEntity
 67
     1
  8
0
100
AcDbBlockBegin
  2
*Paper_Space
 70
     0
 10
0.0
 20
0.0
 30
0.0
  3
*Paper_Space
  1

  0
ENDBLK
  5
1D
330
1B
100
AcDbEntity
 67
     1
  8
0
100
AcDbBlockEnd
  0
BLOCK
  5
24
330
23
100
AcDbEntity
  8
0
100
AcDbBlockBegin
  2
*Paper_Space0
 70
     0
 10
0.0
 20
0.0
 30
0.0
  3
*Paper_Space0
  1

  0
ENDBLK
  5
25
330
23
100
AcDbEntity
  8
0
100
AcDbBlockEnd
  0
BLOCK
  5
70
330
6E
100
AcDbEntity
  8
0
100
AcDbBlockBegin
  2
1_023153_2
 70
     2
 10
0.0
 20
0.0
 30
0.0
  3
1_023153_2
  1

  0
ATTDEF
  5
73
330
6E
100
AcDbEntity
  8
AM_6
100
AcDbText
 10
7.0625
 20
3.5
 30
0.0
 40
0.5
  1
Type E-Xtra TP Take-Up Bearing Inch Bore
100
AcDbAttributeDefinition
  3

  2
NN
 70
     8
280
     0
  0
ATTDEF
  5
74
330
6E
100
AcDbEntity
  8
AM_6
100
AcDbText
 10
7.0625
 20
3.0
 30
0.0
 40
0.5
  1
Type E-xtra TP Take-Up Bearing -(Contact Seal) -Inch
100
AcDbAttributeDefinition
  3

  2
NT
 70
     8
280
     0
  0
ATTDEF
  5
75
330
6E
100
AcDbEntity
  8
AM_6
100
AcDbText
 10
7.0625
 20
2.5
 30
0.0
 40
0.5
  1
023153
100
AcDbAttributeDefinition
  3

  2
NB
 70
     8
280
     0
  0
ATTDEF
  5
76
330
6E
100
AcDbEntity
  8
AM_6
100
AcDbText
 10
7.0625
 20
2.0
 30
0.0
 40
0.5
  1
$PN.
100
AcDbAttributeDefinition
  3

  2
NBSYN
 70
     8
280
     0
  0
ATTDEF
  5
77
330
6E
100
AcDbEntity
  8
AM_6
100
AcDbText
 10
7.0625
 20
1.5
 30
0.0
 40
0.5
  1
023153
100
AcDbAttributeDefinition
  3

  2
LINA
 70
     8
280
     0
  0
ATTDEF
  5
78
330
6E
100
AcDbEntity
  8
AM_6
100
AcDbText
 10
7.0625
 20
1.0
 30
0.0
 40
0.5
  1
2-3/16
100
AcDbAttributeDefinition
  3

  2
SS
 70
     8
280
     0
  0
ATTDEF
  5
79
330
6E
100
AcDbEntity
  8
AM_6
100
AcDbText
 10
7.0625
 20
0.5
 30
0.0
 40
0.5
  1
023153
100
AcDbAttributeDefinition
  3

  2
PN
 70
     8
280
     0
  0
ATTDEF
  5
7A
330
6E
100
AcDbEntity
  8
AM_6
100
AcDbText
 10
7.0625
 20
0.0
 30
0.0
 40
0.5
  1
TP-E-203R
100
AcDbAttributeDefinition
  3

  2
DESCRIPTION
 70
     8
280
     0
  0
ATTDEF
  5
7B
330
6E
100
AcDbEntity
  8
AM_6
100
AcDbText
 10
7.0625
 20
-0.5
 30
0.0
 40
0.5
  1
3-3/4
100
AcDbAttributeDefinition
  3

  2
A
 70
     8
280
     0
  0
ATTDEF
  5
7C
330
6E
100
AcDbEntity
  8
AM_6
100
AcDbText
 10
7.0625
 20
-1.0
 30
0.0
 40
0.5
  1
5-13/16
100
AcDbAttributeDefinition
  3

  2
B
 70
     8
280
     0
  0
ATTDEF
  5
7D
330
6E
100
AcDbEntity
  8
AM_6
100
AcDbText
 10
7.0625
 20
-1.5
 30
0.0
 40
0.5
  1
6-7/8
100
AcDbAttributeDefinition
  3

  2
C
 70
     8
280
     0
  0
ATTDEF
  5
7E
330
6E
100
AcDbEntity
  8
AM_6
100
AcDbText
 10
7.0625
 20
-2.0
 30
0.0
 40
0.5
  1
3-3/8
100
AcDbAttributeDefinition
  3

  2
D
 70
     8
280
     0
  0
ATTDEF
  5
7F
330
6E
100
AcDbEntity
  8
AM_6
100
AcDbText
 10
7.0625
 20
-2.5
 30
0.0
 40
0.5
  1
2-3/4
100
AcDbAttributeDefinition
  3

  2
E
 70
     8
280
     0
  0
ATTDEF
  5
80
330
6E
100
AcDbEntity
  8
AM_6
100
AcDbText
 10
7.0625
 20
-3.0
 30
0.0
 40
0.5
  1
2-3/8
100
AcDbAttributeDefinition
  3

  2
F
 70
     8
280
     0
  0
ATTDEF
  5
81
330
6E
100
AcDbEntity
  8
AM_6
100
AcDbText
 10
7.0625
 20
-3.5
 30
0.0
 40
0.5
  1
9/16
100
AcDbAttributeDefinition
  3

  2
G
 70
     8
280
     0
  0
ATTDEF
  5
82
330
6E
100
AcDbEntity
  8
AM_6
100
AcDbText
 10
7.0625
 20
-4.0
 30
0.0
 40
0.5
  1
13/16
100
AcDbAttributeDefinition
  3

  2
H
 70
     8
280
     0
  0
ATTDEF
  5
83
330
6E
100
AcDbEntity
  8
AM_6
100
AcDbText
 10
7.0625
 20
-4.5
 30
0.0
 40
0.5
  1
2-9/16
100
AcDbAttributeDefinition
  3

  2
J
 70
     8
280
     0
  0
ATTDEF
  5
84
330
6E
100
AcDbEntity
  8
AM_6
100
AcDbText
 10
7.0625
 20
-5.0
 30
0.0
 40
0.5
  1
3-3/4
100
AcDbAttributeDefinition
  3

  2
L
 70
     8
280
     0
  0
ATTDEF
  5
85
330
6E
100
AcDbEntity
  8
AM_6
100
AcDbText
 10
7.0625
 20
-5.5
 30
0.0
 40
0.5
  1
1-7/8
100
AcDbAttributeDefinition
  3

  2
N
 70
     8
280
     0
  0
ATTDEF
  5
86
330
6E
100
AcDbEntity
  8
AM_6
100
AcDbText
 10
7.0625
 20
-6.0
 30
0.0
 40
0.5
  1
1-3/8
100
AcDbAttributeDefinition
  3

  2
U
 70
     8
280
     0
  0
ATTDEF
  5
87
330
6E
100
AcDbEntity
  8
AM_6
100
AcDbText
 10
7.0625
 20
-6.5
 30
0.0
 40
0.5
  1
13/16
100
AcDbAttributeDefinition
  3

  2
V
 70
     8
280
     0
  0
ATTDEF
  5
88
330
6E
100
AcDbEntity
  8
AM_6
100
AcDbText
 10
7.0625
 20
-7.0
 30
0.0
 40
0.5
  1
1-3/8
100
AcDbAttributeDefinition
  3

  2
W
 70
     8
280
     0
  0
ATTDEF
  5
89
330
6E
100
AcDbEntity
  8
AM_6
100
AcDbText
 10
7.0625
 20
-7.5
 30
0.0
 40
0.5
  1
6-3/4
100
AcDbAttributeDefinition
  3

  2
X
 70
     8
280
     0
  0
ATTDEF
  5
8A
330
6E
100
AcDbEntity
  8
AM_6
100
AcDbText
 10
7.0625
 20
-8.0
 30
0.0
 40
0.5
  1
7
100
AcDbAttributeDefinition
  3

  2
Y
 70
     8
280
     0
  0
ATTDEF
  5
8B
330
6E
100
AcDbEntity
  8
AM_6
100
AcDbText
 10
7.0625
 20
-8.5
 30
0.0
 40
0.5
  1
baldor
100
AcDbAttributeDefinition
  3

  2
COMPANY
 70
     8
280
     0
  0
INSERT
  5
8D
330
6E
100
AcDbEntity
  8
0
100
AcDbBlockReference
  2
2_405016_Inch_0_in_023153_2
 10
0.0
 20
0.0
 30
0.0
  0
INSERT
  5
F1
330
6E
100
AcDbEntity
  8
0
100
AcDbBlockReference
  2
3_2_3_16C_1_0_in_023153_2
 10
0.0
 20
0.0
 30
0.0
  0
INSERT
  5
129
330
6E
100
AcDbEntity
  8
0
100
AcDbBlockReference
  2
4_2_3_16C_2_0_in_023153_2
 10
0.0
 20
0.0
 30
0.0
  0
INSERT
  5
160
330
6E
100
AcDbEntity
  8
0
100
AcDbBlockReference
  2
5_2_3_16I_0_in_023153_2
 10
0.0
 20
0.0
 30
0.0
  0
INSERT
  5
1B0
330
6E
100
AcDbEntity
  8
0
100
AcDbBlockReference
  2
6_023153H_0_in_023153_2
 10
0.0
 20
0.0
 30
0.0
  0
ENDBLK
  5
71
330
6E
100
AcDbEntity
  8
0
100
AcDbBlockEnd
  0
BLOCK
  5
8E
330
8C
100
AcDbEntity
  8
0
100
AcDbBlockBegin
  2
2_405016_Inch_0_in_023153_2
 70
     2
 10
0.0
 20
0.0
 30
0.0
  3
2_405016_Inch_0_in_023153_2
  1

  0
ATTDEF
  5
90
330
8C
100
AcDbEntity
  8
AM_6
100
AcDbText
 10
5.21875
 20
0.2525907427704612
 30
0.0
 40
0.5
  1
405016 -Inch
100
AcDbAttributeDefinition
  3

  2
NN
 70
     8
280
     0
  0
ATTDEF
  5
91
330
8C
100
AcDbEntity
  8
AM_6
100
AcDbText
 10
5.21875
 20
-0.2474092572295388
 30
0.0
 40
0.5
  1
Grease Fitting
100
AcDbAttributeDefinition
  3

  2
NT
 70
     8
280
     0
  0
ATTDEF
  5
92
330
8C
100
AcDbEntity
  8
AM_6
100
AcDbText
 10
5.21875
 20
-0.7474092572295388
 30
0.0
 40
0.5
  1
405016-Inch
100
AcDbAttributeDefinition
  3

  2
NB
 70
     8
280
     0
  0
ATTDEF
  5
93
330
8C
100
AcDbEntity
  8
AM_6
100
AcDbText
 10
5.21875
 20
-1.247409257229539
 30
0.0
 40
0.5
  1
$MN.-Inch
100
AcDbAttributeDefinition
  3

  2
NBSYN
 70
     8
280
     0
  0
ATTDEF
  5
94
330
8C
100
AcDbEntity
  8
AM_6
100
AcDbText
 10
5.21875
 20
-1.747409257229539
 30
0.0
 40
0.5
  1
405016
100
AcDbAttributeDefinition
  3

  2
LINA
 70
     8
280
     0
  0
ATTDEF
  5
95
330
8C
100
AcDbEntity
  8
AM_6
100
AcDbText
 10
5.21875
 20
-2.247409257229539
 30
0.0
 40
0.5
  1
405016
100
AcDbAttributeDefinition
  3

  2
MN
 70
     8
280
     0
  0
ATTDEF
  5
96
330
8C
100
AcDbEntity
  8
AM_6
100
AcDbText
 10
5.21875
 20
-2.747409257229539
 30
0.0
 40
0.5
  1
7/16 HEX
100
AcDbAttributeDefinition
  3

  2
H
 70
     8
280
     0
  0
ATTDEF
  5
97
330
8C
100
AcDbEntity
  8
AM_6
100
AcDbText
 10
5.21875
 20
-3.247409257229539
 30
0.0
 40
0.5
  1
0.383
100
AcDbAttributeDefinition
  3

  2
NDR
 70
     8
280
     0
  0
ATTDEF
  5
98
330
8C
100
AcDbEntity
  8
AM_6
100
AcDbText
 10
5.21875
 20
-3.747409257229539
 30
0.0
 40
0.5
  1
0.337
100
AcDbAttributeDefinition
  3

  2
KDR
 70
     8
280
     0
  0
ATTDEF
  5
99
330
8C
100
AcDbEntity
  8
AM_6
100
AcDbText
 10
5.21875
 20
-4.247409257229538
 30
0.0
 40
0.5
  1
0.1575
100
AcDbAttributeDefinition
  3

  2
BZE
 70
     8
280
     0
  0
ATTDEF
  5
9A
330
8C
100
AcDbEntity
  8
AM_6
100
AcDbText
 10
5.21875
 20
-4.747409257229538
 30
0.0
 40
0.5
  1
0.4375
100
AcDbAttributeDefinition
  3

  2
HEX
 70
     8
280
     0
  0
ATTDEF
  5
9B
330
8C
100
AcDbEntity
  8
AM_6
100
AcDbText
 10
5.21875
 20
-5.247409257229538
 30
0.0
 40
0.5
  1
0.281250
100
AcDbAttributeDefinition
  3

  2
HEX2
 70
     8
280
     0
  0
ATTDEF
  5
9C
330
8C
100
AcDbEntity
  8
AM_6
100
AcDbText
 10
5.21875
 20
-5.747409257229538
 30
0.0
 40
0.5
  1
baldor
100
AcDbAttributeDefinition
  3

  2
COMPANY
 70
     8
280
     0
  0
CIRCLE
  5
9F
330
8C
100
AcDbEntity
  8
AM_9
100
AcDbCircle
 10
0.0000000000000002
 20
0.0
 30
0.0
 40
0.1616637258772237
  0
CIRCLE
  5
A0
330
8C
100
AcDbEntity
  8
AM_9
100
AcDbCircle
 10
0.0000000000000002
 20
0.0
 30
0.0
 40
0.1854172907249859
  0
ARC
  5
A1
330
8C
100
AcDbEntity
  8
AM_9
100
AcDbCircle
 10
-0.00000000000003
 20
-0.0000000000001648
 30
0.0
 40
0.2000000000000302
100
AcDbArc
 50
0.0
 51
159.2056956802114
  0
LINE
  5
A2
330
8C
100
AcDbEntity
  8
AM_9
100
AcDbLine
 10
-0.2187499999999998
 20
0.1262953713852306
 30
0.0
 11
-0.2187499999999998
 21
-0.1262953713852306
 31
0.0
  0
LINE
  5
A3
330
8C
100
AcDbEntity
  8
AM_9
100
AcDbLine
 10
-0.2187499999999998
 20
-0.1262953713852306
 30
0.0
 11
-0.1901924455245478
 21
-0.1427830831490303
 31
0.0
  0
LINE
  5
A4
330
8C
100
AcDbEntity
  8
AM_9
100
AcDbLine
 10
-0.1897043345002185
 20
0.1430648941803213
 30
0.0
 11
-0.2187499999999998
 21
0.1262953713852306
 31
0.0
  0
ARC
  5
A5
330
8C
100
AcDbEntity
  8
AM_9
100
AcDbCircle
 10
-0.0000000000000129
 20
0.0
 30
0.0
 40
0.2187499999999894
100
AcDbArc
 50
144.011039459182
 51
215.9108567063288
  0
LINE
  5
A6
330
8C
100
AcDbEntity
  8
AM_9
100
AcDbLine
 10
-0.2602304684431302
 20
0.01975639995327
 30
0.0
 11
-0.2602304684431206
 21
-0.0197563999532738
 31
0.0
  0
LINE
  5
A7
330
8C
100
AcDbEntity
  8
AM_9
100
AcDbLine
 10
-0.2689146070947219
 20
-0.0811898816047911
 30
0.0
 11
-0.2987675689889716
 21
-0.0811898816047911
 31
0.0
  0
LINE
  5
A8
330
8C
100
AcDbEntity
  8
AM_9
100
AcDbLine
 10
-0.2689146070947219
 20
0.0811898816047911
 30
0.0
 11
-0.2987675689889716
 21
0.0811898816047911
 31
0.0
  0
LWPOLYLINE
  5
A9
330
8C
100
AcDbEntity
  8
AM_9
100
AcDbPolyline
 90
        3
 70
     0
 43
0.0
 10
-0.2602304684431206
 20
-0.0197563999532738
 10
-0.2616913382589201
 20
-0.0370737721666024
 10
-0.2689146070947219
 20
-0.0811898816047911
  0
LWPOLYLINE
  5
AA
330
8C
100
AcDbEntity
  8
AM_9
100
AcDbPolyline
 90
        3
 70
     0
 43
0.0
 10
-0.2689146070947219
 20
0.0811898816047911
 10
-0.2634308483997526
 20
0.0507690464395923
 10
-0.2602304684431302
 20
0.01975639995327
  0
ELLIPSE
  5
AB
330
8C
100
AcDbEntity
  8
AM_9
100
AcDbEllipse
 10
-0.2013892028241836
 20
-0.0000000000000028
 30
0.0
 11
8.610797806505143E-18
 21
0.1406250000000052
 31
0.0
210
0.0
220
0.0
230
1.0
 40
0.4226182617407131
 41
0.6232286105021858
 42
1.429840066212896
  0
LWPOLYLINE
  5
AC
330
8C
100
AcDbEntity
  8
AM_9
100
AcDbPolyline
 90
        3
 70
     0
 43
0.0
 10
-0.2360765106845274
 20
0.1141872583780656
 10
-0.2462091938631848
 20
0.1027100776026271
 10
-0.2689146070947219
 20
0.0811898816047911
  0
ELLIPSE
  5
AD
330
8C
100
AcDbEntity
  8
AM_9
100
AcDbEllipse
 10
-0.2013892028241855
 20
0.0000000000000027
 30
0.0
 11
8.610797806505096E-18
 21
0.1406250000000044
 31
0.0
210
0.0
220
0.0
230
1.0
 40
0.4226182617406272
 41
1.711752587376923
 42
2.518364043087542
  0
LWPOLYLINE
  5
AE
330
8C
100
AcDbEntity
  8
AM_9
100
AcDbPolyline
 90
        3
 70
     0
 43
0.0
 10
-0.2689146070947219
 20
-0.0811898816047911
 10
-0.2512755937295758
 20
-0.0975167708288354
 10
-0.2360765106845272
 20
-0.114187258378066
  0
LINE
  5
AF
330
8C
100
AcDbEntity
  8
AM_9
100
AcDbLine
 10
-0.2987675689889716
 20
0.0811898816047911
 30
0.0
 11
-0.2813919000363596
 21
0.1141872583780661
 31
0.0
  0
LINE
  5
B0
330
8C
100
AcDbEntity
  8
AM_9
100
AcDbLine
 10
-0.3055458577949628
 20
0.0197563999532697
 30
0.0
 11
-0.2987675689889716
 21
0.0811898816047911
 31
0.0
  0
LINE
  5
B1
330
8C
100
AcDbEntity
  8
AM_9
100
AcDbLine
 10
-0.2813919000363597
 20
-0.1141872583780661
 30
0.0
 11
-0.2987675689889716
 21
-0.0811898816047911
 31
0.0
  0
LINE
  5
B2
330
8C
100
AcDbEntity
  8
AM_9
100
AcDbLine
 10
-0.2987675689889716
 20
-0.0811898816047911
 30
0.0
 11
-0.3055458577949628
 21
-0.0197563999532697
 31
0.0
  0
LWPOLYLINE
  5
B3
330
8C
100
AcDbEntity
  8
AM_9
100
AcDbPolyline
 90
        3
 70
     0
 43
0.0
 10
-0.2099962668917051
 20
0.1623797632095822
 10
-0.216347937124691
 20
0.1454641154142716
 10
-0.2258378743019626
 20
0.1281745372222425
  0
LINE
  5
B4
330
8C
100
AcDbEntity
  8
AM_9
100
AcDbLine
 10
-0.2258378743019626
 20
0.1281745372222425
 30
0.0
 11
-0.2360765106845274
 21
0.1141872583780656
 31
0.0
  0
LWPOLYLINE
  5
B5
330
8C
100
AcDbEntity
  8
AM_9
100
AcDbPolyline
 90
        3
 70
     0
 43
0.0
 10
-0.2258378743019624
 20
-0.1281745372222428
 10
-0.2189176876709012
 20
-0.14013919758686
 10
-0.2099962668917051
 20
-0.1623797632095822
  0
LINE
  5
B6
330
8C
100
AcDbEntity
  8
AM_9
100
AcDbLine
 10
-0.2360765106845272
 20
-0.114187258378066
 30
0.0
 11
-0.2258378743019624
 21
-0.1281745372222428
 31
0.0
  0
LWPOLYLINE
  5
B7
330
8C
100
AcDbEntity
  8
AM_9
100
AcDbPolyline
 90
       12
 70
     0
 43
0.0
 10
-0.1790373738501777
 20
0.0891382003679202
 10
-0.1842628795203938
 20
0.0777636883825141
 10
-0.1936098952159721
 20
0.0501518541477802
 10
-0.1972182994908369
 20
0.0331837612147967
 10
-0.1994144431868152
 20
0.0152931307616317
 10
-0.1999640770715869
 20
-0.0031900807110608
 10
-0.198832111550905
 20
-0.0215822013754014
 10
-0.1961081631011964
 20
-0.0392160055560207
 10
-0.1920694300574955
 20
-0.0557614027566447
 10
-0.187009643149415
 20
-0.0708827954963352
 10
-0.1815005947613927
 20
-0.0840091310588356
 10
-0.1790373738501781
 20
-0.0891382003679202
  0
LINE
  5
B8
330
8C
100
AcDbEntity
  8
AM_9
100
AcDbLine
 10
-0.1637474306578518
 20
0.1099999999999999
 30
0.0
 11
-0.2013892028241878
 21
0.1099999999999999
 31
0.0
  0
LINE
  5
B9
330
8C
100
AcDbEntity
  8
AM_9
100
AcDbLine
 10
-0.2013892028241878
 20
-0.1099999999999999
 30
0.0
 11
-0.1639909404217726
 21
-0.1099999999999999
 31
0.0
  0
LWPOLYLINE
  5
BA
330
8C
100
AcDbEntity
  8
AM_9
100
AcDbPolyline
 90
        5
 70
     0
 43
0.0
 10
-0.1557761074387943
 20
-0.1099999996045751
 10
-0.160179943325958
 20
-0.1093244165839199
 10
-0.1668493358980658
 20
-0.1056462146448629
 10
-0.1731116383367603
 20
-0.0989726456321526
 10
-0.1790373738502112
 20
-0.0891382003679049
  0
LWPOLYLINE
  5
BB
330
8C
100
AcDbEntity
  8
AM_9
100
AcDbPolyline
 90
        5
 70
     0
 43
0.0
 10
-0.1790373738501776
 20
0.0891382003679202
 10
-0.1733931390117464
 20
0.0985900119595949
 10
-0.1670729780242508
 20
0.1054645023299315
 10
-0.1606047421316793
 20
0.1091871113029
 10
-0.1557751699345313
 20
0.1099999993542103
  0
ARC
  5
BC
330
8C
100
AcDbEntity
  8
AM_9
100
AcDbCircle
 10
0.0000000000021704
 20
0.0000000000011695
 30
0.0
 40
0.2000000000024532
100
AcDbArc
 50
202.6592210761818
 51
213.9926985056905
  0
ELLIPSE
  5
BD
330
8C
100
AcDbEntity
  8
AM_9
100
AcDbEllipse
 10
-0.201389202824188
 20
-0.0000000000000002
 30
0.0
 11
8.610797806504817E-18
 21
0.1406249999999998
 31
0.0
210
0.0
220
0.0
230
1.0
 40
0.4226182617407011
 41
2.717623712895352
 42
6.707154247874031
  0
ELLIPSE
  5
BE
330
8C
100
AcDbEntity
  8
AM_9
100
AcDbEllipse
 10
-0.2467045921764698
 20
0.0000000000003162
 30
0.0
 11
8.610797806480471E-18
 21
0.1406249999996022
 31
0.0
210
0.0
220
0.0
230
1.0
 40
0.4226182617391955
 41
0.623228610499007
 42
1.429840066214571
  0
LINE
  5
BF
330
8C
100
AcDbEntity
  8
AM_9
100
AcDbLine
 10
-0.3055458577949628
 20
-0.0197563999532697
 30
0.0
 11
-0.3055458577949628
 21
0.0197563999532697
 31
0.0
  0
LWPOLYLINE
  5
C0
330
8C
100
AcDbEntity
  8
AM_9
100
AcDbPolyline
 90
        3
 70
     0
 43
0.0
 10
-0.3439187444176519
 20
-0.1140453123455619
 10
-0.3444093178360443
 20
-0.1147028590819745
 10
-0.3445239399801802
 20
-0.1148433556507742
  0
LWPOLYLINE
  5
C1
330
8C
100
AcDbEntity
  8
AM_9
100
AcDbPolyline
 90
        3
 70
     0
 43
0.0
 10
-0.2808352649067291
 20
-0.114554927508976
 10
-0.2822987494337946
 20
-0.1124024362746987
 10
-0.2847484944293103
 20
-0.1080334351728732
  0
LWPOLYLINE
  5
C2
330
8C
100
AcDbEntity
  8
AM_9
100
AcDbPolyline
 90
        4
 70
     0
 43
0.0
 10
-0.2847567017654763
 20
0.1080173882281099
 10
-0.28306402202451
 20
0.1111301491222271
 10
-0.2810906272172721
 20
0.1142121341351709
 10
-0.2806053774633818
 20
0.1148433556507742
  0
LWPOLYLINE
  5
C3
330
8C
100
AcDbEntity
  8
AM_9
100
AcDbPolyline
 90
        3
 70
     0
 43
0.0
 10
-0.3445239399801802
 20
0.1148433556507742
 10
-0.3445036536232518
 20
0.1148192806969417
 10
-0.3439338963304669
 20
0.1140665699838264
  0
ELLIPSE
  5
C4
330
8C
100
AcDbEntity
  8
AM_9
100
AcDbEllipse
 10
-0.3729962569746639
 20
-0.0000000000000001
 30
0.0
 11
8.155773951865156E-18
 21
0.1331938965184659
 31
0.0
210
0.0
220
0.0
230
1.0
 40
0.4226182617406994
 41
5.747839106471971
 42
9.961559225552937
  0
ELLIPSE
  5
C5
330
8C
100
AcDbEntity
  8
AM_9
100
AcDbEllipse
 10
-0.2467045921729981
 20
0.0000000000034138
 30
0.0
 11
8.610797806763153E-18
 21
0.1406250000042188
 31
0.0
210
0.0
220
0.0
230
1.0
 40
0.4226182617489446
 41
1.711752587396486
 42
2.518364043069769
  0
ELLIPSE
  5
C6
330
8C
100
AcDbEntity
  8
AM_9
100
AcDbEllipse
 10
-0.3994303217889758
 20
-0.0000000000000001
 30
0.0
 11
8.520391689943288E-18
 21
0.1391485560714406
 31
0.0
210
0.0
220
0.0
230
1.0
 40
0.4226182617406978
 41
0.219193849516417
 42
2.906908786102417
  0
CIRCLE
  5
C7
330
8C
100
AcDbEntity
  8
AM_9
100
AcDbCircle
 10
0.0000000000000002
 20
0.0
 30
0.0
 40
0.1915112338502295
  0
ELLIPSE
  5
C8
330
8C
100
AcDbEntity
  8
AM_9
100
AcDbEllipse
 10
-0.2013892028241873
 20
0.0000000000000007
 30
0.0
 11
6.735557395310382E-18
 21
0.109999999999999
 31
0.0
210
0.0
220
0.0
230
1.0
 40
0.4226182617406977
 41
0.0
 42
6.283185307179586
  0
LINE
  5
CA
330
8C
100
AcDbEntity
  8
AM_4
100
AcDbLine
 10
0.0000000000000002
 20
0.2525907427704612
 30
0.0
 11
-0.1897043345002185
 21
0.1430648941803213
 31
0.0
  0
LINE
  5
CB
330
8C
100
AcDbEntity
  8
AM_4
100
AcDbLine
 10
0.2187500000000002
 20
0.1262953713852306
 30
0.0
 11
0.0000000000000002
 21
0.2525907427704612
 31
0.0
  0
LINE
  5
CC
330
8C
100
AcDbEntity
  8
AM_4
100
AcDbLine
 10
0.0000000000000002
 20
-0.2525907427704612
 30
0.0
 11
0.2187500000000002
 21
-0.1262953713852306
 31
0.0
  0
LINE
  5
CD
330
8C
100
AcDbEntity
  8
AM_4
100
AcDbLine
 10
0.2187500000000002
 20
-0.1262953713852306
 30
0.0
 11
0.2187500000000002
 21
0.1262953713852306
 31
0.0
  0
LINE
  5
CE
330
8C
100
AcDbEntity
  8
AM_4
100
AcDbLine
 10
-0.1901924455245478
 20
-0.1427830831490303
 30
0.0
 11
0.0000000000000002
 21
-0.2525907427704612
 31
0.0
  0
ARC
  5
CF
330
8C
100
AcDbEntity
  8
AM_4
100
AcDbCircle
 10
-0.0000000000000016
 20
0.0
 30
0.0
 40
0.2187499999999985
100
AcDbArc
 50
215.910856706327
 51
144.0110394591837
  0
LINE
  5
D0
330
8C
100
AcDbEntity
  8
AM_4
100
AcDbLine
 10
-0.1557793102687525
 20
0.1099999999999999
 30
0.0
 11
-0.1637474306578518
 21
0.1099999999999999
 31
0.0
  0
LINE
  5
D1
330
8C
100
AcDbEntity
  8
AM_4
100
AcDbLine
 10
-0.1639909404217726
 20
-0.1099999999999999
 30
0.0
 11
-0.1557791335654665
 21
-0.1099999999999999
 31
0.0
  0
LWPOLYLINE
  5
D2
330
8C
100
AcDbEntity
  8
AM_4
100
AcDbPolyline
 90
       21
 70
     0
 43
0.0
 10
-0.1557751699345313
 20
0.1099999993542103
 10
-0.1538031670974774
 20
0.1098642299902842
 10
-0.147233607373639
 20
0.1074361169500106
 10
-0.1407130262602573
 20
0.101829760403791
 10
-0.1347930597680664
 20
0.0935179578124376
 10
-0.1293028157827814
 20
0.0822566453824391
 10
-0.1247141396218189
 20
0.0690147372405694
 10
-0.1208880884981778
 20
0.0533912635798488
 10
-0.1181545989145986
 20
0.0367379904268302
 10
-0.1164278875396125
 20
0.018541691433427
 10
-0.1158549073091551
 20
0.0003663009477912
 10
-0.1164156227038164
 20
-0.0183436549788656
 10
-0.1180609686233498
 20
-0.0360039211946314
 10
-0.1208367673933809
 20
-0.0531364268189174
 10
-0.124510751350602
 20
-0.0683147951973784
 10
-0.1291842652280559
 20
-0.0819658231771869
 10
-0.1344729790611516
 20
-0.0929661484870866
 10
-0.1405186270901956
 20
-0.1016091178663899
 10
-0.1468270783017118
 20
-0.1071833219201679
 10
-0.1535654953592162
 20
-0.109829591708451
 10
-0.1557761074387943
 20
-0.1099999996045751
  0
ARC
  5
D3
330
8C
100
AcDbEntity
  8
AM_4
100
AcDbCircle
 10
0.0000000000000002
 20
0.0
 30
0.0
 40
0.2
100
AcDbArc
 50
213.9926985057603
 51
145.8846493541162
  0
LWPOLYLINE
  5
D4
330
8C
100
AcDbEntity
  8
AM_4
100
AcDbPolyline
 90
        5
 70
     0
 43
0.0
 10
-0.1510741298357567
 20
0.0811898816047911
 10
-0.1639940363880802
 20
0.1105606069314186
 10
-0.174406321286612
 20
0.1258239699714564
 10
-0.1876759562813855
 20
0.1412050309358237
 10
-0.2099962668917051
 20
0.1623797632095822
  0
LINE
  5
D5
330
8C
100
AcDbEntity
  8
AM_4
100
AcDbLine
 10
-0.2099962668917051
 20
0.1623797632095822
 30
0.0
 11
-0.2389369657326273
 21
0.1623797632095822
 31
0.0
  0
LWPOLYLINE
  5
D6
330
8C
100
AcDbEntity
  8
AM_4
100
AcDbPolyline
 90
        5
 70
     0
 43
0.0
 10
-0.2099962668917051
 20
-0.1623797632095822
 10
-0.18054914203323
 20
-0.1333383958028655
 10
-0.1688997677199806
 20
-0.1182584107681147
 10
-0.1598729403210868
 20
-0.1030720446435313
 10
-0.1510741298357567
 20
-0.0811898816047911
  0
LINE
  5
D7
330
8C
100
AcDbEntity
  8
AM_4
100
AcDbLine
 10
-0.2099962668917051
 20
-0.1623797632095822
 30
0.0
 11
-0.2389369657326273
 21
-0.1623797632095822
 31
0.0
  0
LWPOLYLINE
  5
D8
330
8C
100
AcDbEntity
  8
AM_4
100
AcDbPolyline
 90
        5
 70
     0
 43
0.0
 10
-0.1510741298357567
 20
-0.0811898816047911
 10
-0.1427138007556459
 20
-0.0226013472343071
 10
-0.1420496512545703
 20
0.0078295722246356
 10
-0.1441228263802211
 20
0.0384818408139635
 10
-0.1510741298357567
 20
0.0811898816047911
  0
LINE
  5
D9
330
8C
100
AcDbEntity
  8
AM_4
100
AcDbLine
 10
-0.1510741298357567
 20
0.0811898816047911
 30
0.0
 11
-0.1791093260592884
 21
0.0811898816047911
 31
0.0
  0
LINE
  5
DA
330
8C
100
AcDbEntity
  8
AM_4
100
AcDbLine
 10
-0.1510741298357567
 20
-0.0811898816047911
 30
0.0
 11
-0.1791093260592884
 21
-0.0811898816047911
 31
0.0
  0
LWPOLYLINE
  5
DB
330
8C
100
AcDbEntity
  8
AM_4
100
AcDbPolyline
 90
        5
 70
     0
 43
0.0
 10
-0.1791093260592884
 20
0.0811898816047911
 10
-0.1842540823997051
 20
0.0416203625313734
 10
-0.1862220679364948
 20
0.0014176687078843
 10
-0.1844124966919378
 20
-0.0398791041957931
 10
-0.1791093260592884
 20
-0.0811898816047911
  0
LWPOLYLINE
  5
DC
330
8C
100
AcDbEntity
  8
AM_4
100
AcDbPolyline
 90
        5
 70
     0
 43
0.0
 10
-0.2389369657326273
 20
0.1623797632095822
 10
-0.2295338871417793
 20
0.1425944959554254
 10
-0.2166871171046318
 20
0.1224916336047983
 10
-0.1996402057054675
 20
0.1018412668053538
 10
-0.1791093260592884
 20
0.0811898816047911
  0
LWPOLYLINE
  5
DD
330
8C
100
AcDbEntity
  8
AM_4
100
AcDbPolyline
 90
        3
 70
     0
 43
0.0
 10
-0.2711532636537953
 20
0.1281745372222423
 10
-0.2561815527589918
 20
0.1453001843968683
 10
-0.2389369657326273
 20
0.1623797632095822
  0
LWPOLYLINE
  5
DE
330
8C
100
AcDbEntity
  8
AM_4
100
AcDbPolyline
 90
        3
 70
     0
 43
0.0
 10
-0.2389369657326273
 20
-0.1623797632095822
 10
-0.256093971320235
 20
-0.1453926299734447
 10
-0.2711532636537953
 20
-0.1281745372222423
  0
LWPOLYLINE
  5
DF
330
8C
100
AcDbEntity
  8
AM_4
100
AcDbPolyline
 90
        5
 70
     0
 43
0.0
 10
-0.1791093260592884
 20
-0.0811898816047911
 10
-0.1988355121406936
 20
-0.1009664231904839
 10
-0.2156330920108722
 20
-0.121062844630589
 10
-0.2290462109660018
 20
-0.1417146509141334
 10
-0.2389369657326273
 20
-0.1623797632095822
  0
LINE
  5
E0
330
8C
100
AcDbEntity
  8
AM_4
100
AcDbLine
 10
-0.2711532636537953
 20
-0.1281745372222423
 30
0.0
 11
-0.2813919000363597
 21
-0.1141872583780661
 31
0.0
  0
ELLIPSE
  5
E1
330
8C
100
AcDbEntity
  8
AM_4
100
AcDbEllipse
 10
-0.2467045921760204
 20
0.0000000000000001
 30
0.0
 11
8.610797806504810E-18
 21
0.1406249999999997
 31
0.0
210
0.0
220
0.0
230
1.0
 40
0.4226182617406998
 41
2.717623712895344
 42
6.707154247874037
  0
LINE
  5
E2
330
8C
100
AcDbEntity
  8
AM_4
100
AcDbLine
 10
-0.2813919000363596
 20
0.1141872583780661
 30
0.0
 11
-0.2711532636537953
 21
0.1281745372222423
 31
0.0
  0
LWPOLYLINE
  5
E3
330
8C
100
AcDbEntity
  8
AM_4
100
AcDbPolyline
 90
       11
 70
     0
 43
0.0
 10
-0.3440921730800978
 20
-0.1143939685183082
 10
-0.3415242949222563
 20
-0.1122351429897972
 10
-0.3363139325255035
 20
-0.1090172058570395
 10
-0.3282389360734214
 20
-0.1057546875256306
 10
-0.3175715290582503
 20
-0.1036803724825402
 10
-0.3056458730129876
 20
-0.1038890669182341
 10
-0.2948047627403066
 20
-0.106438602162993
 10
-0.28709153068238
 20
-0.109959713253762
 10
-0.282647717332711
 20
-0.112973703164503
 10
-0.2807867876792436
 20
-0.1146472350645402
 10
-0.2806053774633818
 20
-0.1148433556507742
  0
LWPOLYLINE
  5
E4
330
8C
100
AcDbEntity
  8
AM_4
100
AcDbPolyline
 90
       11
 70
     0
 43
0.0
 10
-0.2806053774633818
 20
0.1148433556507742
 10
-0.280675952284815
 20
0.1147650262035049
 10
-0.2823315013824118
 20
0.1132322396474259
 10
-0.2864940521425102
 20
0.1103116646768893
 10
-0.2934690196456791
 20
0.1069308194170583
 10
-0.3032344768305852
 20
0.1042505951532609
 10
-0.3149191884708981
 20
0.1035026196042163
 10
-0.3264738602049678
 20
0.1052520237751557
 10
-0.3354873638646332
 20
0.1086005408726924
 10
-0.3411235888330782
 20
0.1119431869303783
 10
-0.3438864836887592
 20
0.1141951516193213
  0
ELLIPSE
  5
E5
330
8C
100
AcDbEntity
  8
AM_4
100
AcDbEllipse
 10
-0.372996256974686
 20
0.0000000000001405
 30
0.0
 11
8.155773951875457E-18
 21
0.1331938965186342
 31
0.0
210
0.0
220
0.0
230
1.0
 40
0.4226182617406349
 41
3.678373918373216
 42
3.749997205850861
  0
ELLIPSE
  5
E6
330
8C
100
AcDbEntity
  8
AM_4
100
AcDbEllipse
 10
-0.3729962569746663
 20
-0.000000000000001
 30
0.0
 11
8.155773951865354E-18
 21
0.1331938965184692
 31
0.0
210
0.0
220
0.0
230
1.0
 40
0.4226182617407078
 41
3.7499972058511
 42
5.686106262554903
  0
LWPOLYLINE
  5
E7
330
8C
100
AcDbEntity
  8
AM_4
100
AcDbPolyline
 90
        9
 70
     0
 43
0.0
 10
-0.3415199596997158
 20
0.1104509235458897
 10
-0.3420552534669275
 20
0.111283404501189
 10
-0.3514664013193157
 20
0.1233852511891371
 10
-0.3606257274569654
 20
0.1315240088491964
 10
-0.3703159658223023
 20
0.137200850332986
 10
-0.3804988485996671
 20
0.1405290893192087
 10
-0.3920793340853837
 20
0.1414368233519633
 10
-0.4030043253609335
 20
0.1395786914842319
 10
-0.4121686162714059
 20
0.1358448508030043
  0
LWPOLYLINE
  5
E8
330
8C
100
AcDbEntity
  8
AM_4
100
AcDbPolyline
 90
       10
 70
     0
 43
0.0
 10
-0.4136576495350876
 20
-0.1350314050203367
 10
-0.4095313972249046
 20
-0.1371382886985507
 10
-0.3993545897777993
 20
-0.1404990724972941
 10
-0.3877676363269955
 20
-0.1414432963357666
 10
-0.3768328795929591
 20
-0.1396161184899229
 10
-0.3667988998760646
 20
-0.135447161777401
 10
-0.3575780300127563
 20
-0.129149364088202
 10
-0.3489866689554613
 20
-0.1206159474705344
 10
-0.3409622148529947
 20
-0.1095643354305293
 10
-0.3403182153205261
 20
-0.1085155686880329
  0
ELLIPSE
  5
E9
330
8C
100
AcDbEntity
  8
AM_4
100
AcDbEllipse
 10
-0.3729962569751047
 20
-0.0000000000005657
 30
0.0
 11
8.155773951905956E-18
 21
0.1331938965191323
 31
0.0
210
0.0
220
0.0
230
1.0
 40
0.4226182617418481
 41
-0.5970790446274874
 42
-0.5353462007109906
  0
ELLIPSE
  5
EA
330
8C
100
AcDbEntity
  8
AM_4
100
AcDbEllipse
 10
-0.3994303217889754
 20
0.0000000000000005
 30
0.0
 11
8.520391689943277E-18
 21
0.1391485560714404
 31
0.0
210
0.0
220
0.0
230
1.0
 40
0.4226182617406984
 41
2.922398804073371
 42
6.50237915669601
  0
LINE
  5
EB
330
8C
100
AcDbEntity
  8
AM_4
100
AcDbLine
 10
-0.4782595695260257
 20
-0.101006617594416
 30
0.0
 11
-0.4122174217232457
 21
-0.1358191566576766
 31
0.0
  0
LINE
  5
EC
330
8C
100
AcDbEntity
  8
AM_4
100
AcDbLine
 10
-0.4122174217232457
 20
0.1358191566576766
 30
0.0
 11
-0.4782595695260257
 21
0.101006617594416
 31
0.0
  0
ELLIPSE
  5
ED
330
8C
100
AcDbEntity
  8
AM_4
100
AcDbEllipse
 10
-0.4687499999999999
 20
0.0
 30
0.0
 11
6.336484236534233E-18
 21
0.10348264072459
 31
0.0
210
0.0
220
0.0
230
1.0
 40
0.4226182617406934
 41
0.0
 42
6.283185307179586
  0
CIRCLE
  5
EF
330
8C
100
AcDbEntity
  8
AM_5
100
AcDbCircle
 10
0.0000000000000002
 20
0.0
 30
0.0
 40
0.168500005
  0
ENDBLK
  5
8F
330
8C
100
AcDbEntity
  8
0
100
AcDbBlockEnd
  0
BLOCK
  5
F2
330
F0
100
AcDbEntity
  8
0
100
AcDbBlockBegin
  2
3_2_3_16C_1_0_in_023153_2
 70
     2
 10
0.0
 20
0.0
 30
0.0
  3
3_2_3_16C_1_0_in_023153_2
  1

  0
ATTDEF
  5
F4
330
F0
100
AcDbEntity
  8
AM_6
100
AcDbText
 10
6.875
 20
1.875000000000008
 30
0.0
 40
0.5
  1
E-Type Collar -Inch
100
AcDbAttributeDefinition
  3

  2
NN
 70
     8
280
     0
  0
ATTDEF
  5
F5
330
F0
100
AcDbEntity
  8
AM_6
100
AcDbText
 10
6.875
 20
1.375000000000008
 30
0.0
 40
0.5
  1
E-Type Bearings
100
AcDbAttributeDefinition
  3

  2
NT
 70
     8
280
     0
  0
ATTDEF
  5
F6
330
F0
100
AcDbEntity
  8
AM_6
100
AcDbText
 10
6.875
 20
0.8750000000000084
 30
0.0
 40
0.5
  1
2-3/16C
100
AcDbAttributeDefinition
  3

  2
NB
 70
     8
280
     0
  0
ATTDEF
  5
F7
330
F0
100
AcDbEntity
  8
AM_6
100
AcDbText
 10
6.875
 20
0.3750000000000084
 30
0.0
 40
0.5
  1
$BORE.C
100
AcDbAttributeDefinition
  3

  2
NBSYN
 70
     8
280
     0
  0
ATTDEF
  5
F8
330
F0
100
AcDbEntity
  8
AM_6
100
AcDbText
 10
6.875
 20
-0.1249999999999916
 30
0.0
 40
0.5
  1
2-3/16C
100
AcDbAttributeDefinition
  3

  2
LINA
 70
     8
280
     0
  0
ATTDEF
  5
F9
330
F0
100
AcDbEntity
  8
AM_6
100
AcDbText
 10
6.875
 20
-0.6249999999999916
 30
0.0
 40
0.5
  1
2-3/16
100
AcDbAttributeDefinition
  3

  2
BORE
 70
     8
280
     0
  0
ATTDEF
  5
FA
330
F0
100
AcDbEntity
  8
AM_6
100
AcDbText
 10
6.875
 20
-1.124999999999992
 30
0.0
 40
0.5
  1
3.75000
100
AcDbAttributeDefinition
  3

  2
L
 70
     8
280
     0
  0
ATTDEF
  5
FB
330
F0
100
AcDbEntity
  8
AM_6
100
AcDbText
 10
6.875
 20
-1.624999999999992
 30
0.0
 40
0.5
  1
3.75
100
AcDbAttributeDefinition
  3

  2
A
 70
     8
280
     0
  0
ATTDEF
  5
FC
330
F0
100
AcDbEntity
  8
AM_6
100
AcDbText
 10
6.875
 20
-2.124999999999992
 30
0.0
 40
0.5
  1
1.66
100
AcDbAttributeDefinition
  3

  2
B
 70
     8
280
     0
  0
ATTDEF
  5
FD
330
F0
100
AcDbEntity
  8
AM_6
100
AcDbText
 10
6.875
 20
-2.624999999999992
 30
0.0
 40
0.5
  1
2.62
100
AcDbAttributeDefinition
  3

  2
C
 70
     8
280
     0
  0
ATTDEF
  5
FE
330
F0
100
AcDbEntity
  8
AM_6
100
AcDbText
 10
6.875
 20
-3.124999999999992
 30
0.0
 40
0.5
  1
3.81
100
AcDbAttributeDefinition
  3

  2
D
 70
     8
280
     0
  0
ATTDEF
  5
FF
330
F0
100
AcDbEntity
  8
AM_6
100
AcDbText
 10
6.875
 20
-3.624999999999992
 30
0.0
 40
0.5
  1
0.41
100
AcDbAttributeDefinition
  3

  2
E
 70
     8
280
     0
  0
ATTDEF
  5
100
330
F0
100
AcDbEntity
  8
AM_6
100
AcDbText
 10
6.875
 20
-4.124999999999991
 30
0.0
 40
0.5
  1
0.31
100
AcDbAttributeDefinition
  3

  2
F
 70
     8
280
     0
  0
ATTDEF
  5
101
330
F0
100
AcDbEntity
  8
AM_6
100
AcDbText
 10
6.875
 20
-4.624999999999991
 30
0.0
 40
0.5
  1
3/8-16
100
AcDbAttributeDefinition
  3

  2
CS
 70
     8
280
     0
  0
ATTDEF
  5
102
330
F0
100
AcDbEntity
  8
AM_6
100
AcDbText
 10
6.875
 20
-5.124999999999991
 30
0.0
 40
0.5
  1
0.3750
100
AcDbAttributeDefinition
  3

  2
NDM
 70
     8
280
     0
  0
ATTDEF
  5
103
330
F0
100
AcDbEntity
  8
AM_6
100
AcDbText
 10
6.875
 20
-5.624999999999991
 30
0.0
 40
0.5
  1
0.3070
100
AcDbAttributeDefinition
  3

  2
KDM
 70
     8
280
     0
  0
ATTDEF
  5
104
330
F0
100
AcDbEntity
  8
AM_6
100
AcDbText
 10
6.875
 20
-6.124999999999991
 30
0.0
 40
0.5
  1
baldor
100
AcDbAttributeDefinition
  3

  2
COMPANY
 70
     8
280
     0
  0
LINE
  5
105
330
F0
100
AcDbEntity
  8
AM_9
100
AcDbLine
 10
1.41135
 20
1.31885
 30
0.0
 11
1.402768509970418
 21
1.310268509970418
 31
0.0
  0
LINE
  5
106
330
F0
100
AcDbEntity
  8
AM_9
100
AcDbLine
 10
1.727299144949567
 20
1.310200855050433
 30
0.0
 11
1.71865
 21
1.31885
 31
0.0
  0
LINE
  5
107
330
F0
100
AcDbEntity
  8
AM_9
100
AcDbLine
 10
1.71865
 20
1.84115
 30
0.0
 11
1.752168206409876
 21
1.874668206409876
 31
0.0
  0
LINE
  5
108
330
F0
100
AcDbEntity
  8
AM_9
100
AcDbLine
 10
1.377596483586769
 20
1.874903516413231
 30
0.0
 11
1.41135
 21
1.84115
 31
0.0
  0
LINE
  5
109
330
F0
100
AcDbEntity
  8
AM_9
100
AcDbLine
 10
1.41135
 20
1.84115
 30
0.0
 11
1.71865
 21
1.84115
 31
0.0
  0
LINE
  5
10A
330
F0
100
AcDbEntity
  8
AM_9
100
AcDbLine
 10
1.41135
 20
1.31885
 30
0.0
 11
1.71865
 21
1.31885
 31
0.0
  0
LINE
  5
10B
330
F0
100
AcDbEntity
  8
AM_9
100
AcDbLine
 10
1.71865
 20
1.31885
 30
0.0
 11
1.71865
 21
1.84115
 31
0.0
  0
LINE
  5
10C
330
F0
100
AcDbEntity
  8
AM_9
100
AcDbLine
 10
1.41135
 20
1.84115
 30
0.0
 11
1.41135
 21
1.31885
 31
0.0
  0
ELLIPSE
  5
10D
330
F0
100
AcDbEntity
  8
AM_9
100
AcDbEllipse
 10
1.565000000000002
 20
0.5573700944967204
 30
0.0
 11
0.1536500000000021
 21
0.0
 31
0.0
210
0.0
220
0.0
230
1.0
 40
0.9063077870366517
 41
2.226603289658616
 42
3.141592653589793
  0
ELLIPSE
  5
10E
330
F0
100
AcDbEntity
  8
AM_9
100
AcDbEllipse
 10
1.564999999999997
 20
0.5573700944967198
 30
0.0
 11
0.1536500000000027
 21
0.0
 31
0.0
210
0.0
220
0.0
230
1.0
 40
0.9063077870366514
 41
3.141592653589793
 42
7.198174671110765
  0
LINE
  5
10F
330
F0
100
AcDbEntity
  8
AM_9
100
AcDbLine
 10
1.71865
 20
0.5573700944967215
 30
0.0
 11
1.71865
 21
0.7781036126038887
 31
0.0
  0
LINE
  5
110
330
F0
100
AcDbEntity
  8
AM_9
100
AcDbLine
 10
1.41135
 20
0.7781036126038887
 30
0.0
 11
1.41135
 21
0.5573700944967215
 31
0.0
  0
LWPOLYLINE
  5
111
330
F0
100
AcDbEntity
  8
AM_9
100
AcDbPolyline
 90
       39
 70
     0
 43
0.0
 10
1.448363459354552
 20
0.4415435789515143
 10
1.466170115771167
 20
0.4254118383171055
 10
1.486801959092453
 20
0.4116210895979499
 10
1.511586369756577
 20
0.4002591063583291
 10
1.538997189190409
 20
0.3930800114196686
 10
1.564611386332228
 20
0.3909083051894451
 10
1.591028432271584
 20
0.3930843200331613
 10
1.615097425947528
 20
0.399107262516915
 10
1.638439543824952
 20
0.4090384328017382
 10
1.659833282325707
 20
0.4223792477781439
 10
1.679239242274474
 20
0.4390872782343109
 10
1.69629819592201
 20
0.4591297594594597
 10
1.710150268227062
 20
0.4818572326514597
 10
1.720363865708291
 20
0.5070809100330222
 10
1.726235321434018
 20
0.5339597950361207
 10
1.727302778927691
 20
0.5613685334449622
 10
1.723276415948911
 20
0.5890286735824499
 10
1.714354444460621
 20
0.614902283682398
 10
1.700207843527012
 20
0.6394920801976997
 10
1.682312488178498
 20
0.6603259436495469
 10
1.659760408416193
 20
0.6784729395053914
 10
1.635884898216065
 20
0.6915853815361865
 10
1.608727222146959
 20
0.7010334250278257
 10
1.582982440638727
 20
0.7056131474849415
 10
1.555834429079858
 20
0.7062903192907705
 10
1.531111648408038
 20
0.7032536444196963
 10
1.506652034726318
 20
0.6965870800910765
 10
1.48423598803397
 20
0.6867807322988011
 10
1.463401601548724
 20
0.6736725643961015
 10
1.444657391076652
 20
0.6573010331053317
 10
1.428716068578942
 20
0.6379584971775529
 10
1.415935850865354
 20
0.615538821202377
 10
1.407146488292911
 20
0.5907220582982213
 10
1.402864446203769
 20
0.5641412118405471
 10
1.403489163129054
 20
0.5362343098436637
 10
1.409117688413546
 20
0.5087825479989286
 10
1.420001183284306
 20
0.481557980151486
 10
1.432467052695836
 20
0.4608572960658086
 10
1.448363459354552
 20
0.4415435789515143
  0
LINE
  5
112
330
F0
100
AcDbEntity
  8
AM_9
100
AcDbLine
 10
1.875
 20
1.31
 30
0.0
 11
1.727029491290427
 21
1.31
 31
0.0
  0
LINE
  5
113
330
F0
100
AcDbEntity
  8
AM_9
100
AcDbLine
 10
1.40312725301152
 20
1.31
 30
0.0
 11
1.255
 21
1.31
 31
0.0
  0
LINE
  5
114
330
F0
100
AcDbEntity
  8
AM_9
100
AcDbLine
 10
1.255
 20
-1.31
 30
0.0
 11
1.875
 21
-1.31
 31
0.0
  0
LWPOLYLINE
  5
115
330
F0
100
AcDbEntity
  8
AM_9
100
AcDbPolyline
 90
       21
 70
     0
 43
0.0
 10
1.402500000000066
 20
1.309999999999991
 10
1.402961035959136
 20
1.309932168483965
 10
1.407594424418917
 20
1.309289435913451
 10
1.417330223445363
 20
1.307990375715197
 10
1.431882177892985
 20
1.30620273030424
 10
1.450611480547188
 20
1.304166441391302
 10
1.473240600676214
 20
1.302108490421528
 10
1.497799513172281
 20
1.300385010417301
 10
1.524640596075072
 20
1.299100227185339
 10
1.550806879059509
 20
1.298470744560272
 10
1.577413312255015
 20
1.298444790673633
 10
1.602358590402662
 20
1.299000122117014
 10
1.626272864413717
 20
1.300043507817118
 10
1.648771781918627
 20
1.301490403434058
 10
1.66908040044655
 20
1.303173541915978
 10
1.687728298023224
 20
1.305035614397142
 10
1.703088966392304
 20
1.306793792201481
 10
1.71552489596186
 20
1.308362779533391
 10
1.723655558172999
 20
1.309461767647518
 10
1.727337723902182
 20
1.30997446978209
 10
1.727499999999574
 20
1.30999999999994
  0
LINE
  5
116
330
F0
100
AcDbEntity
  8
AM_9
100
AcDbLine
 10
1.446590259090119
 20
1.304577696730656
 30
0.0
 11
1.444739795400333
 21
1.304771939686743
 31
0.0
  0
LINE
  5
117
330
F0
100
AcDbEntity
  8
AM_9
100
AcDbLine
 10
1.727499999999574
 20
1.30999999999994
 30
0.0
 11
1.718336214853996
 21
1.30873749758652
 31
0.0
  0
LINE
  5
118
330
F0
100
AcDbEntity
  8
AM_9
100
AcDbLine
 10
1.255
 20
-1.875
 30
0.0
 11
1.255
 21
1.875
 31
0.0
  0
LINE
  5
119
330
F0
100
AcDbEntity
  8
AM_9
100
AcDbLine
 10
1.28125
 20
1.875
 30
0.0
 11
1.255
 21
1.875
 31
0.0
  0
LINE
  5
11A
330
F0
100
AcDbEntity
  8
AM_9
100
AcDbLine
 10
1.255
 20
-1.875
 30
0.0
 11
1.28125
 21
-1.875
 31
0.0
  0
LINE
  5
11B
330
F0
100
AcDbEntity
  8
AM_5
100
AcDbLine
 10
1.7525
 20
1.875
 30
0.0
 11
1.7525
 21
1.31
 31
0.0
  0
LINE
  5
11C
330
F0
100
AcDbEntity
  8
AM_5
100
AcDbLine
 10
1.3775
 20
1.875
 30
0.0
 11
1.3775
 21
1.31
 31
0.0
  0
ELLIPSE
  5
11D
330
F0
100
AcDbEntity
  8
AM_4
100
AcDbEllipse
 10
1.565
 20
0.5573700944967211
 30
0.0
 11
0.1536500000000003
 21
0.0
 31
0.0
210
0.0
220
0.0
230
1.0
 40
0.9063077870366516
 41
0.9149893639311859
 42
2.226603289658608
  0
LWPOLYLINE
  5
11E
330
F0
100
AcDbEntity
  8
AM_4
100
AcDbPolyline
 90
       39
 70
     0
 43
0.0
 10
1.435453074329847
 20
0.6733325224536671
 10
1.417001703137726
 20
0.6915351313204059
 10
1.401332649689836
 20
0.7124796393767167
 10
1.3884238109778
 20
0.7375001026166836
 10
1.380205651525869
 20
0.7648795465599423
 10
1.377507331819153
 20
0.7909761225006331
 10
1.379815382887585
 20
0.8177054887221703
 10
1.386722245048127
 20
0.8422567265593527
 10
1.398358474603149
 20
0.8659355658276425
 10
1.413999394548273
 20
0.8872240625213265
 10
1.433823085705699
 20
0.9063921001311929
 10
1.457233710188032
 20
0.922662436470899
 10
1.484026240784797
 20
0.9357169225871723
 10
1.513389937057372
 20
0.9449680277383802
 10
1.544945000552563
 20
0.9500781401290442
 10
1.577088713230826
 20
0.950645729114131
 10
1.609800624583128
 20
0.946470096186
 10
1.640576588477396
 20
0.9377777259746274
 10
1.67004036388189
 20
0.9242293309380445
 10
1.695208962656291
 20
0.9071803421073942
 10
1.717249098624007
 20
0.8857783946589919
 10
1.733502213437123
 20
0.8627937428838733
 10
1.745291448388439
 20
0.8366349305358485
 10
1.751260101461696
 20
0.8109643841539093
 10
1.752232060951463
 20
0.7837401290015642
 10
1.748309810375163
 20
0.7581864929225024
 10
1.739530774989273
 20
0.7327086542904195
 10
1.726606672159361
 20
0.7093039709438623
 10
1.709301026791571
 20
0.6874430874220412
 10
1.688246153887397
 20
0.668189472887568
 10
1.663516495620688
 20
0.6518433073721758
 10
1.635785179376195
 20
0.6391544437113769
 10
1.605430739057124
 20
0.6306070457963131
 10
1.573758352411025
 20
0.6268013455295514
 10
1.540955835170594
 20
0.6280172484036671
 10
1.509263954638974
 20
0.6342806483647343
 10
1.478269854690667
 20
0.6458142645813884
 10
1.456048372663022
 20
0.6580717643252282
 10
1.43545307428269
 20
0.6733325222889945
  0
LINE
  5
11F
330
F0
100
AcDbEntity
  8
AM_4
100
AcDbLine
 10
1.771666666666666
 20
1.875
 30
0.0
 11
1.751892098068543
 21
1.875
 31
0.0
  0
LINE
  5
120
330
F0
100
AcDbEntity
  8
AM_4
100
AcDbLine
 10
1.37767607769242
 20
1.875
 30
0.0
 11
1.28125
 21
1.875
 31
0.0
  0
LINE
  5
121
330
F0
100
AcDbEntity
  8
AM_4
100
AcDbLine
 10
1.28125
 20
-1.875
 30
0.0
 11
1.771666666666666
 21
-1.875
 31
0.0
  0
LWPOLYLINE
  5
122
330
F0
100
AcDbEntity
  8
AM_4
100
AcDbPolyline
 90
       21
 70
     0
 43
0.0
 10
1.752500000000089
 20
1.875000000000008
 10
1.751652429687523
 20
1.874921752988454
 10
1.746396740151464
 20
1.874454043927639
 10
1.736539750291876
 20
1.873609332384788
 10
1.72245461425486
 20
1.872484375470691
 10
1.704024687477023
 20
1.871156302772469
 10
1.682175577892725
 20
1.869792638259857
 10
1.656316100082646
 20
1.868480192020787
 10
1.628122734725967
 20
1.867415315090651
 10
1.59707084213031
 20
1.866696432437969
 10
1.565155023692907
 20
1.866441766621875
 10
1.532507528696045
 20
1.866703392073349
 10
1.500775927565816
 20
1.867449566884746
 10
1.470871531156619
 20
1.868607949633216
 10
1.443706218905132
 20
1.870031895078611
 10
1.420687008300083
 20
1.871520870231832
 10
1.401907690476438
 20
1.872923449041931
 10
1.388621767930761
 20
1.87401743554427
 10
1.380354704879906
 20
1.874742424804855
 10
1.377531722427733
 20
1.87499563898051
 10
1.377500000000039
 20
1.874999999999996
  0
LINE
  5
123
330
F0
100
AcDbEntity
  8
AM_4
100
AcDbLine
 10
1.875
 20
-1.771666666666667
 30
0.0
 11
1.875
 21
1.771666666666667
 31
0.0
  0
LINE
  5
124
330
F0
100
AcDbEntity
  8
AM_4
100
AcDbLine
 10
1.771666666666666
 20
-1.875
 30
0.0
 11
1.771666666666666
 21
1.875
 31
0.0
  0
ARC
  5
125
330
F0
100
AcDbEntity
  8
AM_4
100
AcDbCircle
 10
1.771666666666666
 20
1.771666666666666
 30
0.0
 40
0.1033333333333337
100
AcDbArc
 50
0.0000008537736463
 51
90.0
  0
ARC
  5
126
330
F0
100
AcDbEntity
  8
AM_4
100
AcDbCircle
 10
1.771666666666666
 20
-1.771666666666666
 30
0.0
 40
0.1033333333333337
100
AcDbArc
 50
270.0
 51
0.0000008537736463
  0
ELLIPSE
  5
127
330
F0
100
AcDbEntity
  8
AM_4
100
AcDbEllipse
 10
1.565
 20
0.7781036126038888
 30
0.0
 11
0.1536500000000001
 21
0.0
 31
0.0
210
0.0
220
0.0
230
1.0
 40
0.9063077870366498
 41
0.0
 42
6.283185307179586
  0
ENDBLK
  5
F3
330
F0
100
AcDbEntity
  8
0
100
AcDbBlockEnd
  0
BLOCK
  5
12A
330
128
100
AcDbEntity
  8
0
100
AcDbBlockBegin
  2
4_2_3_16C_2_0_in_023153_2
 70
     2
 10
0.0
 20
0.0
 30
0.0
  3
4_2_3_16C_2_0_in_023153_2
  1

  0
ATTDEF
  5
12C
330
128
100
AcDbEntity
  8
AM_6
100
AcDbText
 10
3.745
 20
1.875
 30
0.0
 40
0.5
  1
E-Type Collar -Inch
100
AcDbAttributeDefinition
  3

  2
NN
 70
     8
280
     0
  0
ATTDEF
  5
12D
330
128
100
AcDbEntity
  8
AM_6
100
AcDbText
 10
3.745
 20
1.375
 30
0.0
 40
0.5
  1
E-Type Bearings
100
AcDbAttributeDefinition
  3

  2
NT
 70
     8
280
     0
  0
ATTDEF
  5
12E
330
128
100
AcDbEntity
  8
AM_6
100
AcDbText
 10
3.745
 20
0.8750000000000004
 30
0.0
 40
0.5
  1
2-3/16C
100
AcDbAttributeDefinition
  3

  2
NB
 70
     8
280
     0
  0
ATTDEF
  5
12F
330
128
100
AcDbEntity
  8
AM_6
100
AcDbText
 10
3.745
 20
0.3750000000000004
 30
0.0
 40
0.5
  1
$BORE.C
100
AcDbAttributeDefinition
  3

  2
NBSYN
 70
     8
280
     0
  0
ATTDEF
  5
130
330
128
100
AcDbEntity
  8
AM_6
100
AcDbText
 10
3.745
 20
-0.1249999999999996
 30
0.0
 40
0.5
  1
2-3/16C
100
AcDbAttributeDefinition
  3

  2
LINA
 70
     8
280
     0
  0
ATTDEF
  5
131
330
128
100
AcDbEntity
  8
AM_6
100
AcDbText
 10
3.745
 20
-0.6249999999999996
 30
0.0
 40
0.5
  1
2-3/16
100
AcDbAttributeDefinition
  3

  2
BORE
 70
     8
280
     0
  0
ATTDEF
  5
132
330
128
100
AcDbEntity
  8
AM_6
100
AcDbText
 10
3.745
 20
-1.125
 30
0.0
 40
0.5
  1
3.75000
100
AcDbAttributeDefinition
  3

  2
L
 70
     8
280
     0
  0
ATTDEF
  5
133
330
128
100
AcDbEntity
  8
AM_6
100
AcDbText
 10
3.745
 20
-1.625
 30
0.0
 40
0.5
  1
3.75
100
AcDbAttributeDefinition
  3

  2
A
 70
     8
280
     0
  0
ATTDEF
  5
134
330
128
100
AcDbEntity
  8
AM_6
100
AcDbText
 10
3.745
 20
-2.125
 30
0.0
 40
0.5
  1
1.66
100
AcDbAttributeDefinition
  3

  2
B
 70
     8
280
     0
  0
ATTDEF
  5
135
330
128
100
AcDbEntity
  8
AM_6
100
AcDbText
 10
3.745
 20
-2.625
 30
0.0
 40
0.5
  1
2.62
100
AcDbAttributeDefinition
  3

  2
C
 70
     8
280
     0
  0
ATTDEF
  5
136
330
128
100
AcDbEntity
  8
AM_6
100
AcDbText
 10
3.745
 20
-3.125
 30
0.0
 40
0.5
  1
3.81
100
AcDbAttributeDefinition
  3

  2
D
 70
     8
280
     0
  0
ATTDEF
  5
137
330
128
100
AcDbEntity
  8
AM_6
100
AcDbText
 10
3.745
 20
-3.625
 30
0.0
 40
0.5
  1
0.41
100
AcDbAttributeDefinition
  3

  2
E
 70
     8
280
     0
  0
ATTDEF
  5
138
330
128
100
AcDbEntity
  8
AM_6
100
AcDbText
 10
3.745
 20
-4.125
 30
0.0
 40
0.5
  1
0.31
100
AcDbAttributeDefinition
  3

  2
F
 70
     8
280
     0
  0
ATTDEF
  5
139
330
128
100
AcDbEntity
  8
AM_6
100
AcDbText
 10
3.745
 20
-4.625
 30
0.0
 40
0.5
  1
3/8-16
100
AcDbAttributeDefinition
  3

  2
CS
 70
     8
280
     0
  0
ATTDEF
  5
13A
330
128
100
AcDbEntity
  8
AM_6
100
AcDbText
 10
3.745
 20
-5.125
 30
0.0
 40
0.5
  1
0.3750
100
AcDbAttributeDefinition
  3

  2
NDM
 70
     8
280
     0
  0
ATTDEF
  5
13B
330
128
100
AcDbEntity
  8
AM_6
100
AcDbText
 10
3.745
 20
-5.625
 30
0.0
 40
0.5
  1
0.3070
100
AcDbAttributeDefinition
  3

  2
KDM
 70
     8
280
     0
  0
ATTDEF
  5
13C
330
128
100
AcDbEntity
  8
AM_6
100
AcDbText
 10
3.745
 20
-6.125
 30
0.0
 40
0.5
  1
baldor
100
AcDbAttributeDefinition
  3

  2
COMPANY
 70
     8
280
     0
  0
LINE
  5
13D
330
128
100
AcDbEntity
  8
AM_9
100
AcDbLine
 10
-1.41135
 20
1.31885
 30
0.0
 11
-1.41135
 21
1.84115
 31
0.0
  0
LINE
  5
13E
330
128
100
AcDbEntity
  8
AM_9
100
AcDbLine
 10
-1.71865
 20
1.84115
 30
0.0
 11
-1.71865
 21
1.31885
 31
0.0
  0
LINE
  5
13F
330
128
100
AcDbEntity
  8
AM_9
100
AcDbLine
 10
-1.71865
 20
1.31885
 30
0.0
 11
-1.41135
 21
1.31885
 31
0.0
  0
LINE
  5
140
330
128
100
AcDbEntity
  8
AM_9
100
AcDbLine
 10
-1.71865
 20
1.31885
 30
0.0
 11
-1.727285576035071
 21
1.310214423964929
 31
0.0
  0
LINE
  5
141
330
128
100
AcDbEntity
  8
AM_9
100
AcDbLine
 10
-1.402757778627881
 20
1.310257778627881
 30
0.0
 11
-1.41135
 21
1.31885
 31
0.0
  0
LINE
  5
142
330
128
100
AcDbEntity
  8
AM_9
100
AcDbLine
 10
-1.71865
 20
1.84115
 30
0.0
 11
-1.41135
 21
1.84115
 31
0.0
  0
LINE
  5
143
330
128
100
AcDbEntity
  8
AM_9
100
AcDbLine
 10
-1.41135
 20
1.84115
 30
0.0
 11
-1.3775
 21
1.875
 31
0.0
  0
LINE
  5
144
330
128
100
AcDbEntity
  8
AM_9
100
AcDbLine
 10
-1.7525
 20
1.875
 30
0.0
 11
-1.71865
 21
1.84115
 31
0.0
  0
LWPOLYLINE
  5
145
330
128
100
AcDbEntity
  8
AM_9
100
AcDbPolyline
 90
       38
 70
     0
 43
0.0
 10
-1.444739795400333
 20
0.4454553340870208
 10
-1.430102157395505
 20
0.4643138121682409
 10
-1.418409692857069
 20
0.4847808473524233
 10
-1.408581770622179
 20
0.5106664144202904
 10
-1.403357915908207
 20
0.5374299934606563
 10
-1.402961035959136
 20
0.565238360684395
 10
-1.407594424418917
 20
0.592428934676327
 10
-1.417330223445362
 20
0.6184493365590074
 10
-1.431882177892985
 20
0.6423582723116168
 10
-1.450611480547188
 20
0.6630652246605157
 10
-1.473240600676214
 20
0.6804170158894303
 10
-1.497799513172281
 20
0.6931552315099786
 10
-1.524640596075072
 20
0.7018609413282774
 10
-1.550806879059509
 20
0.7059411419796178
 10
-1.577413312255015
 20
0.7060923853880132
 10
-1.602358590402661
 20
0.702524952887164
 10
-1.626272864413717
 20
0.6955229844667075
 10
-1.648771781918627
 20
0.6851391771507516
 10
-1.66908040044655
 20
0.67179291845565
 10
-1.687728298023224
 20
0.6547784583698778
 10
-1.703088966392304
 20
0.6352898679140674
 10
-1.715524895961859
 20
0.6122153586641235
 10
-1.723655558172999
 20
0.5874328238680534
 10
-1.727337723902182
 20
0.5603057298935603
 10
-1.726068765370069
 20
0.5327047496794318
 10
-1.719661891818042
 20
0.5049295051250271
 10
-1.708292117539708
 20
0.4782848282214883
 10
-1.692295496818061
 20
0.4538558976382232
 10
-1.672013127851826
 20
0.4322506495427487
 10
-1.648924217417115
 20
0.4150329933045241
 10
-1.622954832298562
 20
0.4019704520501967
 10
-1.596898493763943
 20
0.3942096675082302
 10
-1.569814561680348
 20
0.3909818634271386
 10
-1.544284004110846
 20
0.3923016508464793
 10
-1.519345489956254
 20
0.3976903300900799
 10
-1.49592078796226
 20
0.4068619817596906
 10
-1.474317549032611
 20
0.4194243559208966
 10
-1.444739795400333
 20
0.4454553340870208
  0
LINE
  5
146
330
128
100
AcDbEntity
  8
AM_9
100
AcDbLine
 10
-1.875
 20
-1.31
 30
0.0
 11
-1.255
 21
-1.31
 31
0.0
  0
LINE
  5
147
330
128
100
AcDbEntity
  8
AM_9
100
AcDbLine
 10
-1.255
 20
1.31
 30
0.0
 11
-1.403100547141849
 21
1.31
 31
0.0
  0
LINE
  5
148
330
128
100
AcDbEntity
  8
AM_9
100
AcDbLine
 10
-1.72700024280387
 20
1.31
 30
0.0
 11
-1.875
 21
1.31
 31
0.0
  0
LWPOLYLINE
  5
149
330
128
100
AcDbEntity
  8
AM_9
100
AcDbPolyline
 90
       21
 70
     0
 43
0.0
 10
-1.727499999999664
 20
1.309999999999953
 10
-1.727302778927691
 20
1.309972087359224
 10
-1.723276415948911
 20
1.309409357790498
 10
-1.71435444446062
 20
1.308210936201127
 10
-1.700207843527012
 20
1.306448665357621
 10
-1.682312488178498
 20
1.304463909932971
 10
-1.659760408416193
 20
1.302355736591321
 10
-1.635884898216065
 20
1.300606511345046
 10
-1.608727222146959
 20
1.299225996360719
 10
-1.582982440638727
 20
1.298520061078894
 10
-1.555834429079858
 20
1.298413625064043
 10
-1.531111648408038
 20
1.298886781313495
 10
-1.506652034726318
 20
1.299888341515008
 10
-1.48423598803397
 20
1.301269778693122
 10
-1.463401601548724
 20
1.302948380784639
 10
-1.444657391076652
 20
1.304780658154192
 10
-1.428716068578942
 20
1.306576741861005
 10
-1.415935850865354
 20
1.30817306980801
 10
-1.407146488292911
 20
1.309351040898662
 10
-1.402864446203769
 20
1.309948445529012
 10
-1.40250000000016
 20
1.309999999999977
  0
ELLIPSE
  5
14A
330
128
100
AcDbEntity
  8
AM_9
100
AcDbEllipse
 10
-1.565
 20
0.5573700944967217
 30
0.0
 11
0.1536500000000003
 21
0.0
 31
0.0
210
0.0
220
0.0
230
1.0
 40
0.9063077870366492
 41
2.226603289658609
 42
3.141592653589793
  0
LINE
  5
14B
330
128
100
AcDbEntity
  8
AM_9
100
AcDbLine
 10
-1.41135
 20
0.5573700944967216
 30
0.0
 11
-1.41135
 21
0.7781036126038889
 31
0.0
  0
LINE
  5
14C
330
128
100
AcDbEntity
  8
AM_9
100
AcDbLine
 10
-1.71865
 20
0.7781036126038889
 30
0.0
 11
-1.71865
 21
0.5573700944967216
 31
0.0
  0
ELLIPSE
  5
14D
330
128
100
AcDbEntity
  8
AM_9
100
AcDbEllipse
 10
-1.565
 20
0.5573700944967217
 30
0.0
 11
0.1536500000000001
 21
0.0
 31
0.0
210
0.0
220
0.0
230
1.0
 40
0.9063077870366505
 41
3.141592653589793
 42
7.198174671110772
  0
LINE
  5
14E
330
128
100
AcDbEntity
  8
AM_9
100
AcDbLine
 10
-1.28125
 20
-1.875
 30
0.0
 11
-1.255
 21
-1.875
 31
0.0
  0
LINE
  5
14F
330
128
100
AcDbEntity
  8
AM_9
100
AcDbLine
 10
-1.255
 20
1.875
 30
0.0
 11
-1.28125
 21
1.875
 31
0.0
  0
LINE
  5
150
330
128
100
AcDbEntity
  8
AM_9
100
AcDbLine
 10
-1.255
 20
1.875
 30
0.0
 11
-1.255
 21
-1.875
 31
0.0
  0
LINE
  5
151
330
128
100
AcDbEntity
  8
AM_5
100
AcDbLine
 10
-1.7525
 20
1.875
 30
0.0
 11
-1.7525
 21
1.31
 31
0.0
  0
LINE
  5
152
330
128
100
AcDbEntity
  8
AM_5
100
AcDbLine
 10
-1.3775
 20
1.875
 30
0.0
 11
-1.3775
 21
1.31
 31
0.0
  0
ELLIPSE
  5
153
330
128
100
AcDbEntity
  8
AM_4
100
AcDbEllipse
 10
-1.565
 20
0.5573700944967211
 30
0.0
 11
0.1536499999999998
 21
0.0
 31
0.0
210
0.0
220
0.0
230
1.0
 40
0.906307787036654
 41
1.570796326794897
 42
2.226603289658607
  0
ELLIPSE
  5
154
330
128
100
AcDbEntity
  8
AM_4
100
AcDbEllipse
 10
-1.565
 20
0.5573700944967219
 30
0.0
 11
0.153649999999999
 21
0.0
 31
0.0
210
0.0
220
0.0
230
1.0
 40
0.9063077870366535
 41
0.9149893639311832
 42
1.570796326794897
  0
LINE
  5
155
330
128
100
AcDbEntity
  8
AM_4
100
AcDbLine
 10
-1.875
 20
1.771666666666666
 30
0.0
 11
-1.875
 21
-1.771666666666666
 31
0.0
  0
ARC
  5
156
330
128
100
AcDbEntity
  8
AM_4
100
AcDbCircle
 10
-1.771666666666666
 20
-1.771666666666666
 30
0.0
 40
0.1033333333333342
100
AcDbArc
 50
180.0
 51
270.0
  0
ARC
  5
157
330
128
100
AcDbEntity
  8
AM_4
100
AcDbCircle
 10
-1.771666666666666
 20
1.771666666666666
 30
0.0
 40
0.1033333333333342
100
AcDbArc
 50
90.0
 51
180.0
  0
LWPOLYLINE
  5
158
330
128
100
AcDbEntity
  8
AM_4
100
AcDbPolyline
 90
       38
 70
     0
 43
0.0
 10
-1.422008501085509
 20
0.6860539140787061
 10
-1.441602143301939
 20
0.6683205471224867
 10
-1.463760556211364
 20
0.6533834294377121
 10
-1.491648052060175
 20
0.6401346412531586
 10
-1.521449179682697
 20
0.6312553331681307
 10
-1.55345872910494
 20
0.6269547718063732
 10
-1.585784141637581
 20
0.6276620016873853
 10
-1.618033363924536
 20
0.6335594638403665
 10
-1.648769911861272
 20
0.6444534005238444
 10
-1.676876690028368
 20
0.6600068979603884
 10
-1.701707038102484
 20
0.6797803622548191
 10
-1.721814626873291
 20
0.7025136601700763
 10
-1.73733822637845
 20
0.7280131726567901
 10
-1.747244299453623
 20
0.7541962856122403
 10
-1.752065755024539
 20
0.7813717875199456
 10
-1.751652429687523
 20
0.8075860815263632
 10
-1.746396740151464
 20
0.8331836762257959
 10
-1.736539750291876
 20
0.8572096963572119
 10
-1.72245461425486
 20
0.8793432278318921
 10
-1.704024687477022
 20
0.899527817107294
 10
-1.682175577892725
 20
0.9167690993098028
 10
-1.656316100082646
 20
0.9312500559357306
 10
-1.628122734725967
 20
0.9418972877454959
 10
-1.597070842130309
 20
0.9486668709679558
 10
-1.565155023692907
 20
0.9509686307057184
 10
-1.532507528696045
 20
0.9486045121339003
 10
-1.500775927565816
 20
0.941567294831706
 10
-1.470871531156619
 20
0.9299134673911902
 10
-1.443706218905132
 20
0.9139325073199461
 10
-1.420687008300083
 20
0.8943916207364082
 10
-1.401907690476438
 20
0.8714860515606265
 10
-1.388621767930761
 20
0.8469145633047361
 10
-1.380354704879906
 20
0.8204665970864253
 10
-1.377531722427733
 20
0.7941788057985648
 10
-1.379687039860784
 20
0.7676503889118619
 10
-1.386611336449164
 20
0.742218236252468
 10
-1.397984045410759
 20
0.7180119018049385
 10
-1.42200850104734
 20
0.6860539140218435
  0
LINE
  5
159
330
128
100
AcDbEntity
  8
AM_4
100
AcDbLine
 10
-1.771666666666666
 20
-1.875
 30
0.0
 11
-1.28125
 21
-1.875
 31
0.0
  0
LINE
  5
15A
330
128
100
AcDbEntity
  8
AM_4
100
AcDbLine
 10
-1.28125
 20
1.875
 30
0.0
 11
-1.3775
 21
1.875
 31
0.0
  0
LINE
  5
15B
330
128
100
AcDbEntity
  8
AM_4
100
AcDbLine
 10
-1.7525
 20
1.875
 30
0.0
 11
-1.771666666666666
 21
1.875
 31
0.0
  0
LINE
  5
15C
330
128
100
AcDbEntity
  8
AM_4
100
AcDbLine
 10
-1.771666666666666
 20
1.875
 30
0.0
 11
-1.771666666666666
 21
-1.875
 31
0.0
  0
LWPOLYLINE
  5
15D
330
128
100
AcDbEntity
  8
AM_4
100
AcDbPolyline
 90
       20
 70
     0
 43
0.0
 10
-1.37750000000002
 20
1.874999999999998
 10
-1.379815382887585
 20
1.874790789061003
 10
-1.386722245048127
 20
1.874181907723815
 10
-1.398358474603149
 20
1.87320769048237
 10
-1.413999394548273
 20
1.872000469935898
 10
-1.433823085705699
 20
1.870639540759807
 10
-1.457233710188032
 20
1.869276803213801
 10
-1.484026240784797
 20
1.868043323389702
 10
-1.513389937057372
 20
1.867092678089051
 10
-1.544945000552563
 20
1.866540075724935
 10
-1.577088713230826
 20
1.866477483738356
 10
-1.609800624583128
 20
1.866932283604207
 10
-1.640576588477396
 20
1.867837080214833
 10
-1.67004036388189
 20
1.869135379514561
 10
-1.695208962656291
 20
1.870577942976823
 10
-1.717249098624007
 20
1.872092516633398
 10
-1.733502213437123
 20
1.873359117804716
 10
-1.745291448388439
 20
1.874357073855502
 10
-1.751260101461696
 20
1.874887648521409
 10
-1.752499999999931
 20
1.874999999999994
  0
ELLIPSE
  5
15E
330
128
100
AcDbEntity
  8
AM_4
100
AcDbEllipse
 10
-1.565
 20
0.7781036126038889
 30
0.0
 11
0.1536500000000001
 21
0.0
 31
0.0
210
0.0
220
0.0
230
1.0
 40
0.9063077870366498
 41
0.0
 42
6.283185307179586
  0
ENDBLK
  5
12B
330
128
100
AcDbEntity
  8
0
100
AcDbBlockEnd
  0
BLOCK
  5
161
330
15F
100
AcDbEntity
  8
0
100
AcDbBlockBegin
  2
5_2_3_16I_0_in_023153_2
 70
     2
 10
0.0
 20
0.0
 30
0.0
  3
5_2_3_16I_0_in_023153_2
  1

  0
ATTDEF
  5
163
330
15F
100
AcDbEntity
  8
AM_6
100
AcDbText
 10
7.0625
 20
1.905
 30
0.0
 40
0.5
  1
E-Type Insert -Inch
100
AcDbAttributeDefinition
  3

  2
NN
 70
     8
280
     0
  0
ATTDEF
  5
164
330
15F
100
AcDbEntity
  8
AM_6
100
AcDbText
 10
7.0625
 20
1.405
 30
0.0
 40
0.5
  1
E-Type Bearings
100
AcDbAttributeDefinition
  3

  2
NT
 70
     8
280
     0
  0
ATTDEF
  5
165
330
15F
100
AcDbEntity
  8
AM_6
100
AcDbText
 10
7.0625
 20
0.905
 30
0.0
 40
0.5
  1
2-3/16I
100
AcDbAttributeDefinition
  3

  2
NB
 70
     8
280
     0
  0
ATTDEF
  5
166
330
15F
100
AcDbEntity
  8
AM_6
100
AcDbText
 10
7.0625
 20
0.405
 30
0.0
 40
0.5
  1
$BORE.I
100
AcDbAttributeDefinition
  3

  2
NBSYN
 70
     8
280
     0
  0
ATTDEF
  5
167
330
15F
100
AcDbEntity
  8
AM_6
100
AcDbText
 10
7.0625
 20
-0.095
 30
0.0
 40
0.5
  1
2-3/16I
100
AcDbAttributeDefinition
  3

  2
LINA
 70
     8
280
     0
  0
ATTDEF
  5
168
330
15F
100
AcDbEntity
  8
AM_6
100
AcDbText
 10
7.0625
 20
-0.595
 30
0.0
 40
0.5
  1
2-3/16
100
AcDbAttributeDefinition
  3

  2
BORE
 70
     8
280
     0
  0
ATTDEF
  5
169
330
15F
100
AcDbEntity
  8
AM_6
100
AcDbText
 10
7.0625
 20
-1.095
 30
0.0
 40
0.5
  1
3.75
100
AcDbAttributeDefinition
  3

  2
A
 70
     8
280
     0
  0
ATTDEF
  5
16A
330
15F
100
AcDbEntity
  8
AM_6
100
AcDbText
 10
7.0625
 20
-1.595
 30
0.0
 40
0.5
  1
1.66
100
AcDbAttributeDefinition
  3

  2
B
 70
     8
280
     0
  0
ATTDEF
  5
16B
330
15F
100
AcDbEntity
  8
AM_6
100
AcDbText
 10
7.0625
 20
-2.095
 30
0.0
 40
0.5
  1
2.62
100
AcDbAttributeDefinition
  3

  2
C
 70
     8
280
     0
  0
ATTDEF
  5
16C
330
15F
100
AcDbEntity
  8
AM_6
100
AcDbText
 10
7.0625
 20
-2.595
 30
0.0
 40
0.5
  1
3.81
100
AcDbAttributeDefinition
  3

  2
D
 70
     8
280
     0
  0
ATTDEF
  5
16D
330
15F
100
AcDbEntity
  8
AM_6
100
AcDbText
 10
7.0625
 20
-3.095
 30
0.0
 40
0.5
  1
0.41
100
AcDbAttributeDefinition
  3

  2
E
 70
     8
280
     0
  0
ATTDEF
  5
16E
330
15F
100
AcDbEntity
  8
AM_6
100
AcDbText
 10
7.0625
 20
-3.595
 30
0.0
 40
0.5
  1
0.31
100
AcDbAttributeDefinition
  3

  2
F
 70
     8
280
     0
  0
ATTDEF
  5
16F
330
15F
100
AcDbEntity
  8
AM_6
100
AcDbText
 10
7.0625
 20
-4.095
 30
0.0
 40
0.5
  1
baldor
100
AcDbAttributeDefinition
  3

  2
COMPANY
 70
     8
280
     0
  0
LINE
  5
170
330
15F
100
AcDbEntity
  8
AM_9
100
AcDbLine
 10
1.36
 20
1.31
 30
0.0
 11
1.36
 21
1.09375
 31
0.0
  0
LINE
  5
171
330
15F
100
AcDbEntity
  8
AM_9
100
AcDbLine
 10
1.77
 20
1.09375
 30
0.0
 11
1.77
 21
1.31
 31
0.0
  0
LINE
  5
172
330
15F
100
AcDbEntity
  8
AM_9
100
AcDbLine
 10
-1.77
 20
1.31
 30
0.0
 11
-1.77
 21
1.09375
 31
0.0
  0
LINE
  5
173
330
15F
100
AcDbEntity
  8
AM_9
100
AcDbLine
 10
-1.36
 20
1.09375
 30
0.0
 11
-1.36
 21
1.31
 31
0.0
  0
LINE
  5
174
330
15F
100
AcDbEntity
  8
AM_9
100
AcDbLine
 10
-1.875
 20
-1.09375
 30
0.0
 11
1.875
 21
-1.09375
 31
0.0
  0
LINE
  5
175
330
15F
100
AcDbEntity
  8
AM_9
100
AcDbLine
 10
1.875
 20
1.09375
 30
0.0
 11
1.77
 21
1.09375
 31
0.0
  0
LINE
  5
176
330
15F
100
AcDbEntity
  8
AM_9
100
AcDbLine
 10
1.36
 20
1.09375
 30
0.0
 11
-1.36
 21
1.09375
 31
0.0
  0
LINE
  5
177
330
15F
100
AcDbEntity
  8
AM_9
100
AcDbLine
 10
-1.77
 20
1.09375
 30
0.0
 11
-1.875
 21
1.09375
 31
0.0
  0
LWPOLYLINE
  5
178
330
15F
100
AcDbEntity
  8
AM_9
100
AcDbPolyline
 90
       21
 70
     0
 43
0.0
 10
1.36000000000072
 20
1.093749999999865
 10
1.361185919992238
 20
1.093528345178766
 10
1.367489729148295
 20
1.092370985330494
 10
1.379453382857472
 20
1.090271346790805
 10
1.396182012050497
 20
1.087549343963444
 10
1.418081848137522
 20
1.084365715912619
 10
1.443785090383482
 20
1.081183202243422
 10
1.473744082465577
 20
1.078235458972227
 10
1.505513044643874
 20
1.076012435038528
 10
1.540000272164695
 20
1.074657642643386
 10
1.573712499257009
 20
1.074402145448018
 10
1.608156960913157
 20
1.075233270400084
 10
1.640159093937501
 20
1.076992549603527
 10
1.670935554185032
 20
1.079576956099235
 10
1.698285843834801
 20
1.082602964464238
 10
1.722630195055829
 20
1.08586893357041
 10
1.742212943283609
 20
1.088884057081947
 10
1.757237562367084
 20
1.091429953265366
 10
1.766375996394553
 20
1.093076554695004
 10
1.769971255466082
 20
1.093744612817518
 10
1.769999999999189
 20
1.093749999999848
  0
LINE
  5
179
330
15F
100
AcDbEntity
  8
AM_9
100
AcDbLine
 10
1.570210662738958
 20
1.074379455083807
 30
0.0
 11
1.565
 21
1.074366819340583
 31
0.0
  0
LINE
  5
17A
330
15F
100
AcDbEntity
  8
AM_9
100
AcDbLine
 10
1.769999999999189
 20
1.093749999999848
 30
0.0
 11
1.754153548881585
 21
1.090890978766668
 31
0.0
  0
LWPOLYLINE
  5
17B
330
15F
100
AcDbEntity
  8
AM_9
100
AcDbPolyline
 90
       21
 70
     0
 43
0.0
 10
-1.76999999999928
 20
1.093749999999865
 10
-1.768814080007762
 20
1.093528345178766
 10
-1.762510270851704
 20
1.092370985330494
 10
-1.750546617142527
 20
1.090271346790805
 10
-1.733817987949502
 20
1.087549343963444
 10
-1.711918151862477
 20
1.084365715912619
 10
-1.686214909616518
 20
1.081183202243422
 10
-1.656255917534423
 20
1.078235458972227
 10
-1.624486955356126
 20
1.076012435038528
 10
-1.589999727835304
 20
1.074657642643386
 10
-1.556287500742991
 20
1.074402145448018
 10
-1.521843039086842
 20
1.075233270400084
 10
-1.489840906062498
 20
1.076992549603527
 10
-1.459064445814968
 20
1.079576956099235
 10
-1.431714156165199
 20
1.082602964464238
 10
-1.40736980494417
 20
1.08586893357041
 10
-1.38778705671639
 20
1.088884057081947
 10
-1.372762437632916
 20
1.091429953265366
 10
-1.363624003605447
 20
1.093076554695004
 10
-1.360028744533918
 20
1.093744612817518
 10
-1.360000000000811
 20
1.093749999999848
  0
LINE
  5
17C
330
15F
100
AcDbEntity
  8
AM_9
100
AcDbLine
 10
-1.559789337261042
 20
1.074379455083807
 30
0.0
 11
-1.565
 21
1.074366819340583
 31
0.0
  0
LINE
  5
17D
330
15F
100
AcDbEntity
  8
AM_9
100
AcDbLine
 10
-1.360000000000811
 20
1.093749999999848
 30
0.0
 11
-1.375846451118415
 21
1.090890978766668
 31
0.0
  0
LWPOLYLINE
  5
17E
330
15F
100
AcDbEntity
  8
AM_9
100
AcDbPolyline
 90
        4
 70
     0
 43
0.0
 10
1.366514622634233
 20
0.5081965040278067
 10
1.365329080184506
 20
0.5039093737798668
 10
1.360405996541589
 20
0.4738938812672788
 10
1.360000000589829
 20
0.4622528176165437
  0
LWPOLYLINE
  5
17F
330
15F
100
AcDbEntity
  8
AM_9
100
AcDbPolyline
 90
        5
 70
     0
 43
0.0
 10
1.415906832255124
 20
0.5859148587337997
 10
1.413394193220719
 20
0.5836049379909849
 10
1.392181480916717
 20
0.5598193174022362
 10
1.376248788877666
 20
0.533494178197392
 10
1.366514622634233
 20
0.5081965040278067
  0
LWPOLYLINE
  5
180
330
15F
100
AcDbEntity
  8
AM_9
100
AcDbPolyline
 90
        6
 70
     0
 43
0.0
 10
1.565
 20
0.6398401340041143
 10
1.531411188985366
 20
0.6375511001667998
 10
1.497822377970732
 20
0.6304679848835111
 10
1.467067842799307
 20
0.6191511708038264
 10
1.438228904633593
 20
0.6032056359617298
 10
1.415906832255124
 20
0.5859148587337997
  0
LINE
  5
181
330
15F
100
AcDbEntity
  8
AM_9
100
AcDbLine
 10
1.36
 20
0.5536207899111156
 30
0.0
 11
1.36
 21
0.4621838902998384
 31
0.0
  0
LINE
  5
182
330
15F
100
AcDbEntity
  8
AM_9
100
AcDbLine
 10
1.77
 20
0.4622188451366216
 30
0.0
 11
1.77
 21
0.5535849118457776
 31
0.0
  0
LWPOLYLINE
  5
183
330
15F
100
AcDbEntity
  8
AM_9
100
AcDbPolyline
 90
       21
 70
     0
 43
0.0
 10
1.360000000589829
 20
0.4622528176165437
 10
1.361185919992238
 20
0.4421893776845242
 10
1.367489729148295
 20
0.4118939929683479
 10
1.379453382857472
 20
0.3817717414853635
 10
1.396182012050498
 20
0.3542154088629114
 10
1.418081848137523
 20
0.3286990841492811
 10
1.443785090383482
 20
0.3070935543039394
 10
1.473744082465577
 20
0.289312524954336
 10
1.505513044643874
 20
0.2769437137102838
 10
1.540000272164695
 20
0.2697635602544092
 10
1.573712499257009
 20
0.2684367409768572
 10
1.608156960913158
 20
0.2727838965688478
 10
1.640159093937502
 20
0.2823009646455374
 10
1.670935554185032
 20
0.2971857015374083
 10
1.698285843834801
 20
0.3163650461051873
 10
1.72263019505583
 20
0.3401238919506436
 10
1.74221294328361
 20
0.3667816844100144
 10
1.757237562367084
 20
0.3967273356317106
 10
1.766375996394553
 20
0.4271737556752221
 10
1.769971255466082
 20
0.4591252318639144
 10
1.769999999335249
 20
0.4622237614687382
  0
LWPOLYLINE
  5
184
330
15F
100
AcDbEntity
  8
AM_9
100
AcDbPolyline
 90
        7
 70
     0
 43
0.0
 10
1.714870744442869
 20
0.5852092187620714
 10
1.705893327383059
 20
0.5928926580695693
 10
1.678623733254016
 20
0.6112226483942227
 10
1.648662079714041
 20
0.6250384003933452
 10
1.615335312723606
 20
0.6346504886497685
 10
1.590570268450787
 20
0.6385177338369308
 10
1.573942984152141
 20
0.639678989982249
  0
LWPOLYLINE
  5
185
330
15F
100
AcDbEntity
  8
AM_9
100
AcDbPolyline
 90
        5
 70
     0
 43
0.0
 10
1.763818416642777
 20
0.5070374805916296
 10
1.75984402015236
 20
0.5192075028037201
 10
1.746870646114056
 20
0.5462382257399396
 10
1.728502689581854
 20
0.5713491749304535
 10
1.714870744442869
 20
0.5852092187620714
  0
LWPOLYLINE
  5
186
330
15F
100
AcDbEntity
  8
AM_9
100
AcDbPolyline
 90
        3
 70
     0
 43
0.0
 10
1.769999999335249
 20
0.4622237614687382
 10
1.767778757985552
 20
0.4893400285554954
 10
1.763818416642777
 20
0.5070374805916296
  0
LWPOLYLINE
  5
187
330
15F
100
AcDbEntity
  8
AM_9
100
AcDbPolyline
 90
       21
 70
     0
 43
0.0
 10
1.769999999289625
 20
0.5536453900219587
 10
1.768757559447961
 20
0.5331237329375604
 10
1.762173984341719
 20
0.5023422239080743
 10
1.750173897281876
 20
0.4726687595989402
 10
1.732952133169799
 20
0.4448942797037517
 10
1.71109848665385
 20
0.4199512865128034
 10
1.684855437236501
 20
0.3984440919996393
 10
1.655212331163461
 20
0.3813002699507236
 10
1.622921540617335
 20
0.3691565910208036
 10
1.588958571218725
 20
0.3623829406863009
 10
1.554656547522722
 20
0.3612919852856076
 10
1.520648783836642
 20
0.3657373756087826
 10
1.488093384884041
 20
0.3755722787582275
 10
1.457678600926211
 20
0.3903885986436372
 10
1.430057946768477
 20
0.4099348888832717
 10
1.406199030622119
 20
0.4334158966848784
 10
1.386656766026592
 20
0.4604002920140968
 10
1.372160917379446
 20
0.4898094885898114
 10
1.363237237715454
 20
0.5206388508720577
 10
1.360007330194224
 20
0.5520582741830625
 10
1.360000000267581
 20
0.5536204300423231
  0
LWPOLYLINE
  5
188
330
15F
100
AcDbEntity
  8
AM_9
100
AcDbPolyline
 90
        5
 70
     0
 43
0.0
 10
1.441464173962128
 20
0.6975648327413987
 10
1.453428635743626
 20
0.7047043559847482
 10
1.484011909521858
 20
0.7185400703536098
 10
1.516927054067791
 20
0.7277987391263707
 10
1.565
 20
0.7326021728555165
  0
LWPOLYLINE
  5
189
330
15F
100
AcDbEntity
  8
AM_9
100
AcDbPolyline
 90
        7
 70
     0
 43
0.0
 10
1.360000000267581
 20
0.5536204300423231
 10
1.3625947362227
 20
0.5828070123677241
 10
1.370774543775759
 20
0.6123763884319547
 10
1.384366491030943
 20
0.6399279852930048
 10
1.402914395415116
 20
0.6648354739725454
 10
1.426224482383055
 20
0.6866703163436669
 10
1.441464173962128
 20
0.6975648327413987
  0
LWPOLYLINE
  5
18A
330
15F
100
AcDbEntity
  8
AM_9
100
AcDbPolyline
 90
        4
 70
     0
 43
0.0
 10
-1.763485377365767
 20
0.5081965040278064
 10
-1.764670919815493
 20
0.5039093737798668
 10
-1.769594003458411
 20
0.4738938812672788
 10
-1.769999999410171
 20
0.4622528176165437
  0
LWPOLYLINE
  5
18B
330
15F
100
AcDbEntity
  8
AM_9
100
AcDbPolyline
 90
        5
 70
     0
 43
0.0
 10
-1.715233033418766
 20
0.5848776605500307
 10
-1.716605806779281
 20
0.5836049379909849
 10
-1.737818519083283
 20
0.5598193174022362
 10
-1.753751211122333
 20
0.533494178197392
 10
-1.763485377365767
 20
0.5081965040278064
  0
LWPOLYLINE
  5
18C
330
15F
100
AcDbEntity
  8
AM_9
100
AcDbPolyline
 90
        6
 70
     0
 43
0.0
 10
-1.575073617638158
 20
0.6396356395814091
 10
-1.598588811014634
 20
0.6375511001667998
 10
-1.632177622029268
 20
0.6304679848835111
 10
-1.662932157200693
 20
0.6191511708038264
 10
-1.691771095366407
 20
0.6032056359617298
 10
-1.715233033418766
 20
0.5848776605500307
  0
LINE
  5
18D
330
15F
100
AcDbEntity
  8
AM_9
100
AcDbLine
 10
-1.77
 20
0.5536207899111154
 30
0.0
 11
-1.77
 21
0.4621838902998384
 31
0.0
  0
LINE
  5
18E
330
15F
100
AcDbEntity
  8
AM_9
100
AcDbLine
 10
-1.36
 20
0.4622188451366216
 30
0.0
 11
-1.36
 21
0.5535849118457774
 31
0.0
  0
LWPOLYLINE
  5
18F
330
15F
100
AcDbEntity
  8
AM_9
100
AcDbPolyline
 90
       21
 70
     0
 43
0.0
 10
-1.769999999410171
 20
0.4622528176165437
 10
-1.768814080007762
 20
0.4421893776845242
 10
-1.762510270851704
 20
0.4118939929683479
 10
-1.750546617142527
 20
0.3817717414853635
 10
-1.733817987949502
 20
0.3542154088629114
 10
-1.711918151862477
 20
0.3286990841492811
 10
-1.686214909616518
 20
0.3070935543039394
 10
-1.656255917534422
 20
0.289312524954336
 10
-1.624486955356126
 20
0.2769437137102838
 10
-1.589999727835305
 20
0.2697635602544092
 10
-1.556287500742991
 20
0.2684367409768572
 10
-1.521843039086842
 20
0.2727838965688478
 10
-1.489840906062498
 20
0.2823009646455374
 10
-1.459064445814968
 20
0.2971857015374083
 10
-1.431714156165198
 20
0.3163650461051873
 10
-1.40736980494417
 20
0.3401238919506436
 10
-1.38778705671639
 20
0.3667816844100144
 10
-1.372762437632916
 20
0.3967273356317106
 10
-1.363624003605447
 20
0.4271737556752221
 10
-1.360028744533918
 20
0.4591252318639144
 10
-1.360000000664751
 20
0.4622237614687382
  0
LWPOLYLINE
  5
190
330
15F
100
AcDbEntity
  8
AM_9
100
AcDbPolyline
 90
        7
 70
     0
 43
0.0
 10
-1.415453909780303
 20
0.5855048246085525
 10
-1.424106672616941
 20
0.5928926580695693
 10
-1.451376266745984
 20
0.6112226483942227
 10
-1.481337920285958
 20
0.6250384003933452
 10
-1.514664687276394
 20
0.6346504886497685
 10
-1.539429731549212
 20
0.6385177338369308
 10
-1.565
 20
0.6398401340041143
  0
LWPOLYLINE
  5
191
330
15F
100
AcDbEntity
  8
AM_9
100
AcDbPolyline
 90
        5
 70
     0
 43
0.0
 10
-1.366181583357223
 20
0.5070374805916296
 10
-1.37015597984764
 20
0.5192075028037201
 10
-1.383129353885944
 20
0.5462382257399396
 10
-1.401497310418145
 20
0.5713491749304535
 10
-1.415453909780303
 20
0.5855048246085525
  0
LWPOLYLINE
  5
192
330
15F
100
AcDbEntity
  8
AM_9
100
AcDbPolyline
 90
        3
 70
     0
 43
0.0
 10
-1.360000000664751
 20
0.4622237614687382
 10
-1.362221242014447
 20
0.4893400285554954
 10
-1.366181583357223
 20
0.5070374805916296
  0
LWPOLYLINE
  5
193
330
15F
100
AcDbEntity
  8
AM_9
100
AcDbPolyline
 90
       21
 70
     0
 43
0.0
 10
-1.360000000710375
 20
0.5536453900219585
 10
-1.361242440552039
 20
0.5331237329375602
 10
-1.367826015658281
 20
0.5023422239080741
 10
-1.379826102718124
 20
0.47266875959894
 10
-1.3970478668302
 20
0.4448942797037516
 10
-1.41890151334615
 20
0.4199512865128033
 10
-1.445144562763499
 20
0.3984440919996391
 10
-1.474787668836539
 20
0.3813002699507235
 10
-1.507078459382664
 20
0.3691565910208036
 10
-1.541041428781275
 20
0.3623829406863009
 10
-1.575343452477278
 20
0.3612919852856076
 10
-1.609351216163358
 20
0.3657373756087824
 10
-1.641906615115959
 20
0.3755722787582275
 10
-1.672321399073789
 20
0.3903885986436372
 10
-1.699942053231523
 20
0.4099348888832717
 10
-1.72380096937788
 20
0.4334158966848784
 10
-1.743343233973408
 20
0.4604002920140968
 10
-1.757839082620553
 20
0.4898094885898113
 10
-1.766762762284545
 20
0.5206388508720576
 10
-1.769992669805776
 20
0.5520582741830625
 10
-1.769999999732419
 20
0.5536204300423231
  0
LWPOLYLINE
  5
194
330
15F
100
AcDbEntity
  8
AM_9
100
AcDbPolyline
 90
        5
 70
     0
 43
0.0
 10
-1.689174883266926
 20
0.6971514322321474
 10
-1.676571364256374
 20
0.7047043559847482
 10
-1.645988090478142
 20
0.7185400703536098
 10
-1.613072945932208
 20
0.7277987391263707
 10
-1.565
 20
0.7326021728555164
  0
LWPOLYLINE
  5
195
330
15F
100
AcDbEntity
  8
AM_9
100
AcDbPolyline
 90
        7
 70
     0
 43
0.0
 10
-1.769999999732419
 20
0.5536204300423231
 10
-1.7674052637773
 20
0.5828070123677243
 10
-1.759225456224241
 20
0.6123763884319549
 10
-1.745633508969056
 20
0.6399279852930048
 10
-1.727085604584884
 20
0.6648354739725453
 10
-1.703775517616945
 20
0.6866703163436669
 10
-1.689174883266926
 20
0.6971514322321474
  0
LWPOLYLINE
  5
196
330
15F
100
AcDbEntity
  8
AM_9
100
AcDbPolyline
 90
        8
 70
     0
 43
0.0
 10
-1.441415595915439
 20
0.6975335285661272
 10
-1.437836031036632
 20
0.6951714402259704
 10
-1.412719823026688
 20
0.6749416632370724
 10
-1.39187170481606
 20
0.6511767613053064
 10
-1.375868237869494
 20
0.6242436555683267
 10
-1.36522793466611
 20
0.5949798363854372
 10
-1.360367279712249
 20
0.5643924375231563
 10
-1.360000000710375
 20
0.5536453900219585
  0
LWPOLYLINE
  5
197
330
15F
100
AcDbEntity
  8
AM_9
100
AcDbPolyline
 90
        5
 70
     0
 43
0.0
 10
-1.565
 20
0.7326021728555164
 10
-1.530823508598725
 20
0.7301762319085052
 10
-1.497616114717968
 20
0.7230193959655725
 10
-1.466348644132232
 20
0.711243117215597
 10
-1.441415595915439
 20
0.6975335285661272
  0
LINE
  5
198
330
15F
100
AcDbEntity
  8
AM_9
100
AcDbLine
 10
-1.875
 20
-1.31
 30
0.0
 11
-0.8300000000000002
 21
-1.31
 31
0.0
  0
LINE
  5
199
330
15F
100
AcDbEntity
  8
AM_9
100
AcDbLine
 10
-0.8300000000000002
 20
1.31
 30
0.0
 11
-1.36
 21
1.31
 31
0.0
  0
LINE
  5
19A
330
15F
100
AcDbEntity
  8
AM_9
100
AcDbLine
 10
-1.77
 20
1.31
 30
0.0
 11
-1.875
 21
1.31
 31
0.0
  0
LWPOLYLINE
  5
19B
330
15F
100
AcDbEntity
  8
AM_9
100
AcDbPolyline
 90
       21
 70
     0
 43
0.0
 10
-1.360000000000418
 20
1.309999999999935
 10
-1.361242440552039
 20
1.309806147119562
 10
-1.367674650734049
 20
1.308820955464471
 10
-1.379826102718124
 20
1.307044135534282
 10
-1.396757447856401
 20
1.30475306336172
 10
-1.41890151334615
 20
1.302082857502757
 10
-1.444731377308926
 20
1.299438163824662
 10
-1.474787668836538
 20
1.297001644059847
 10
-1.506584848720728
 20
1.295178493451378
 10
-1.541041428781275
 20
1.294082305394384
 10
-1.574847448295978
 20
1.293897975977218
 10
-1.609351216163358
 20
1.294620419418437
 10
-1.641468582547035
 20
1.296118221504795
 10
-1.672321399073789
 20
1.29830384837262
 10
-1.699590841068176
 20
1.300841917567019
 10
-1.72380096937788
 20
1.30356923401688
 10
-1.743113408688944
 20
1.306062550705285
 10
-1.757839082620553
 20
1.308152098108602
 10
-1.766693818570835
 20
1.309486691971203
 10
-1.769992669805776
 20
1.309998852928544
 10
-1.769999999999855
 20
1.309999999999978
  0
LWPOLYLINE
  5
19C
330
15F
100
AcDbEntity
  8
AM_9
100
AcDbPolyline
 90
        8
 70
     0
 43
0.0
 10
1.688882930865574
 20
0.697340720129515
 10
1.692163968963367
 20
0.6951714402259707
 10
1.717280176973312
 20
0.6749416632370726
 10
1.738128295183939
 20
0.6511767613053066
 10
1.754131762130506
 20
0.6242436555683268
 10
1.764772065333889
 20
0.5949798363854373
 10
1.769632720287751
 20
0.5643924375231565
 10
1.769999999289625
 20
0.5536453900219587
  0
LWPOLYLINE
  5
19D
330
15F
100
AcDbEntity
  8
AM_9
100
AcDbPolyline
 90
        5
 70
     0
 43
0.0
 10
1.565
 20
0.7326021728555165
 10
1.599176491401275
 20
0.7301762319085052
 10
1.632383885282032
 20
0.7230193959655727
 10
1.663651355867768
 20
0.7112431172155971
 10
1.688882930865574
 20
0.697340720129515
  0
LINE
  5
19E
330
15F
100
AcDbEntity
  8
AM_9
100
AcDbLine
 10
0.8300000000000001
 20
-1.31
 30
0.0
 11
1.875
 21
-1.31
 31
0.0
  0
LINE
  5
19F
330
15F
100
AcDbEntity
  8
AM_9
100
AcDbLine
 10
1.875
 20
1.31
 30
0.0
 11
1.77
 21
1.31
 31
0.0
  0
LINE
  5
1A0
330
15F
100
AcDbEntity
  8
AM_9
100
AcDbLine
 10
1.36
 20
1.31
 30
0.0
 11
0.8300000000000001
 21
1.31
 31
0.0
  0
LWPOLYLINE
  5
1A1
330
15F
100
AcDbEntity
  8
AM_9
100
AcDbPolyline
 90
       21
 70
     0
 43
0.0
 10
1.769999999999582
 20
1.309999999999935
 10
1.768757559447961
 20
1.309806147119562
 10
1.762325349265951
 20
1.308820955464471
 10
1.750173897281876
 20
1.307044135534283
 10
1.733242552143599
 20
1.30475306336172
 10
1.71109848665385
 20
1.302082857502758
 10
1.685268622691074
 20
1.299438163824662
 10
1.655212331163461
 20
1.297001644059847
 10
1.623415151279272
 20
1.295178493451378
 10
1.588958571218725
 20
1.294082305394384
 10
1.555152551704021
 20
1.293897975977219
 10
1.520648783836642
 20
1.294620419418437
 10
1.488531417452964
 20
1.296118221504795
 10
1.457678600926211
 20
1.298303848372621
 10
1.430409158931824
 20
1.300841917567019
 10
1.406199030622119
 20
1.30356923401688
 10
1.386886591311055
 20
1.306062550705285
 10
1.372160917379446
 20
1.308152098108602
 10
1.363306181429165
 20
1.309486691971204
 10
1.360007330194224
 20
1.309998852928544
 10
1.360000000000144
 20
1.309999999999978
  0
LINE
  5
1A2
330
15F
100
AcDbEntity
  8
AM_9
100
AcDbLine
 10
1.561197168541139
 20
1.293866091033808
 30
0.0
 11
1.565
 21
1.293860502527224
 31
0.0
  0
LINE
  5
1A3
330
15F
100
AcDbEntity
  8
AM_9
100
AcDbLine
 10
1.360000000000144
 20
1.309999999999978
 30
0.0
 11
1.365355126734312
 21
1.309172668299057
 31
0.0
  0
LINE
  5
1A4
330
15F
100
AcDbEntity
  8
AM_9
100
AcDbLine
 10
-0.8300000000000002
 20
-1.905
 30
0.0
 11
0.8300000000000001
 21
-1.905
 31
0.0
  0
LINE
  5
1A5
330
15F
100
AcDbEntity
  8
AM_9
100
AcDbLine
 10
0.8300000000000001
 20
1.905
 30
0.0
 11
-0.8300000000000002
 21
1.905
 31
0.0
  0
LINE
  5
1A6
330
15F
100
AcDbEntity
  8
AM_9
100
AcDbLine
 10
-0.8300000000000002
 20
1.905
 30
0.0
 11
-0.8300000000000002
 21
-1.905
 31
0.0
  0
LINE
  5
1A7
330
15F
100
AcDbEntity
  8
AM_9
100
AcDbLine
 10
0.8300000000000001
 20
1.905
 30
0.0
 11
0.8300000000000001
 21
-1.905
 31
0.0
  0
LINE
  5
1AA
330
15F
100
AcDbEntity
  8
AM_7
100
AcDbLine
 10
-2.0625
 20
0.0
 30
0.0
 11
2.0625
 21
0.0
 31
0.0
  0
LINE
  5
1AB
330
15F
100
AcDbEntity
  8
AM_7
100
AcDbLine
 10
1.565
 20
-0.0671794871794872
 30
0.0
 11
1.565
 21
1.9045
 31
0.0
  0
LINE
  5
1AC
330
15F
100
AcDbEntity
  8
AM_7
100
AcDbLine
 10
-1.565
 20
-0.0671794871794872
 30
0.0
 11
-1.565
 21
1.9045
 31
0.0
  0
LINE
  5
1AD
330
15F
100
AcDbEntity
  8
AM_4
100
AcDbLine
 10
1.573942984152141
 20
0.639678989982249
 30
0.0
 11
1.565
 21
0.6398401340041143
 31
0.0
  0
LINE
  5
1AE
330
15F
100
AcDbEntity
  8
AM_4
100
AcDbLine
 10
-1.565
 20
0.6398401340041143
 30
0.0
 11
-1.575073617638158
 21
0.6396356395814091
 31
0.0
  0
ENDBLK
  5
162
330
15F
100
AcDbEntity
  8
0
100
AcDbBlockEnd
  0
BLOCK
  5
1B1
330
1AF
100
AcDbEntity
  8
0
100
AcDbBlockBegin
  2
6_023153H_0_in_023153_2
 70
     2
 10
0.0
 20
0.0
 30
0.0
  3
6_023153H_0_in_023153_2
  1

  0
ATTDEF
  5
1B3
330
1AF
100
AcDbEntity
  8
AM_6
100
AcDbText
 10
6.28125
 20
3.5
 30
0.0
 40
0.5
  1
TP-E-Housing
100
AcDbAttributeDefinition
  3

  2
NN
 70
     8
280
     0
  0
ATTDEF
  5
1B4
330
1AF
100
AcDbEntity
  8
AM_6
100
AcDbText
 10
6.28125
 20
3.0
 30
0.0
 40
0.5
  1
Type E-xtra TP Take-Up Bearing (Contact Seal) -Inch
100
AcDbAttributeDefinition
  3

  2
NT
 70
     8
280
     0
  0
ATTDEF
  5
1B5
330
1AF
100
AcDbEntity
  8
AM_6
100
AcDbText
 10
6.28125
 20
2.5
 30
0.0
 40
0.5
  1
023153H
100
AcDbAttributeDefinition
  3

  2
NB
 70
     8
280
     0
  0
ATTDEF
  5
1B6
330
1AF
100
AcDbEntity
  8
AM_6
100
AcDbText
 10
6.28125
 20
2.0
 30
0.0
 40
0.5
  1
$PN.H
100
AcDbAttributeDefinition
  3

  2
NBSYN
 70
     8
280
     0
  0
ATTDEF
  5
1B7
330
1AF
100
AcDbEntity
  8
AM_6
100
AcDbText
 10
6.28125
 20
1.5
 30
0.0
 40
0.5
  1
023153
100
AcDbAttributeDefinition
  3

  2
LINA
 70
     8
280
     0
  0
ATTDEF
  5
1B8
330
1AF
100
AcDbEntity
  8
AM_6
100
AcDbText
 10
6.28125
 20
1.0
 30
0.0
 40
0.5
  1
2-3/16
100
AcDbAttributeDefinition
  3

  2
SS
 70
     8
280
     0
  0
ATTDEF
  5
1B9
330
1AF
100
AcDbEntity
  8
AM_6
100
AcDbText
 10
6.28125
 20
0.5
 30
0.0
 40
0.5
  1
023153
100
AcDbAttributeDefinition
  3

  2
PN
 70
     8
280
     0
  0
ATTDEF
  5
1BA
330
1AF
100
AcDbEntity
  8
AM_6
100
AcDbText
 10
6.28125
 20
0.0
 30
0.0
 40
0.5
  1
TP-E-203R
100
AcDbAttributeDefinition
  3

  2
DESCRIPTION
 70
     8
280
     0
  0
ATTDEF
  5
1BB
330
1AF
100
AcDbEntity
  8
AM_6
100
AcDbText
 10
6.28125
 20
-0.5
 30
0.0
 40
0.5
  1
3-3/4
100
AcDbAttributeDefinition
  3

  2
A
 70
     8
280
     0
  0
ATTDEF
  5
1BC
330
1AF
100
AcDbEntity
  8
AM_6
100
AcDbText
 10
6.28125
 20
-1.0
 30
0.0
 40
0.5
  1
3-3/8
100
AcDbAttributeDefinition
  3

  2
D
 70
     8
280
     0
  0
ATTDEF
  5
1BD
330
1AF
100
AcDbEntity
  8
AM_6
100
AcDbText
 10
6.28125
 20
-1.5
 30
0.0
 40
0.5
  1
2-3/4
100
AcDbAttributeDefinition
  3

  2
E
 70
     8
280
     0
  0
ATTDEF
  5
1BE
330
1AF
100
AcDbEntity
  8
AM_6
100
AcDbText
 10
6.28125
 20
-2.0
 30
0.0
 40
0.5
  1
2-3/8
100
AcDbAttributeDefinition
  3

  2
F
 70
     8
280
     0
  0
ATTDEF
  5
1BF
330
1AF
100
AcDbEntity
  8
AM_6
100
AcDbText
 10
6.28125
 20
-2.5
 30
0.0
 40
0.5
  1
9/16
100
AcDbAttributeDefinition
  3

  2
G
 70
     8
280
     0
  0
ATTDEF
  5
1C0
330
1AF
100
AcDbEntity
  8
AM_6
100
AcDbText
 10
6.28125
 20
-3.0
 30
0.0
 40
0.5
  1
13/16
100
AcDbAttributeDefinition
  3

  2
H
 70
     8
280
     0
  0
ATTDEF
  5
1C1
330
1AF
100
AcDbEntity
  8
AM_6
100
AcDbText
 10
6.28125
 20
-3.5
 30
0.0
 40
0.5
  1
2-9/16
100
AcDbAttributeDefinition
  3

  2
J
 70
     8
280
     0
  0
ATTDEF
  5
1C2
330
1AF
100
AcDbEntity
  8
AM_6
100
AcDbText
 10
6.28125
 20
-4.0
 30
0.0
 40
0.5
  1
3-3/4
100
AcDbAttributeDefinition
  3

  2
L
 70
     8
280
     0
  0
ATTDEF
  5
1C3
330
1AF
100
AcDbEntity
  8
AM_6
100
AcDbText
 10
6.28125
 20
-4.5
 30
0.0
 40
0.5
  1
1-7/8
100
AcDbAttributeDefinition
  3

  2
N
 70
     8
280
     0
  0
ATTDEF
  5
1C4
330
1AF
100
AcDbEntity
  8
AM_6
100
AcDbText
 10
6.28125
 20
-5.0
 30
0.0
 40
0.5
  1
1-3/8
100
AcDbAttributeDefinition
  3

  2
U
 70
     8
280
     0
  0
ATTDEF
  5
1C5
330
1AF
100
AcDbEntity
  8
AM_6
100
AcDbText
 10
6.28125
 20
-5.5
 30
0.0
 40
0.5
  1
13/16
100
AcDbAttributeDefinition
  3

  2
V
 70
     8
280
     0
  0
ATTDEF
  5
1C6
330
1AF
100
AcDbEntity
  8
AM_6
100
AcDbText
 10
6.28125
 20
-6.0
 30
0.0
 40
0.5
  1
1-3/8
100
AcDbAttributeDefinition
  3

  2
W
 70
     8
280
     0
  0
ATTDEF
  5
1C7
330
1AF
100
AcDbEntity
  8
AM_6
100
AcDbText
 10
6.28125
 20
-6.5
 30
0.0
 40
0.5
  1
baldor
100
AcDbAttributeDefinition
  3

  2
COMPANY
 70
     8
280
     0
  0
LINE
  5
1C8
330
1AF
100
AcDbEntity
  8
AM_9
100
AcDbLine
 10
0.28125
 20
0.0000000000000144
 30
0.0
 11
0.2812499999999998
 21
0.4133986423538422
 31
0.0
  0
LINE
  5
1C9
330
1AF
100
AcDbEntity
  8
AM_9
100
AcDbLine
 10
-0.2812500000000002
 20
0.4133986423538422
 30
0.0
 11
-0.2812500000000001
 21
0.0000000000000144
 31
0.0
  0
LINE
  5
1CA
330
1AF
100
AcDbEntity
  8
AM_9
100
AcDbLine
 10
-0.2078371777247241
 20
-0.341765573976405
 30
0.0
 11
0.2078371777247172
 21
-0.3417655739764038
 31
0.0
  0
LINE
  5
1CB
330
1AF
100
AcDbEntity
  8
AM_9
100
AcDbLine
 10
0.28125
 20
0.0000000000000144
 30
0.0
 11
-0.2812500000000001
 21
0.0000000000000144
 31
0.0
  0
LINE
  5
1CC
330
1AF
100
AcDbEntity
  8
AM_9
100
AcDbLine
 10
-0.2812500000000002
 20
-0.4133986423538422
 30
0.0
 11
-0.2812500000000001
 21
-0.3097748794273222
 31
0.0
  0
LWPOLYLINE
  5
1CD
330
1AF
100
AcDbEntity
  8
AM_9
100
AcDbPolyline
 90
        6
 70
     0
 43
0.0
 10
-0.2078371777247241
 20
-0.341765573976405
 10
-0.2081527387865373
 20
-0.3417633430402952
 10
-0.2221760291632719
 20
-0.3391947365657296
 10
-0.247931676344785
 20
-0.3290414452540993
 10
-0.2726622667757197
 20
-0.3153537091173754
 10
-0.2812500000000001
 20
-0.3097748794273222
  0
LINE
  5
1CE
330
1AF
100
AcDbEntity
  8
AM_9
100
AcDbLine
 10
0.28125
 20
-0.3097748794273192
 30
0.0
 11
0.2812499999999998
 21
-0.4133986423538422
 31
0.0
  0
LWPOLYLINE
  5
1CF
330
1AF
100
AcDbEntity
  8
AM_9
100
AcDbPolyline
 90
        6
 70
     0
 43
0.0
 10
0.28125
 20
-0.3097748794273192
 10
0.2567830785128154
 20
-0.3245482026064563
 10
0.230497419956737
 20
-0.3364590162835264
 10
0.2166818008626535
 20
-0.3406070345365546
 10
0.2116875631982527
 20
-0.3414952048375237
 10
0.2078371777247172
 20
-0.3417655739764038
  0
LINE
  5
1D0
330
1AF
100
AcDbEntity
  8
AM_9
100
AcDbLine
 10
0.2812499999999998
 20
-1.770245429491542
 30
0.0
 11
0.2837645011684266
 21
-1.796719581744145
 31
0.0
  0
LINE
  5
1D1
330
1AF
100
AcDbEntity
  8
AM_9
100
AcDbLine
 10
-0.2820793047980195
 20
-1.785495158275849
 30
0.0
 11
-0.2812500000000001
 21
-1.770245429491542
 31
0.0
  0
LWPOLYLINE
  5
1D2
330
1AF
100
AcDbEntity
  8
AM_9
100
AcDbPolyline
 90
        5
 70
     0
 43
0.0
 10
-1.071770614608234
 20
-2.482276498095506
 10
-1.072928195437033
 20
-2.484419858552262
 10
-1.101452897924069
 20
-2.540753093984194
 10
-1.123904552036969
 20
-2.591060280866208
 10
-1.14125
 20
-2.634831904393138
  0
LINE
  5
1D3
330
1AF
100
AcDbEntity
  8
AM_9
100
AcDbLine
 10
-0.3782327586206901
 20
-1.90392693678552
 30
0.0
 11
-0.4551494656111814
 21
-1.931929114803562
 31
0.0
  0
LINE
  5
1D4
330
1AF
100
AcDbEntity
  8
AM_9
100
AcDbLine
 10
0.4568435052281354
 20
-1.932612583382367
 30
0.0
 11
0.4496867881073025
 21
-1.92974523611607
 31
0.0
  0
LWPOLYLINE
  5
1D5
330
1AF
100
AcDbEntity
  8
AM_9
100
AcDbPolyline
 90
        3
 70
     0
 43
0.0
 10
1.14125
 20
-2.634831904393138
 10
1.126453896435831
 20
-2.597098338365785
 10
1.124345586332717
 20
-2.592182484916691
  0
LINE
  5
1D6
330
1AF
100
AcDbEntity
  8
AM_9
100
AcDbLine
 10
-1.195833333333333
 20
-1.905
 30
0.0
 11
1.195833333333333
 21
-1.905
 31
0.0
  0
LINE
  5
1D7
330
1AF
100
AcDbEntity
  8
AM_9
100
AcDbLine
 10
1.195833333333333
 20
1.905
 30
0.0
 11
-1.195833333333333
 21
1.905
 31
0.0
  0
LINE
  5
1D8
330
1AF
100
AcDbEntity
  8
AM_9
100
AcDbLine
 10
0.8531250000000002
 20
-3.375
 30
0.0
 11
0.8531250000000002
 21
-3.0625
 31
0.0
  0
ARC
  5
1D9
330
1AF
100
AcDbEntity
  8
AM_9
100
AcDbCircle
 10
0.0000000000000002
 20
-3.0625
 30
0.0
 40
0.8531250000000001
100
AcDbArc
 50
0.0
 51
180.0
  0
LINE
  5
1DA
330
1AF
100
AcDbEntity
  8
AM_9
100
AcDbLine
 10
-0.8531249999999999
 20
-3.0625
 30
0.0
 11
-0.8531249999999999
 21
-3.375
 31
0.0
  0
LINE
  5
1DB
330
1AF
100
AcDbEntity
  8
AM_9
100
AcDbLine
 10
-1.1875
 20
2.849999999999999
 30
0.0
 11
-0.5624999999999999
 21
2.849999999999999
 31
0.0
  0
LINE
  5
1DC
330
1AF
100
AcDbEntity
  8
AM_9
100
AcDbLine
 10
-1.1875
 20
2.75
 30
0.0
 11
-0.5624999999999999
 21
2.75
 31
0.0
  0
LINE
  5
1DD
330
1AF
100
AcDbEntity
  8
AM_9
100
AcDbLine
 10
0.5625000000000002
 20
2.849999999999999
 30
0.0
 11
1.1875
 21
2.849999999999999
 31
0.0
  0
LINE
  5
1DE
330
1AF
100
AcDbEntity
  8
AM_9
100
AcDbLine
 10
0.5625000000000002
 20
2.75
 30
0.0
 11
1.1875
 21
2.75
 31
0.0
  0
LINE
  5
1DF
330
1AF
100
AcDbEntity
  8
AM_9
100
AcDbLine
 10
1.195833333333333
 20
2.113080357142857
 30
0.0
 11
1.195833333333333
 21
-2.113080357142857
 31
0.0
  0
ARC
  5
1E0
330
1AF
100
AcDbEntity
  8
AM_9
100
AcDbCircle
 10
1.259895833333333
 20
-2.113080357142857
 30
0.0
 40
0.0640624999999999
100
AcDbArc
 50
180.0
 51
270.0
  0
ARC
  5
1E1
330
1AF
100
AcDbEntity
  8
AM_9
100
AcDbCircle
 10
1.259895833333333
 20
2.113080357142857
 30
0.0
 40
0.0640624999999999
100
AcDbArc
 50
90.0
 51
180.0
  0
LINE
  5
1E2
330
1AF
100
AcDbEntity
  8
AM_9
100
AcDbLine
 10
1.259895833333334
 20
-2.177142857142857
 30
0.0
 11
1.28125
 21
-2.177142857142857
 31
0.0
  0
LINE
  5
1E3
330
1AF
100
AcDbEntity
  8
AM_9
100
AcDbLine
 10
1.28125
 20
2.177142857142857
 30
0.0
 11
1.259895833333334
 21
2.177142857142857
 31
0.0
  0
LINE
  5
1E4
330
1AF
100
AcDbEntity
  8
AM_9
100
AcDbLine
 10
1.259895833333334
 20
2.177142857142857
 30
0.0
 11
1.259895833333334
 21
-2.177142857142857
 31
0.0
  0
LINE
  5
1E5
330
1AF
100
AcDbEntity
  8
AM_9
100
AcDbLine
 10
-1.28125
 20
-2.177142857142857
 30
0.0
 11
-1.259895833333333
 21
-2.177142857142857
 31
0.0
  0
LINE
  5
1E6
330
1AF
100
AcDbEntity
  8
AM_9
100
AcDbLine
 10
-1.259895833333333
 20
2.177142857142857
 30
0.0
 11
-1.28125
 21
2.177142857142857
 31
0.0
  0
LINE
  5
1E7
330
1AF
100
AcDbEntity
  8
AM_9
100
AcDbLine
 10
-1.195833333333333
 20
2.113080358097462
 30
0.0
 11
-1.195833333333333
 21
-2.113080358097462
 31
0.0
  0
ARC
  5
1E8
330
1AF
100
AcDbEntity
  8
AM_9
100
AcDbCircle
 10
-1.259895833333333
 20
-2.113080357142857
 30
0.0
 40
0.0640624999999999
100
AcDbArc
 50
270.0
 51
0.0
  0
ARC
  5
1E9
330
1AF
100
AcDbEntity
  8
AM_9
100
AcDbCircle
 10
-1.259895833333333
 20
2.113080357142857
 30
0.0
 40
0.0640625000000001
100
AcDbArc
 50
0.0
 51
90.0
  0
LINE
  5
1EA
330
1AF
100
AcDbEntity
  8
AM_9
100
AcDbLine
 10
-1.259895833333333
 20
2.177142857142857
 30
0.0
 11
-1.259895833333333
 21
-2.177142857142857
 31
0.0
  0
LINE
  5
1EB
330
1AF
100
AcDbEntity
  8
AM_9
100
AcDbLine
 10
-1.171196792018884
 20
1.741568895466622
 30
0.0
 11
-1.182270954464042
 21
1.769300534283291
 31
0.0
  0
LINE
  5
1EC
330
1AF
100
AcDbEntity
  8
AM_9
100
AcDbLine
 10
-1.14125
 20
1.703038369356702
 30
0.0
 11
-1.14303938991136
 21
1.704686594969523
 31
0.0
  0
LINE
  5
1ED
330
1AF
100
AcDbEntity
  8
AM_9
100
AcDbLine
 10
1.147129751999478
 20
1.708679419321204
 30
0.0
 11
1.141249999999999
 21
1.703038369356703
 31
0.0
  0
LINE
  5
1EE
330
1AF
100
AcDbEntity
  8
AM_9
100
AcDbLine
 10
1.182000446286235
 20
1.768349345331828
 30
0.0
 11
1.179654424266904
 21
1.760977358765657
 31
0.0
  0
LINE
  5
1EF
330
1AF
100
AcDbEntity
  8
AM_9
100
AcDbLine
 10
1.1875
 20
1.807291666666669
 30
0.0
 11
1.187356317540941
 21
1.800936350233601
 31
0.0
  0
ARC
  5
1F0
330
1AF
100
AcDbEntity
  8
AM_9
100
AcDbCircle
 10
0.0000000000000036
 20
0.0
 30
0.0
 40
0.5000000000000033
100
AcDbArc
 50
169.9655946544137
 51
190.0344053455863
  0
ARC
  5
1F1
330
1AF
100
AcDbEntity
  8
AM_9
100
AcDbCircle
 10
-0.0000000000000004
 20
-0.0000000000000001
 30
0.0
 40
0.4
100
AcDbArc
 50
159.6994897283076
 51
200.3189252574202
  0
LINE
  5
1F2
330
1AF
100
AcDbEntity
  8
AM_7
100
AcDbLine
 10
0.0000000000000002
 20
-0.525
 30
0.0
 11
0.0000000000000002
 21
0.525
 31
0.0
  0
LINE
  5
1F3
330
1AF
100
AcDbEntity
  8
AM_7
100
AcDbLine
 10
-0.8957812499999998
 20
-3.0625
 30
0.0
 11
0.8957812500000002
 21
-3.0625
 31
0.0
  0
LINE
  5
1F4
330
1AF
100
AcDbEntity
  8
AM_7
100
AcDbLine
 10
0.0000000000000002
 20
-3.95828125
 30
0.0
 11
0.0000000000000002
 21
-2.166718749999999
 31
0.0
  0
LINE
  5
1F5
330
1AF
100
AcDbEntity
  8
AM_7
100
AcDbLine
 10
-0.6562499999999997
 20
2.75
 30
0.0
 11
0.6562500000000003
 21
2.75
 31
0.0
  0
LINE
  5
1F6
330
1AF
100
AcDbEntity
  8
AM_7
100
AcDbLine
 10
0.0000000000000003
 20
2.09375
 30
0.0
 11
0.0000000000000003
 21
3.40625
 31
0.0
  0
LINE
  5
1F7
330
1AF
100
AcDbEntity
  8
AM_4
100
AcDbLine
 10
-0.5624999999999999
 20
3.5
 30
0.0
 11
-0.9062499999999998
 21
3.5
 31
0.0
  0
LINE
  5
1F8
330
1AF
100
AcDbEntity
  8
AM_4
100
AcDbLine
 10
0.9062500000000001
 20
3.5
 30
0.0
 11
0.5625000000000001
 21
3.5
 31
0.0
  0
ARC
  5
1F9
330
1AF
100
AcDbEntity
  8
AM_4
100
AcDbCircle
 10
0.0000000000000001
 20
2.75
 30
0.0
 40
0.5625
100
AcDbArc
 50
180.0
 51
0.0
  0
LINE
  5
1FA
330
1AF
100
AcDbEntity
  8
AM_4
100
AcDbLine
 10
0.5625000000000001
 20
2.75
 30
0.0
 11
0.5625000000000001
 21
3.5
 31
0.0
  0
LINE
  5
1FB
330
1AF
100
AcDbEntity
  8
AM_4
100
AcDbLine
 10
-0.5624999999999999
 20
3.5
 30
0.0
 11
-0.5624999999999999
 21
2.75
 31
0.0
  0
LINE
  5
1FC
330
1AF
100
AcDbEntity
  8
AM_4
100
AcDbLine
 10
-1.28125
 20
2.61
 30
0.0
 11
-1.28125
 21
-2.61
 31
0.0
  0
ARC
  5
1FD
330
1AF
100
AcDbEntity
  8
AM_4
100
AcDbCircle
 10
-1.141250000000002
 20
-2.61
 30
0.0
 40
0.1399999999999983
100
AcDbArc
 50
179.9999991462263
 51
255.2975564008177
  0
ARC
  5
1FE
330
1AF
100
AcDbEntity
  8
AM_4
100
AcDbCircle
 10
-1.141250000000001
 20
2.61
 30
0.0
 40
0.1399999999999993
100
AcDbArc
 50
109.2904540355911
 51
179.9999991462263
  0
LINE
  5
1FF
330
1AF
100
AcDbEntity
  8
AM_4
100
AcDbLine
 10
1.28125
 20
2.61
 30
0.0
 11
1.28125
 21
-2.61
 31
0.0
  0
ARC
  5
200
330
1AF
100
AcDbEntity
  8
AM_4
100
AcDbCircle
 10
1.141249999999999
 20
-2.609999999999999
 30
0.0
 40
0.1400000000000013
100
AcDbArc
 50
284.7243074857359
 51
0.0
  0
ARC
  5
201
330
1AF
100
AcDbEntity
  8
AM_4
100
AcDbCircle
 10
1.141249999999998
 20
2.609999999999998
 30
0.0
 40
0.1400000000000026
100
AcDbArc
 50
0.0
 51
70.70954596440811
  0
LINE
  5
202
330
1AF
100
AcDbEntity
  8
AM_4
100
AcDbLine
 10
-1.14125
 20
1.703038369356702
 30
0.0
 11
-1.14125
 21
-2.634831904393138
 31
0.0
  0
LINE
  5
203
330
1AF
100
AcDbEntity
  8
AM_4
100
AcDbLine
 10
1.14125
 20
1.703038369356703
 30
0.0
 11
1.14125
 21
-2.634831904393138
 31
0.0
  0
ARC
  5
204
330
1AF
100
AcDbEntity
  8
AM_4
100
AcDbCircle
 10
0.0000000000000002
 20
0.0
 30
0.0
 40
0.5
100
AcDbArc
 50
190.0344053455864
 51
169.9655946544136
  0
ARC
  5
205
330
1AF
100
AcDbEntity
  8
AM_4
100
AcDbCircle
 10
0.0000000000000002
 20
0.0
 30
0.0
 40
0.4000000000000007
100
AcDbArc
 50
200.3189252574203
 51
159.6994897283076
  0
LINE
  5
206
330
1AF
100
AcDbEntity
  8
AM_4
100
AcDbLine
 10
0.2813504291464027
 20
-1.775559148661037
 30
0.0
 11
0.2812500000000001
 21
-1.770245429491542
 31
0.0
  0
LINE
  5
207
330
1AF
100
AcDbEntity
  8
AM_4
100
AcDbLine
 10
-0.2812499999999998
 20
-1.770245429491542
 30
0.0
 11
-0.2813504291464023
 21
-1.775559148661037
 31
0.0
  0
LINE
  5
208
330
1AF
100
AcDbEntity
  8
AM_4
100
AcDbLine
 10
0.2812500000000003
 20
-0.4133986423538422
 30
0.0
 11
0.2812500000000001
 21
-1.770245429491542
 31
0.0
  0
LINE
  5
209
330
1AF
100
AcDbEntity
  8
AM_4
100
AcDbLine
 10
-0.2812499999999997
 20
-1.770245429491542
 30
0.0
 11
-0.2812499999999997
 21
-0.4133986423538423
 31
0.0
  0
LINE
  5
20A
330
1AF
100
AcDbEntity
  8
AM_4
100
AcDbLine
 10
0.8125000000000004
 20
-3.375
 30
0.0
 11
0.8125000000000003
 21
-3.0625
 31
0.0
  0
LINE
  5
20B
330
1AF
100
AcDbEntity
  8
AM_4
100
AcDbLine
 10
-1.21875
 20
-3.375
 30
0.0
 11
-0.8124999999999999
 21
-3.375
 31
0.0
  0
LINE
  5
20C
330
1AF
100
AcDbEntity
  8
AM_4
100
AcDbLine
 10
-1.21875
 20
-3.0625
 30
0.0
 11
-1.21875
 21
-3.375
 31
0.0
  0
LINE
  5
20D
330
1AF
100
AcDbEntity
  8
AM_4
100
AcDbLine
 10
0.8125000000000004
 20
-3.375
 30
0.0
 11
1.21875
 21
-3.375
 31
0.0
  0
ARC
  5
20E
330
1AF
100
AcDbEntity
  8
AM_4
100
AcDbCircle
 10
0.0000000000000028
 20
-3.062500000000002
 30
0.0
 40
1.218750000000003
100
AcDbArc
 50
111.7139915122053
 51
180.0
  0
LINE
  5
20F
330
1AF
100
AcDbEntity
  8
AM_4
100
AcDbLine
 10
1.21875
 20
-3.375
 30
0.0
 11
1.21875
 21
-3.0625
 31
0.0
  0
LINE
  5
210
330
1AF
100
AcDbEntity
  8
AM_4
100
AcDbLine
 10
-0.8124999999999998
 20
-3.0625
 30
0.0
 11
-0.8124999999999999
 21
-3.375
 31
0.0
  0
ARC
  5
211
330
1AF
100
AcDbEntity
  8
AM_4
100
AcDbCircle
 10
0.0000000000000003
 20
-3.0625
 30
0.0
 40
0.8125
100
AcDbArc
 50
0.0
 51
180.0
  0
ARC
  5
212
330
1AF
100
AcDbEntity
  8
AM_4
100
AcDbCircle
 10
-0.000000000000002
 20
-3.062500000000002
 30
0.0
 40
1.218750000000002
100
AcDbArc
 50
0.0
 51
68.28600848779483
  0
LWPOLYLINE
  5
213
330
1AF
100
AcDbEntity
  8
AM_4
100
AcDbPolyline
 90
        8
 70
     0
 43
0.0
 10
0.2813504291464027
 20
-1.775559148661036
 10
0.2836594511639236
 20
-1.796097916787878
 10
0.2892794244125371
 20
-1.817083490506377
 10
0.2985925728241535
 20
-1.837853139582141
 10
0.3115047383989995
 20
-1.857387818597686
 10
0.3264938157862524
 20
-1.873558279775891
 10
0.3439722968585998
 20
-1.88732044590522
 10
0.3782327586206897
 20
-1.90392693678552
  0
LWPOLYLINE
  5
214
330
1AF
100
AcDbEntity
  8
AM_4
100
AcDbPolyline
 90
        9
 70
     0
 43
0.0
 10
-0.3782327586206896
 20
-1.90392693678552
 10
-0.3570468368155326
 20
-1.895019949493023
 10
-0.3376232412444496
 20
-1.882837755036387
 10
-0.3205243759936377
 20
-1.867705641383019
 10
-0.306224019839061
 20
-1.850246938307401
 10
-0.295392658360687
 20
-1.831672826843321
 10
-0.2876782312928844
 20
-1.812276583336861
 10
-0.2832287025011402
 20
-1.79370909757806
 10
-0.2813504291464023
 20
-1.775559148661037
  0
LINE
  5
215
330
1AF
100
AcDbEntity
  8
AM_4
100
AcDbLine
 10
-0.3782327586206895
 20
-1.90392693678552
 30
0.0
 11
-0.4509053719477975
 21
-1.930229754851511
 31
0.0
  0
LINE
  5
216
330
1AF
100
AcDbEntity
  8
AM_4
100
AcDbLine
 10
-0.4509053719477975
 20
-1.930229754851511
 30
0.0
 11
0.4509053719477966
 21
-1.930229754851511
 31
0.0
  0
LINE
  5
217
330
1AF
100
AcDbEntity
  8
AM_4
100
AcDbLine
 10
0.4509053719477966
 20
-1.930229754851511
 30
0.0
 11
0.3782327586206898
 21
-1.90392693678552
 31
0.0
  0
LINE
  5
218
330
1AF
100
AcDbEntity
  8
AM_4
100
AcDbLine
 10
-0.2813504291464023
 20
-1.775559148661037
 30
0.0
 11
0.2813504291464027
 21
-1.775559148661037
 31
0.0
  0
LINE
  5
219
330
1AF
100
AcDbEntity
  8
AM_4
100
AcDbLine
 10
0.2812500000000004
 20
1.666666666666669
 30
0.0
 11
0.2812500000000003
 21
0.4133986423538422
 31
0.0
  0
LINE
  5
21A
330
1AF
100
AcDbEntity
  8
AM_4
100
AcDbLine
 10
-0.2812499999999997
 20
0.4133986423538423
 30
0.0
 11
-0.2812499999999998
 21
1.666666666666667
 31
0.0
  0
ARC
  5
21B
330
1AF
100
AcDbEntity
  8
AM_4
100
AcDbCircle
 10
1.046874999999996
 20
1.807291666666669
 30
0.0
 40
0.1406250000000049
100
AcDbArc
 50
342.0296312913456
 51
0.0
  0
LINE
  5
21C
330
1AF
100
AcDbEntity
  8
AM_4
100
AcDbLine
 10
-0.9062499999999998
 20
3.5
 30
0.0
 11
-1.1875
 21
3.21875
 31
0.0
  0
ARC
  5
21D
330
1AF
100
AcDbEntity
  8
AM_4
100
AcDbCircle
 10
-1.04687499999999
 20
1.807291666666669
 30
0.0
 40
0.1406250000000102
100
AcDbArc
 50
180.0
 51
197.9703687086534
  0
LINE
  5
21E
330
1AF
100
AcDbEntity
  8
AM_4
100
AcDbLine
 10
1.1875
 20
3.21875
 30
0.0
 11
0.9062500000000007
 21
3.5
 31
0.0
  0
LINE
  5
21F
330
1AF
100
AcDbEntity
  8
AM_4
100
AcDbLine
 10
1.1875
 20
1.807291666666669
 30
0.0
 11
1.1875
 21
3.21875
 31
0.0
  0
LINE
  5
220
330
1AF
100
AcDbEntity
  8
AM_4
100
AcDbLine
 10
-1.1875
 20
3.21875
 30
0.0
 11
-1.1875
 21
1.807291666666667
 31
0.0
  0
ARC
  5
221
330
1AF
100
AcDbEntity
  8
AM_4
100
AcDbCircle
 10
0.0000000000000002
 20
2.75
 30
0.0
 40
0.625
100
AcDbArc
 50
180.0
 51
0.0
  0
LINE
  5
222
330
1AF
100
AcDbEntity
  8
AM_4
100
AcDbLine
 10
-0.6249999999999998
 20
2.75
 30
0.0
 11
-0.6249999999999999
 21
3.5
 31
0.0
  0
LINE
  5
223
330
1AF
100
AcDbEntity
  8
AM_4
100
AcDbLine
 10
0.6250000000000003
 20
2.75
 30
0.0
 11
0.6250000000000001
 21
3.5
 31
0.0
  0
LWPOLYLINE
  5
224
330
1AF
100
AcDbEntity
  8
AM_4
100
AcDbPolyline
 90
        8
 70
     0
 43
0.0
 10
1.046875
 20
1.666666666666669
 10
1.069776464892512
 20
1.668559032088173
 10
1.092008444021172
 20
1.674106221306495
 10
1.112898108554194
 20
1.683141060531139
 10
1.13201744173087
 20
1.695371359121052
 10
1.149544783134236
 20
1.711214542756056
 10
1.164232228775913
 20
1.729814757338547
 10
1.180639778328066
 20
1.763905324301316
  0
LWPOLYLINE
  5
225
330
1AF
100
AcDbEntity
  8
AM_4
100
AcDbPolyline
 90
        8
 70
     0
 43
0.0
 10
-1.180639778328065
 20
1.763905324301316
 10
-1.171795678060191
 20
1.742746719832041
 10
-1.159701048556577
 20
1.723353157077153
 10
-1.144729775409248
 20
1.70631144205429
 10
-1.127267935998614
 20
1.691912437745154
 10
-1.106695579975277
 20
1.680039307988586
 10
-1.084347009406368
 20
1.671751122414959
 10
-1.046875
 20
1.666666666666667
  0
LINE
  5
226
330
1AF
100
AcDbEntity
  8
AM_4
100
AcDbLine
 10
-1.046875
 20
1.666666666666667
 30
0.0
 11
-0.2812499999999998
 21
1.666666666666667
 31
0.0
  0
LINE
  5
227
330
1AF
100
AcDbEntity
  8
AM_4
100
AcDbLine
 10
-0.2812499999999997
 20
1.593811047567088
 30
0.0
 11
0.2812500000000004
 21
1.593811047567088
 31
0.0
  0
LINE
  5
228
330
1AF
100
AcDbEntity
  8
AM_4
100
AcDbLine
 10
0.2812500000000004
 20
1.666666666666669
 30
0.0
 11
1.046875
 21
1.666666666666669
 31
0.0
  0
LINE
  5
229
330
1AF
100
AcDbEntity
  8
AM_4
100
AcDbLine
 10
-1.180639778328065
 20
1.763905324301316
 30
0.0
 11
1.180639778328066
 21
1.763905324301316
 31
0.0
  0
LINE
  5
22A
330
1AF
100
AcDbEntity
  8
AM_4
100
AcDbLine
 10
0.6250000000000003
 20
3.3
 30
0.0
 11
1.106250000000001
 21
3.3
 31
0.0
  0
LINE
  5
22B
330
1AF
100
AcDbEntity
  8
AM_4
100
AcDbLine
 10
-1.10625
 20
3.3
 30
0.0
 11
-0.6249999999999998
 21
3.3
 31
0.0
  0
ENDBLK
  5
1B2
330
1AF
100
AcDbEntity
  8
0
100
AcDbBlockEnd
  0
ENDSEC
  0
SECTION
  2
ENTITIES
  0
INSERT
  5
6F
330
1F
100
AcDbEntity
  8
0
100
AcDbBlockReference
  2
1_023153_2
 10
0.0
 20
0.0
 30
0.0
  0
POINT
  5
22D
330
1F
100
AcDbEntity
  8
ConnectionPoints
100
AcDbPoint
 10
1.875
 20
0.0
 30
-0.0000000000000001
  0
POINT
  5
22E
330
1F
100
AcDbEntity
  8
ConnectionPoints
100
AcDbPoint
 10
-1.875
 20
0.0
 30
0.0000000000000001
  0
POINT
  5
22F
330
1F
100
AcDbEntity
  8
ConnectionPoints
100
AcDbPoint
 10
-1.875
 20
0.0
 30
0.0000000000000001
  0
POINT
  5
230
330
1F
100
AcDbEntity
  8
ConnectionPoints
100
AcDbPoint
 10
1.875
 20
0.0
 30
-0.0000000000000001
  0
POINT
  5
231
330
1F
100
AcDbEntity
  8
ConnectionPoints
100
AcDbPoint
 10
0.0
 20
0.0
 30
0.0
  0
POINT
  5
232
330
1F
100
AcDbEntity
  8
ConnectionPoints
100
AcDbPoint
 10
0.0000000000000002
 20
0.0
 30
3.05
  0
POINT
  5
233
330
1F
100
AcDbEntity
  8
ConnectionPoints
100
AcDbPoint
 10
0.0
 20
0.0
 30
0.0
  0
ENDSEC
  0
SECTION
  2
OBJECTS
  0
DICTIONARY
  5
C
330
0
100
AcDbDictionary
281
     1
  3
ACAD_DETAILVIEWSTYLE
350
23B
  3
ACAD_GROUP
350
D
  3
ACAD_LAYOUT
350
1A
  3
ACAD_MATERIAL
350
43
  3
ACAD_MLEADERSTYLE
350
6B
  3
ACAD_MLINESTYLE
350
17
  3
ACAD_PLOTSETTINGS
350
19
  3
ACAD_PLOTSTYLENAME
350
E
  3
ACAD_SCALELIST
350
47
  3
ACAD_SECTIONVIEWSTYLE
350
23C
  3
ACAD_TABLESTYLE
350
69
  3
ACAD_VISUALSTYLE
350
2A
  3
ACDB_RECOMPOSE_DATA
350
238
  3
AcDbVariableDictionary
350
234
  0
SUN
  5
6D
330
29
100
AcDbSun
 90
        1
290
     0
 63
     7
421
 16777215
 40
1.0
291
     1
 91
  2455826
 92
 54000000
292
     0
 70
     2
 71
   256
280
     1
  0
DICTIONARY
  5
23B
102
{ACAD_REACTORS
330
C
102
}
330
C
100
AcDbDictionary
281
     1
  0
DICTIONARY
  5
D
102
{ACAD_REACTORS
330
C
102
}
330
C
100
AcDbDictionary
281
     1
  0
DICTIONARY
  5
1A
102
{ACAD_REACTORS
330
C
102
}
330
C
100
AcDbDictionary
281
     1
  3
Layout1
350
1E
  3
Layout2
350
26
  3
Model
350
22
  0
DICTIONARY
  5
43
102
{ACAD_REACTORS
330
C
102
}
330
C
100
AcDbDictionary
281
     1
  3
ByBlock
350
45
  3
ByLayer
350
44
  3
Global
350
46
  0
DICTIONARY
  5
6B
102
{ACAD_REACTORS
330
C
102
}
330
C
100
AcDbDictionary
281
     1
  3
Standard
350
6C
  0
DICTIONARY
  5
17
102
{ACAD_REACTORS
330
C
102
}
330
C
100
AcDbDictionary
281
     1
  3
Standard
350
18
  0
DICTIONARY
  5
19
102
{ACAD_REACTORS
330
C
102
}
330
C
100
AcDbDictionary
281
     1
  0
ACDBDICTIONARYWDFLT
  5
E
102
{ACAD_REACTORS
330
C
102
}
330
C
100
AcDbDictionary
281
     1
  3
Normal
350
F
100
AcDbDictionaryWithDefault
340
F
  0
DICTIONARY
  5
47
102
{ACAD_REACTORS
330
C
102
}
330
C
100
AcDbDictionary
281
     1
  3
A0
350
48
  3
A1
350
49
  3
A2
350
4A
  3
A3
350
4B
  3
A4
350
4C
  3
A5
350
4D
  3
A6
350
4E
  3
A7
350
4F
  3
A8
350
50
  3
A9
350
51
  3
B0
350
52
  3
B1
350
53
  3
B2
350
54
  3
B3
350
55
  3
B4
350
56
  3
B5
350
57
  3
B6
350
58
  3
B7
350
59
  3
B8
350
5A
  3
B9
350
5B
  3
C0
350
5C
  3
C1
350
5D
  3
C2
350
5E
  3
C3
350
5F
  3
C4
350
60
  3
C5
350
61
  3
C6
350
62
  3
C7
350
63
  3
C8
350
64
  3
C9
350
65
  3
D0
350
66
  3
D1
350
67
  3
D2
350
68
  0
DICTIONARY
  5
23C
102
{ACAD_REACTORS
330
C
102
}
330
C
100
AcDbDictionary
281
     1
  0
DICTIONARY
  5
69
102
{ACAD_REACTORS
330
C
102
}
330
C
100
AcDbDictionary
281
     1
  3
Standard
350
6A
  0
DICTIONARY
  5
2A
102
{ACAD_REACTORS
330
C
102
}
330
C
100
AcDbDictionary
281
     1
  3
2dWireframe
350
2F
  3
Basic
350
32
  3
Brighten
350
36
  3
ColorChange
350
3A
  3
Conceptual
350
34
  3
Dim
350
35
  3
EdgeColorOff
350
3D
  3
Facepattern
350
39
  3
Flat
350
2B
  3
FlatWithEdges
350
2C
  3
Gouraud
350
2D
  3
GouraudWithEdges
350
2E
  3
Hidden
350
31
  3
JitterOff
350
3B
  3
Linepattern
350
38
  3
OverhangOff
350
3C
  3
Realistic
350
33
  3
Shaded
350
42
  3
Shaded with edges
350
41
  3
Shades of Gray
350
3E
  3
Sketchy
350
3F
  3
Thicken
350
37
  3
Wireframe
350
30
  3
X-Ray
350
40
  0
XRECORD
  5
238
102
{ACAD_REACTORS
330
C
102
}
330
C
100
AcDbXrecord
280
     1
 90
        1
330
6A
  0
DICTIONARY
  5
234
102
{ACAD_REACTORS
330
C
102
}
330
C
100
AcDbDictionary
281
     1
  3
CANNOSCALE
350
235
  3
CMLEADERSTYLE
350
23A
  3
CTABLESTYLE
350
239
  0
LAYOUT
  5
1E
102
{ACAD_REACTORS
330
1A
102
}
330
1A
100
AcDbPlotSettings
  1

  2
none_device
  4

  6

 40
0.0
 41
0.0
 42
0.0
 43
0.0
 44
0.0
 45
0.0
 46
0.0
 47
0.0
 48
0.0
 49
0.0
140
0.0
141
0.0
142
1.0
143
1.0
 70
   688
 72
     0
 73
     0
 74
     5
  7

 75
    16
 76
     0
 77
     2
 78
   300
147
1.0
148
0.0
149
0.0
100
AcDbLayout
  1
Layout1
 70
     1
 71
     1
 10
0.0
 20
0.0
 11
12.0
 21
9.0
 12
0.0
 22
0.0
 32
0.0
 14
1.000000000000000E+20
 24
1.000000000000000E+20
 34
1.000000000000000E+20
 15
-1.000000000000000E+20
 25
-1.000000000000000E+20
 35
-1.000000000000000E+20
146
0.0
 13
0.0
 23
0.0
 33
0.0
 16
1.0
 26
0.0
 36
0.0
 17
0.0
 27
1.0
 37
0.0
 76
     0
330
1B
  0
LAYOUT
  5
26
102
{ACAD_REACTORS
330
1A
102
}
330
1A
100
AcDbPlotSettings
  1

  2
none_device
  4

  6

 40
0.0
 41
0.0
 42
0.0
 43
0.0
 44
0.0
 45
0.0
 46
0.0
 47
0.0
 48
0.0
 49
0.0
140
0.0
141
0.0
142
1.0
143
1.0
 70
   688
 72
     0
 73
     0
 74
     5
  7

 75
    16
 76
     0
 77
     2
 78
   300
147
1.0
148
0.0
149
0.0
100
AcDbLayout
  1
Layout2
 70
     1
 71
     2
 10
0.0
 20
0.0
 11
0.0
 21
0.0
 12
0.0
 22
0.0
 32
0.0
 14
0.0
 24
0.0
 34
0.0
 15
0.0
 25
0.0
 35
0.0
146
0.0
 13
0.0
 23
0.0
 33
0.0
 16
1.0
 26
0.0
 36
0.0
 17
0.0
 27
1.0
 37
0.0
 76
     0
330
23
  0
LAYOUT
  5
22
102
{ACAD_REACTORS
330
1A
102
}
330
1A
100
AcDbPlotSettings
  1

  2
none_device
  4
Letter_(8.50_x_11.00_Inches)
  6

 40
6.35
 41
6.35
 42
6.35000508
 43
6.35000508
 44
215.9
 45
279.4
 46
0.0
 47
0.0
 48
0.0
 49
0.0
140
0.0
141
0.0
142
1.0
143
1.0
 70
  1712
 72
     0
 73
     0
 74
     0
  7

 75
     0
 76
     0
 77
     2
 78
   300
147
1.0
148
0.0
149
0.0
100
AcDbLayout
  1
Model
 70
     1
 71
     0
 10
0.0
 20
0.0
 11
12.0
 21
9.0
 12
0.0
 22
0.0
 32
0.0
 14
1.000000000000000E+20
 24
1.000000000000000E+20
 34
1.000000000000000E+20
 15
-1.000000000000000E+20
 25
-1.000000000000000E+20
 35
-1.000000000000000E+20
146
0.0
 13
0.0
 23
0.0
 33
0.0
 16
1.0
 26
0.0
 36
0.0
 17
0.0
 27
1.0
 37
0.0
 76
     0
330
1F
331
29
  0
MATERIAL
  5
45
102
{ACAD_REACTORS
330
43
102
}
330
43
100
AcDbMaterial
  1
ByBlock
 72
     1
 94
      127
  0
MATERIAL
  5
44
102
{ACAD_REACTORS
330
43
102
}
330
43
100
AcDbMaterial
  1
ByLayer
 72
     1
 94
      127
  0
MATERIAL
  5
46
102
{ACAD_REACTORS
330
43
102
}
330
43
100
AcDbMaterial
  1
Global
 72
     1
 94
      127
  0
MLEADERSTYLE
  5
6C
102
{ACAD_REACTORS
330
6B
102
}
330
6B
100
AcDbMLeaderStyle
179
     2
170
     2
171
     1
172
     0
 90
        2
 40
0.0
 41
0.0
173
     1
 91
-1056964608
340
14
 92
       -2
290
     1
 42
0.09
291
     1
 43
0.36
  3
Standard
341
0
 44
0.18
300

342
11
174
     1
178
     6
175
     1
176
     0
 93
-1056964608
 45
0.18
292
     0
297
     0
 46
0.18
343
0
 94
-1056964608
 47
1.0
 49
1.0
140
1.0
293
     1
141
0.0
294
     1
177
     0
142
1.0
295
     0
296
     0
143
0.125
271
     0
272
     9
273
     9
298
     0
  0
MLINESTYLE
  5
18
102
{ACAD_REACTORS
330
17
102
}
330
17
100
AcDbMlineStyle
  2
Standard
 70
     0
  3

 62
   256
 51
90.0
 52
90.0
 71
     2
 49
0.5
 62
   256
  6
BYLAYER
 49
-0.5
 62
   256
  6
BYLAYER
  0
ACDBPLACEHOLDER
  5
F
102
{ACAD_REACTORS
330
E
102
}
330
E
  0
SCALE
  5
48
102
{ACAD_REACTORS
330
47
102
}
330
47
100
AcDbScale
 70
     0
300
1:1
140
1.0
141
1.0
290
     1
  0
SCALE
  5
49
102
{ACAD_REACTORS
330
47
102
}
330
47
100
AcDbScale
 70
     0
300
1:2
140
1.0
141
2.0
290
     0
  0
SCALE
  5
4A
102
{ACAD_REACTORS
330
47
102
}
330
47
100
AcDbScale
 70
     0
300
1:4
140
1.0
141
4.0
290
     0
  0
SCALE
  5
4B
102
{ACAD_REACTORS
330
47
102
}
330
47
100
AcDbScale
 70
     0
300
1:5
140
1.0
141
5.0
290
     0
  0
SCALE
  5
4C
102
{ACAD_REACTORS
330
47
102
}
330
47
100
AcDbScale
 70
     0
300
1:8
140
1.0
141
8.0
290
     0
  0
SCALE
  5
4D
102
{ACAD_REACTORS
330
47
102
}
330
47
100
AcDbScale
 70
     0
300
1:10
140
1.0
141
10.0
290
     0
  0
SCALE
  5
4E
102
{ACAD_REACTORS
330
47
102
}
330
47
100
AcDbScale
 70
     0
300
1:16
140
1.0
141
16.0
290
     0
  0
SCALE
  5
4F
102
{ACAD_REACTORS
330
47
102
}
330
47
100
AcDbScale
 70
     0
300
1:20
140
1.0
141
20.0
290
     0
  0
SCALE
  5
50
102
{ACAD_REACTORS
330
47
102
}
330
47
100
AcDbScale
 70
     0
300
1:30
140
1.0
141
30.0
290
     0
  0
SCALE
  5
51
102
{ACAD_REACTORS
330
47
102
}
330
47
100
AcDbScale
 70
     0
300
1:40
140
1.0
141
40.0
290
     0
  0
SCALE
  5
52
102
{ACAD_REACTORS
330
47
102
}
330
47
100
AcDbScale
 70
     0
300
1:50
140
1.0
141
50.0
290
     0
  0
SCALE
  5
53
102
{ACAD_REACTORS
330
47
102
}
330
47
100
AcDbScale
 70
     0
300
1:100
140
1.0
141
100.0
290
     0
  0
SCALE
  5
54
102
{ACAD_REACTORS
330
47
102
}
330
47
100
AcDbScale
 70
     0
300
2:1
140
2.0
141
1.0
290
     0
  0
SCALE
  5
55
102
{ACAD_REACTORS
330
47
102
}
330
47
100
AcDbScale
 70
     0
300
4:1
140
4.0
141
1.0
290
     0
  0
SCALE
  5
56
102
{ACAD_REACTORS
330
47
102
}
330
47
100
AcDbScale
 70
     0
300
8:1
140
8.0
141
1.0
290
     0
  0
SCALE
  5
57
102
{ACAD_REACTORS
330
47
102
}
330
47
100
AcDbScale
 70
     0
300
10:1
140
10.0
141
1.0
290
     0
  0
SCALE
  5
58
102
{ACAD_REACTORS
330
47
102
}
330
47
100
AcDbScale
 70
     0
300
100:1
140
100.0
141
1.0
290
     0
  0
SCALE
  5
59
102
{ACAD_REACTORS
330
47
102
}
330
47
100
AcDbScale
 70
     0
300
1/128" = 1'-0"
140
0.0078125
141
12.0
290
     0
  0
SCALE
  5
5A
102
{ACAD_REACTORS
330
47
102
}
330
47
100
AcDbScale
 70
     0
300
1/64" = 1'-0"
140
0.015625
141
12.0
290
     0
  0
SCALE
  5
5B
102
{ACAD_REACTORS
330
47
102
}
330
47
100
AcDbScale
 70
     0
300
1/32" = 1'-0"
140
0.03125
141
12.0
290
     0
  0
SCALE
  5
5C
102
{ACAD_REACTORS
330
47
102
}
330
47
100
AcDbScale
 70
     0
300
1/16" = 1'-0"
140
0.0625
141
12.0
290
     0
  0
SCALE
  5
5D
102
{ACAD_REACTORS
330
47
102
}
330
47
100
AcDbScale
 70
     0
300
3/32" = 1'-0"
140
0.09375
141
12.0
290
     0
  0
SCALE
  5
5E
102
{ACAD_REACTORS
330
47
102
}
330
47
100
AcDbScale
 70
     0
300
1/8" = 1'-0"
140
0.125
141
12.0
290
     0
  0
SCALE
  5
5F
102
{ACAD_REACTORS
330
47
102
}
330
47
100
AcDbScale
 70
     0
300
3/16" = 1'-0"
140
0.1875
141
12.0
290
     0
  0
SCALE
  5
60
102
{ACAD_REACTORS
330
47
102
}
330
47
100
AcDbScale
 70
     0
300
1/4" = 1'-0"
140
0.25
141
12.0
290
     0
  0
SCALE
  5
61
102
{ACAD_REACTORS
330
47
102
}
330
47
100
AcDbScale
 70
     0
300
3/8" = 1'-0"
140
0.375
141
12.0
290
     0
  0
SCALE
  5
62
102
{ACAD_REACTORS
330
47
102
}
330
47
100
AcDbScale
 70
     0
300
1/2" = 1'-0"
140
0.5
141
12.0
290
     0
  0
SCALE
  5
63
102
{ACAD_REACTORS
330
47
102
}
330
47
100
AcDbScale
 70
     0
300
3/4" = 1'-0"
140
0.75
141
12.0
290
     0
  0
SCALE
  5
64
102
{ACAD_REACTORS
330
47
102
}
330
47
100
AcDbScale
 70
     0
300
1" = 1'-0"
140
1.0
141
12.0
290
     0
  0
SCALE
  5
65
102
{ACAD_REACTORS
330
47
102
}
330
47
100
AcDbScale
 70
     0
300
1-1/2" = 1'-0"
140
1.5
141
12.0
290
     0
  0
SCALE
  5
66
102
{ACAD_REACTORS
330
47
102
}
330
47
100
AcDbScale
 70
     0
300
3" = 1'-0"
140
3.0
141
12.0
290
     0
  0
SCALE
  5
67
102
{ACAD_REACTORS
330
47
102
}
330
47
100
AcDbScale
 70
     0
300
6" = 1'-0"
140
6.0
141
12.0
290
     0
  0
SCALE
  5
68
102
{ACAD_REACTORS
330
47
102
}
330
47
100
AcDbScale
 70
     0
300
1'-0" = 1'-0"
140
12.0
141
12.0
290
     0
  0
TABLESTYLE
  5
6A
102
{ACAD_REACTORS
330
69
102
}
102
{ACAD_XDICTIONARY
360
236
102
}
330
69
100
AcDbTableStyle
  3
Standard
 70
     0
 71
     0
 40
0.06
 41
0.06
280
     0
281
     0
  7
Standard
140
0.18
170
     2
 62
     0
 63
   257
283
     0
 90
        4
 91
        0
  1

274
    -2
284
     1
 64
     0
275
    -2
285
     1
 65
     0
276
    -2
286
     1
 66
     0
277
    -2
287
     1
 67
     0
278
    -2
288
     1
 68
     0
279
    -2
289
     1
 69
     0
  7
Standard
140
0.25
170
     5
 62
     0
 63
   257
283
     0
 90
        4
 91
        0
  1

274
    -2
284
     1
 64
     0
275
    -2
285
     1
 65
     0
276
    -2
286
     1
 66
     0
277
    -2
287
     1
 67
     0
278
    -2
288
     1
 68
     0
279
    -2
289
     1
 69
     0
  7
Standard
140
0.18
170
     5
 62
     0
 63
   257
283
     0
 90
        4
 91
        0
  1

274
    -2
284
     1
 64
     0
275
    -2
285
     1
 65
     0
276
    -2
286
     1
 66
     0
277
    -2
287
     1
 67
     0
278
    -2
288
     1
 68
     0
279
    -2
289
     1
 69
     0
  0
VISUALSTYLE
  5
2F
102
{ACAD_REACTORS
330
2A
102
}
330
2A
100
AcDbVisualStyle
  2
2dWireframe
 70
     4
177
     3
291
     0
 70
    58
 90
        0
176
     1
 90
        2
176
     1
 90
        0
176
     1
 90
        0
176
     1
 40
0.6
176
     1
 40
30.0
176
     1
 62
     7
420
 16777215
176
     1
 90
        1
176
     1
 90
        4
176
     1
 62
     7
176
     1
 62
   257
176
     1
 90
        1
176
     1
 90
        1
176
     1
 40
1.0
176
     1
 90
        0
176
     1
 62
   257
176
     1
 40
1.0
176
     1
 90
        1
176
     1
 90
        6
176
     1
 90
        2
176
     1
 62
     7
176
     1
 90
        5
176
     1
 90
        0
176
     1
 90
        0
176
     1
290
     0
176
     1
 90
        1
176
     1
 40
0.0
176
     1
 90
        0
176
     1
290
     1
176
     1
290
     1
176
     1
290
     0
176
     1
290
     0
176
     1
290
     0
176
     1
290
     0
176
     1
290
     0
176
     1
290
     0
176
     1
290
     0
176
     1
 90
       50
176
     1
 40
0.0
176
     1
 40
1.0
176
     1
 90
        0
176
     1
 62
    18
420
        0
176
     1
 90
       50
176
     1
 90
        3
176
     1
 62
     5
420
      255
176
     1
290
     0
176
     1
 90
       50
176
     1
 90
       50
176
     1
 90
       50
176
     1
290
     0
176
     1
 90
       50
176
     1
 62
   256
176
     0
 40
1.0
176
     0
 90
        2
176
     1
  1
strokes_ogs.tif
176
     1
290
     0
176
     1
 40
1.0
176
     1
 40
1.0
176
     1
  0
VISUALSTYLE
  5
32
102
{ACAD_REACTORS
330
2A
102
}
330
2A
100
AcDbVisualStyle
  2
Basic
 70
     7
177
     3
291
     1
 70
    58
 90
        1
176
     1
 90
        0
176
     1
 90
        1
176
     1
 90
        0
176
     1
 40
0.6
176
     1
 40
30.0
176
     1
 62
     7
420
 16777215
176
     1
 90
        0
176
     1
 90
        4
176
     1
 62
     7
176
     1
 62
   257
176
     1
 90
        1
176
     1
 90
        1
176
     1
 40
1.0
176
     1
 90
        8
176
     1
 62
     7
176
     1
 40
1.0
176
     1
 90
        1
176
     1
 90
        6
176
     1
 90
        2
176
     1
 62
     7
176
     1
 90
        5
176
     1
 90
        0
176
     1
 90
        0
176
     1
290
     0
176
     1
 90
        1
176
     1
 40
0.0
176
     1
 90
        0
176
     1
290
     0
176
     1
290
     1
176
     1
290
     1
176
     1
290
     0
176
     1
290
     0
176
     1
290
     0
176
     1
290
     0
176
     1
290
     0
176
     1
290
     0
176
     1
 90
       50
176
     1
 40
0.0
176
     1
 40
1.0
176
     1
 90
        0
176
     1
 62
    18
420
        0
176
     1
 90
       50
176
     1
 90
        3
176
     1
 62
     5
420
      255
176
     1
290
     0
176
     1
 90
       50
176
     1
 90
       50
176
     1
 90
       50
176
     1
290
     0
176
     1
 90
       50
176
     1
 62
   256
176
     0
 40
1.0
176
     0
 90
        2
176
     1
  1
strokes_ogs.tif
176
     1
290
     0
176
     1
 40
1.0
176
     1
 40
1.0
176
     1
  0
VISUALSTYLE
  5
36
102
{ACAD_REACTORS
330
2A
102
}
330
2A
100
AcDbVisualStyle
  2
Brighten
 70
    12
177
     3
291
     1
 70
    58
 90
        2
176
     1
 90
        2
176
     1
 90
        0
176
     1
 90
        0
176
     1
 40
0.6
176
     1
 40
30.0
176
     1
 62
     7
420
 16777215
176
     1
 90
        1
176
     1
 90
        4
176
     1
 62
     7
176
     1
 62
   257
176
     1
 90
        1
176
     1
 90
        1
176
     1
 40
1.0
176
     1
 90
        8
176
     1
 62
     7
176
     1
 40
1.0
176
     1
 90
        1
176
     1
 90
        6
176
     1
 90
        2
176
     1
 62
     7
176
     1
 90
        5
176
     1
 90
        0
176
     1
 90
        0
176
     1
290
     0
176
     1
 90
        1
176
     1
 40
50.0
176
     1
 90
        0
176
     1
290
     0
176
     1
290
     1
176
     1
290
     1
176
     1
290
     0
176
     1
290
     0
176
     1
290
     0
176
     1
290
     0
176
     1
290
     0
176
     1
290
     0
176
     1
 90
       50
176
     1
 40
0.0
176
     1
 40
1.0
176
     1
 90
        0
176
     1
 62
    18
420
        0
176
     1
 90
       50
176
     1
 90
        3
176
     1
 62
     5
420
      255
176
     1
290
     0
176
     1
 90
       50
176
     1
 90
       50
176
     1
 90
       50
176
     1
290
     0
176
     1
 90
       50
176
     1
 62
   256
176
     0
 40
1.0
176
     0
 90
        2
176
     1
  1
strokes_ogs.tif
176
     1
290
     0
176
     1
 40
1.0
176
     1
 40
1.0
176
     1
  0
VISUALSTYLE
  5
3A
102
{ACAD_REACTORS
330
2A
102
}
330
2A
100
AcDbVisualStyle
  2
ColorChange
 70
    16
177
     3
291
     1
 70
    58
 90
        2
176
     1
 90
        2
176
     1
 90
        3
176
     1
 90
        0
176
     1
 40
0.6
176
     1
 40
30.0
176
     1
 62
     8
420
  8421504
176
     1
 90
        1
176
     1
 90
        4
176
     1
 62
     7
176
     1
 62
   257
176
     1
 90
        1
176
     1
 90
        1
176
     1
 40
1.0
176
     1
 90
        8
176
     1
 62
     8
420
  8421504
176
     1
 40
1.0
176
     1
 90
        1
176
     1
 90
        6
176
     1
 90
        2
176
     1
 62
     7
176
     1
 90
        5
176
     1
 90
        0
176
     1
 90
        0
176
     1
290
     0
176
     1
 90
        1
176
     1
 40
0.0
176
     1
 90
        0
176
     1
290
     0
176
     1
290
     1
176
     1
290
     1
176
     1
290
     0
176
     1
290
     0
176
     1
290
     0
176
     1
290
     0
176
     1
290
     0
176
     1
290
     0
176
     1
 90
       50
176
     1
 40
0.0
176
     1
 40
1.0
176
     1
 90
        0
176
     1
 62
    18
420
        0
176
     1
 90
       50
176
     1
 90
        3
176
     1
 62
     5
420
      255
176
     1
290
     0
176
     1
 90
       50
176
     1
 90
       50
176
     1
 90
       50
176
     1
290
     0
176
     1
 90
       50
176
     1
 62
   256
176
     0
 40
1.0
176
     0
 90
        2
176
     1
  1
strokes_ogs.tif
176
     1
290
     0
176
     1
 40
1.0
176
     1
 40
1.0
176
     1
  0
VISUALSTYLE
  5
34
102
{ACAD_REACTORS
330
2A
102
}
330
2A
100
AcDbVisualStyle
  2
Conceptual
 70
     9
177
     3
291
     0
 70
    58
 90
        3
176
     1
 90
        2
176
     1
 90
        0
176
     1
 90
        0
176
     1
 40
0.6
176
     1
 40
30.0
176
     1
 62
     7
420
 16777215
176
     1
 90
        2
176
     1
 90
        2
176
     1
 62
     7
176
     1
 62
   257
176
     1
 90
        1
176
     1
 90
        1
176
     1
 40
179.0
176
     1
 90
        8
176
     1
 62
     7
176
     1
 40
1.0
176
     1
 90
        1
176
     1
 90
        6
176
     1
 90
        2
176
     1
 62
     7
176
     1
 90
        3
176
     1
 90
        0
176
     1
 90
        0
176
     1
290
     0
176
     1
 90
        1
176
     1
 40
0.0
176
     1
 90
        0
176
     1
290
     0
176
     1
290
     1
176
     1
290
     1
176
     1
290
     0
176
     1
290
     0
176
     1
290
     0
176
     1
290
     0
176
     1
290
     0
176
     1
290
     0
176
     1
 90
       50
176
     1
 40
0.0
176
     1
 40
1.0
176
     1
 90
        0
176
     1
 62
    18
420
        0
176
     1
 90
       50
176
     1
 90
        3
176
     1
 62
     5
420
      255
176
     1
290
     0
176
     1
 90
       50
176
     1
 90
       50
176
     1
 90
       50
176
     1
290
     0
176
     1
 90
       50
176
     1
 62
   256
176
     0
 40
1.0
176
     0
 90
        2
176
     1
  1
strokes_ogs.tif
176
     1
290
     0
176
     1
 40
1.0
176
     1
 40
1.0
176
     1
  0
VISUALSTYLE
  5
35
102
{ACAD_REACTORS
330
2A
102
}
330
2A
100
AcDbVisualStyle
  2
Dim
 70
    11
177
     3
291
     1
 70
    58
 90
        2
176
     1
 90
        2
176
     1
 90
        0
176
     1
 90
        0
176
     1
 40
0.6
176
     1
 40
30.0
176
     1
 62
     7
420
 16777215
176
     1
 90
        1
176
     1
 90
        4
176
     1
 62
     7
176
     1
 62
   257
176
     1
 90
        1
176
     1
 90
        1
176
     1
 40
1.0
176
     1
 90
        8
176
     1
 62
     7
176
     1
 40
1.0
176
     1
 90
        1
176
     1
 90
        6
176
     1
 90
        2
176
     1
 62
     7
176
     1
 90
        5
176
     1
 90
        0
176
     1
 90
        0
176
     1
290
     0
176
     1
 90
        1
176
     1
 40
-50.0
176
     1
 90
        0
176
     1
290
     0
176
     1
290
     1
176
     1
290
     1
176
     1
290
     0
176
     1
290
     0
176
     1
290
     0
176
     1
290
     0
176
     1
290
     0
176
     1
290
     0
176
     1
 90
       50
176
     1
 40
0.0
176
     1
 40
1.0
176
     1
 90
        0
176
     1
 62
    18
420
        0
176
     1
 90
       50
176
     1
 90
        3
176
     1
 62
     5
420
      255
176
     1
290
     0
176
     1
 90
       50
176
     1
 90
       50
176
     1
 90
       50
176
     1
290
     0
176
     1
 90
       50
176
     1
 62
   256
176
     0
 40
1.0
176
     0
 90
        2
176
     1
  1
strokes_ogs.tif
176
     1
290
     0
176
     1
 40
1.0
176
     1
 40
1.0
176
     1
  0
VISUALSTYLE
  5
3D
102
{ACAD_REACTORS
330
2A
102
}
330
2A
100
AcDbVisualStyle
  2
EdgeColorOff
 70
    22
177
     3
291
     1
 70
    58
 90
        2
176
     0
 90
        2
176
     0
 90
        0
176
     0
 90
        0
176
     0
 40
0.6
176
     0
 40
30.0
176
     0
 62
     7
420
 16777215
176
     0
 90
        1
176
     0
 90
        4
176
     0
 62
     7
176
     0
 62
   257
176
     0
 90
        1
176
     0
 90
        1
176
     0
 40
1.0
176
     0
 90
        8
176
     2
 62
     7
176
     0
 40
1.0
176
     0
 90
        1
176
     0
 90
        6
176
     0
 90
        2
176
     0
 62
     7
176
     0
 90
        5
176
     0
 90
        0
176
     0
 90
        0
176
     0
290
     0
176
     0
 90
        1
176
     0
 40
0.0
176
     0
 90
        0
176
     0
290
     0
176
     0
290
     1
176
     0
290
     1
176
     0
290
     0
176
     0
290
     0
176
     0
290
     0
176
     0
290
     0
176
     0
290
     0
176
     0
290
     0
176
     0
 90
       50
176
     0
 40
0.0
176
     0
 40
1.0
176
     0
 90
        0
176
     0
 62
    18
420
        0
176
     0
 90
       50
176
     0
 90
        3
176
     0
 62
     5
420
      255
176
     0
290
     0
176
     0
 90
       50
176
     0
 90
       50
176
     0
 90
       50
176
     0
290
     0
176
     0
 90
       50
176
     0
 62
   256
176
     0
 40
1.0
176
     0
 90
        2
176
     0
  1
strokes_ogs.tif
176
     0
290
     0
176
     0
 40
1.0
176
     0
 40
1.0
176
     0
  0
VISUALSTYLE
  5
39
102
{ACAD_REACTORS
330
2A
102
}
330
2A
100
AcDbVisualStyle
  2
Facepattern
 70
    15
177
     3
291
     1
 70
    58
 90
        2
176
     1
 90
        2
176
     1
 90
        0
176
     1
 90
        0
176
     1
 40
0.6
176
     1
 40
30.0
176
     1
 62
     7
420
 16777215
176
     1
 90
        1
176
     1
 90
        4
176
     1
 62
     7
176
     1
 62
   257
176
     1
 90
        1
176
     1
 90
        1
176
     1
 40
1.0
176
     1
 90
        8
176
     1
 62
     7
176
     1
 40
1.0
176
     1
 90
        1
176
     1
 90
        6
176
     1
 90
        2
176
     1
 62
     7
176
     1
 90
        5
176
     1
 90
        0
176
     1
 90
        0
176
     1
290
     0
176
     1
 90
        1
176
     1
 40
0.0
176
     1
 90
        0
176
     1
290
     0
176
     1
290
     1
176
     1
290
     1
176
     1
290
     0
176
     1
290
     0
176
     1
290
     0
176
     1
290
     0
176
     1
290
     0
176
     1
290
     0
176
     1
 90
       50
176
     1
 40
0.0
176
     1
 40
1.0
176
     1
 90
        0
176
     1
 62
    18
420
        0
176
     1
 90
       50
176
     1
 90
        3
176
     1
 62
     5
420
      255
176
     1
290
     0
176
     1
 90
       50
176
     1
 90
       50
176
     1
 90
       50
176
     1
290
     0
176
     1
 90
       50
176
     1
 62
   256
176
     0
 40
1.0
176
     0
 90
        2
176
     1
  1
strokes_ogs.tif
176
     1
290
     0
176
     1
 40
1.0
176
     1
 40
1.0
176
     1
  0
VISUALSTYLE
  5
2B
102
{ACAD_REACTORS
330
2A
102
}
330
2A
100
AcDbVisualStyle
  2
Flat
 70
     0
177
     3
291
     1
 70
    58
 90
        2
176
     1
 90
        1
176
     1
 90
        1
176
     1
 90
        2
176
     1
 40
0.6
176
     1
 40
30.0
176
     1
 62
     7
420
 16777215
176
     1
 90
        0
176
     1
 90
        0
176
     1
 62
     7
176
     1
 62
   257
176
     1
 90
        1
176
     1
 90
        1
176
     1
 40
1.0
176
     1
 90
        8
176
     1
 62
     7
176
     1
 40
1.0
176
     1
 90
        1
176
     1
 90
        6
176
     1
 90
        2
176
     1
 62
     7
176
     1
 90
        5
176
     1
 90
        0
176
     1
 90
        0
176
     1
290
     0
176
     1
 90
       13
176
     1
 40
0.0
176
     1
 90
        0
176
     1
290
     0
176
     1
290
     1
176
     1
290
     1
176
     1
290
     0
176
     1
290
     0
176
     1
290
     0
176
     1
290
     0
176
     1
290
     0
176
     1
290
     0
176
     1
 90
       50
176
     1
 40
0.0
176
     1
 40
1.0
176
     1
 90
        0
176
     1
 62
    18
420
        0
176
     1
 90
       50
176
     1
 90
        3
176
     1
 62
     5
420
      255
176
     1
290
     0
176
     1
 90
       50
176
     1
 90
       50
176
     1
 90
       50
176
     1
290
     0
176
     1
 90
       50
176
     1
 62
   256
176
     0
 40
1.0
176
     0
 90
        2
176
     1
  1
strokes_ogs.tif
176
     1
290
     0
176
     1
 40
1.0
176
     1
 40
1.0
176
     1
  0
VISUALSTYLE
  5
2C
102
{ACAD_REACTORS
330
2A
102
}
330
2A
100
AcDbVisualStyle
  2
FlatWithEdges
 70
     1
177
     3
291
     1
 70
    58
 90
        2
176
     1
 90
        1
176
     1
 90
        1
176
     1
 90
        2
176
     1
 40
0.6
176
     1
 40
30.0
176
     1
 62
     7
420
 16777215
176
     1
 90
        1
176
     1
 90
        0
176
     1
 62
     7
176
     1
 62
   257
176
     1
 90
        1
176
     1
 90
        1
176
     1
 40
1.0
176
     1
 90
        0
176
     1
 62
   257
176
     1
 40
1.0
176
     1
 90
        1
176
     1
 90
        6
176
     1
 90
        2
176
     1
 62
     7
176
     1
 90
        5
176
     1
 90
        0
176
     1
 90
        0
176
     1
290
     0
176
     1
 90
       13
176
     1
 40
0.0
176
     1
 90
        0
176
     1
290
     0
176
     1
290
     1
176
     1
290
     1
176
     1
290
     0
176
     1
290
     0
176
     1
290
     0
176
     1
290
     0
176
     1
290
     0
176
     1
290
     0
176
     1
 90
       50
176
     1
 40
0.0
176
     1
 40
1.0
176
     1
 90
        0
176
     1
 62
    18
420
        0
176
     1
 90
       50
176
     1
 90
        3
176
     1
 62
     5
420
      255
176
     1
290
     0
176
     1
 90
       50
176
     1
 90
       50
176
     1
 90
       50
176
     1
290
     0
176
     1
 90
       50
176
     1
 62
   256
176
     0
 40
1.0
176
     0
 90
        2
176
     1
  1
strokes_ogs.tif
176
     1
290
     0
176
     1
 40
1.0
176
     1
 40
1.0
176
     1
  0
VISUALSTYLE
  5
2D
102
{ACAD_REACTORS
330
2A
102
}
330
2A
100
AcDbVisualStyle
  2
Gouraud
 70
     2
177
     3
291
     1
 70
    58
 90
        2
176
     1
 90
        2
176
     1
 90
        1
176
     1
 90
        2
176
     1
 40
0.6
176
     1
 40
30.0
176
     1
 62
     7
420
 16777215
176
     1
 90
        0
176
     1
 90
        0
176
     1
 62
     7
176
     1
 62
   257
176
     1
 90
        1
176
     1
 90
        1
176
     1
 40
1.0
176
     1
 90
        0
176
     1
 62
     7
176
     1
 40
1.0
176
     1
 90
        1
176
     1
 90
        6
176
     1
 90
        2
176
     1
 62
     7
176
     1
 90
        5
176
     1
 90
        0
176
     1
 90
        0
176
     1
290
     0
176
     1
 90
       13
176
     1
 40
0.0
176
     1
 90
        0
176
     1
290
     0
176
     1
290
     1
176
     1
290
     1
176
     1
290
     0
176
     1
290
     0
176
     1
290
     0
176
     1
290
     0
176
     1
290
     0
176
     1
290
     0
176
     1
 90
       50
176
     1
 40
0.0
176
     1
 40
1.0
176
     1
 90
        0
176
     1
 62
    18
420
        0
176
     1
 90
       50
176
     1
 90
        3
176
     1
 62
     5
420
      255
176
     1
290
     0
176
     1
 90
       50
176
     1
 90
       50
176
     1
 90
       50
176
     1
290
     0
176
     1
 90
       50
176
     1
 62
   256
176
     0
 40
1.0
176
     0
 90
        2
176
     1
  1
strokes_ogs.tif
176
     1
290
     0
176
     1
 40
1.0
176
     1
 40
1.0
176
     1
  0
VISUALSTYLE
  5
2E
102
{ACAD_REACTORS
330
2A
102
}
330
2A
100
AcDbVisualStyle
  2
GouraudWithEdges
 70
     3
177
     3
291
     1
 70
    58
 90
        2
176
     1
 90
        2
176
     1
 90
        1
176
     1
 90
        2
176
     1
 40
0.6
176
     1
 40
30.0
176
     1
 62
     7
420
 16777215
176
     1
 90
        1
176
     1
 90
        0
176
     1
 62
     7
176
     1
 62
   257
176
     1
 90
        1
176
     1
 90
        1
176
     1
 40
1.0
176
     1
 90
        0
176
     1
 62
   257
176
     1
 40
1.0
176
     1
 90
        1
176
     1
 90
        6
176
     1
 90
        2
176
     1
 62
     7
176
     1
 90
        5
176
     1
 90
        0
176
     1
 90
        0
176
     1
290
     0
176
     1
 90
       13
176
     1
 40
0.0
176
     1
 90
        0
176
     1
290
     0
176
     1
290
     1
176
     1
290
     1
176
     1
290
     0
176
     1
290
     0
176
     1
290
     0
176
     1
290
     0
176
     1
290
     0
176
     1
290
     0
176
     1
 90
       50
176
     1
 40
0.0
176
     1
 40
1.0
176
     1
 90
        0
176
     1
 62
    18
420
        0
176
     1
 90
       50
176
     1
 90
        3
176
     1
 62
     5
420
      255
176
     1
290
     0
176
     1
 90
       50
176
     1
 90
       50
176
     1
 90
       50
176
     1
290
     0
176
     1
 90
       50
176
     1
 62
   256
176
     0
 40
1.0
176
     0
 90
        2
176
     1
  1
strokes_ogs.tif
176
     1
290
     0
176
     1
 40
1.0
176
     1
 40
1.0
176
     1
  0
VISUALSTYLE
  5
31
102
{ACAD_REACTORS
330
2A
102
}
330
2A
100
AcDbVisualStyle
  2
Hidden
 70
     6
177
     3
291
     0
 70
    58
 90
        1
176
     1
 90
        2
176
     1
 90
        2
176
     1
 90
        0
176
     1
 40
0.6
176
     1
 40
30.0
176
     1
 62
     7
420
 16777215
176
     1
 90
        2
176
     1
 90
        2
176
     1
 62
     7
176
     1
 62
   257
176
     1
 90
        2
176
     1
 90
        1
176
     1
 40
40.0
176
     1
 90
        0
176
     1
 62
   257
176
     1
 40
1.0
176
     1
 90
        1
176
     1
 90
        6
176
     1
 90
        2
176
     1
 62
     7
176
     1
 90
        3
176
     1
 90
        0
176
     1
 90
        0
176
     1
290
     0
176
     1
 90
        1
176
     1
 40
0.0
176
     1
 90
        0
176
     1
290
     0
176
     1
290
     1
176
     1
290
     1
176
     1
290
     0
176
     1
290
     0
176
     1
290
     0
176
     1
290
     0
176
     1
290
     0
176
     1
290
     0
176
     1
 90
       50
176
     1
 40
0.0
176
     1
 40
1.0
176
     1
 90
        0
176
     1
 62
    18
420
        0
176
     1
 90
       50
176
     1
 90
        3
176
     1
 62
     5
420
      255
176
     1
290
     0
176
     1
 90
       50
176
     1
 90
       50
176
     1
 90
       50
176
     1
290
     0
176
     1
 90
       50
176
     1
 62
   256
176
     0
 40
1.0
176
     0
 90
        2
176
     1
  1
strokes_ogs.tif
176
     1
290
     0
176
     1
 40
1.0
176
     1
 40
1.0
176
     1
  0
VISUALSTYLE
  5
3B
102
{ACAD_REACTORS
330
2A
102
}
330
2A
100
AcDbVisualStyle
  2
JitterOff
 70
    20
177
     3
291
     1
 70
    58
 90
        2
176
     0
 90
        2
176
     0
 90
        0
176
     0
 90
        0
176
     0
 40
0.6
176
     0
 40
30.0
176
     0
 62
     7
420
 16777215
176
     0
 90
        1
176
     0
 90
        4
176
     0
 62
     7
176
     0
 62
   257
176
     0
 90
        1
176
     0
 90
        1
176
     0
 40
1.0
176
     0
 90
       10
176
     2
 62
     7
176
     0
 40
1.0
176
     0
 90
        1
176
     0
 90
        6
176
     0
 90
        2
176
     0
 62
     7
176
     0
 90
        5
176
     0
 90
        0
176
     0
 90
        0
176
     0
290
     0
176
     0
 90
        1
176
     0
 40
0.0
176
     0
 90
        0
176
     0
290
     0
176
     0
290
     1
176
     0
290
     1
176
     0
290
     0
176
     0
290
     0
176
     0
290
     0
176
     0
290
     0
176
     0
290
     0
176
     0
290
     0
176
     0
 90
       50
176
     0
 40
0.0
176
     0
 40
1.0
176
     0
 90
        0
176
     0
 62
    18
420
        0
176
     0
 90
       50
176
     0
 90
        3
176
     0
 62
     5
420
      255
176
     0
290
     0
176
     0
 90
       50
176
     0
 90
       50
176
     0
 90
       50
176
     0
290
     0
176
     0
 90
       50
176
     0
 62
   256
176
     0
 40
1.0
176
     0
 90
        2
176
     0
  1
strokes_ogs.tif
176
     0
290
     0
176
     0
 40
1.0
176
     0
 40
1.0
176
     0
  0
VISUALSTYLE
  5
38
102
{ACAD_REACTORS
330
2A
102
}
330
2A
100
AcDbVisualStyle
  2
Linepattern
 70
    14
177
     3
291
     1
 70
    58
 90
        2
176
     1
 90
        2
176
     1
 90
        0
176
     1
 90
        0
176
     1
 40
0.6
176
     1
 40
30.0
176
     1
 62
     7
420
 16777215
176
     1
 90
        1
176
     1
 90
        4
176
     1
 62
     7
176
     1
 62
   257
176
     1
 90
        7
176
     1
 90
        7
176
     1
 40
1.0
176
     1
 90
        8
176
     1
 62
     7
176
     1
 40
1.0
176
     1
 90
        1
176
     1
 90
        6
176
     1
 90
        2
176
     1
 62
     7
176
     1
 90
        5
176
     1
 90
        0
176
     1
 90
        0
176
     1
290
     0
176
     1
 90
        1
176
     1
 40
0.0
176
     1
 90
        0
176
     1
290
     0
176
     1
290
     1
176
     1
290
     1
176
     1
290
     0
176
     1
290
     0
176
     1
290
     0
176
     1
290
     0
176
     1
290
     0
176
     1
290
     0
176
     1
 90
       50
176
     1
 40
0.0
176
     1
 40
1.0
176
     1
 90
        0
176
     1
 62
    18
420
        0
176
     1
 90
       50
176
     1
 90
        3
176
     1
 62
     5
420
      255
176
     1
290
     0
176
     1
 90
       50
176
     1
 90
       50
176
     1
 90
       50
176
     1
290
     0
176
     1
 90
       50
176
     1
 62
   256
176
     0
 40
1.0
176
     0
 90
        2
176
     1
  1
strokes_ogs.tif
176
     1
290
     0
176
     1
 40
1.0
176
     1
 40
1.0
176
     1
  0
VISUALSTYLE
  5
3C
102
{ACAD_REACTORS
330
2A
102
}
330
2A
100
AcDbVisualStyle
  2
OverhangOff
 70
    21
177
     3
291
     1
 70
    58
 90
        2
176
     0
 90
        2
176
     0
 90
        0
176
     0
 90
        0
176
     0
 40
0.6
176
     0
 40
30.0
176
     0
 62
     7
420
 16777215
176
     0
 90
        1
176
     0
 90
        4
176
     0
 62
     7
176
     0
 62
   257
176
     0
 90
        1
176
     0
 90
        1
176
     0
 40
1.0
176
     0
 90
        9
176
     2
 62
     7
176
     0
 40
1.0
176
     0
 90
        1
176
     0
 90
        6
176
     0
 90
        2
176
     0
 62
     7
176
     0
 90
        5
176
     0
 90
        0
176
     0
 90
        0
176
     0
290
     0
176
     0
 90
        1
176
     0
 40
0.0
176
     0
 90
        0
176
     0
290
     0
176
     0
290
     1
176
     0
290
     1
176
     0
290
     0
176
     0
290
     0
176
     0
290
     0
176
     0
290
     0
176
     0
290
     0
176
     0
290
     0
176
     0
 90
       50
176
     0
 40
0.0
176
     0
 40
1.0
176
     0
 90
        0
176
     0
 62
    18
420
        0
176
     0
 90
       50
176
     0
 90
        3
176
     0
 62
     5
420
      255
176
     0
290
     0
176
     0
 90
       50
176
     0
 90
       50
176
     0
 90
       50
176
     0
290
     0
176
     0
 90
       50
176
     0
 62
   256
176
     0
 40
1.0
176
     0
 90
        2
176
     0
  1
strokes_ogs.tif
176
     0
290
     0
176
     0
 40
1.0
176
     0
 40
1.0
176
     0
  0
VISUALSTYLE
  5
33
102
{ACAD_REACTORS
330
2A
102
}
330
2A
100
AcDbVisualStyle
  2
Realistic
 70
     8
177
     3
291
     0
 70
    58
 90
        2
176
     1
 90
        3
176
     1
 90
        0
176
     1
 90
        2
176
     1
 40
0.6
176
     1
 40
30.0
176
     1
 62
     7
420
 16777215
176
     1
 90
        0
176
     1
 90
        0
176
     1
 62
     7
176
     1
 62
   257
176
     1
 90
        1
176
     1
 90
        1
176
     1
 40
1.0
176
     1
 90
        8
176
     1
 62
   257
176
     1
 40
1.0
176
     1
 90
        1
176
     1
 90
        6
176
     1
 90
        2
176
     1
 62
     7
176
     1
 90
        3
176
     1
 90
        0
176
     1
 90
        0
176
     1
290
     0
176
     1
 90
       13
176
     1
 40
0.0
176
     1
 90
        0
176
     1
290
     0
176
     1
290
     1
176
     1
290
     1
176
     1
290
     0
176
     1
290
     0
176
     1
290
     0
176
     1
290
     0
176
     1
290
     0
176
     1
290
     0
176
     1
 90
       50
176
     1
 40
0.0
176
     1
 40
1.0
176
     1
 90
        0
176
     1
 62
    18
420
        0
176
     1
 90
       50
176
     1
 90
        3
176
     1
 62
     5
420
      255
176
     1
290
     0
176
     1
 90
       50
176
     1
 90
       50
176
     1
 90
       50
176
     1
290
     0
176
     1
 90
       50
176
     1
 62
   256
176
     0
 40
1.0
176
     0
 90
        2
176
     1
  1
strokes_ogs.tif
176
     1
290
     0
176
     1
 40
1.0
176
     1
 40
1.0
176
     1
  0
VISUALSTYLE
  5
42
102
{ACAD_REACTORS
330
2A
102
}
330
2A
100
AcDbVisualStyle
  2
Shaded
 70
    27
177
     3
291
     0
 70
    58
 90
        2
176
     1
 90
        2
176
     1
 90
        1
176
     1
 90
        2
176
     1
 40
0.6
176
     1
 40
30.0
176
     1
 62
     7
420
 16777215
176
     1
 90
        0
176
     1
 90
        4
176
     1
 62
     7
176
     1
 62
   257
176
     1
 90
        1
176
     1
 90
        1
176
     1
 40
1.0
176
     1
 90
        8
176
     1
 62
   257
176
     1
 40
1.0
176
     1
 90
        1
176
     1
 90
        6
176
     1
 90
        2
176
     1
 62
     8
420
  7895160
176
     1
 90
        3
176
     1
 90
        0
176
     1
 90
        0
176
     1
290
     0
176
     1
 90
        5
176
     1
 40
0.0
176
     1
 90
        0
176
     1
290
     0
176
     1
290
     1
176
     1
290
     1
176
     1
290
     0
176
     1
290
     0
176
     1
290
     0
176
     1
290
     0
176
     1
290
     0
176
     1
290
     0
176
     1
 90
       50
176
     1
 40
0.0
176
     1
 40
1.0
176
     1
 90
        0
176
     1
 62
    18
420
        0
176
     1
 90
       50
176
     1
 90
        3
176
     1
 62
     5
420
      255
176
     1
290
     0
176
     1
 90
       50
176
     1
 90
       50
176
     1
 90
       50
176
     1
290
     0
176
     1
 90
       50
176
     1
 62
   256
176
     0
 40
1.0
176
     0
 90
        2
176
     1
  1
strokes_ogs.tif
176
     1
290
     0
176
     1
 40
1.0
176
     1
 40
1.0
176
     1
  0
VISUALSTYLE
  5
41
102
{ACAD_REACTORS
330
2A
102
}
330
2A
100
AcDbVisualStyle
  2
Shaded with edges
 70
    26
177
     3
291
     0
 70
    58
 90
        2
176
     1
 90
        2
176
     1
 90
        1
176
     1
 90
        2
176
     1
 40
0.6
176
     1
 40
30.0
176
     1
 62
     7
420
 16777215
176
     1
 90
        1
176
     1
 90
       10
176
     1
 62
     7
176
     1
 62
   257
176
     1
 90
        2
176
     1
 90
        1
176
     1
 40
1.0
176
     1
 90
        8
176
     1
 62
   257
176
     1
 40
1.0
176
     1
 90
        1
176
     1
 90
        6
176
     1
 90
        2
176
     1
 62
     7
176
     1
 90
        3
176
     1
 90
        0
176
     1
 90
        0
176
     1
290
     0
176
     1
 90
        5
176
     1
 40
0.0
176
     1
 90
        0
176
     1
290
     0
176
     1
290
     1
176
     1
290
     1
176
     1
290
     0
176
     1
290
     0
176
     1
290
     0
176
     1
290
     0
176
     1
290
     0
176
     1
290
     0
176
     1
 90
       50
176
     1
 40
0.0
176
     1
 40
1.0
176
     1
 90
        0
176
     1
 62
    18
420
        0
176
     1
 90
       50
176
     1
 90
        3
176
     1
 62
     5
420
      255
176
     1
290
     0
176
     1
 90
       50
176
     1
 90
       50
176
     1
 90
       50
176
     1
290
     0
176
     1
 90
       50
176
     1
 62
   256
176
     0
 40
1.0
176
     0
 90
        2
176
     1
  1
strokes_ogs.tif
176
     1
290
     0
176
     1
 40
1.0
176
     1
 40
1.0
176
     1
  0
VISUALSTYLE
  5
3E
102
{ACAD_REACTORS
330
2A
102
}
330
2A
100
AcDbVisualStyle
  2
Shades of Gray
 70
    23
177
     3
291
     0
 70
    58
 90
        2
176
     1
 90
        2
176
     1
 90
        3
176
     1
 90
        0
176
     1
 40
0.6
176
     1
 40
30.0
176
     1
 62
     7
420
 16777215
176
     1
 90
        2
176
     1
 90
        2
176
     1
 62
     7
176
     1
 62
     7
176
     1
 90
        1
176
     1
 90
        1
176
     1
 40
40.0
176
     1
 90
        8
176
     1
 62
     7
176
     1
 40
1.0
176
     1
 90
        1
176
     1
 90
        6
176
     1
 90
        2
176
     1
 62
     7
176
     1
 90
        3
176
     1
 90
        0
176
     1
 90
        0
176
     1
290
     0
176
     1
 90
        1
176
     1
 40
0.0
176
     1
 90
        0
176
     1
290
     0
176
     1
290
     1
176
     1
290
     1
176
     1
290
     0
176
     1
290
     0
176
     1
290
     0
176
     1
290
     0
176
     1
290
     0
176
     1
290
     0
176
     1
 90
       50
176
     1
 40
0.0
176
     1
 40
1.0
176
     1
 90
        0
176
     1
 62
    18
420
        0
176
     1
 90
       50
176
     1
 90
        3
176
     1
 62
     5
420
      255
176
     1
290
     0
176
     1
 90
       50
176
     1
 90
       50
176
     1
 90
       50
176
     1
290
     0
176
     1
 90
       50
176
     1
 62
   256
176
     0
 40
1.0
176
     0
 90
        2
176
     1
  1
strokes_ogs.tif
176
     1
290
     0
176
     1
 40
1.0
176
     1
 40
1.0
176
     1
  0
VISUALSTYLE
  5
3F
102
{ACAD_REACTORS
330
2A
102
}
330
2A
100
AcDbVisualStyle
  2
Sketchy
 70
    24
177
     3
291
     0
 70
    58
 90
        1
176
     1
 90
        2
176
     1
 90
        2
176
     1
 90
        0
176
     1
 40
0.6
176
     1
 40
30.0
176
     1
 62
     7
420
 16777215
176
     1
 90
        2
176
     1
 90
        2
176
     1
 62
     7
176
     1
 62
     7
176
     1
 90
        1
176
     1
 90
        1
176
     1
 40
40.0
176
     1
 90
       11
176
     1
 62
     7
176
     1
 40
1.0
176
     1
 90
        1
176
     1
 90
        6
176
     1
 90
        2
176
     1
 62
     7
176
     1
 90
        6
176
     1
 90
        0
176
     1
 90
        0
176
     1
290
     0
176
     1
 90
        1
176
     1
 40
0.0
176
     1
 90
        0
176
     1
290
     0
176
     1
290
     1
176
     1
290
     1
176
     1
290
     0
176
     1
290
     0
176
     1
290
     0
176
     1
290
     0
176
     1
290
     0
176
     1
290
     0
176
     1
 90
       50
176
     1
 40
0.0
176
     1
 40
1.0
176
     1
 90
        0
176
     1
 62
    18
420
        0
176
     1
 90
       50
176
     1
 90
        3
176
     1
 62
     5
420
      255
176
     1
290
     0
176
     1
 90
       50
176
     1
 90
       50
176
     1
 90
       50
176
     1
290
     0
176
     1
 90
       50
176
     1
 62
   256
176
     0
 40
1.0
176
     0
 90
        2
176
     1
  1
strokes_ogs.tif
176
     1
290
     0
176
     1
 40
1.0
176
     1
 40
1.0
176
     1
  0
VISUALSTYLE
  5
37
102
{ACAD_REACTORS
330
2A
102
}
330
2A
100
AcDbVisualStyle
  2
Thicken
 70
    13
177
     3
291
     1
 70
    58
 90
        2
176
     1
 90
        2
176
     1
 90
        0
176
     1
 90
        0
176
     1
 40
0.6
176
     1
 40
30.0
176
     1
 62
     7
420
 16777215
176
     1
 90
        1
176
     1
 90
        4
176
     1
 62
     7
176
     1
 62
   257
176
     1
 90
        1
176
     1
 90
        1
176
     1
 40
1.0
176
     1
 90
       12
176
     1
 62
     7
176
     1
 40
1.0
176
     1
 90
        1
176
     1
 90
        6
176
     1
 90
        2
176
     1
 62
     7
176
     1
 90
        5
176
     1
 90
        0
176
     1
 90
        0
176
     1
290
     0
176
     1
 90
        1
176
     1
 40
0.0
176
     1
 90
        0
176
     1
290
     0
176
     1
290
     1
176
     1
290
     1
176
     1
290
     0
176
     1
290
     0
176
     1
290
     0
176
     1
290
     0
176
     1
290
     0
176
     1
290
     0
176
     1
 90
       50
176
     1
 40
0.0
176
     1
 40
1.0
176
     1
 90
        0
176
     1
 62
    18
420
        0
176
     1
 90
       50
176
     1
 90
        3
176
     1
 62
     5
420
      255
176
     1
290
     0
176
     1
 90
       50
176
     1
 90
       50
176
     1
 90
       50
176
     1
290
     0
176
     1
 90
       50
176
     1
 62
   256
176
     0
 40
1.0
176
     0
 90
        2
176
     1
  1
strokes_ogs.tif
176
     1
290
     0
176
     1
 40
1.0
176
     1
 40
1.0
176
     1
  0
VISUALSTYLE
  5
30
102
{ACAD_REACTORS
330
2A
102
}
330
2A
100
AcDbVisualStyle
  2
Wireframe
 70
     5
177
     3
291
     0
 70
    58
 90
        0
176
     1
 90
        2
176
     1
 90
        0
176
     1
 90
        0
176
     1
 40
0.6
176
     1
 40
30.0
176
     1
 62
     7
420
 16777215
176
     1
 90
        1
176
     1
 90
        4
176
     1
 62
     7
176
     1
 62
   257
176
     1
 90
        1
176
     1
 90
        1
176
     1
 40
1.0
176
     1
 90
        0
176
     1
 62
   257
176
     1
 40
1.0
176
     1
 90
        1
176
     1
 90
        6
176
     1
 90
        2
176
     1
 62
     7
176
     1
 90
        3
176
     1
 90
        0
176
     1
 90
        0
176
     1
290
     0
176
     1
 90
        1
176
     1
 40
0.0
176
     1
 90
        0
176
     1
290
     0
176
     1
290
     1
176
     1
290
     1
176
     1
290
     0
176
     1
290
     0
176
     1
290
     0
176
     1
290
     0
176
     1
290
     0
176
     1
290
     0
176
     1
 90
       50
176
     1
 40
0.0
176
     1
 40
1.0
176
     1
 90
        0
176
     1
 62
    18
420
        0
176
     1
 90
       50
176
     1
 90
        3
176
     1
 62
     5
420
      255
176
     1
290
     0
176
     1
 90
       50
176
     1
 90
       50
176
     1
 90
       50
176
     1
290
     0
176
     1
 90
       50
176
     1
 62
   256
176
     0
 40
1.0
176
     0
 90
        2
176
     1
  1
strokes_ogs.tif
176
     1
290
     0
176
     1
 40
1.0
176
     1
 40
1.0
176
     1
  0
VISUALSTYLE
  5
40
102
{ACAD_REACTORS
330
2A
102
}
330
2A
100
AcDbVisualStyle
  2
X-Ray
 70
    25
177
     3
291
     0
 70
    58
 90
        2
176
     1
 90
        2
176
     1
 90
        1
176
     1
 90
        1
176
     1
 40
0.5
176
     1
 40
30.0
176
     1
 62
     7
420
 16777215
176
     1
 90
        1
176
     1
 90
        0
176
     1
 62
     7
176
     1
 62
   257
176
     1
 90
        1
176
     1
 90
        1
176
     1
 40
1.0
176
     1
 90
        8
176
     1
 62
     7
176
     1
 40
1.0
176
     1
 90
        1
176
     1
 90
        6
176
     1
 90
        2
176
     1
 62
     7
176
     1
 90
        3
176
     1
 90
        0
176
     1
 90
        0
176
     1
290
     0
176
     1
 90
       13
176
     1
 40
0.0
176
     1
 90
        0
176
     1
290
     0
176
     1
290
     1
176
     1
290
     1
176
     1
290
     0
176
     1
290
     0
176
     1
290
     0
176
     1
290
     0
176
     1
290
     0
176
     1
290
     0
176
     1
 90
       50
176
     1
 40
0.0
176
     1
 40
1.0
176
     1
 90
        0
176
     1
 62
    18
420
        0
176
     1
 90
       50
176
     1
 90
        3
176
     1
 62
     5
420
      255
176
     1
290
     0
176
     1
 90
       50
176
     1
 90
       50
176
     1
 90
       50
176
     1
290
     0
176
     1
 90
       50
176
     1
 62
   256
176
     0
 40
1.0
176
     0
 90
        2
176
     1
  1
strokes_ogs.tif
176
     1
290
     0
176
     1
 40
1.0
176
     1
 40
1.0
176
     1
  0
DICTIONARYVAR
  5
235
102
{ACAD_REACTORS
330
234
102
}
330
234
100
DictionaryVariables
280
     0
  1
1:1
  0
DICTIONARYVAR
  5
23A
102
{ACAD_REACTORS
330
234
102
}
330
234
100
DictionaryVariables
280
     0
  1
Standard
  0
DICTIONARYVAR
  5
239
102
{ACAD_REACTORS
330
234
102
}
330
234
100
DictionaryVariables
280
     0
  1
Standard
  0
DICTIONARY
  5
236
330
6A
100
AcDbDictionary
280
     1
281
     1
  3
ACAD_ROUNDTRIP_2008_TABLESTYLE_CELLSTYLEMAP
360
237
  0
CELLSTYLEMAP
  5
237
102
{ACAD_REACTORS
330
236
102
}
330
236
100
AcDbCellStyleMap
 90
        3
300
CELLSTYLE
  1
TABLEFORMAT_BEGIN
 90
        5
170
     1
 91
        0
 92
    32768
 62
   257
 93
        1
300
CONTENTFORMAT
  1
CONTENTFORMAT_BEGIN
 90
        0
 91
        0
 92
        4
 93
        0
300

 40
0.0
140
1.0
 94
        5
 62
     0
340
11
144
0.25
309
CONTENTFORMAT_END
171
     1
301
MARGIN
  1
CELLMARGIN_BEGIN
 40
0.06
 40
0.06
 40
0.06
 40
0.06
 40
0.06
 40
0.06
309
CELLMARGIN_END
 94
        6
 95
        1
302
GRIDFORMAT
  1
GRIDFORMAT_BEGIN
 90
        0
 91
        1
 62
     0
 92
       -2
340
14
 93
        0
 40
0.045
309
GRIDFORMAT_END
 95
        2
302
GRIDFORMAT
  1
GRIDFORMAT_BEGIN
 90
        0
 91
        1
 62
     0
 92
       -2
340
14
 93
        0
 40
0.045
309
GRIDFORMAT_END
 95
        4
302
GRIDFORMAT
  1
GRIDFORMAT_BEGIN
 90
        0
 91
        1
 62
     0
 92
       -2
340
14
 93
        0
 40
0.045
309
GRIDFORMAT_END
 95
        8
302
GRIDFORMAT
  1
GRIDFORMAT_BEGIN
 90
        0
 91
        1
 62
     0
 92
       -2
340
14
 93
        0
 40
0.045
309
GRIDFORMAT_END
 95
       16
302
GRIDFORMAT
  1
GRIDFORMAT_BEGIN
 90
        0
 91
        1
 62
     0
 92
       -2
340
14
 93
        0
 40
0.045
309
GRIDFORMAT_END
 95
       32
302
GRIDFORMAT
  1
GRIDFORMAT_BEGIN
 90
        0
 91
        1
 62
     0
 92
       -2
340
14
 93
        0
 40
0.045
309
GRIDFORMAT_END
309
TABLEFORMAT_END
  1
CELLSTYLE_BEGIN
 90
        1
 91
        1
300
_TITLE
309
CELLSTYLE_END
300
CELLSTYLE
  1
TABLEFORMAT_BEGIN
 90
        5
170
     1
 91
        0
 92
        0
 62
   257
 93
        1
300
CONTENTFORMAT
  1
CONTENTFORMAT_BEGIN
 90
        0
 91
        0
 92
        4
 93
        0
300

 40
0.0
140
1.0
 94
        5
 62
     0
340
11
144
0.18
309
CONTENTFORMAT_END
171
     1
301
MARGIN
  1
CELLMARGIN_BEGIN
 40
0.06
 40
0.06
 40
0.06
 40
0.06
 40
0.06
 40
0.06
309
CELLMARGIN_END
 94
        6
 95
        1
302
GRIDFORMAT
  1
GRIDFORMAT_BEGIN
 90
        0
 91
        1
 62
     0
 92
       -2
340
14
 93
        0
 40
0.045
309
GRIDFORMAT_END
 95
        2
302
GRIDFORMAT
  1
GRIDFORMAT_BEGIN
 90
        0
 91
        1
 62
     0
 92
       -2
340
14
 93
        0
 40
0.045
309
GRIDFORMAT_END
 95
        4
302
GRIDFORMAT
  1
GRIDFORMAT_BEGIN
 90
        0
 91
        1
 62
     0
 92
       -2
340
14
 93
        0
 40
0.045
309
GRIDFORMAT_END
 95
        8
302
GRIDFORMAT
  1
GRIDFORMAT_BEGIN
 90
        0
 91
        1
 62
     0
 92
       -2
340
14
 93
        0
 40
0.045
309
GRIDFORMAT_END
 95
       16
302
GRIDFORMAT
  1
GRIDFORMAT_BEGIN
 90
        0
 91
        1
 62
     0
 92
       -2
340
14
 93
        0
 40
0.045
309
GRIDFORMAT_END
 95
       32
302
GRIDFORMAT
  1
GRIDFORMAT_BEGIN
 90
        0
 91
        1
 62
     0
 92
       -2
340
14
 93
        0
 40
0.045
309
GRIDFORMAT_END
309
TABLEFORMAT_END
  1
CELLSTYLE_BEGIN
 90
        2
 91
        1
300
_HEADER
309
CELLSTYLE_END
300
CELLSTYLE
  1
TABLEFORMAT_BEGIN
 90
        5
170
     1
 91
        0
 92
        0
 62
   257
 93
        1
300
CONTENTFORMAT
  1
CONTENTFORMAT_BEGIN
 90
        0
 91
        0
 92
        4
 93
        0
300

 40
0.0
140
1.0
 94
        2
 62
     0
340
11
144
0.18
309
CONTENTFORMAT_END
171
     1
301
MARGIN
  1
CELLMARGIN_BEGIN
 40
0.06
 40
0.06
 40
0.06
 40
0.06
 40
0.06
 40
0.06
309
CELLMARGIN_END
 94
        6
 95
        1
302
GRIDFORMAT
  1
GRIDFORMAT_BEGIN
 90
        0
 91
        1
 62
     0
 92
       -2
340
14
 93
        0
 40
0.045
309
GRIDFORMAT_END
 95
        2
302
GRIDFORMAT
  1
GRIDFORMAT_BEGIN
 90
        0
 91
        1
 62
     0
 92
       -2
340
14
 93
        0
 40
0.045
309
GRIDFORMAT_END
 95
        4
302
GRIDFORMAT
  1
GRIDFORMAT_BEGIN
 90
        0
 91
        1
 62
     0
 92
       -2
340
14
 93
        0
 40
0.045
309
GRIDFORMAT_END
 95
        8
302
GRIDFORMAT
  1
GRIDFORMAT_BEGIN
 90
        0
 91
        1
 62
     0
 92
       -2
340
14
 93
        0
 40
0.045
309
GRIDFORMAT_END
 95
       16
302
GRIDFORMAT
  1
GRIDFORMAT_BEGIN
 90
        0
 91
        1
 62
     0
 92
       -2
340
14
 93
        0
 40
0.045
309
GRIDFORMAT_END
 95
       32
302
GRIDFORMAT
  1
GRIDFORMAT_BEGIN
 90
        0
 91
        1
 62
     0
 92
       -2
340
14
 93
        0
 40
0.045
309
GRIDFORMAT_END
309
TABLEFORMAT_END
  1
CELLSTYLE_BEGIN
 90
        3
 91
        2
300
_DATA
309
CELLSTYLE_END
  0
ENDSEC
  0
EOF