0
SECTION
  2
HEADER
  9
$ACADVER
  1
AC1027
  9
$ACADMAINTVER
 70
     8
  9
$DWGCODEPAGE
  3
ANSI_1252
  9
$REQUIREDVERSIONS
160
                 0
  9
$COMMENTS
  1
File was created by Cadenas
  9
$CUSTOMPROPERTYTAG
  1
NN
  9
$CUSTOMPROPERTY
  1
Type E-Xtra TP Take-Up Bearing Inch Bore
  9
$CUSTOMPROPERTYTAG
  1
NT
  9
$CUSTOMPROPERTY
  1
Type E-xtra TP Take-Up Bearing -(Contact Seal) -Inch
  9
$CUSTOMPROPERTYTAG
  1
NB
  9
$CUSTOMPROPERTY
  1
023152
  9
$CUSTOMPROPERTYTAG
  1
NBSYN
  9
$CUSTOMPROPERTY
  1
$PN.
  9
$CUSTOMPROPERTYTAG
  1
LINA
  9
$CUSTOMPROPERTY
  1
023152
  9
$CUSTOMPROPERTYTAG
  1
SS
  9
$CUSTOMPROPERTY
  1
2
  9
$CUSTOMPROPERTYTAG
  1
PN
  9
$CUSTOMPROPERTY
  1
023152
  9
$CUSTOMPROPERTYTAG
  1
DESCRIPTION
  9
$CUSTOMPROPERTY
  1
TP-E-200R
  9
$CUSTOMPROPERTYTAG
  1
A
  9
$CUSTOMPROPERTY
  1
3-1/2
  9
$CUSTOMPROPERTYTAG
  1
B
  9
$CUSTOMPROPERTY
  1
5-3/16
  9
$CUSTOMPROPERTYTAG
  1
C
  9
$CUSTOMPROPERTY
  1
6-3/8
  9
$CUSTOMPROPERTYTAG
  1
D
  9
$CUSTOMPROPERTY
  1
3-1/4
  9
$CUSTOMPROPERTYTAG
  1
E
  9
$CUSTOMPROPERTY
  1
2-3/8
  9
$CUSTOMPROPERTYTAG
  1
F
  9
$CUSTOMPROPERTY
  1
2-3/8
  9
$CUSTOMPROPERTYTAG
  1
G
  9
$CUSTOMPROPERTY
  1
9/16
  9
$CUSTOMPROPERTYTAG
  1
H
  9
$CUSTOMPROPERTY
  1
13/16
  9
$CUSTOMPROPERTYTAG
  1
J
  9
$CUSTOMPROPERTY
  1
2-9/16
  9
$CUSTOMPROPERTYTAG
  1
L
  9
$CUSTOMPROPERTY
  1
3-7/16
  9
$CUSTOMPROPERTYTAG
  1
N
  9
$CUSTOMPROPERTY
  1
1-3/4
  9
$CUSTOMPROPERTYTAG
  1
U
  9
$CUSTOMPROPERTY
  1
1-1/4
  9
$CUSTOMPROPERTYTAG
  1
V
  9
$CUSTOMPROPERTY
  1
13/16
  9
$CUSTOMPROPERTYTAG
  1
W
  9
$CUSTOMPROPERTY
  1
1-3/8
  9
$CUSTOMPROPERTYTAG
  1
X
  9
$CUSTOMPROPERTY
  1
6-1/2
  9
$CUSTOMPROPERTYTAG
  1
Y
  9
$CUSTOMPROPERTY
  1
6
  9
$CUSTOMPROPERTYTAG
  1
COMPANY
  9
$CUSTOMPROPERTY
  1
baldor
  9
$INSBASE
 10
0.0
 20
0.0
 30
0.0
  9
$EXTMIN
 10
1.000000000000000E+20
 20
1.000000000000000E+20
 30
1.000000000000000E+20
  9
$EXTMAX
 10
-1.000000000000000E+20
 20
-1.000000000000000E+20
 30
-1.000000000000000E+20
  9
$LIMMIN
 10
0.0
 20
0.0
  9
$LIMMAX
 10
12.0
 20
9.0
  9
$ORTHOMODE
 70
     0
  9
$REGENMODE
 70
     1
  9
$FILLMODE
 70
     1
  9
$QTEXTMODE
 70
     0
  9
$MIRRTEXT
 70
     1
  9
$LTSCALE
 40
1.0
  9
$ATTMODE
 70
     1
  9
$TEXTSIZE
 40
0.2
  9
$TRACEWID
 40
0.05
  9
$TEXTSTYLE
  7
Standard
  9
$CLAYER
  8
0
  9
$CELTYPE
  6
ByLayer
  9
$CECOLOR
 62
   256
  9
$CELTSCALE
 40
1.0
  9
$DISPSILH
 70
     0
  9
$DIMSCALE
 40
1.0
  9
$DIMASZ
 40
0.18
  9
$DIMEXO
 40
0.0625
  9
$DIMDLI
 40
0.38
  9
$DIMRND
 40
0.0
  9
$DIMDLE
 40
0.0
  9
$DIMEXE
 40
0.18
  9
$DIMTP
 40
0.0
  9
$DIMTM
 40
0.0
  9
$DIMTXT
 40
0.18
  9
$DIMCEN
 40
0.09
  9
$DIMTSZ
 40
0.0
  9
$DIMTOL
 70
     0
  9
$DIMLIM
 70
     0
  9
$DIMTIH
 70
     1
  9
$DIMTOH
 70
     1
  9
$DIMSE1
 70
     0
  9
$DIMSE2
 70
     0
  9
$DIMTAD
 70
     0
  9
$DIMZIN
 70
     0
  9
$DIMBLK
  1

  9
$DIMASO
 70
     1
  9
$DIMSHO
 70
     1
  9
$DIMPOST
  1

  9
$DIMAPOST
  1

  9
$DIMALT
 70
     0
  9
$DIMALTD
 70
     2
  9
$DIMALTF
 40
25.4
  9
$DIMLFAC
 40
1.0
  9
$DIMTOFL
 70
     0
  9
$DIMTVP
 40
0.0
  9
$DIMTIX
 70
     0
  9
$DIMSOXD
 70
     0
  9
$DIMSAH
 70
     0
  9
$DIMBLK1
  1

  9
$DIMBLK2
  1

  9
$DIMSTYLE
  2
Standard
  9
$DIMCLRD
 70
     0
  9
$DIMCLRE
 70
     0
  9
$DIMCLRT
 70
     0
  9
$DIMTFAC
 40
1.0
  9
$DIMGAP
 40
0.09
  9
$DIMJUST
 70
     0
  9
$DIMSD1
 70
     0
  9
$DIMSD2
 70
     0
  9
$DIMTOLJ
 70
     1
  9
$DIMTZIN
 70
     0
  9
$DIMALTZ
 70
     0
  9
$DIMALTTZ
 70
     0
  9
$DIMUPT
 70
     0
  9
$DIMDEC
 70
     4
  9
$DIMTDEC
 70
     4
  9
$DIMALTU
 70
     2
  9
$DIMALTTD
 70
     2
  9
$DIMTXSTY
  7
Standard
  9
$DIMAUNIT
 70
     0
  9
$DIMADEC
 70
     0
  9
$DIMALTRND
 40
0.0
  9
$DIMAZIN
 70
     0
  9
$DIMDSEP
 70
    46
  9
$DIMATFIT
 70
     3
  9
$DIMFRAC
 70
     0
  9
$DIMLDRBLK
  1

  9
$DIMLUNIT
 70
     2
  9
$DIMLWD
 70
    -2
  9
$DIMLWE
 70
    -2
  9
$DIMTMOVE
 70
     0
  9
$DIMFXL
 40
1.0
  9
$DIMFXLON
 70
     0
  9
$DIMJOGANG
 40
0.7853981633974483
  9
$DIMTFILL
 70
     0
  9
$DIMTFILLCLR
 70
     0
  9
$DIMARCSYM
 70
     0
  9
$DIMLTYPE
  6

  9
$DIMLTEX1
  6

  9
$DIMLTEX2
  6

  9
$DIMTXTDIRECTION
 70
     0
  9
$LUNITS
 70
     2
  9
$LUPREC
 70
     4
  9
$SKETCHINC
 40
0.1
  9
$FILLETRAD
 40
0.5
  9
$AUNITS
 70
     0
  9
$AUPREC
 70
     0
  9
$MENU
  1
.
  9
$ELEVATION
 40
0.0
  9
$PELEVATION
 40
0.0
  9
$THICKNESS
 40
0.0
  9
$LIMCHECK
 70
     0
  9
$CHAMFERA
 40
0.0
  9
$CHAMFERB
 40
0.0
  9
$CHAMFERC
 40
0.0
  9
$CHAMFERD
 40
0.0
  9
$SKPOLY
 70
     0
  9
$TDCREATE
 40
2458168.979415937
  9
$TDUCREATE
 40
2458168.937749271
  9
$TDUPDATE
 40
2458168.979416123
  9
$TDUUPDATE
 40
2458168.937749456
  9
$TDINDWG
 40
0.0000000116
  9
$TDUSRTIMER
 40
0.0000000116
  9
$USRTIMER
 70
     1
  9
$ANGBASE
 50
0.0
  9
$ANGDIR
 70
     0
  9
$PDMODE
 70
     0
  9
$PDSIZE
 40
0.0
  9
$PLINEWID
 40
0.0
  9
$SPLFRAME
 70
     0
  9
$SPLINETYPE
 70
     6
  9
$SPLINESEGS
 70
     8
  9
$HANDSEED
  5
1DF
  9
$SURFTAB1
 70
     6
  9
$SURFTAB2
 70
     6
  9
$SURFTYPE
 70
     6
  9
$SURFU
 70
     6
  9
$SURFV
 70
     6
  9
$UCSBASE
  2

  9
$UCSNAME
  2

  9
$UCSORG
 10
0.0
 20
0.0
 30
0.0
  9
$UCSXDIR
 10
1.0
 20
0.0
 30
0.0
  9
$UCSYDIR
 10
0.0
 20
1.0
 30
0.0
  9
$UCSORTHOREF
  2

  9
$UCSORTHOVIEW
 70
     0
  9
$UCSORGTOP
 10
0.0
 20
0.0
 30
0.0
  9
$UCSORGBOTTOM
 10
0.0
 20
0.0
 30
0.0
  9
$UCSORGLEFT
 10
0.0
 20
0.0
 30
0.0
  9
$UCSORGRIGHT
 10
0.0
 20
0.0
 30
0.0
  9
$UCSORGFRONT
 10
0.0
 20
0.0
 30
0.0
  9
$UCSORGBACK
 10
0.0
 20
0.0
 30
0.0
  9
$PUCSBASE
  2

  9
$PUCSNAME
  2

  9
$PUCSORG
 10
0.0
 20
0.0
 30
0.0
  9
$PUCSXDIR
 10
1.0
 20
0.0
 30
0.0
  9
$PUCSYDIR
 10
0.0
 20
1.0
 30
0.0
  9
$PUCSORTHOREF
  2

  9
$PUCSORTHOVIEW
 70
     0
  9
$PUCSORGTOP
 10
0.0
 20
0.0
 30
0.0
  9
$PUCSORGBOTTOM
 10
0.0
 20
0.0
 30
0.0
  9
$PUCSORGLEFT
 10
0.0
 20
0.0
 30
0.0
  9
$PUCSORGRIGHT
 10
0.0
 20
0.0
 30
0.0
  9
$PUCSORGFRONT
 10
0.0
 20
0.0
 30
0.0
  9
$PUCSORGBACK
 10
0.0
 20
0.0
 30
0.0
  9
$USERI1
 70
     0
  9
$USERI2
 70
     0
  9
$USERI3
 70
     0
  9
$USERI4
 70
     0
  9
$USERI5
 70
     0
  9
$USERR1
 40
0.0
  9
$USERR2
 40
0.0
  9
$USERR3
 40
0.0
  9
$USERR4
 40
0.0
  9
$USERR5
 40
0.0
  9
$WORLDVIEW
 70
     1
  9
$SHADEDGE
 70
     3
  9
$SHADEDIF
 70
    70
  9
$TILEMODE
 70
     1
  9
$MAXACTVP
 70
    64
  9
$PINSBASE
 10
0.0
 20
0.0
 30
0.0
  9
$PLIMCHECK
 70
     0
  9
$PEXTMIN
 10
1.000000000000000E+20
 20
1.000000000000000E+20
 30
1.000000000000000E+20
  9
$PEXTMAX
 10
-1.000000000000000E+20
 20
-1.000000000000000E+20
 30
-1.000000000000000E+20
  9
$PLIMMIN
 10
0.0
 20
0.0
  9
$PLIMMAX
 10
12.0
 20
9.0
  9
$UNITMODE
 70
     0
  9
$VISRETAIN
 70
     1
  9
$PLINEGEN
 70
     0
  9
$PSLTSCALE
 70
     1
  9
$TREEDEPTH
 70
  3020
  9
$CMLSTYLE
  2
Standard
  9
$CMLJUST
 70
     0
  9
$CMLSCALE
 40
1.0
  9
$PROXYGRAPHICS
 70
     1
  9
$MEASUREMENT
 70
     0
  9
$CELWEIGHT
370
    -1
  9
$ENDCAPS
280
     0
  9
$JOINSTYLE
280
     0
  9
$LWDISPLAY
290
     0
  9
$INSUNITS
 70
     1
  9
$HYPERLINKBASE
  1

  9
$STYLESHEET
  1

  9
$XEDIT
290
     1
  9
$CEPSNTYPE
380
     0
  9
$PSTYLEMODE
290
     1
  9
$FINGERPRINTGUID
  2
{AE742E39-BD36-4492-8D8A-B41E387DD67C}
  9
$VERSIONGUID
  2
{FAEB1C32-E019-11D5-929B-00C0DF256EC4}
  9
$EXTNAMES
290
     1
  9
$PSVPSCALE
 40
0.0
  9
$OLESTARTUP
290
     0
  9
$SORTENTS
280
   127
  9
$INDEXCTL
280
     0
  9
$HIDETEXT
280
     1
  9
$XCLIPFRAME
280
     2
  9
$HALOGAP
280
     0
  9
$OBSCOLOR
 70
   257
  9
$OBSLTYPE
280
     0
  9
$INTERSECTIONDISPLAY
280
     0
  9
$INTERSECTIONCOLOR
 70
   257
  9
$DIMASSOC
280
     2
  9
$PROJECTNAME
  1

  9
$CAMERADISPLAY
290
     0
  9
$LENSLENGTH
 40
50.0
  9
$CAMERAHEIGHT
 40
0.0
  9
$STEPSPERSEC
 40
2.0
  9
$STEPSIZE
 40
6.0
  9
$3DDWFPREC
 40
2.0
  9
$PSOLWIDTH
 40
0.25
  9
$PSOLHEIGHT
 40
4.0
  9
$LOFTANG1
 40
1.570796326794897
  9
$LOFTANG2
 40
1.570796326794897
  9
$LOFTMAG1
 40
0.0
  9
$LOFTMAG2
 40
0.0
  9
$LOFTPARAM
 70
     7
  9
$LOFTNORMALS
280
     1
  9
$LATITUDE
 40
37.795
  9
$LONGITUDE
 40
-122.394
  9
$NORTHDIRECTION
 40
0.0
  9
$TIMEZONE
 70
 -8000
  9
$LIGHTGLYPHDISPLAY
280
     1
  9
$TILEMODELIGHTSYNCH
280
     1
  9
$CMATERIAL
347
44
  9
$SOLIDHIST
280
     0
  9
$SHOWHIST
280
     1
  9
$DWFFRAME
280
     2
  9
$DGNFRAME
280
     2
  9
$REALWORLDSCALE
290
     1
  9
$INTERFERECOLOR
 62
   256
  9
$CSHADOW
280
     0
  9
$SHADOWPLANELOCATION
 40
0.0
  0
ENDSEC
  0
SECTION
  2
CLASSES
  0
CLASS
  1
ACDBDICTIONARYWDFLT
  2
AcDbDictionaryWithDefault
  3
ObjectDBX Classes
 90
        0
 91
        4
280
     0
281
     0
  0
CLASS
  1
VISUALSTYLE
  2
AcDbVisualStyle
  3
ObjectDBX Classes
 90
     4095
 91
        4
280
     0
281
     0
  0
CLASS
  1
MATERIAL
  2
AcDbMaterial
  3
ObjectDBX Classes
 90
     1153
 91
        4
280
     0
281
     0
  0
CLASS
  1
SCALE
  2
AcDbScale
  3
ObjectDBX Classes
 90
     1153
 91
        4
280
     0
281
     0
  0
CLASS
  1
TABLESTYLE
  2
AcDbTableStyle
  3
ObjectDBX Classes
 90
     4095
 91
        4
280
     0
281
     0
  0
CLASS
  1
MLEADERSTYLE
  2
AcDbMLeaderStyle
  3
ACDB_MLEADERSTYLE_CLASS
 90
     4095
 91
        4
280
     0
281
     0
  0
CLASS
  1
SUN
  2
AcDbSun
  3
SCENEOE
 90
     1153
 91
        4
280
     0
281
     0
  0
CLASS
  1
DICTIONARYVAR
  2
AcDbDictionaryVar
  3
ObjectDBX Classes
 90
        0
 91
        4
280
     0
281
     0
  0
CLASS
  1
CELLSTYLEMAP
  2
AcDbCellStyleMap
  3
ObjectDBX Classes
 90
     1152
 91
        4
280
     0
281
     0
  0
ENDSEC
  0
SECTION
  2
TABLES
  0
TABLE
  2
VPORT
  5
8
330
0
100
AcDbSymbolTable
 70
     1
  0
VPORT
  5
29
330
8
100
AcDbSymbolTableRecord
100
AcDbViewportTableRecord
  2
*Active
 70
     0
 10
0.0
 20
0.0
 11
1.0
 21
1.0
 12
0.0250000000000004
 22
-0.0625
 13
0.0
 23
0.0
 14
0.5
 24
0.5
 15
0.5
 25
0.5
 16
0.0
 26
0.0
 36
1.0
 17
0.0
 27
0.0
 37
0.0
 40
6.5025
 41
1.027450980392157
 42
50.0
 43
0.0
 44
0.0
 50
0.0
 51
0.0
 71
     0
 72
   100
 73
     1
 74
     3
 75
     0
 76
     0
 77
     0
 78
     0
281
     0
 65
     1
110
0.0
120
0.0
130
0.0
111
1.0
121
0.0
131
0.0
112
0.0
122
1.0
132
0.0
 79
     0
146
0.0
348
2F
 60
     3
 61
     5
292
     1
282
     1
141
0.0
142
0.0
 63
   250
361
6D
  0
ENDTAB
  0
TABLE
  2
LTYPE
  5
5
330
0
100
AcDbSymbolTable
 70
     3
  0
LTYPE
  5
14
330
5
100
AcDbSymbolTableRecord
100
AcDbLinetypeTableRecord
  2
ByBlock
 70
     0
  3

 72
    65
 73
     0
 40
0.0
  0
LTYPE
  5
15
330
5
100
AcDbSymbolTableRecord
100
AcDbLinetypeTableRecord
  2
ByLayer
 70
     0
  3

 72
    65
 73
     0
 40
0.0
  0
LTYPE
  5
16
330
5
100
AcDbSymbolTableRecord
100
AcDbLinetypeTableRecord
  2
Continuous
 70
     0
  3
Solid line
 72
    65
 73
     0
 40
0.0
  0
LTYPE
  5
9D
330
5
100
AcDbSymbolTableRecord
100
AcDbLinetypeTableRecord
  2
Dashed
 70
     0
  3

 72
    65
 73
     2
 40
2.0
 49
1.0
 74
     0
 49
-1.0
 74
     0
  0
LTYPE
  5
160
330
5
100
AcDbSymbolTableRecord
100
AcDbLinetypeTableRecord
  2
Center
 70
     0
  3

 72
    65
 73
     4
 40
1.5
 49
0.45
 74
     0
 49
-0.5
 74
     0
 49
0.05
 74
     0
 49
-0.5
 74
     0
  0
ENDTAB
  0
TABLE
  2
LAYER
  5
2
330
0
100
AcDbSymbolTable
 70
     7
  0
LAYER
  5
10
330
2
100
AcDbSymbolTableRecord
100
AcDbLayerTableRecord
  2
0
 70
     0
 62
     7
  6
Continuous
370
    -3
390
F
347
46
348
0
  0
LAYER
  5
72
330
2
100
AcDbSymbolTableRecord
100
AcDbLayerTableRecord
  2
AM_6
 70
     0
 62
    -2
  6
Continuous
370
    35
390
F
347
46
348
0
  0
LAYER
  5
9E
330
2
100
AcDbSymbolTableRecord
100
AcDbLayerTableRecord
  2
AM_9
 70
     0
 62
     6
  6
Dashed
370
    25
390
F
347
46
348
0
  0
LAYER
  5
BE
330
2
100
AcDbSymbolTableRecord
100
AcDbLayerTableRecord
  2
AM_5
 70
     0
 62
     3
  6
Continuous
370
    25
390
F
347
46
348
0
  0
LAYER
  5
C5
330
2
100
AcDbSymbolTableRecord
100
AcDbLayerTableRecord
  2
AM_4
 70
     0
 62
     7
  6
Continuous
370
    50
390
F
347
46
348
0
  0
LAYER
  5
161
330
2
100
AcDbSymbolTableRecord
100
AcDbLayerTableRecord
  2
AM_7
 70
     0
 62
     7
  6
Center
370
    25
390
F
347
46
348
0
  0
LAYER
  5
1CE
330
2
100
AcDbSymbolTableRecord
100
AcDbLayerTableRecord
  2
ConnectionPoints
 70
     0
 62
     7
  6
Continuous
370
    50
390
F
347
46
348
0
  0
ENDTAB
  0
TABLE
  2
STYLE
  5
3
330
0
100
AcDbSymbolTable
 70
     1
  0
STYLE
  5
11
330
3
100
AcDbSymbolTableRecord
100
AcDbTextStyleTableRecord
  2
Standard
 70
     0
 40
0.0
 41
1.0
 50
0.0
 71
     0
 42
0.2
  3
txt
  4

  0
ENDTAB
  0
TABLE
  2
VIEW
  5
6
330
0
100
AcDbSymbolTable
 70
     0
  0
ENDTAB
  0
TABLE
  2
UCS
  5
7
330
0
100
AcDbSymbolTable
 70
     0
  0
ENDTAB
  0
TABLE
  2
APPID
  5
9
330
0
100
AcDbSymbolTable
 70
     1
  0
APPID
  5
12
330
9
100
AcDbSymbolTableRecord
100
AcDbRegAppTableRecord
  2
ACAD
 70
     0
  0
ENDTAB
  0
TABLE
  2
DIMSTYLE
  5
A
330
0
100
AcDbSymbolTable
 70
     1
100
AcDbDimStyleTable
  0
DIMSTYLE
105
27
330
A
100
AcDbSymbolTableRecord
100
AcDbDimStyleTableRecord
  2
Standard
 70
     0
178
     0
340
11
  0
ENDTAB
  0
TABLE
  2
BLOCK_RECORD
  5
1
330
0
100
AcDbSymbolTable
 70
     7
  0
BLOCK_RECORD
  5
1F
330
1
100
AcDbSymbolTableRecord
100
AcDbBlockTableRecord
  2
*Model_Space
340
22
 70
     0
280
     1
281
     0
  0
BLOCK_RECORD
  5
1B
330
1
100
AcDbSymbolTableRecord
100
AcDbBlockTableRecord
  2
*Paper_Space
340
1E
 70
     0
280
     1
281
     0
  0
BLOCK_RECORD
  5
23
330
1
100
AcDbSymbolTableRecord
100
AcDbBlockTableRecord
  2
*Paper_Space0
340
26
 70
     0
280
     1
281
     0
  0
BLOCK_RECORD
  5
6E
330
1
100
AcDbSymbolTableRecord
100
AcDbBlockTableRecord
  2
1_023152_0
340
0
102
{BLKREFS
331
6F
102
}
 70
     0
280
     1
281
     0
  0
BLOCK_RECORD
  5
8C
330
1
100
AcDbSymbolTableRecord
100
AcDbBlockTableRecord
  2
2_405016_Inch_0_in_023152_0
340
0
102
{BLKREFS
331
8D
102
}
 70
     0
280
     1
281
     0
  0
BLOCK_RECORD
  5
105
330
1
100
AcDbSymbolTableRecord
100
AcDbBlockTableRecord
  2
3_2C_1_0_in_023152_0
340
0
102
{BLKREFS
331
106
102
}
 70
     0
280
     1
281
     0
  0
BLOCK_RECORD
  5
11F
330
1
100
AcDbSymbolTableRecord
100
AcDbBlockTableRecord
  2
4_2C_2_0_in_023152_0
340
0
102
{BLKREFS
331
120
102
}
 70
     0
280
     1
281
     0
  0
BLOCK_RECORD
  5
14B
330
1
100
AcDbSymbolTableRecord
100
AcDbBlockTableRecord
  2
5_2I_0_in_023152_0
340
0
102
{BLKREFS
331
14C
102
}
 70
     0
280
     1
281
     0
  0
BLOCK_RECORD
  5
165
330
1
100
AcDbSymbolTableRecord
100
AcDbBlockTableRecord
  2
6_023152H_0_in_023152_0
340
0
102
{BLKREFS
331
166
102
}
 70
     0
280
     1
281
     0
  0
ENDTAB
  0
ENDSEC
  0
SECTION
  2
BLOCKS
  0
BLOCK
  5
20
330
1F
100
AcDbEntity
  8
0
100
AcDbBlockBegin
  2
*Model_Space
 70
     0
 10
0.0
 20
0.0
 30
0.0
  3
*Model_Space
  1

  0
ENDBLK
  5
21
330
1F
100
AcDbEntity
  8
0
100
AcDbBlockEnd
  0
BLOCK
  5
1C
330
1B
100
AcDbEntity
 67
     1
  8
0
100
AcDbBlockBegin
  2
*Paper_Space
 70
     0
 10
0.0
 20
0.0
 30
0.0
  3
*Paper_Space
  1

  0
ENDBLK
  5
1D
330
1B
100
AcDbEntity
 67
     1
  8
0
100
AcDbBlockEnd
  0
BLOCK
  5
24
330
23
100
AcDbEntity
  8
0
100
AcDbBlockBegin
  2
*Paper_Space0
 70
     0
 10
0.0
 20
0.0
 30
0.0
  3
*Paper_Space0
  1

  0
ENDBLK
  5
25
330
23
100
AcDbEntity
  8
0
100
AcDbBlockEnd
  0
BLOCK
  5
70
330
6E
100
AcDbEntity
  8
0
100
AcDbBlockBegin
  2
1_023152_0
 70
     2
 10
0.0
 20
0.0
 30
0.0
  3
1_023152_0
  1

  0
ATTDEF
  5
73
330
6E
100
AcDbEntity
  8
AM_6
100
AcDbText
 10
8.3
 20
3.125
 30
0.0
 40
0.5
  1
Type E-Xtra TP Take-Up Bearing Inch Bore
100
AcDbAttributeDefinition
  3

  2
NN
 70
     8
280
     0
  0
ATTDEF
  5
74
330
6E
100
AcDbEntity
  8
AM_6
100
AcDbText
 10
8.3
 20
2.625
 30
0.0
 40
0.5
  1
Type E-xtra TP Take-Up Bearing -(Contact Seal) -Inch
100
AcDbAttributeDefinition
  3

  2
NT
 70
     8
280
     0
  0
ATTDEF
  5
75
330
6E
100
AcDbEntity
  8
AM_6
100
AcDbText
 10
8.3
 20
2.125
 30
0.0
 40
0.5
  1
023152
100
AcDbAttributeDefinition
  3

  2
NB
 70
     8
280
     0
  0
ATTDEF
  5
76
330
6E
100
AcDbEntity
  8
AM_6
100
AcDbText
 10
8.3
 20
1.625
 30
0.0
 40
0.5
  1
$PN.
100
AcDbAttributeDefinition
  3

  2
NBSYN
 70
     8
280
     0
  0
ATTDEF
  5
77
330
6E
100
AcDbEntity
  8
AM_6
100
AcDbText
 10
8.3
 20
1.125
 30
0.0
 40
0.5
  1
023152
100
AcDbAttributeDefinition
  3

  2
LINA
 70
     8
280
     0
  0
ATTDEF
  5
78
330
6E
100
AcDbEntity
  8
AM_6
100
AcDbText
 10
8.3
 20
0.625
 30
0.0
 40
0.5
  1
2
100
AcDbAttributeDefinition
  3

  2
SS
 70
     8
280
     0
  0
ATTDEF
  5
79
330
6E
100
AcDbEntity
  8
AM_6
100
AcDbText
 10
8.3
 20
0.125
 30
0.0
 40
0.5
  1
023152
100
AcDbAttributeDefinition
  3

  2
PN
 70
     8
280
     0
  0
ATTDEF
  5
7A
330
6E
100
AcDbEntity
  8
AM_6
100
AcDbText
 10
8.3
 20
-0.375
 30
0.0
 40
0.5
  1
TP-E-200R
100
AcDbAttributeDefinition
  3

  2
DESCRIPTION
 70
     8
280
     0
  0
ATTDEF
  5
7B
330
6E
100
AcDbEntity
  8
AM_6
100
AcDbText
 10
8.3
 20
-0.875
 30
0.0
 40
0.5
  1
3-1/2
100
AcDbAttributeDefinition
  3

  2
A
 70
     8
280
     0
  0
ATTDEF
  5
7C
330
6E
100
AcDbEntity
  8
AM_6
100
AcDbText
 10
8.3
 20
-1.375
 30
0.0
 40
0.5
  1
5-3/16
100
AcDbAttributeDefinition
  3

  2
B
 70
     8
280
     0
  0
ATTDEF
  5
7D
330
6E
100
AcDbEntity
  8
AM_6
100
AcDbText
 10
8.3
 20
-1.875
 30
0.0
 40
0.5
  1
6-3/8
100
AcDbAttributeDefinition
  3

  2
C
 70
     8
280
     0
  0
ATTDEF
  5
7E
330
6E
100
AcDbEntity
  8
AM_6
100
AcDbText
 10
8.3
 20
-2.375
 30
0.0
 40
0.5
  1
3-1/4
100
AcDbAttributeDefinition
  3

  2
D
 70
     8
280
     0
  0
ATTDEF
  5
7F
330
6E
100
AcDbEntity
  8
AM_6
100
AcDbText
 10
8.3
 20
-2.875
 30
0.0
 40
0.5
  1
2-3/8
100
AcDbAttributeDefinition
  3

  2
E
 70
     8
280
     0
  0
ATTDEF
  5
80
330
6E
100
AcDbEntity
  8
AM_6
100
AcDbText
 10
8.3
 20
-3.375
 30
0.0
 40
0.5
  1
2-3/8
100
AcDbAttributeDefinition
  3

  2
F
 70
     8
280
     0
  0
ATTDEF
  5
81
330
6E
100
AcDbEntity
  8
AM_6
100
AcDbText
 10
8.3
 20
-3.875
 30
0.0
 40
0.5
  1
9/16
100
AcDbAttributeDefinition
  3

  2
G
 70
     8
280
     0
  0
ATTDEF
  5
82
330
6E
100
AcDbEntity
  8
AM_6
100
AcDbText
 10
8.3
 20
-4.375
 30
0.0
 40
0.5
  1
13/16
100
AcDbAttributeDefinition
  3

  2
H
 70
     8
280
     0
  0
ATTDEF
  5
83
330
6E
100
AcDbEntity
  8
AM_6
100
AcDbText
 10
8.3
 20
-4.875
 30
0.0
 40
0.5
  1
2-9/16
100
AcDbAttributeDefinition
  3

  2
J
 70
     8
280
     0
  0
ATTDEF
  5
84
330
6E
100
AcDbEntity
  8
AM_6
100
AcDbText
 10
8.3
 20
-5.375
 30
0.0
 40
0.5
  1
3-7/16
100
AcDbAttributeDefinition
  3

  2
L
 70
     8
280
     0
  0
ATTDEF
  5
85
330
6E
100
AcDbEntity
  8
AM_6
100
AcDbText
 10
8.3
 20
-5.875
 30
0.0
 40
0.5
  1
1-3/4
100
AcDbAttributeDefinition
  3

  2
N
 70
     8
280
     0
  0
ATTDEF
  5
86
330
6E
100
AcDbEntity
  8
AM_6
100
AcDbText
 10
8.3
 20
-6.375
 30
0.0
 40
0.5
  1
1-1/4
100
AcDbAttributeDefinition
  3

  2
U
 70
     8
280
     0
  0
ATTDEF
  5
87
330
6E
100
AcDbEntity
  8
AM_6
100
AcDbText
 10
8.3
 20
-6.875
 30
0.0
 40
0.5
  1
13/16
100
AcDbAttributeDefinition
  3

  2
V
 70
     8
280
     0
  0
ATTDEF
  5
88
330
6E
100
AcDbEntity
  8
AM_6
100
AcDbText
 10
8.3
 20
-7.375
 30
0.0
 40
0.5
  1
1-3/8
100
AcDbAttributeDefinition
  3

  2
W
 70
     8
280
     0
  0
ATTDEF
  5
89
330
6E
100
AcDbEntity
  8
AM_6
100
AcDbText
 10
8.3
 20
-7.875
 30
0.0
 40
0.5
  1
6-1/2
100
AcDbAttributeDefinition
  3

  2
X
 70
     8
280
     0
  0
ATTDEF
  5
8A
330
6E
100
AcDbEntity
  8
AM_6
100
AcDbText
 10
8.3
 20
-8.375
 30
0.0
 40
0.5
  1
6
100
AcDbAttributeDefinition
  3

  2
Y
 70
     8
280
     0
  0
ATTDEF
  5
8B
330
6E
100
AcDbEntity
  8
AM_6
100
AcDbText
 10
8.3
 20
-8.875
 30
0.0
 40
0.5
  1
baldor
100
AcDbAttributeDefinition
  3

  2
COMPANY
 70
     8
280
     0
  0
INSERT
  5
8D
330
6E
100
AcDbEntity
  8
0
100
AcDbBlockReference
  2
2_405016_Inch_0_in_023152_0
 10
0.0
 20
0.0
 30
0.0
  0
INSERT
  5
106
330
6E
100
AcDbEntity
  8
0
100
AcDbBlockReference
  2
3_2C_1_0_in_023152_0
 10
0.0
 20
0.0
 30
0.0
  0
INSERT
  5
120
330
6E
100
AcDbEntity
  8
0
100
AcDbBlockReference
  2
4_2C_2_0_in_023152_0
 10
0.0
 20
0.0
 30
0.0
  0
INSERT
  5
14C
330
6E
100
AcDbEntity
  8
0
100
AcDbBlockReference
  2
5_2I_0_in_023152_0
 10
0.0
 20
0.0
 30
0.0
  0
INSERT
  5
166
330
6E
100
AcDbEntity
  8
0
100
AcDbBlockReference
  2
6_023152H_0_in_023152_0
 10
0.0
 20
0.0
 30
0.0
  0
ENDBLK
  5
71
330
6E
100
AcDbEntity
  8
0
100
AcDbBlockEnd
  0
BLOCK
  5
8E
330
8C
100
AcDbEntity
  8
0
100
AcDbBlockBegin
  2
2_405016_Inch_0_in_023152_0
 70
     2
 10
0.0
 20
0.0
 30
0.0
  3
2_405016_Inch_0_in_023152_0
  1

  0
ATTDEF
  5
90
330
8C
100
AcDbEntity
  8
AM_6
100
AcDbText
 10
8.3
 20
0.2525907427704612
 30
0.0
 40
0.5
  1
405016 -Inch
100
AcDbAttributeDefinition
  3

  2
NN
 70
     8
280
     0
  0
ATTDEF
  5
91
330
8C
100
AcDbEntity
  8
AM_6
100
AcDbText
 10
8.3
 20
-0.2474092572295388
 30
0.0
 40
0.5
  1
Grease Fitting
100
AcDbAttributeDefinition
  3

  2
NT
 70
     8
280
     0
  0
ATTDEF
  5
92
330
8C
100
AcDbEntity
  8
AM_6
100
AcDbText
 10
8.3
 20
-0.7474092572295388
 30
0.0
 40
0.5
  1
405016-Inch
100
AcDbAttributeDefinition
  3

  2
NB
 70
     8
280
     0
  0
ATTDEF
  5
93
330
8C
100
AcDbEntity
  8
AM_6
100
AcDbText
 10
8.3
 20
-1.247409257229539
 30
0.0
 40
0.5
  1
$MN.-Inch
100
AcDbAttributeDefinition
  3

  2
NBSYN
 70
     8
280
     0
  0
ATTDEF
  5
94
330
8C
100
AcDbEntity
  8
AM_6
100
AcDbText
 10
8.3
 20
-1.747409257229539
 30
0.0
 40
0.5
  1
405016
100
AcDbAttributeDefinition
  3

  2
LINA
 70
     8
280
     0
  0
ATTDEF
  5
95
330
8C
100
AcDbEntity
  8
AM_6
100
AcDbText
 10
8.3
 20
-2.247409257229539
 30
0.0
 40
0.5
  1
405016
100
AcDbAttributeDefinition
  3

  2
MN
 70
     8
280
     0
  0
ATTDEF
  5
96
330
8C
100
AcDbEntity
  8
AM_6
100
AcDbText
 10
8.3
 20
-2.747409257229539
 30
0.0
 40
0.5
  1
7/16 HEX
100
AcDbAttributeDefinition
  3

  2
H
 70
     8
280
     0
  0
ATTDEF
  5
97
330
8C
100
AcDbEntity
  8
AM_6
100
AcDbText
 10
8.3
 20
-3.247409257229539
 30
0.0
 40
0.5
  1
0.383
100
AcDbAttributeDefinition
  3

  2
NDR
 70
     8
280
     0
  0
ATTDEF
  5
98
330
8C
100
AcDbEntity
  8
AM_6
100
AcDbText
 10
8.3
 20
-3.747409257229539
 30
0.0
 40
0.5
  1
0.337
100
AcDbAttributeDefinition
  3

  2
KDR
 70
     8
280
     0
  0
ATTDEF
  5
99
330
8C
100
AcDbEntity
  8
AM_6
100
AcDbText
 10
8.3
 20
-4.247409257229538
 30
0.0
 40
0.5
  1
0.1575
100
AcDbAttributeDefinition
  3

  2
BZE
 70
     8
280
     0
  0
ATTDEF
  5
9A
330
8C
100
AcDbEntity
  8
AM_6
100
AcDbText
 10
8.3
 20
-4.747409257229538
 30
0.0
 40
0.5
  1
0.4375
100
AcDbAttributeDefinition
  3

  2
HEX
 70
     8
280
     0
  0
ATTDEF
  5
9B
330
8C
100
AcDbEntity
  8
AM_6
100
AcDbText
 10
8.3
 20
-5.247409257229538
 30
0.0
 40
0.5
  1
0.281250
100
AcDbAttributeDefinition
  3

  2
HEX2
 70
     8
280
     0
  0
ATTDEF
  5
9C
330
8C
100
AcDbEntity
  8
AM_6
100
AcDbText
 10
8.3
 20
-5.747409257229538
 30
0.0
 40
0.5
  1
baldor
100
AcDbAttributeDefinition
  3

  2
COMPANY
 70
     8
280
     0
  0
LINE
  5
9F
330
8C
100
AcDbEntity
  8
AM_9
100
AcDbLine
 10
2.45625
 20
0.1616637258772237
 30
0.0
 11
2.45625
 21
-0.1616637258772237
 31
0.0
  0
LINE
  5
A0
330
8C
100
AcDbEntity
  8
AM_9
100
AcDbLine
 10
2.45625
 20
-0.1616637258772237
 30
0.0
 11
2.480003564847762
 21
-0.1854172907249859
 31
0.0
  0
LINE
  5
A1
330
8C
100
AcDbEntity
  8
AM_9
100
AcDbLine
 10
2.480003564847762
 20
0.1854172907249859
 30
0.0
 11
2.45625
 21
0.1616637258772237
 31
0.0
  0
ARC
  5
A2
330
8C
100
AcDbEntity
  8
AM_9
100
AcDbCircle
 10
3.000000000002504
 20
-0.0000000000000087
 30
0.0
 40
0.1999999999981952
100
AcDbArc
 50
315.9291504617199
 51
43.6836181970067
  0
LINE
  5
A3
330
8C
100
AcDbEntity
  8
AM_9
100
AcDbLine
 10
2.480003564847762
 20
0.1854172907249859
 30
0.0
 11
2.480003564847762
 21
-0.1854172907249859
 31
0.0
  0
LINE
  5
A4
330
8C
100
AcDbEntity
  8
AM_9
100
AcDbLine
 10
2.480003564847762
 20
-0.1854172907249859
 30
0.0
 11
2.675
 21
-0.1915112338502295
 31
0.0
  0
LINE
  5
A5
330
8C
100
AcDbEntity
  8
AM_9
100
AcDbLine
 10
2.675
 20
0.1915112338502295
 30
0.0
 11
2.480003564847762
 21
0.1854172907249859
 31
0.0
  0
LINE
  5
A6
330
8C
100
AcDbEntity
  8
AM_9
100
AcDbLine
 10
3.214779591422741
 20
0.0811898816047911
 30
0.0
 11
3.227852618119651
 21
0.0811898816047911
 31
0.0
  0
LINE
  5
A7
330
8C
100
AcDbEntity
  8
AM_9
100
AcDbLine
 10
3.214779591422741
 20
-0.0811898816047911
 30
0.0
 11
3.227852618119651
 21
-0.0811898816047911
 31
0.0
  0
LWPOLYLINE
  5
A8
330
8C
100
AcDbEntity
  8
AM_9
100
AcDbPolyline
 90
        4
 70
     0
 43
0.0
 10
3.214779591422741
 20
-0.0811898816047911
 10
3.210881105947989
 20
-0.0226013472343071
 10
3.211538145387265
 20
0.0384818408139635
 10
3.214779591422741
 20
0.0811898816047911
  0
LINE
  5
A9
330
8C
100
AcDbEntity
  8
AM_9
100
AcDbLine
 10
3.0
 20
0.1102350325170666
 30
0.0
 11
3.0
 21
-0.110631801135074
 31
0.0
  0
ELLIPSE
  5
AA
330
8C
100
AcDbEntity
  8
AM_9
100
AcDbEllipse
 10
3.081540489674682
 20
-0.0000000000000002
 30
0.0
 11
-2.583239341951445E-17
 21
-0.1406249999999998
 31
0.0
210
0.0
220
0.0
230
1.0
 40
0.9063077870366493
 41
5.859216366485143
 42
9.848746901463826
  0
LWPOLYLINE
  5
AB
330
8C
100
AcDbEntity
  8
AM_9
100
AcDbPolyline
 90
        4
 70
     0
 43
0.0
 10
3.214779591422741
 20
0.0811898816047911
 10
3.164673655314263
 20
0.1105606069314186
 10
3.11715195447448
 20
0.1412050309358237
 10
3.087092915312688
 20
0.1623797632095822
  0
LWPOLYLINE
  5
AC
330
8C
100
AcDbEntity
  8
AM_9
100
AcDbPolyline
 90
        4
 70
     0
 43
0.0
 10
3.087092915312688
 20
-0.1623797632095822
 10
3.128862644857367
 20
-0.1333383958028655
 10
3.177063397587891
 20
-0.1030720446435313
 10
3.214779591422741
 20
-0.0811898816047911
  0
LWPOLYLINE
  5
AD
330
8C
100
AcDbEntity
  8
AM_9
100
AcDbPolyline
 90
        3
 70
     0
 43
0.0
 10
3.0
 20
0.0891382003679202
 10
3.031046074830932
 20
0.1054645023299315
 10
3.060360053636335
 20
0.109999959962728
  0
LWPOLYLINE
  5
AE
330
8C
100
AcDbEntity
  8
AM_9
100
AcDbPolyline
 90
        8
 70
     0
 43
0.0
 10
3.0
 20
0.0891382003679202
 10
2.987711773328742
 20
0.0777636883825141
 10
2.969890090732851
 20
0.0501518541477802
 10
2.960426786929244
 20
0.0152931307616317
 10
2.961335561919609
 20
-0.0215822013754014
 10
2.972573282368483
 20
-0.0557614027566447
 10
2.993915057581919
 20
-0.0840091310588356
 10
3.0
 20
-0.0891382003679202
  0
LINE
  5
AF
330
8C
100
AcDbEntity
  8
AM_9
100
AcDbLine
 10
3.0602740226789
 20
-0.1099999999999999
 30
0.0
 11
3.081540489674682
 21
-0.1099999999999999
 31
0.0
  0
LINE
  5
B0
330
8C
100
AcDbEntity
  8
AM_9
100
AcDbLine
 10
3.081540489674682
 20
0.1099999999999999
 30
0.0
 11
3.060274004289025
 21
0.1099999999999999
 31
0.0
  0
LWPOLYLINE
  5
B1
330
8C
100
AcDbEntity
  8
AM_9
100
AcDbPolyline
 90
       12
 70
     0
 43
0.0
 10
3.060360053636335
 20
0.109999959962728
 10
3.065379176802918
 20
0.1098642299902842
 10
3.09914910053443
 20
0.101829760403791
 10
3.128509245274694
 20
0.0822566453824391
 10
3.150118096952378
 20
0.0533912635798488
 10
3.161557273689088
 20
0.018541691433427
 10
3.161588715919457
 20
-0.0183436549788656
 10
3.150249778005945
 20
-0.0531364268189174
 10
3.128813933440343
 20
-0.0819658231771869
 10
3.099649900186104
 20
-0.1016091178663899
 10
3.06599317707334
 20
-0.109829591708451
 10
3.060363911748451
 20
-0.1099999563637608
  0
LWPOLYLINE
  5
B2
330
8C
100
AcDbEntity
  8
AM_9
100
AcDbPolyline
 90
        3
 70
     0
 43
0.0
 10
3.060363911748451
 20
-0.1099999563637608
 10
3.03162556626506
 20
-0.1056462146448629
 10
2.999999999999989
 20
-0.0891382003679049
  0
ELLIPSE
  5
B3
330
8C
100
AcDbEntity
  8
AM_9
100
AcDbEllipse
 10
3.081540489674684
 20
-0.0000000000000022
 30
0.0
 11
-2.583239341951520E-17
 21
-0.1406250000000039
 31
0.0
210
0.0
220
0.0
230
1.0
 40
0.906307787036648
 41
3.764821264091957
 42
4.571432719802692
  0
ELLIPSE
  5
B4
330
8C
100
AcDbEntity
  8
AM_9
100
AcDbEllipse
 10
3.081540489674683
 20
0.0000000000000006
 30
0.0
 11
-2.583239341951458E-17
 21
-0.1406250000000006
 31
0.0
210
0.0
220
0.0
230
1.0
 40
0.9063077870366918
 41
4.853345240966707
 42
5.659956696677455
  0
LWPOLYLINE
  5
B5
330
8C
100
AcDbEntity
  8
AM_9
100
AcDbPolyline
 90
        3
 70
     0
 43
0.0
 10
3.227852618119651
 20
0.0811898816047911
 10
3.231169344127473
 20
0.0014176687078843
 10
3.227852618119651
 20
-0.0811898816047911
  0
LWPOLYLINE
  5
B6
330
8C
100
AcDbEntity
  8
AM_9
100
AcDbPolyline
 90
        3
 70
     0
 43
0.0
 10
3.148396817860385
 20
0.133808274818934
 10
3.166443378377863
 20
0.1224916336047983
 10
3.227852618119651
 20
0.0811898816047911
  0
LINE
  5
B7
330
8C
100
AcDbEntity
  8
AM_9
100
AcDbLine
 10
3.143767827086969
 20
0.1366572723437974
 30
0.0
 11
3.148396817860385
 21
0.133808274818934
 31
0.0
  0
LINE
  5
B8
330
8C
100
AcDbEntity
  8
AM_9
100
AcDbLine
 10
3.148046006715722
 20
-0.1340249177754604
 30
0.0
 11
3.14254849676838
 21
-0.1374043230947565
 31
0.0
  0
LWPOLYLINE
  5
B9
330
8C
100
AcDbEntity
  8
AM_9
100
AcDbPolyline
 90
        3
 70
     0
 43
0.0
 10
3.227852618119651
 20
-0.0811898816047911
 10
3.168682446465653
 20
-0.121062844630589
 10
3.148046006715722
 20
-0.1340249177754604
  0
ELLIPSE
  5
BA
330
8C
100
AcDbEntity
  8
AM_9
100
AcDbEllipse
 10
3.102671402761712
 20
0.0000000000000502
 30
0.0
 11
-2.583239341952403E-17
 21
-0.140625000000052
 31
0.0
210
0.0
220
0.0
230
1.0
 40
0.9063077870366348
 41
0.2290677663012515
 42
2.908516570646853
  0
LWPOLYLINE
  5
BB
330
8C
100
AcDbEntity
  8
AM_9
100
AcDbPolyline
 90
       15
 70
     0
 43
0.0
 10
3.055820734676293
 20
0.0429146681886491
 10
3.061794558572054
 20
0.056016048582603
 10
3.07233815994738
 20
0.0719843262801272
 10
3.085024441222894
 20
0.0849925068374395
 10
3.099326512363885
 20
0.0947117645160822
 10
3.114866071108562
 20
0.1009396005889857
 10
3.13147295668744
 20
0.1034258714015688
 10
3.148966322554964
 20
0.1016781859141276
 10
3.164639549874389
 20
0.096137200673743
 10
3.178987660436265
 20
0.0872121624986213
 10
3.192939688015356
 20
0.0737889204570301
 10
3.20424996953665
 20
0.0573356497648987
 10
3.212508093905817
 20
0.0385482874825657
 10
3.21739442514945
 20
0.0181942834396877
 10
3.218745779294296
 20
0.0
  0
LWPOLYLINE
  5
BC
330
8C
100
AcDbEntity
  8
AM_9
100
AcDbPolyline
 90
       16
 70
     0
 43
0.0
 10
3.218745779294296
 20
0.0
 10
3.218413667838727
 20
-0.0090454902676136
 10
3.215121603402427
 20
-0.0296047425781435
 10
3.208509425115147
 20
-0.0488049414310129
 10
3.198995558464693
 20
-0.0658363812175053
 10
3.187110995367162
 20
-0.0800958685288766
 10
3.17340797670113
 20
-0.0911785849123872
 10
3.158338755730691
 20
-0.0988455311990414
 10
3.142154294483519
 20
-0.1028931472792936
 10
3.124973519852719
 20
-0.1029385567461957
 10
3.107285844349298
 20
-0.0984050331146647
 10
3.092462520038362
 20
-0.0905880016364115
 10
3.077784779796691
 20
-0.0781962253210859
 10
3.06562506321391
 20
-0.0625818433089422
 10
3.056407823210922
 20
-0.0444234807309759
 10
3.052238431857274
 20
-0.0318888274728396
  0
ELLIPSE
  5
BD
330
8C
100
AcDbEntity
  8
AM_9
100
AcDbEllipse
 10
3.161562173218468
 20
0.0
 30
0.0
 11
8.155773951865168E-18
 21
0.1331938965184661
 31
0.0
210
0.0
220
0.0
230
1.0
 40
0.9063077870366502
 41
0.0
 42
6.283185307179586
  0
LINE
  5
BF
330
8C
100
AcDbEntity
  8
AM_5
100
AcDbLine
 10
2.632862509955052
 20
-0.1671831426298035
 30
0.0
 11
2.45625
 21
-0.1616637258772237
 31
0.0
  0
LINE
  5
C0
330
8C
100
AcDbEntity
  8
AM_5
100
AcDbLine
 10
2.675
 20
-0.1915112338502295
 30
0.0
 11
2.632862509955052
 21
-0.1671831426298035
 31
0.0
  0
LINE
  5
C1
330
8C
100
AcDbEntity
  8
AM_5
100
AcDbLine
 10
2.632862509955052
 20
-0.1901943714800312
 30
0.0
 11
2.632862509955052
 21
0.1901943714800313
 31
0.0
  0
LINE
  5
C2
330
8C
100
AcDbEntity
  8
AM_5
100
AcDbLine
 10
2.632862509955052
 20
0.1671831426298035
 30
0.0
 11
2.45625
 21
0.1616637258772237
 31
0.0
  0
LINE
  5
C3
330
8C
100
AcDbEntity
  8
AM_5
100
AcDbLine
 10
2.675
 20
0.1915112338502295
 30
0.0
 11
2.632862509955052
 21
0.1671831426298035
 31
0.0
  0
ELLIPSE
  5
C4
330
8C
100
AcDbEntity
  8
AM_9
100
AcDbEllipse
 10
3.081540489674682
 20
0.0
 30
0.0
 11
-2.020667218593132E-17
 21
-0.11
 31
0.0
210
0.0
220
0.0
230
1.0
 40
0.9063077870366502
 41
0.0
 42
6.283185307179586
  0
LINE
  5
C6
330
8C
100
AcDbEntity
  8
AM_4
100
AcDbLine
 10
2.853124999999999
 20
0.21875
 30
0.0
 11
2.844057400303385
 21
0.2525907427704612
 31
0.0
  0
LINE
  5
C7
330
8C
100
AcDbEntity
  8
AM_4
100
AcDbLine
 10
2.853124999999999
 20
0.21875
 30
0.0
 11
2.853124999999999
 21
-0.21875
 31
0.0
  0
LINE
  5
C8
330
8C
100
AcDbEntity
  8
AM_4
100
AcDbLine
 10
2.844057400303385
 20
-0.2525907427704612
 30
0.0
 11
2.853124999999999
 21
-0.21875
 31
0.0
  0
LINE
  5
C9
330
8C
100
AcDbEntity
  8
AM_4
100
AcDbLine
 10
2.762192599696614
 20
0.2525907427704612
 30
0.0
 11
2.753125
 21
0.21875
 31
0.0
  0
LINE
  5
CA
330
8C
100
AcDbEntity
  8
AM_4
100
AcDbLine
 10
2.753125
 20
0.21875
 30
0.0
 11
2.753125
 21
-0.21875
 31
0.0
  0
LINE
  5
CB
330
8C
100
AcDbEntity
  8
AM_4
100
AcDbLine
 10
2.753125
 20
-0.21875
 30
0.0
 11
2.762192599696614
 21
-0.2525907427704612
 31
0.0
  0
ARC
  5
CC
330
8C
100
AcDbEntity
  8
AM_4
100
AcDbCircle
 10
3.000000000000001
 20
0.000000000000001
 30
0.0
 40
0.1999999999999986
100
AcDbArc
 50
43.68361819650944
 51
90.0
  0
ARC
  5
CD
330
8C
100
AcDbEntity
  8
AM_4
100
AcDbCircle
 10
2.999999999999999
 20
0.0000000000000034
 30
0.0
 40
0.2000000000000032
100
AcDbArc
 50
270.0
 51
315.9291504622166
  0
LINE
  5
CE
330
8C
100
AcDbEntity
  8
AM_4
100
AcDbLine
 10
2.675
 20
-0.2
 30
0.0
 11
2.753125
 21
-0.2
 31
0.0
  0
LINE
  5
CF
330
8C
100
AcDbEntity
  8
AM_4
100
AcDbLine
 10
2.753125
 20
0.2
 30
0.0
 11
2.675
 21
0.2
 31
0.0
  0
LINE
  5
D0
330
8C
100
AcDbEntity
  8
AM_4
100
AcDbLine
 10
3.0
 20
-0.110631801135074
 30
0.0
 11
3.0
 21
-0.2
 31
0.0
  0
LINE
  5
D1
330
8C
100
AcDbEntity
  8
AM_4
100
AcDbLine
 10
2.853124999999999
 20
-0.2
 30
0.0
 11
3.0
 21
-0.2
 31
0.0
  0
LINE
  5
D2
330
8C
100
AcDbEntity
  8
AM_4
100
AcDbLine
 10
3.0
 20
0.2
 30
0.0
 11
2.853124999999999
 21
0.2
 31
0.0
  0
LINE
  5
D3
330
8C
100
AcDbEntity
  8
AM_4
100
AcDbLine
 10
3.0
 20
0.2
 30
0.0
 11
3.0
 21
0.1102350325170666
 31
0.0
  0
LINE
  5
D4
330
8C
100
AcDbEntity
  8
AM_4
100
AcDbLine
 10
2.844057400303385
 20
-0.2525907427704612
 30
0.0
 11
2.762192599696614
 21
-0.2525907427704612
 31
0.0
  0
LWPOLYLINE
  5
D5
330
8C
100
AcDbEntity
  8
AM_4
100
AcDbPolyline
 90
        3
 70
     0
 43
0.0
 10
2.853124999999999
 20
-0.1894430570778459
 10
2.850731619214965
 20
-0.2210168999241536
 10
2.844057400303385
 20
-0.2525907427704612
  0
LWPOLYLINE
  5
D6
330
8C
100
AcDbEntity
  8
AM_4
100
AcDbPolyline
 90
        3
 70
     0
 43
0.0
 10
2.762192599696614
 20
-0.2525907427704612
 10
2.75553952494962
 20
-0.2211588644235643
 10
2.753125
 20
-0.1894430570778459
  0
LWPOLYLINE
  5
D7
330
8C
100
AcDbEntity
  8
AM_4
100
AcDbPolyline
 90
        3
 70
     0
 43
0.0
 10
2.753125
 20
-0.1894430570778459
 10
2.755518380785035
 20
-0.1578692142315383
 10
2.762192599696614
 20
-0.1262953713852306
  0
LWPOLYLINE
  5
D8
330
8C
100
AcDbEntity
  8
AM_4
100
AcDbPolyline
 90
        3
 70
     0
 43
0.0
 10
2.844057400303385
 20
0.2525907427704612
 10
2.850710475050379
 20
0.2211588644235643
 10
2.853124999999999
 20
0.1894430570778459
  0
LINE
  5
D9
330
8C
100
AcDbEntity
  8
AM_4
100
AcDbLine
 10
2.844057400303385
 20
0.2525907427704612
 30
0.0
 11
2.762192599696614
 21
0.2525907427704612
 31
0.0
  0
LWPOLYLINE
  5
DA
330
8C
100
AcDbEntity
  8
AM_4
100
AcDbPolyline
 90
        3
 70
     0
 43
0.0
 10
2.753125
 20
0.1894430570778459
 10
2.755518380785035
 20
0.2210168999241536
 10
2.762192599696614
 20
0.2525907427704612
  0
LINE
  5
DB
330
8C
100
AcDbEntity
  8
AM_4
100
AcDbLine
 10
2.844057400303385
 20
-0.1262953713852306
 30
0.0
 11
2.762192599696614
 21
-0.1262953713852306
 31
0.0
  0
LINE
  5
DC
330
8C
100
AcDbEntity
  8
AM_4
100
AcDbLine
 10
2.844057400303385
 20
0.1262953713852306
 30
0.0
 11
2.762192599696614
 21
0.1262953713852306
 31
0.0
  0
LWPOLYLINE
  5
DD
330
8C
100
AcDbEntity
  8
AM_4
100
AcDbPolyline
 90
        3
 70
     0
 43
0.0
 10
2.762192599696614
 20
-0.1262953713852306
 10
2.758607412517843
 20
-0.0967996321117978
 10
2.753125
 20
0.0
  0
LWPOLYLINE
  5
DE
330
8C
100
AcDbEntity
  8
AM_4
100
AcDbPolyline
 90
        3
 70
     0
 43
0.0
 10
2.853124999999999
 20
0.0
 10
2.847642587482156
 20
-0.0967996321117978
 10
2.844057400303385
 20
-0.1262953713852306
  0
LWPOLYLINE
  5
DF
330
8C
100
AcDbEntity
  8
AM_4
100
AcDbPolyline
 90
        3
 70
     0
 43
0.0
 10
2.844057400303385
 20
-0.1262953713852306
 10
2.85071047505038
 20
-0.1577272497321276
 10
2.853124999999999
 20
-0.1894430570778459
  0
LWPOLYLINE
  5
E0
330
8C
100
AcDbEntity
  8
AM_4
100
AcDbPolyline
 90
        3
 70
     0
 43
0.0
 10
2.853124999999999
 20
0.1894430570778459
 10
2.850731619214965
 20
0.1578692142315383
 10
2.844057400303385
 20
0.1262953713852306
  0
LWPOLYLINE
  5
E1
330
8C
100
AcDbEntity
  8
AM_4
100
AcDbPolyline
 90
        3
 70
     0
 43
0.0
 10
2.844057400303385
 20
0.1262953713852306
 10
2.850710475050379
 20
0.0634316146914367
 10
2.853124999999999
 20
0.0
  0
LWPOLYLINE
  5
E2
330
8C
100
AcDbEntity
  8
AM_4
100
AcDbPolyline
 90
        3
 70
     0
 43
0.0
 10
2.753125
 20
0.0
 10
2.755518380785035
 20
0.0631476856926153
 10
2.762192599696614
 20
0.1262953713852306
  0
LWPOLYLINE
  5
E3
330
8C
100
AcDbEntity
  8
AM_4
100
AcDbPolyline
 90
        3
 70
     0
 43
0.0
 10
2.762192599696614
 20
0.1262953713852306
 10
2.75553952494962
 20
0.1577272497321276
 10
2.753125
 20
0.1894430570778459
  0
LINE
  5
E4
330
8C
100
AcDbEntity
  8
AM_4
100
AcDbLine
 10
3.100588184814567
 20
0.1623797632095822
 30
0.0
 11
3.143767827086969
 21
0.1366572723437974
 31
0.0
  0
LINE
  5
E5
330
8C
100
AcDbEntity
  8
AM_4
100
AcDbLine
 10
3.14254849676838
 20
-0.1374043230947565
 30
0.0
 11
3.100588184814567
 21
-0.1623797632095822
 31
0.0
  0
LINE
  5
E6
330
8C
100
AcDbEntity
  8
AM_4
100
AcDbLine
 10
2.959404468701035
 20
-0.0811898816047911
 30
0.0
 11
3.007153317914338
 21
-0.114187258378066
 31
0.0
  0
LINE
  5
E7
330
8C
100
AcDbEntity
  8
AM_4
100
AcDbLine
 10
3.007153317914338
 20
-0.114187258378066
 30
0.0
 11
3.029110144493329
 21
-0.1281745372222428
 31
0.0
  0
LWPOLYLINE
  5
E8
330
8C
100
AcDbEntity
  8
AM_4
100
AcDbPolyline
 90
        3
 70
     0
 43
0.0
 10
3.029110144493329
 20
-0.1281745372222428
 10
3.048748950047543
 20
-0.14013919758686
 10
3.087092915312688
 20
-0.1623797632095822
  0
LINE
  5
E9
330
8C
100
AcDbEntity
  8
AM_4
100
AcDbLine
 10
3.087092915312688
 20
-0.1623797632095822
 30
0.0
 11
3.100588184814567
 21
-0.1623797632095822
 31
0.0
  0
LINE
  5
EA
330
8C
100
AcDbEntity
  8
AM_4
100
AcDbLine
 10
3.100588184814567
 20
-0.1623797632095822
 30
0.0
 11
3.050241057580363
 21
-0.1281745372222423
 31
0.0
  0
LINE
  5
EB
330
8C
100
AcDbEntity
  8
AM_4
100
AcDbLine
 10
3.087092915312688
 20
0.1623797632095822
 30
0.0
 11
3.029110144493329
 21
0.1281745372222425
 31
0.0
  0
LINE
  5
EC
330
8C
100
AcDbEntity
  8
AM_4
100
AcDbLine
 10
3.029110144493329
 20
0.1281745372222425
 30
0.0
 11
3.007153317914338
 21
0.1141872583780656
 31
0.0
  0
LWPOLYLINE
  5
ED
330
8C
100
AcDbEntity
  8
AM_4
100
AcDbPolyline
 90
        3
 70
     0
 43
0.0
 10
3.007153317914338
 20
0.1141872583780656
 10
2.989944149569911
 20
0.1027100776026271
 10
2.959404468701035
 20
0.0811898816047911
  0
LINE
  5
EE
330
8C
100
AcDbEntity
  8
AM_4
100
AcDbLine
 10
3.050241057580364
 20
0.1281745372222423
 30
0.0
 11
3.100588184814567
 21
0.1623797632095822
 31
0.0
  0
LINE
  5
EF
330
8C
100
AcDbEntity
  8
AM_4
100
AcDbLine
 10
3.087092915312688
 20
0.1623797632095822
 30
0.0
 11
3.100588184814567
 21
0.1623797632095822
 31
0.0
  0
LINE
  5
F0
330
8C
100
AcDbEntity
  8
AM_4
100
AcDbLine
 10
2.973325133450933
 20
0.0811898816047911
 30
0.0
 11
3.028284231001373
 21
0.1141872583780661
 31
0.0
  0
LINE
  5
F1
330
8C
100
AcDbEntity
  8
AM_4
100
AcDbLine
 10
3.028284231001373
 20
-0.1141872583780661
 30
0.0
 11
2.973325133450933
 21
-0.0811898816047911
 31
0.0
  0
LINE
  5
F2
330
8C
100
AcDbEntity
  8
AM_4
100
AcDbLine
 10
2.959404468701035
 20
0.0811898816047911
 30
0.0
 11
2.955354988343318
 21
0.01975639995327
 31
0.0
  0
LINE
  5
F3
330
8C
100
AcDbEntity
  8
AM_4
100
AcDbLine
 10
2.955354988343318
 20
0.01975639995327
 30
0.0
 11
2.955354988343314
 21
-0.0197563999532738
 31
0.0
  0
LWPOLYLINE
  5
F4
330
8C
100
AcDbEntity
  8
AM_4
100
AcDbPolyline
 90
        3
 70
     0
 43
0.0
 10
2.955354988343314
 20
-0.0197563999532738
 10
2.956036203125989
 20
-0.0370737721666024
 10
2.959404468701035
 20
-0.0811898816047911
  0
LINE
  5
F5
330
8C
100
AcDbEntity
  8
AM_4
100
AcDbLine
 10
2.959404468701035
 20
-0.0811898816047911
 30
0.0
 11
2.973325133450933
 21
-0.0811898816047911
 31
0.0
  0
LINE
  5
F6
330
8C
100
AcDbEntity
  8
AM_4
100
AcDbLine
 10
2.973325133450933
 20
-0.0811898816047911
 30
0.0
 11
2.976485901430353
 21
-0.0197563999532697
 31
0.0
  0
LINE
  5
F7
330
8C
100
AcDbEntity
  8
AM_4
100
AcDbLine
 10
2.976485901430353
 20
0.0197563999532697
 30
0.0
 11
2.973325133450933
 21
0.0811898816047911
 31
0.0
  0
LINE
  5
F8
330
8C
100
AcDbEntity
  8
AM_4
100
AcDbLine
 10
2.959404468701035
 20
0.0811898816047911
 30
0.0
 11
2.973325133450933
 21
0.0811898816047911
 31
0.0
  0
LINE
  5
F9
330
8C
100
AcDbEntity
  8
AM_4
100
AcDbLine
 10
3.050241057580363
 20
-0.1281745372222423
 30
0.0
 11
3.028284231001373
 21
-0.1141872583780661
 31
0.0
  0
ELLIPSE
  5
FA
330
8C
100
AcDbEntity
  8
AM_4
100
AcDbEllipse
 10
3.102671402761716
 20
0.0000000000000014
 30
0.0
 11
-2.583239341951420E-17
 21
-0.1406249999999985
 31
0.0
210
0.0
220
0.0
230
1.0
 40
0.9063077870366482
 41
2.908516570646967
 42
3.565561594284243
  0
ELLIPSE
  5
FB
330
8C
100
AcDbEntity
  8
AM_4
100
AcDbEllipse
 10
3.102671402761717
 20
0.0000000000000015
 30
0.0
 11
-2.583239341951473E-17
 21
-0.1406250000000013
 31
0.0
210
0.0
220
0.0
230
1.0
 40
0.906307787036652
 41
5.859216366485138
 42
6.512253073480874
  0
LINE
  5
FC
330
8C
100
AcDbEntity
  8
AM_4
100
AcDbLine
 10
3.028284231001373
 20
0.1141872583780661
 30
0.0
 11
3.050241057580364
 21
0.1281745372222423
 31
0.0
  0
ELLIPSE
  5
FD
330
8C
100
AcDbEntity
  8
AM_4
100
AcDbEllipse
 10
3.102671402761715
 20
0.000000000000001
 30
0.0
 11
-2.583239341951415E-17
 21
-0.1406249999999982
 31
0.0
210
0.0
220
0.0
230
1.0
 40
0.9063077870366532
 41
3.764821264091937
 42
4.57143271980271
  0
LINE
  5
FE
330
8C
100
AcDbEntity
  8
AM_4
100
AcDbLine
 10
2.976485901430353
 20
-0.0197563999532697
 30
0.0
 11
2.976485901430353
 21
0.0197563999532697
 31
0.0
  0
ELLIPSE
  5
FF
330
8C
100
AcDbEntity
  8
AM_4
100
AcDbEllipse
 10
3.102671402761716
 20
-0.0000000000000009
 30
0.0
 11
-2.583239341951421E-17
 21
-0.1406249999999986
 31
0.0
210
0.0
220
0.0
230
1.0
 40
0.9063077870366542
 41
4.853345240966668
 42
5.659956696677441
  0
LWPOLYLINE
  5
100
330
8C
100
AcDbEntity
  8
AM_4
100
AcDbPolyline
 90
       22
 70
     0
 43
0.0
 10
3.088464619001195
 20
0.1110440414593018
 10
3.084443333183446
 20
0.1074592082161925
 10
3.068073504212995
 20
0.0892517067361247
 10
3.05495963994457
 20
0.0681248475770259
 10
3.045538900689856
 20
0.0447435336843028
 10
3.040137339708957
 20
0.0198569410625028
 10
3.038953729257271
 20
-0.0057276047810054
 10
3.042050982994275
 20
-0.0311728899554094
 10
3.049351421537183
 20
-0.0556347124671026
 10
3.06063573814604
 20
-0.0782936394638907
 10
3.075544241952409
 20
-0.0983804560815875
 10
3.093580509254605
 20
-0.1152054715669363
 10
3.114124506697885
 20
-0.1281931698640638
 10
3.13646019788657
 20
-0.136914703618704
 10
3.159816456377714
 20
-0.1411079646210667
 10
3.183411059220686
 20
-0.1406779128540817
 10
3.206482773373462
 20
-0.1356808411836421
 10
3.228298933614752
 20
-0.1263109137507117
 10
3.248193567346649
 20
-0.1128765419007667
 10
3.265553412051897
 20
-0.0957940738978578
 10
3.279827205840189
 20
-0.0755891278822055
 10
3.283083412434431
 20
-0.0696883053795954
  0
LWPOLYLINE
  5
101
330
8C
100
AcDbEntity
  8
AM_4
100
AcDbPolyline
 90
       10
 70
     0
 43
0.0
 10
3.263577848923455
 20
0.0980711052614369
 10
3.257497254719506
 20
0.1044938024403551
 10
3.238533958045397
 20
0.1200729685703674
 10
3.217297259116161
 20
0.1316513076398163
 10
3.19452694118664
 20
0.138855285230743
 10
3.171002566888559
 20
0.1414805296113169
 10
3.147501658603479
 20
0.1394855759101928
 10
3.124778538827012
 20
0.1329753574439123
 10
3.103542948741655
 20
0.1221848684419427
 10
3.088464619001195
 20
0.1110440414593018
  0
LWPOLYLINE
  5
102
330
8C
100
AcDbEntity
  8
AM_4
100
AcDbPolyline
 90
        6
 70
     0
 43
0.0
 10
3.3
 20
0.0
 10
3.299317859521379
 20
0.0144538142909233
 10
3.294779018306881
 20
0.039635537559305
 10
3.286093516557748
 20
0.0635746640140297
 10
3.273530622268218
 20
0.0854427458915271
 10
3.263577848923455
 20
0.0980711052614369
  0
ELLIPSE
  5
103
330
8C
100
AcDbEntity
  8
AM_4
100
AcDbEllipse
 10
3.206212876888188
 20
0.0
 30
0.0
 11
6.336484236534234E-18
 21
0.10348264072459
 31
0.0
210
0.0
220
0.0
230
1.0
 40
0.9063077870366482
 41
0.0
 42
6.283185307179586
  0
ELLIPSE
  5
104
330
8C
100
AcDbEntity
  8
AM_4
100
AcDbEllipse
 10
3.173888580077549
 20
-0.0000000000000004
 30
0.0
 11
-2.556117506982939E-17
 21
-0.1391485560714381
 31
0.0
210
0.0
220
0.0
230
1.0
 40
0.9063077870366516
 41
0.0
 42
6.283185307179586
  0
ENDBLK
  5
8F
330
8C
100
AcDbEntity
  8
0
100
AcDbBlockEnd
  0
BLOCK
  5
107
330
105
100
AcDbEntity
  8
0
100
AcDbBlockBegin
  2
3_2C_1_0_in_023152_0
 70
     2
 10
0.0
 20
0.0
 30
0.0
  3
3_2C_1_0_in_023152_0
  1

  0
ATTDEF
  5
109
330
105
100
AcDbEntity
  8
AM_6
100
AcDbText
 10
6.71875
 20
1.708492116604581
 30
0.0
 40
0.5
  1
E-Type Collar -Inch
100
AcDbAttributeDefinition
  3

  2
NN
 70
     8
280
     0
  0
ATTDEF
  5
10A
330
105
100
AcDbEntity
  8
AM_6
100
AcDbText
 10
6.71875
 20
1.208492116604581
 30
0.0
 40
0.5
  1
E-Type Bearings
100
AcDbAttributeDefinition
  3

  2
NT
 70
     8
280
     0
  0
ATTDEF
  5
10B
330
105
100
AcDbEntity
  8
AM_6
100
AcDbText
 10
6.71875
 20
0.708492116604581
 30
0.0
 40
0.5
  1
2C
100
AcDbAttributeDefinition
  3

  2
NB
 70
     8
280
     0
  0
ATTDEF
  5
10C
330
105
100
AcDbEntity
  8
AM_6
100
AcDbText
 10
6.71875
 20
0.208492116604581
 30
0.0
 40
0.5
  1
$BORE.C
100
AcDbAttributeDefinition
  3

  2
NBSYN
 70
     8
280
     0
  0
ATTDEF
  5
10D
330
105
100
AcDbEntity
  8
AM_6
100
AcDbText
 10
6.71875
 20
-0.291507883395419
 30
0.0
 40
0.5
  1
2C
100
AcDbAttributeDefinition
  3

  2
LINA
 70
     8
280
     0
  0
ATTDEF
  5
10E
330
105
100
AcDbEntity
  8
AM_6
100
AcDbText
 10
6.71875
 20
-0.791507883395419
 30
0.0
 40
0.5
  1
2
100
AcDbAttributeDefinition
  3

  2
BORE
 70
     8
280
     0
  0
ATTDEF
  5
10F
330
105
100
AcDbEntity
  8
AM_6
100
AcDbText
 10
6.71875
 20
-1.291507883395419
 30
0.0
 40
0.5
  1
3.43750
100
AcDbAttributeDefinition
  3

  2
L
 70
     8
280
     0
  0
ATTDEF
  5
110
330
105
100
AcDbEntity
  8
AM_6
100
AcDbText
 10
6.71875
 20
-1.791507883395419
 30
0.0
 40
0.5
  1
3.50
100
AcDbAttributeDefinition
  3

  2
A
 70
     8
280
     0
  0
ATTDEF
  5
111
330
105
100
AcDbEntity
  8
AM_6
100
AcDbText
 10
6.71875
 20
-2.291507883395419
 30
0.0
 40
0.5
  1
1.62
100
AcDbAttributeDefinition
  3

  2
B
 70
     8
280
     0
  0
ATTDEF
  5
112
330
105
100
AcDbEntity
  8
AM_6
100
AcDbText
 10
6.71875
 20
-2.791507883395419
 30
0.0
 40
0.5
  1
2.31
100
AcDbAttributeDefinition
  3

  2
C
 70
     8
280
     0
  0
ATTDEF
  5
113
330
105
100
AcDbEntity
  8
AM_6
100
AcDbText
 10
6.71875
 20
-3.291507883395419
 30
0.0
 40
0.5
  1
3.50
100
AcDbAttributeDefinition
  3

  2
D
 70
     8
280
     0
  0
ATTDEF
  5
114
330
105
100
AcDbEntity
  8
AM_6
100
AcDbText
 10
6.71875
 20
-3.791507883395419
 30
0.0
 40
0.5
  1
0.41
100
AcDbAttributeDefinition
  3

  2
E
 70
     8
280
     0
  0
ATTDEF
  5
115
330
105
100
AcDbEntity
  8
AM_6
100
AcDbText
 10
6.71875
 20
-4.291507883395419
 30
0.0
 40
0.5
  1
0.31
100
AcDbAttributeDefinition
  3

  2
F
 70
     8
280
     0
  0
ATTDEF
  5
116
330
105
100
AcDbEntity
  8
AM_6
100
AcDbText
 10
6.71875
 20
-4.791507883395419
 30
0.0
 40
0.5
  1
3/8-16
100
AcDbAttributeDefinition
  3

  2
CS
 70
     8
280
     0
  0
ATTDEF
  5
117
330
105
100
AcDbEntity
  8
AM_6
100
AcDbText
 10
6.71875
 20
-5.291507883395419
 30
0.0
 40
0.5
  1
0.3750
100
AcDbAttributeDefinition
  3

  2
NDM
 70
     8
280
     0
  0
ATTDEF
  5
118
330
105
100
AcDbEntity
  8
AM_6
100
AcDbText
 10
6.71875
 20
-5.791507883395419
 30
0.0
 40
0.5
  1
0.3070
100
AcDbAttributeDefinition
  3

  2
KDM
 70
     8
280
     0
  0
ATTDEF
  5
119
330
105
100
AcDbEntity
  8
AM_6
100
AcDbText
 10
6.71875
 20
-6.291507883395419
 30
0.0
 40
0.5
  1
baldor
100
AcDbAttributeDefinition
  3

  2
COMPANY
 70
     8
280
     0
  0
ARC
  5
11A
330
105
100
AcDbEntity
  8
AM_9
100
AcDbCircle
 10
-0.0000000000000001
 20
-0.0000000000000001
 30
0.0
 40
1.71875
100
AcDbArc
 50
180.0
 51
0.0
  0
LINE
  5
11B
330
105
100
AcDbEntity
  8
AM_5
100
AcDbLine
 10
1.627660633445841
 20
0.5521072584477443
 30
0.0
 11
1.112141086025503
 21
0.3117165455570416
 31
0.0
  0
LINE
  5
11C
330
105
100
AcDbEntity
  8
AM_5
100
AcDbLine
 10
1.469178785293079
 20
0.891972678586488
 30
0.0
 11
0.9536592378727402
 21
0.6515819656957854
 31
0.0
  0
LINE
  5
11D
330
105
100
AcDbEntity
  8
AM_5
100
AcDbLine
 10
0.1875
 20
1.708492116604581
 30
0.0
 11
0.1875000000000001
 21
1.139679231187442
 31
0.0
  0
LINE
  5
11E
330
105
100
AcDbEntity
  8
AM_5
100
AcDbLine
 10
-0.1874999999999999
 20
1.708492116604581
 30
0.0
 11
-0.1874999999999999
 21
1.139679231187442
 31
0.0
  0
ENDBLK
  5
108
330
105
100
AcDbEntity
  8
0
100
AcDbBlockEnd
  0
BLOCK
  5
121
330
11F
100
AcDbEntity
  8
0
100
AcDbBlockBegin
  2
4_2C_2_0_in_023152_0
 70
     2
 10
0.0
 20
0.0
 30
0.0
  3
4_2C_2_0_in_023152_0
  1

  0
ATTDEF
  5
123
330
11F
100
AcDbEntity
  8
AM_6
100
AcDbText
 10
6.71875
 20
1.71875
 30
0.0
 40
0.5
  1
E-Type Collar -Inch
100
AcDbAttributeDefinition
  3

  2
NN
 70
     8
280
     0
  0
ATTDEF
  5
124
330
11F
100
AcDbEntity
  8
AM_6
100
AcDbText
 10
6.71875
 20
1.21875
 30
0.0
 40
0.5
  1
E-Type Bearings
100
AcDbAttributeDefinition
  3

  2
NT
 70
     8
280
     0
  0
ATTDEF
  5
125
330
11F
100
AcDbEntity
  8
AM_6
100
AcDbText
 10
6.71875
 20
0.71875
 30
0.0
 40
0.5
  1
2C
100
AcDbAttributeDefinition
  3

  2
NB
 70
     8
280
     0
  0
ATTDEF
  5
126
330
11F
100
AcDbEntity
  8
AM_6
100
AcDbText
 10
6.71875
 20
0.21875
 30
0.0
 40
0.5
  1
$BORE.C
100
AcDbAttributeDefinition
  3

  2
NBSYN
 70
     8
280
     0
  0
ATTDEF
  5
127
330
11F
100
AcDbEntity
  8
AM_6
100
AcDbText
 10
6.71875
 20
-0.28125
 30
0.0
 40
0.5
  1
2C
100
AcDbAttributeDefinition
  3

  2
LINA
 70
     8
280
     0
  0
ATTDEF
  5
128
330
11F
100
AcDbEntity
  8
AM_6
100
AcDbText
 10
6.71875
 20
-0.78125
 30
0.0
 40
0.5
  1
2
100
AcDbAttributeDefinition
  3

  2
BORE
 70
     8
280
     0
  0
ATTDEF
  5
129
330
11F
100
AcDbEntity
  8
AM_6
100
AcDbText
 10
6.71875
 20
-1.28125
 30
0.0
 40
0.5
  1
3.43750
100
AcDbAttributeDefinition
  3

  2
L
 70
     8
280
     0
  0
ATTDEF
  5
12A
330
11F
100
AcDbEntity
  8
AM_6
100
AcDbText
 10
6.71875
 20
-1.78125
 30
0.0
 40
0.5
  1
3.50
100
AcDbAttributeDefinition
  3

  2
A
 70
     8
280
     0
  0
ATTDEF
  5
12B
330
11F
100
AcDbEntity
  8
AM_6
100
AcDbText
 10
6.71875
 20
-2.28125
 30
0.0
 40
0.5
  1
1.62
100
AcDbAttributeDefinition
  3

  2
B
 70
     8
280
     0
  0
ATTDEF
  5
12C
330
11F
100
AcDbEntity
  8
AM_6
100
AcDbText
 10
6.71875
 20
-2.78125
 30
0.0
 40
0.5
  1
2.31
100
AcDbAttributeDefinition
  3

  2
C
 70
     8
280
     0
  0
ATTDEF
  5
12D
330
11F
100
AcDbEntity
  8
AM_6
100
AcDbText
 10
6.71875
 20
-3.28125
 30
0.0
 40
0.5
  1
3.50
100
AcDbAttributeDefinition
  3

  2
D
 70
     8
280
     0
  0
ATTDEF
  5
12E
330
11F
100
AcDbEntity
  8
AM_6
100
AcDbText
 10
6.71875
 20
-3.78125
 30
0.0
 40
0.5
  1
0.41
100
AcDbAttributeDefinition
  3

  2
E
 70
     8
280
     0
  0
ATTDEF
  5
12F
330
11F
100
AcDbEntity
  8
AM_6
100
AcDbText
 10
6.71875
 20
-4.28125
 30
0.0
 40
0.5
  1
0.31
100
AcDbAttributeDefinition
  3

  2
F
 70
     8
280
     0
  0
ATTDEF
  5
130
330
11F
100
AcDbEntity
  8
AM_6
100
AcDbText
 10
6.71875
 20
-4.78125
 30
0.0
 40
0.5
  1
3/8-16
100
AcDbAttributeDefinition
  3

  2
CS
 70
     8
280
     0
  0
ATTDEF
  5
131
330
11F
100
AcDbEntity
  8
AM_6
100
AcDbText
 10
6.71875
 20
-5.28125
 30
0.0
 40
0.5
  1
0.3750
100
AcDbAttributeDefinition
  3

  2
NDM
 70
     8
280
     0
  0
ATTDEF
  5
132
330
11F
100
AcDbEntity
  8
AM_6
100
AcDbText
 10
6.71875
 20
-5.78125
 30
0.0
 40
0.5
  1
0.3070
100
AcDbAttributeDefinition
  3

  2
KDM
 70
     8
280
     0
  0
ATTDEF
  5
133
330
11F
100
AcDbEntity
  8
AM_6
100
AcDbText
 10
6.71875
 20
-6.28125
 30
0.0
 40
0.5
  1
baldor
100
AcDbAttributeDefinition
  3

  2
COMPANY
 70
     8
280
     0
  0
LINE
  5
134
330
11F
100
AcDbEntity
  8
AM_9
100
AcDbLine
 10
1.119741613859063
 20
0.3526100724487317
 30
0.0
 11
1.59197328629451
 21
0.5728153177287234
 31
0.0
  0
LINE
  5
135
330
11F
100
AcDbEntity
  8
AM_9
100
AcDbLine
 10
1.462102694461593
 20
0.8513237006850858
 30
0.0
 11
0.9898710220261464
 21
0.6311184554050941
 31
0.0
  0
LINE
  5
136
330
11F
100
AcDbEntity
  8
AM_9
100
AcDbLine
 10
0.15365
 20
1.16385
 30
0.0
 11
0.15365
 21
1.6849
 31
0.0
  0
LINE
  5
137
330
11F
100
AcDbEntity
  8
AM_9
100
AcDbLine
 10
-0.15365
 20
1.6849
 30
0.0
 11
-0.15365
 21
1.16385
 31
0.0
  0
LINE
  5
138
330
11F
100
AcDbEntity
  8
AM_9
100
AcDbLine
 10
-0.15365
 20
1.16385
 30
0.0
 11
0.15365
 21
1.16385
 31
0.0
  0
LINE
  5
139
330
11F
100
AcDbEntity
  8
AM_9
100
AcDbLine
 10
-0.15365
 20
1.16385
 30
0.0
 11
-0.174685981359107
 21
1.142814018640893
 31
0.0
  0
LINE
  5
13A
330
11F
100
AcDbEntity
  8
AM_9
100
AcDbLine
 10
0.1752604076170076
 20
1.142239592382992
 30
0.0
 11
0.15365
 21
1.16385
 31
0.0
  0
LINE
  5
13B
330
11F
100
AcDbEntity
  8
AM_9
100
AcDbLine
 10
0.9898710220261464
 20
0.6311184554050943
 30
0.0
 11
1.119741613859063
 21
0.3526100724487318
 31
0.0
  0
LINE
  5
13C
330
11F
100
AcDbEntity
  8
AM_9
100
AcDbLine
 10
0.9898710220261464
 20
0.6311184554050943
 30
0.0
 11
0.9615310855511566
 21
0.6414333487229856
 31
0.0
  0
LINE
  5
13D
330
11F
100
AcDbEntity
  8
AM_9
100
AcDbLine
 10
1.109119918982896
 20
0.3234272056201264
 30
0.0
 11
1.119741613859063
 21
0.3526100724487318
 31
0.0
  0
LINE
  5
13E
330
11F
100
AcDbEntity
  8
AM_9
100
AcDbLine
 10
1.462102694461593
 20
0.8513237006850858
 30
0.0
 11
1.59197328629451
 21
0.5728153177287234
 31
0.0
  0
LINE
  5
13F
330
11F
100
AcDbEntity
  8
AM_9
100
AcDbLine
 10
1.59197328629451
 20
0.5728153177287234
 30
0.0
 11
1.624272013298755
 21
0.5610595424944883
 31
0.0
  0
LINE
  5
140
330
11F
100
AcDbEntity
  8
AM_9
100
AcDbLine
 10
1.473987804246786
 20
0.8839777714476408
 30
0.0
 11
1.462102694461593
 21
0.8513237006850858
 31
0.0
  0
LINE
  5
141
330
11F
100
AcDbEntity
  8
AM_9
100
AcDbLine
 10
-0.15365
 20
1.6849
 30
0.0
 11
0.15365
 21
1.6849
 31
0.0
  0
LINE
  5
142
330
11F
100
AcDbEntity
  8
AM_9
100
AcDbLine
 10
0.15365
 20
1.6849
 30
0.0
 11
0.1779518522979218
 21
1.709201852297922
 31
0.0
  0
LINE
  5
143
330
11F
100
AcDbEntity
  8
AM_9
100
AcDbLine
 10
-0.1779806804982851
 20
1.709230680498285
 30
0.0
 11
-0.15365
 21
1.6849
 31
0.0
  0
LINE
  5
144
330
11F
100
AcDbEntity
  8
AM_5
100
AcDbLine
 10
-0.1875
 20
1.708492116604581
 30
0.0
 11
-0.1875
 21
1.139679231187443
 31
0.0
  0
LINE
  5
145
330
11F
100
AcDbEntity
  8
AM_5
100
AcDbLine
 10
0.1875
 20
1.708492116604581
 30
0.0
 11
0.1875
 21
1.139679231187443
 31
0.0
  0
LINE
  5
146
330
11F
100
AcDbEntity
  8
AM_5
100
AcDbLine
 10
1.627660633445841
 20
0.5521072584477446
 30
0.0
 11
1.112141086025503
 21
0.3117165455570416
 31
0.0
  0
LINE
  5
147
330
11F
100
AcDbEntity
  8
AM_5
100
AcDbLine
 10
1.469178785293079
 20
0.8919726785864884
 30
0.0
 11
0.9536592378727404
 21
0.6515819656957855
 31
0.0
  0
CIRCLE
  5
148
330
11F
100
AcDbEntity
  8
AM_4
100
AcDbCircle
 10
0.0
 20
0.0
 30
0.0
 40
1.155
  0
CIRCLE
  5
149
330
11F
100
AcDbEntity
  8
AM_4
100
AcDbCircle
 10
0.0
 20
0.0
 30
0.0
 40
1.615416666666667
  0
CIRCLE
  5
14A
330
11F
100
AcDbEntity
  8
AM_4
100
AcDbCircle
 10
-0.0000000000000001
 20
-0.0000000000000001
 30
0.0
 40
1.71875
  0
ENDBLK
  5
122
330
11F
100
AcDbEntity
  8
0
100
AcDbBlockEnd
  0
BLOCK
  5
14D
330
14B
100
AcDbEntity
  8
0
100
AcDbBlockBegin
  2
5_2I_0_in_023152_0
 70
     2
 10
0.0
 20
0.0
 30
0.0
  3
5_2I_0_in_023152_0
  1

  0
ATTDEF
  5
14F
330
14B
100
AcDbEntity
  8
AM_6
100
AcDbText
 10
6.584395944450133
 20
1.155
 30
0.0
 40
0.5
  1
E-Type Insert -Inch
100
AcDbAttributeDefinition
  3

  2
NN
 70
     8
280
     0
  0
ATTDEF
  5
150
330
14B
100
AcDbEntity
  8
AM_6
100
AcDbText
 10
6.584395944450133
 20
0.655
 30
0.0
 40
0.5
  1
E-Type Bearings
100
AcDbAttributeDefinition
  3

  2
NT
 70
     8
280
     0
  0
ATTDEF
  5
151
330
14B
100
AcDbEntity
  8
AM_6
100
AcDbText
 10
6.584395944450133
 20
0.155
 30
0.0
 40
0.5
  1
2I
100
AcDbAttributeDefinition
  3

  2
NB
 70
     8
280
     0
  0
ATTDEF
  5
152
330
14B
100
AcDbEntity
  8
AM_6
100
AcDbText
 10
6.584395944450133
 20
-0.345
 30
0.0
 40
0.5
  1
$BORE.I
100
AcDbAttributeDefinition
  3

  2
NBSYN
 70
     8
280
     0
  0
ATTDEF
  5
153
330
14B
100
AcDbEntity
  8
AM_6
100
AcDbText
 10
6.584395944450133
 20
-0.845
 30
0.0
 40
0.5
  1
2I
100
AcDbAttributeDefinition
  3

  2
LINA
 70
     8
280
     0
  0
ATTDEF
  5
154
330
14B
100
AcDbEntity
  8
AM_6
100
AcDbText
 10
6.584395944450133
 20
-1.345
 30
0.0
 40
0.5
  1
2
100
AcDbAttributeDefinition
  3

  2
BORE
 70
     8
280
     0
  0
ATTDEF
  5
155
330
14B
100
AcDbEntity
  8
AM_6
100
AcDbText
 10
6.584395944450133
 20
-1.845
 30
0.0
 40
0.5
  1
3.50
100
AcDbAttributeDefinition
  3

  2
A
 70
     8
280
     0
  0
ATTDEF
  5
156
330
14B
100
AcDbEntity
  8
AM_6
100
AcDbText
 10
6.584395944450133
 20
-2.345
 30
0.0
 40
0.5
  1
1.62
100
AcDbAttributeDefinition
  3

  2
B
 70
     8
280
     0
  0
ATTDEF
  5
157
330
14B
100
AcDbEntity
  8
AM_6
100
AcDbText
 10
6.584395944450133
 20
-2.845
 30
0.0
 40
0.5
  1
2.31
100
AcDbAttributeDefinition
  3

  2
C
 70
     8
280
     0
  0
ATTDEF
  5
158
330
14B
100
AcDbEntity
  8
AM_6
100
AcDbText
 10
6.584395944450133
 20
-3.345
 30
0.0
 40
0.5
  1
3.50
100
AcDbAttributeDefinition
  3

  2
D
 70
     8
280
     0
  0
ATTDEF
  5
159
330
14B
100
AcDbEntity
  8
AM_6
100
AcDbText
 10
6.584395944450133
 20
-3.845
 30
0.0
 40
0.5
  1
0.41
100
AcDbAttributeDefinition
  3

  2
E
 70
     8
280
     0
  0
ATTDEF
  5
15A
330
14B
100
AcDbEntity
  8
AM_6
100
AcDbText
 10
6.584395944450133
 20
-4.345
 30
0.0
 40
0.5
  1
0.31
100
AcDbAttributeDefinition
  3

  2
F
 70
     8
280
     0
  0
ATTDEF
  5
15B
330
14B
100
AcDbEntity
  8
AM_6
100
AcDbText
 10
6.584395944450133
 20
-4.845
 30
0.0
 40
0.5
  1
baldor
100
AcDbAttributeDefinition
  3

  2
COMPANY
 70
     8
280
     0
  0
LINE
  5
15C
330
14B
100
AcDbEntity
  8
AM_9
100
AcDbLine
 10
0.9435286779417971
 20
0.6661671216004321
 30
0.0
 11
0.8004228542252444
 21
0.5994357800748243
 31
0.0
  0
LINE
  5
15D
330
14B
100
AcDbEntity
  8
AM_9
100
AcDbLine
 10
0.9738028982794591
 20
0.2278992756139342
 30
0.0
 11
1.116901179302188
 21
0.2946270999236486
 31
0.0
  0
LINE
  5
15E
330
14B
100
AcDbEntity
  8
AM_9
100
AcDbLine
 10
-0.205
 20
1.136661779070626
 30
0.0
 11
-0.205
 21
0.9787619731068428
 31
0.0
  0
LINE
  5
15F
330
14B
100
AcDbEntity
  8
AM_9
100
AcDbLine
 10
0.205
 20
0.978879545461458
 30
0.0
 11
0.205
 21
1.136771028983426
 31
0.0
  0
LINE
  5
162
330
14B
100
AcDbEntity
  8
AM_7
100
AcDbLine
 10
-0.053681307386017
 20
-0.0250320047338722
 30
0.0
 11
1.584395944450133
 21
0.738815962446819
 31
0.0
  0
CIRCLE
  5
163
330
14B
100
AcDbEntity
  8
AM_4
100
AcDbCircle
 10
0.0
 20
0.0
 30
0.0
 40
1.155
  0
CIRCLE
  5
164
330
14B
100
AcDbEntity
  8
AM_4
100
AcDbCircle
 10
0.0
 20
0.0
 30
0.0
 40
1.0
  0
ENDBLK
  5
14E
330
14B
100
AcDbEntity
  8
0
100
AcDbBlockEnd
  0
BLOCK
  5
167
330
165
100
AcDbEntity
  8
0
100
AcDbBlockBegin
  2
6_023152H_0_in_023152_0
 70
     2
 10
0.0
 20
0.0
 30
0.0
  3
6_023152H_0_in_023152_0
  1

  0
ATTDEF
  5
169
330
165
100
AcDbEntity
  8
AM_6
100
AcDbText
 10
8.25
 20
3.125
 30
0.0
 40
0.5
  1
TP-E-Housing
100
AcDbAttributeDefinition
  3

  2
NN
 70
     8
280
     0
  0
ATTDEF
  5
16A
330
165
100
AcDbEntity
  8
AM_6
100
AcDbText
 10
8.25
 20
2.625
 30
0.0
 40
0.5
  1
Type E-xtra TP Take-Up Bearing (Contact Seal) -Inch
100
AcDbAttributeDefinition
  3

  2
NT
 70
     8
280
     0
  0
ATTDEF
  5
16B
330
165
100
AcDbEntity
  8
AM_6
100
AcDbText
 10
8.25
 20
2.125
 30
0.0
 40
0.5
  1
023152H
100
AcDbAttributeDefinition
  3

  2
NB
 70
     8
280
     0
  0
ATTDEF
  5
16C
330
165
100
AcDbEntity
  8
AM_6
100
AcDbText
 10
8.25
 20
1.625
 30
0.0
 40
0.5
  1
$PN.H
100
AcDbAttributeDefinition
  3

  2
NBSYN
 70
     8
280
     0
  0
ATTDEF
  5
16D
330
165
100
AcDbEntity
  8
AM_6
100
AcDbText
 10
8.25
 20
1.125
 30
0.0
 40
0.5
  1
023152
100
AcDbAttributeDefinition
  3

  2
LINA
 70
     8
280
     0
  0
ATTDEF
  5
16E
330
165
100
AcDbEntity
  8
AM_6
100
AcDbText
 10
8.25
 20
0.625
 30
0.0
 40
0.5
  1
2
100
AcDbAttributeDefinition
  3

  2
SS
 70
     8
280
     0
  0
ATTDEF
  5
16F
330
165
100
AcDbEntity
  8
AM_6
100
AcDbText
 10
8.25
 20
0.125
 30
0.0
 40
0.5
  1
023152
100
AcDbAttributeDefinition
  3

  2
PN
 70
     8
280
     0
  0
ATTDEF
  5
170
330
165
100
AcDbEntity
  8
AM_6
100
AcDbText
 10
8.25
 20
-0.375
 30
0.0
 40
0.5
  1
TP-E-200R
100
AcDbAttributeDefinition
  3

  2
DESCRIPTION
 70
     8
280
     0
  0
ATTDEF
  5
171
330
165
100
AcDbEntity
  8
AM_6
100
AcDbText
 10
8.25
 20
-0.875
 30
0.0
 40
0.5
  1
3-1/2
100
AcDbAttributeDefinition
  3

  2
A
 70
     8
280
     0
  0
ATTDEF
  5
172
330
165
100
AcDbEntity
  8
AM_6
100
AcDbText
 10
8.25
 20
-1.375
 30
0.0
 40
0.5
  1
3-1/4
100
AcDbAttributeDefinition
  3

  2
D
 70
     8
280
     0
  0
ATTDEF
  5
173
330
165
100
AcDbEntity
  8
AM_6
100
AcDbText
 10
8.25
 20
-1.875
 30
0.0
 40
0.5
  1
2-3/8
100
AcDbAttributeDefinition
  3

  2
E
 70
     8
280
     0
  0
ATTDEF
  5
174
330
165
100
AcDbEntity
  8
AM_6
100
AcDbText
 10
8.25
 20
-2.375
 30
0.0
 40
0.5
  1
2-3/8
100
AcDbAttributeDefinition
  3

  2
F
 70
     8
280
     0
  0
ATTDEF
  5
175
330
165
100
AcDbEntity
  8
AM_6
100
AcDbText
 10
8.25
 20
-2.875
 30
0.0
 40
0.5
  1
9/16
100
AcDbAttributeDefinition
  3

  2
G
 70
     8
280
     0
  0
ATTDEF
  5
176
330
165
100
AcDbEntity
  8
AM_6
100
AcDbText
 10
8.25
 20
-3.375
 30
0.0
 40
0.5
  1
13/16
100
AcDbAttributeDefinition
  3

  2
H
 70
     8
280
     0
  0
ATTDEF
  5
177
330
165
100
AcDbEntity
  8
AM_6
100
AcDbText
 10
8.25
 20
-3.875
 30
0.0
 40
0.5
  1
2-9/16
100
AcDbAttributeDefinition
  3

  2
J
 70
     8
280
     0
  0
ATTDEF
  5
178
330
165
100
AcDbEntity
  8
AM_6
100
AcDbText
 10
8.25
 20
-4.375
 30
0.0
 40
0.5
  1
3-7/16
100
AcDbAttributeDefinition
  3

  2
L
 70
     8
280
     0
  0
ATTDEF
  5
179
330
165
100
AcDbEntity
  8
AM_6
100
AcDbText
 10
8.25
 20
-4.875
 30
0.0
 40
0.5
  1
1-3/4
100
AcDbAttributeDefinition
  3

  2
N
 70
     8
280
     0
  0
ATTDEF
  5
17A
330
165
100
AcDbEntity
  8
AM_6
100
AcDbText
 10
8.25
 20
-5.375
 30
0.0
 40
0.5
  1
1-1/4
100
AcDbAttributeDefinition
  3

  2
U
 70
     8
280
     0
  0
ATTDEF
  5
17B
330
165
100
AcDbEntity
  8
AM_6
100
AcDbText
 10
8.25
 20
-5.875
 30
0.0
 40
0.5
  1
13/16
100
AcDbAttributeDefinition
  3

  2
V
 70
     8
280
     0
  0
ATTDEF
  5
17C
330
165
100
AcDbEntity
  8
AM_6
100
AcDbText
 10
8.25
 20
-6.375
 30
0.0
 40
0.5
  1
1-3/8
100
AcDbAttributeDefinition
  3

  2
W
 70
     8
280
     0
  0
ATTDEF
  5
17D
330
165
100
AcDbEntity
  8
AM_6
100
AcDbText
 10
8.25
 20
-6.875
 30
0.0
 40
0.5
  1
baldor
100
AcDbAttributeDefinition
  3

  2
COMPANY
 70
     8
280
     0
  0
LWPOLYLINE
  5
17E
330
165
100
AcDbEntity
  8
AM_9
100
AcDbPolyline
 90
        8
 70
     0
 43
0.0
 10
1.704450259695267
 20
-1.653926936785521
 10
1.705856784021441
 20
-1.652476212357693
 10
1.724284883342899
 20
-1.633238084626722
 10
1.740221417702873
 20
-1.616244068140201
 10
1.757875742389774
 20
-1.597027825154465
 10
1.781872770327714
 20
-1.570202206653466
 10
1.8066190830106
 20
-1.54167197837346
 10
1.824685954927608
 20
-1.520245429491542
  0
LWPOLYLINE
  5
17F
330
165
100
AcDbEntity
  8
AM_9
100
AcDbPolyline
 90
        7
 70
     0
 43
0.0
 10
-1.824685954927608
 20
-1.520245429491542
 10
-1.801722541415529
 20
-1.547387206665668
 10
-1.77887887091479
 20
-1.573599365344597
 10
-1.753876401946294
 20
-1.60141016804795
 10
-1.731029706817429
 20
-1.626087683403194
 10
-1.709990213379666
 20
-1.648198553010457
 10
-1.704450259695267
 20
-1.65392693678552
  0
LWPOLYLINE
  5
180
330
165
100
AcDbEntity
  8
AM_9
100
AcDbPolyline
 90
        3
 70
     0
 43
0.0
 10
2.350891840765825
 20
0.337538965188717
 10
2.345742433412289
 20
0.3716306700458096
 10
2.338744655258457
 20
0.4133986423538424
  0
LWPOLYLINE
  5
181
330
165
100
AcDbEntity
  8
AM_9
100
AcDbPolyline
 90
        5
 70
     0
 43
0.0
 10
2.373025702139898
 20
-0.0968195072464263
 10
2.374130655425343
 20
-0.0634793035607975
 10
2.374910241185355
 20
0.0206481551940888
 10
2.372761616626963
 20
0.1026622429556782
 10
2.372340060274296
 20
0.1123727654627521
  0
LWPOLYLINE
  5
182
330
165
100
AcDbEntity
  8
AM_9
100
AcDbPolyline
 90
        3
 70
     0
 43
0.0
 10
2.338744655258457
 20
-0.4133986423538424
 10
2.347537497230413
 20
-0.3600947205008079
 10
2.352026458886786
 20
-0.3295398863513833
  0
LINE
  5
183
330
165
100
AcDbEntity
  8
AM_9
100
AcDbLine
 10
-1.65
 20
2.375000008381903
 30
0.0
 11
-3.0
 21
2.375
 31
0.0
  0
LINE
  5
184
330
165
100
AcDbEntity
  8
AM_9
100
AcDbLine
 10
3.0
 20
2.375
 30
0.0
 11
1.65
 21
2.375000008381903
 31
0.0
  0
LINE
  5
185
330
165
100
AcDbEntity
  8
AM_9
100
AcDbLine
 10
-2.1875
 20
1.8125
 30
0.0
 11
2.1875
 21
1.8125
 31
0.0
  0
LINE
  5
186
330
165
100
AcDbEntity
  8
AM_9
100
AcDbLine
 10
2.1875
 20
3.125
 30
0.0
 11
2.1875
 21
1.75
 31
0.0
  0
LINE
  5
187
330
165
100
AcDbEntity
  8
AM_9
100
AcDbLine
 10
2.1875
 20
1.75
 30
0.0
 11
3.0
 21
1.75
 31
0.0
  0
LINE
  5
188
330
165
100
AcDbEntity
  8
AM_9
100
AcDbLine
 10
-2.1875
 20
3.125
 30
0.0
 11
-2.1875
 21
1.75
 31
0.0
  0
LINE
  5
189
330
165
100
AcDbEntity
  8
AM_9
100
AcDbLine
 10
-3.0
 20
1.75
 30
0.0
 11
-2.1875
 21
1.75
 31
0.0
  0
LINE
  5
18A
330
165
100
AcDbEntity
  8
AM_9
100
AcDbLine
 10
3.25
 20
-2.0
 30
0.0
 11
2.0
 21
-2.0
 31
0.0
  0
LINE
  5
18B
330
165
100
AcDbEntity
  8
AM_9
100
AcDbLine
 10
-2.0
 20
-2.0
 30
0.0
 11
-3.25
 21
-2.0
 31
0.0
  0
LINE
  5
18C
330
165
100
AcDbEntity
  8
AM_9
100
AcDbLine
 10
2.0
 20
-1.959375
 30
0.0
 11
-2.0
 21
-1.959375
 31
0.0
  0
LINE
  5
18D
330
165
100
AcDbEntity
  8
AM_9
100
AcDbLine
 10
-2.0
 20
-1.959375
 30
0.0
 11
-2.0
 21
-3.25
 31
0.0
  0
LINE
  5
18E
330
165
100
AcDbEntity
  8
AM_9
100
AcDbLine
 10
2.0
 20
-1.959375
 30
0.0
 11
2.0
 21
-3.25
 31
0.0
  0
LINE
  5
18F
330
165
100
AcDbEntity
  8
AM_7
100
AcDbLine
 10
-2.7325
 20
0.0
 30
0.0
 11
3.2371875
 21
0.0
 31
0.0
  0
LINE
  5
190
330
165
100
AcDbEntity
  8
AM_7
100
AcDbLine
 10
0.0000000000000071
 20
-2.49374999999999
 30
0.0
 11
0.0000000000000071
 21
2.493749999999995
 31
0.0
  0
ARC
  5
191
330
165
100
AcDbEntity
  8
AM_4
100
AcDbCircle
 10
4.421658902508156
 20
-0.0386957689764292
 30
0.0
 40
1.947043462599366
100
AcDbArc
 50
191.0956288838743
 51
229.5456129091402
  0
ARC
  5
192
330
165
100
AcDbEntity
  8
AM_4
100
AcDbCircle
 10
-4.421658902508148
 20
-0.0386957689764302
 30
0.0
 40
1.94704346259936
100
AcDbArc
 50
310.4543870908596
 51
358.8612220178627
  0
ARC
  5
193
330
165
100
AcDbEntity
  8
AM_4
100
AcDbCircle
 10
2.760000000000002
 20
1.383291853689109
 30
0.0
 40
0.2399999999999981
100
AcDbArc
 50
319.4442739678132
 51
337.5565363306108
  0
ARC
  5
194
330
165
100
AcDbEntity
  8
AM_4
100
AcDbCircle
 10
4.421658902508165
 20
-0.0386957689764358
 30
0.0
 40
1.947043462599376
100
AcDbArc
 50
139.4442852698894
 51
166.5736451016483
  0
ARC
  5
195
330
165
100
AcDbEntity
  8
AM_4
100
AcDbCircle
 10
-2.759999999999953
 20
1.38329185368914
 30
0.0
 40
0.2400000000000517
100
AcDbArc
 50
202.4434636693919
 51
220.5557144299708
  0
ARC
  5
196
330
165
100
AcDbEntity
  8
AM_4
100
AcDbCircle
 10
-4.42165890250815
 20
-0.0386957689764316
 30
0.0
 40
1.947043462599362
100
AcDbArc
 50
1.138777982137582
 51
40.55571616024394
  0
LWPOLYLINE
  5
197
330
165
100
AcDbEntity
  8
AM_4
100
AcDbPolyline
 90
        6
 70
     0
 43
0.0
 10
3.243563065027499
 20
-1.65392693678552
 10
3.237874538063218
 20
-1.633817686183484
 10
3.225552864264352
 20
-1.603606491260151
 10
3.205387493308836
 20
-1.56976926688849
 10
3.176320393020573
 20
-1.5361136578793
 10
3.164911483550324
 20
-1.525828638021343
  0
LINE
  5
198
330
165
100
AcDbEntity
  8
AM_4
100
AcDbLine
 10
3.158334380194716
 20
-1.520245429491542
 30
0.0
 11
1.824685954927608
 21
-1.520245429491544
 31
0.0
  0
LINE
  5
199
330
165
100
AcDbEntity
  8
AM_4
100
AcDbLine
 10
3.158334380194716
 20
-1.520245429491542
 30
0.0
 11
3.164911483550324
 21
-1.525828638021343
 31
0.0
  0
LWPOLYLINE
  5
19A
330
165
100
AcDbEntity
  8
AM_4
100
AcDbPolyline
 90
        6
 70
     0
 43
0.0
 10
-3.164911446430697
 20
-1.525828606652258
 10
-3.184597312017594
 20
-1.54449487838043
 10
-3.20180534608238
 20
-1.564879126483096
 10
-3.22400846335142
 20
-1.600508757236888
 10
-3.237306664944156
 20
-1.632120899145652
 10
-3.243563065027501
 20
-1.65392693678552
  0
LINE
  5
19B
330
165
100
AcDbEntity
  8
AM_4
100
AcDbLine
 10
-1.824685954927608
 20
-1.520245429491542
 30
0.0
 11
-3.158334380194716
 21
-1.520245429491542
 31
0.0
  0
LINE
  5
19C
330
165
100
AcDbEntity
  8
AM_4
100
AcDbLine
 10
-3.164911446430697
 20
-1.525828606652258
 30
0.0
 11
-3.158334380194716
 21
-1.520245429491542
 31
0.0
  0
LINE
  5
19D
330
165
100
AcDbEntity
  8
AM_4
100
AcDbLine
 10
2.675
 20
0.4000000000000006
 30
0.0
 11
2.675
 21
-0.4000000000000006
 31
0.0
  0
ARC
  5
19E
330
165
100
AcDbEntity
  8
AM_4
100
AcDbCircle
 10
2.575000000000002
 20
-0.4000000000000014
 30
0.0
 40
0.0999999999999986
100
AcDbArc
 50
270.0
 51
0.0
  0
ARC
  5
19F
330
165
100
AcDbEntity
  8
AM_4
100
AcDbCircle
 10
2.575000000000002
 20
0.4000000000000015
 30
0.0
 40
0.0999999999999983
100
AcDbArc
 50
0.0
 51
90.0
  0
LINE
  5
1A0
330
165
100
AcDbEntity
  8
AM_4
100
AcDbLine
 10
2.527829742183798
 20
0.4133986423538425
 30
0.0
 11
2.338744655258457
 21
0.4133986423538425
 31
0.0
  0
LINE
  5
1A1
330
165
100
AcDbEntity
  8
AM_4
100
AcDbLine
 10
2.338744655258457
 20
-0.4133986423538425
 30
0.0
 11
2.511010844404928
 21
-0.4133986423538425
 31
0.0
  0
LINE
  5
1A2
330
165
100
AcDbEntity
  8
AM_4
100
AcDbLine
 10
2.530052005795554
 20
-0.5000000000000001
 30
0.0
 11
2.575
 21
-0.5000000000000001
 31
0.0
  0
LINE
  5
1A3
330
165
100
AcDbEntity
  8
AM_4
100
AcDbLine
 10
2.575
 20
0.5000000000000001
 30
0.0
 11
2.550620390414452
 21
0.5000000000000001
 31
0.0
  0
LINE
  5
1A4
330
165
100
AcDbEntity
  8
AM_4
100
AcDbLine
 10
2.575
 20
0.5000000000000001
 30
0.0
 11
2.575
 21
-0.5000000000000001
 31
0.0
  0
LWPOLYLINE
  5
1A5
330
165
100
AcDbEntity
  8
AM_4
100
AcDbPolyline
 90
        7
 70
     0
 43
0.0
 10
-2.375000000000001
 20
-0.4133986423538424
 10
-2.392832135579182
 20
-0.4114586695176485
 10
-2.401667299208704
 20
-0.4090113179498888
 10
-2.429764637542362
 20
-0.3934921390975475
 10
-2.451286245271258
 20
-0.369869856719935
 10
-2.469226582382464
 20
-0.329862174634108
 10
-2.475000000000005
 20
-0.2844265063245686
  0
LWPOLYLINE
  5
1A6
330
165
100
AcDbEntity
  8
AM_4
100
AcDbPolyline
 90
        7
 70
     0
 43
0.0
 10
-2.475000000000038
 20
0.2844265063245718
 10
-2.474449510898647
 20
0.2989830642476244
 10
-2.463228807811637
 20
0.3475210808573372
 10
-2.442657526831467
 20
0.3810915574954721
 10
-2.417466418845923
 20
0.4018993855183594
 10
-2.386434199201991
 20
0.4126051530924117
 10
-2.375000000000001
 20
0.4133986423538424
  0
LINE
  5
1A7
330
165
100
AcDbEntity
  8
AM_4
100
AcDbLine
 10
-2.475000000000038
 20
0.2844265063245718
 30
0.0
 11
-2.475000000000005
 21
-0.2844265063245686
 31
0.0
  0
LINE
  5
1A8
330
165
100
AcDbEntity
  8
AM_4
100
AcDbLine
 10
-2.338744655258457
 20
0.4133986423538425
 30
0.0
 11
-2.375000000000001
 21
0.4133986423538424
 31
0.0
  0
LINE
  5
1A9
330
165
100
AcDbEntity
  8
AM_4
100
AcDbLine
 10
-2.375000000000001
 20
0.4133986423538424
 30
0.0
 11
-2.375000000000001
 21
-0.4133986423538424
 31
0.0
  0
LINE
  5
1AA
330
165
100
AcDbEntity
  8
AM_4
100
AcDbLine
 10
-2.375000000000001
 20
-0.4133986423538424
 30
0.0
 11
-2.338744655258457
 21
-0.4133986423538425
 31
0.0
  0
LINE
  5
1AB
330
165
100
AcDbEntity
  8
AM_4
100
AcDbLine
 10
-1.75
 20
3.125
 30
0.0
 11
-1.75
 21
2.475
 31
0.0
  0
LINE
  5
1AC
330
165
100
AcDbEntity
  8
AM_4
100
AcDbLine
 10
-1.75
 20
3.125
 30
0.0
 11
-2.828571428571427
 21
3.125
 31
0.0
  0
LWPOLYLINE
  5
1AD
330
165
100
AcDbEntity
  8
AM_4
100
AcDbPolyline
 90
       19
 70
     0
 43
0.0
 10
-3.0
 20
2.953571428571427
 10
-2.999347662530014
 20
2.968512413042455
 10
-2.997395614802093
 20
2.983339687600044
 10
-2.994158713078126
 20
2.99794040773186
 10
-2.989661592134727
 20
3.012203453141542
 10
-2.983938477777711
 20
3.026020273441262
 10
-2.977032926363047
 20
3.039285714285714
 10
-2.968997493306684
 20
3.051898817660179
 10
-2.95989333310611
 20
3.063763590231978
 10
-2.949789733917694
 20
3.074789733917693
 10
-2.938763590231978
 20
3.08489333310611
 10
-2.926898817660179
 20
3.093997493306684
 10
-2.914285714285714
 20
3.102032926363047
 10
-2.901020273441262
 20
3.108938477777711
 10
-2.887203453141542
 20
3.114661592134727
 10
-2.87294040773186
 20
3.119158713078126
 10
-2.858339687600044
 20
3.122395614802093
 10
-2.843512413042455
 20
3.124347662530013
 10
-2.828571428571427
 20
3.125
  0
LINE
  5
1AE
330
165
100
AcDbEntity
  8
AM_4
100
AcDbLine
 10
-3.0
 20
1.383291853689117
 30
0.0
 11
-3.0
 21
2.953571428571427
 31
0.0
  0
LWPOLYLINE
  5
1AF
330
165
100
AcDbEntity
  8
AM_4
100
AcDbPolyline
 90
        5
 70
     0
 43
0.0
 10
-2.981821606483906
 20
1.291666666666667
 10
-2.984718232382235
 20
1.299020173778225
 10
-2.991503723536863
 20
1.319998678791915
 10
-2.99825151082717
 20
1.354374426615274
 10
-3.0
 20
1.383291853689117
  0
LINE
  5
1B0
330
165
100
AcDbEntity
  8
AM_4
100
AcDbLine
 10
-1.993043457183566
 20
1.291666666666667
 30
0.0
 11
-2.981821606483906
 21
1.291666666666667
 31
0.0
  0
LINE
  5
1B1
330
165
100
AcDbEntity
  8
AM_4
100
AcDbLine
 10
2.981821606483909
 20
1.291666666666667
 30
0.0
 11
1.993043457183566
 21
1.291666666666667
 31
0.0
  0
LWPOLYLINE
  5
1B2
330
165
100
AcDbEntity
  8
AM_4
100
AcDbPolyline
 90
        5
 70
     0
 43
0.0
 10
3.0
 20
1.383291853689107
 10
2.996741677228922
 20
1.343878933690248
 10
2.989769301374236
 20
1.31396604214683
 10
2.983328361416199
 20
1.295403043325357
 10
2.981821606483909
 20
1.291666666666667
  0
LINE
  5
1B3
330
165
100
AcDbEntity
  8
AM_4
100
AcDbLine
 10
-1.65
 20
2.375
 30
0.0
 11
1.65
 21
2.375
 31
0.0
  0
ARC
  5
1B4
330
165
100
AcDbEntity
  8
AM_4
100
AcDbCircle
 10
-1.65
 20
2.475
 30
0.0
 40
0.1000000000000001
100
AcDbArc
 50
180.0
 51
270.0
  0
LINE
  5
1B5
330
165
100
AcDbEntity
  8
AM_4
100
AcDbLine
 10
-1.75
 20
2.84375
 30
0.0
 11
-3.0
 21
2.84375
 31
0.0
  0
LINE
  5
1B6
330
165
100
AcDbEntity
  8
AM_4
100
AcDbLine
 10
-1.890864659973523
 20
1.432291666666667
 30
0.0
 11
-3.0
 21
1.432291666666667
 31
0.0
  0
LINE
  5
1B7
330
165
100
AcDbEntity
  8
AM_4
100
AcDbLine
 10
3.0
 20
1.432291666666667
 30
0.0
 11
1.890864659973526
 21
1.432291666666661
 31
0.0
  0
LINE
  5
1B8
330
165
100
AcDbEntity
  8
AM_4
100
AcDbLine
 10
1.75
 20
2.475
 30
0.0
 11
1.75
 21
3.125
 31
0.0
  0
ARC
  5
1B9
330
165
100
AcDbEntity
  8
AM_4
100
AcDbCircle
 10
1.650000000000001
 20
2.474999999999999
 30
0.0
 40
0.0999999999999992
100
AcDbArc
 50
270.0
 51
0.0
  0
LINE
  5
1BA
330
165
100
AcDbEntity
  8
AM_4
100
AcDbLine
 10
3.0
 20
2.84375
 30
0.0
 11
1.75
 21
2.84375
 31
0.0
  0
LINE
  5
1BB
330
165
100
AcDbEntity
  8
AM_4
100
AcDbLine
 10
3.0
 20
2.953571428571429
 30
0.0
 11
3.0
 21
1.383291853689107
 31
0.0
  0
LWPOLYLINE
  5
1BC
330
165
100
AcDbEntity
  8
AM_4
100
AcDbPolyline
 90
       19
 70
     0
 43
0.0
 10
2.828571428571428
 20
3.125
 10
2.843512413042456
 20
3.124347662530013
 10
2.858339687600045
 20
3.122395614802092
 10
2.87294040773186
 20
3.119158713078126
 10
2.887203453141542
 20
3.114661592134726
 10
2.901020273441262
 20
3.108938477777711
 10
2.914285714285714
 20
3.102032926363046
 10
2.926898817660179
 20
3.093997493306684
 10
2.938763590231978
 20
3.08489333310611
 10
2.949789733917694
 20
3.074789733917693
 10
2.95989333310611
 20
3.063763590231978
 10
2.968997493306684
 20
3.051898817660179
 10
2.977032926363046
 20
3.039285714285714
 10
2.983938477777711
 20
3.026020273441262
 10
2.989661592134726
 20
3.012203453141543
 10
2.994158713078126
 20
2.997940407731861
 10
2.997395614802093
 20
2.983339687600045
 10
2.999347662530013
 20
2.968512413042455
 10
3.0
 20
2.953571428571429
  0
LINE
  5
1BD
330
165
100
AcDbEntity
  8
AM_4
100
AcDbLine
 10
2.828571428571428
 20
3.125
 30
0.0
 11
1.75
 21
3.125
 31
0.0
  0
CIRCLE
  5
1BE
330
165
100
AcDbEntity
  8
AM_4
100
AcDbCircle
 10
0.0
 20
0.0
 30
0.0
 40
1.75
  0
LINE
  5
1BF
330
165
100
AcDbEntity
  8
AM_4
100
AcDbLine
 10
3.25
 20
-1.709138300244144
 30
0.0
 11
3.25
 21
-3.25
 31
0.0
  0
LINE
  5
1C0
330
165
100
AcDbEntity
  8
AM_4
100
AcDbLine
 10
-3.25
 20
-3.25
 30
0.0
 11
-3.25
 21
-1.709138300244136
 31
0.0
  0
LINE
  5
1C1
330
165
100
AcDbEntity
  8
AM_4
100
AcDbLine
 10
-1.704450259695268
 20
-1.65392693678552
 30
0.0
 11
-3.243563065027501
 21
-1.65392693678552
 31
0.0
  0
LWPOLYLINE
  5
1C2
330
165
100
AcDbEntity
  8
AM_4
100
AcDbPolyline
 90
        3
 70
     0
 43
0.0
 10
-3.25
 20
-1.709138300244136
 10
-3.248155341307316
 20
-1.679439253006964
 10
-3.243563065027501
 20
-1.65392693678552
  0
LWPOLYLINE
  5
1C3
330
165
100
AcDbEntity
  8
AM_4
100
AcDbPolyline
 90
        3
 70
     0
 43
0.0
 10
3.243563065027498
 20
-1.65392693678552
 10
3.248137660504038
 20
-1.679297813491018
 10
3.25
 20
-1.709138300244144
  0
LINE
  5
1C4
330
165
100
AcDbEntity
  8
AM_4
100
AcDbLine
 10
3.243563065027499
 20
-1.65392693678552
 30
0.0
 11
1.704450259695268
 21
-1.65392693678552
 31
0.0
  0
LINE
  5
1C5
330
165
100
AcDbEntity
  8
AM_4
100
AcDbLine
 10
3.25
 20
-3.25
 30
0.0
 11
-3.25
 21
-3.25
 31
0.0
  0
LINE
  5
1C6
330
165
100
AcDbEntity
  8
AM_4
100
AcDbLine
 10
3.25
 20
-2.8125
 30
0.0
 11
-3.25
 21
-2.8125
 31
0.0
  0
CIRCLE
  5
1C7
330
165
100
AcDbEntity
  8
AM_4
100
AcDbCircle
 10
0.0
 20
0.0
 30
0.0
 40
1.9359375
  0
LWPOLYLINE
  5
1C8
330
165
100
AcDbEntity
  8
AM_4
100
AcDbPolyline
 90
        4
 70
     0
 43
0.0
 10
-1.953673128605473
 20
1.350476325806899
 10
-1.937490350021112
 20
1.372397658153366
 10
-1.91912122085138
 20
1.3958594003176
 10
-1.890864659973523
 20
1.432291666666667
  0
ARC
  5
1C9
330
165
100
AcDbEntity
  8
AM_4
100
AcDbCircle
 10
0.0
 20
0.0000000000000061
 30
0.0
 40
2.374999999999996
100
AcDbArc
 50
145.3458376845987
 51
34.65416231540127
  0
LWPOLYLINE
  5
1CA
330
165
100
AcDbEntity
  8
AM_4
100
AcDbPolyline
 90
        4
 70
     0
 43
0.0
 10
1.890864659973526
 20
1.432291666666661
 10
1.913234640276103
 20
1.403343662089179
 10
1.935820657747963
 20
1.374559301290021
 10
1.953673128605473
 20
1.350476325806899
  0
ARC
  5
1CB
330
165
100
AcDbEntity
  8
AM_4
100
AcDbCircle
 10
0.0000000000000001
 20
0.0000000000000011
 30
0.0
 40
2.372093712469968
100
AcDbArc
 50
37.14319110473024
 51
142.8568088952696
  0
CIRCLE
  5
1CC
330
165
100
AcDbEntity
  8
AM_4
100
AcDbCircle
 10
0.0
 20
0.0
 30
0.0
 40
2.0
  0
CIRCLE
  5
1CD
330
165
100
AcDbEntity
  8
AM_4
100
AcDbCircle
 10
0.0
 20
0.0
 30
0.0
 40
2.255
  0
ENDBLK
  5
168
330
165
100
AcDbEntity
  8
0
100
AcDbBlockEnd
  0
ENDSEC
  0
SECTION
  2
ENTITIES
  0
INSERT
  5
6F
330
1F
100
AcDbEntity
  8
0
100
AcDbBlockReference
  2
1_023152_0
 10
0.0
 20
0.0
 30
0.0
  0
POINT
  5
1CF
330
1F
100
AcDbEntity
  8
ConnectionPoints
100
AcDbPoint
 10
0.0
 20
0.0
 30
-1.75
  0
POINT
  5
1D0
330
1F
100
AcDbEntity
  8
ConnectionPoints
100
AcDbPoint
 10
0.0
 20
0.0
 30
1.75
  0
POINT
  5
1D1
330
1F
100
AcDbEntity
  8
ConnectionPoints
100
AcDbPoint
 10
0.0
 20
0.0
 30
1.75
  0
POINT
  5
1D2
330
1F
100
AcDbEntity
  8
ConnectionPoints
100
AcDbPoint
 10
0.0
 20
0.0
 30
-1.75
  0
POINT
  5
1D3
330
1F
100
AcDbEntity
  8
ConnectionPoints
100
AcDbPoint
 10
0.0
 20
0.0
 30
0.0
  0
POINT
  5
1D4
330
1F
100
AcDbEntity
  8
ConnectionPoints
100
AcDbPoint
 10
2.675
 20
0.0
 30
0.0
  0
POINT
  5
1D5
330
1F
100
AcDbEntity
  8
ConnectionPoints
100
AcDbPoint
 10
0.0
 20
0.0
 30
0.0
  0
ENDSEC
  0
SECTION
  2
OBJECTS
  0
DICTIONARY
  5
C
330
0
100
AcDbDictionary
281
     1
  3
ACAD_DETAILVIEWSTYLE
350
1DD
  3
ACAD_GROUP
350
D
  3
ACAD_LAYOUT
350
1A
  3
ACAD_MATERIAL
350
43
  3
ACAD_MLEADERSTYLE
350
6B
  3
ACAD_MLINESTYLE
350
17
  3
ACAD_PLOTSETTINGS
350
19
  3
ACAD_PLOTSTYLENAME
350
E
  3
ACAD_SCALELIST
350
47
  3
ACAD_SECTIONVIEWSTYLE
350
1DE
  3
ACAD_TABLESTYLE
350
69
  3
ACAD_VISUALSTYLE
350
2A
  3
ACDB_RECOMPOSE_DATA
350
1DA
  3
AcDbVariableDictionary
350
1D6
  0
SUN
  5
6D
330
29
100
AcDbSun
 90
        1
290
     0
 63
     7
421
 16777215
 40
1.0
291
     1
 91
  2455826
 92
 54000000
292
     0
 70
     2
 71
   256
280
     1
  0
DICTIONARY
  5
1DD
102
{ACAD_REACTORS
330
C
102
}
330
C
100
AcDbDictionary
281
     1
  0
DICTIONARY
  5
D
102
{ACAD_REACTORS
330
C
102
}
330
C
100
AcDbDictionary
281
     1
  0
DICTIONARY
  5
1A
102
{ACAD_REACTORS
330
C
102
}
330
C
100
AcDbDictionary
281
     1
  3
Layout1
350
1E
  3
Layout2
350
26
  3
Model
350
22
  0
DICTIONARY
  5
43
102
{ACAD_REACTORS
330
C
102
}
330
C
100
AcDbDictionary
281
     1
  3
ByBlock
350
45
  3
ByLayer
350
44
  3
Global
350
46
  0
DICTIONARY
  5
6B
102
{ACAD_REACTORS
330
C
102
}
330
C
100
AcDbDictionary
281
     1
  3
Standard
350
6C
  0
DICTIONARY
  5
17
102
{ACAD_REACTORS
330
C
102
}
330
C
100
AcDbDictionary
281
     1
  3
Standard
350
18
  0
DICTIONARY
  5
19
102
{ACAD_REACTORS
330
C
102
}
330
C
100
AcDbDictionary
281
     1
  0
ACDBDICTIONARYWDFLT
  5
E
102
{ACAD_REACTORS
330
C
102
}
330
C
100
AcDbDictionary
281
     1
  3
Normal
350
F
100
AcDbDictionaryWithDefault
340
F
  0
DICTIONARY
  5
47
102
{ACAD_REACTORS
330
C
102
}
330
C
100
AcDbDictionary
281
     1
  3
A0
350
48
  3
A1
350
49
  3
A2
350
4A
  3
A3
350
4B
  3
A4
350
4C
  3
A5
350
4D
  3
A6
350
4E
  3
A7
350
4F
  3
A8
350
50
  3
A9
350
51
  3
B0
350
52
  3
B1
350
53
  3
B2
350
54
  3
B3
350
55
  3
B4
350
56
  3
B5
350
57
  3
B6
350
58
  3
B7
350
59
  3
B8
350
5A
  3
B9
350
5B
  3
C0
350
5C
  3
C1
350
5D
  3
C2
350
5E
  3
C3
350
5F
  3
C4
350
60
  3
C5
350
61
  3
C6
350
62
  3
C7
350
63
  3
C8
350
64
  3
C9
350
65
  3
D0
350
66
  3
D1
350
67
  3
D2
350
68
  0
DICTIONARY
  5
1DE
102
{ACAD_REACTORS
330
C
102
}
330
C
100
AcDbDictionary
281
     1
  0
DICTIONARY
  5
69
102
{ACAD_REACTORS
330
C
102
}
330
C
100
AcDbDictionary
281
     1
  3
Standard
350
6A
  0
DICTIONARY
  5
2A
102
{ACAD_REACTORS
330
C
102
}
330
C
100
AcDbDictionary
281
     1
  3
2dWireframe
350
2F
  3
Basic
350
32
  3
Brighten
350
36
  3
ColorChange
350
3A
  3
Conceptual
350
34
  3
Dim
350
35
  3
EdgeColorOff
350
3D
  3
Facepattern
350
39
  3
Flat
350
2B
  3
FlatWithEdges
350
2C
  3
Gouraud
350
2D
  3
GouraudWithEdges
350
2E
  3
Hidden
350
31
  3
JitterOff
350
3B
  3
Linepattern
350
38
  3
OverhangOff
350
3C
  3
Realistic
350
33
  3
Shaded
350
42
  3
Shaded with edges
350
41
  3
Shades of Gray
350
3E
  3
Sketchy
350
3F
  3
Thicken
350
37
  3
Wireframe
350
30
  3
X-Ray
350
40
  0
XRECORD
  5
1DA
102
{ACAD_REACTORS
330
C
102
}
330
C
100
AcDbXrecord
280
     1
 90
        1
330
6A
  0
DICTIONARY
  5
1D6
102
{ACAD_REACTORS
330
C
102
}
330
C
100
AcDbDictionary
281
     1
  3
CANNOSCALE
350
1D7
  3
CMLEADERSTYLE
350
1DC
  3
CTABLESTYLE
350
1DB
  0
LAYOUT
  5
1E
102
{ACAD_REACTORS
330
1A
102
}
330
1A
100
AcDbPlotSettings
  1

  2
none_device
  4

  6

 40
0.0
 41
0.0
 42
0.0
 43
0.0
 44
0.0
 45
0.0
 46
0.0
 47
0.0
 48
0.0
 49
0.0
140
0.0
141
0.0
142
1.0
143
1.0
 70
   688
 72
     0
 73
     0
 74
     5
  7

 75
    16
 76
     0
 77
     2
 78
   300
147
1.0
148
0.0
149
0.0
100
AcDbLayout
  1
Layout1
 70
     1
 71
     1
 10
0.0
 20
0.0
 11
12.0
 21
9.0
 12
0.0
 22
0.0
 32
0.0
 14
1.000000000000000E+20
 24
1.000000000000000E+20
 34
1.000000000000000E+20
 15
-1.000000000000000E+20
 25
-1.000000000000000E+20
 35
-1.000000000000000E+20
146
0.0
 13
0.0
 23
0.0
 33
0.0
 16
1.0
 26
0.0
 36
0.0
 17
0.0
 27
1.0
 37
0.0
 76
     0
330
1B
  0
LAYOUT
  5
26
102
{ACAD_REACTORS
330
1A
102
}
330
1A
100
AcDbPlotSettings
  1

  2
none_device
  4

  6

 40
0.0
 41
0.0
 42
0.0
 43
0.0
 44
0.0
 45
0.0
 46
0.0
 47
0.0
 48
0.0
 49
0.0
140
0.0
141
0.0
142
1.0
143
1.0
 70
   688
 72
     0
 73
     0
 74
     5
  7

 75
    16
 76
     0
 77
     2
 78
   300
147
1.0
148
0.0
149
0.0
100
AcDbLayout
  1
Layout2
 70
     1
 71
     2
 10
0.0
 20
0.0
 11
0.0
 21
0.0
 12
0.0
 22
0.0
 32
0.0
 14
0.0
 24
0.0
 34
0.0
 15
0.0
 25
0.0
 35
0.0
146
0.0
 13
0.0
 23
0.0
 33
0.0
 16
1.0
 26
0.0
 36
0.0
 17
0.0
 27
1.0
 37
0.0
 76
     0
330
23
  0
LAYOUT
  5
22
102
{ACAD_REACTORS
330
1A
102
}
330
1A
100
AcDbPlotSettings
  1

  2
none_device
  4
Letter_(8.50_x_11.00_Inches)
  6

 40
6.35
 41
6.35
 42
6.35000508
 43
6.35000508
 44
215.9
 45
279.4
 46
0.0
 47
0.0
 48
0.0
 49
0.0
140
0.0
141
0.0
142
1.0
143
1.0
 70
  1712
 72
     0
 73
     0
 74
     0
  7

 75
     0
 76
     0
 77
     2
 78
   300
147
1.0
148
0.0
149
0.0
100
AcDbLayout
  1
Model
 70
     1
 71
     0
 10
0.0
 20
0.0
 11
12.0
 21
9.0
 12
0.0
 22
0.0
 32
0.0
 14
1.000000000000000E+20
 24
1.000000000000000E+20
 34
1.000000000000000E+20
 15
-1.000000000000000E+20
 25
-1.000000000000000E+20
 35
-1.000000000000000E+20
146
0.0
 13
0.0
 23
0.0
 33
0.0
 16
1.0
 26
0.0
 36
0.0
 17
0.0
 27
1.0
 37
0.0
 76
     0
330
1F
331
29
  0
MATERIAL
  5
45
102
{ACAD_REACTORS
330
43
102
}
330
43
100
AcDbMaterial
  1
ByBlock
 72
     1
 94
      127
  0
MATERIAL
  5
44
102
{ACAD_REACTORS
330
43
102
}
330
43
100
AcDbMaterial
  1
ByLayer
 72
     1
 94
      127
  0
MATERIAL
  5
46
102
{ACAD_REACTORS
330
43
102
}
330
43
100
AcDbMaterial
  1
Global
 72
     1
 94
      127
  0
MLEADERSTYLE
  5
6C
102
{ACAD_REACTORS
330
6B
102
}
330
6B
100
AcDbMLeaderStyle
179
     2
170
     2
171
     1
172
     0
 90
        2
 40
0.0
 41
0.0
173
     1
 91
-1056964608
340
14
 92
       -2
290
     1
 42
0.09
291
     1
 43
0.36
  3
Standard
341
0
 44
0.18
300

342
11
174
     1
178
     6
175
     1
176
     0
 93
-1056964608
 45
0.18
292
     0
297
     0
 46
0.18
343
0
 94
-1056964608
 47
1.0
 49
1.0
140
1.0
293
     1
141
0.0
294
     1
177
     0
142
1.0
295
     0
296
     0
143
0.125
271
     0
272
     9
273
     9
298
     0
  0
MLINESTYLE
  5
18
102
{ACAD_REACTORS
330
17
102
}
330
17
100
AcDbMlineStyle
  2
Standard
 70
     0
  3

 62
   256
 51
90.0
 52
90.0
 71
     2
 49
0.5
 62
   256
  6
BYLAYER
 49
-0.5
 62
   256
  6
BYLAYER
  0
ACDBPLACEHOLDER
  5
F
102
{ACAD_REACTORS
330
E
102
}
330
E
  0
SCALE
  5
48
102
{ACAD_REACTORS
330
47
102
}
330
47
100
AcDbScale
 70
     0
300
1:1
140
1.0
141
1.0
290
     1
  0
SCALE
  5
49
102
{ACAD_REACTORS
330
47
102
}
330
47
100
AcDbScale
 70
     0
300
1:2
140
1.0
141
2.0
290
     0
  0
SCALE
  5
4A
102
{ACAD_REACTORS
330
47
102
}
330
47
100
AcDbScale
 70
     0
300
1:4
140
1.0
141
4.0
290
     0
  0
SCALE
  5
4B
102
{ACAD_REACTORS
330
47
102
}
330
47
100
AcDbScale
 70
     0
300
1:5
140
1.0
141
5.0
290
     0
  0
SCALE
  5
4C
102
{ACAD_REACTORS
330
47
102
}
330
47
100
AcDbScale
 70
     0
300
1:8
140
1.0
141
8.0
290
     0
  0
SCALE
  5
4D
102
{ACAD_REACTORS
330
47
102
}
330
47
100
AcDbScale
 70
     0
300
1:10
140
1.0
141
10.0
290
     0
  0
SCALE
  5
4E
102
{ACAD_REACTORS
330
47
102
}
330
47
100
AcDbScale
 70
     0
300
1:16
140
1.0
141
16.0
290
     0
  0
SCALE
  5
4F
102
{ACAD_REACTORS
330
47
102
}
330
47
100
AcDbScale
 70
     0
300
1:20
140
1.0
141
20.0
290
     0
  0
SCALE
  5
50
102
{ACAD_REACTORS
330
47
102
}
330
47
100
AcDbScale
 70
     0
300
1:30
140
1.0
141
30.0
290
     0
  0
SCALE
  5
51
102
{ACAD_REACTORS
330
47
102
}
330
47
100
AcDbScale
 70
     0
300
1:40
140
1.0
141
40.0
290
     0
  0
SCALE
  5
52
102
{ACAD_REACTORS
330
47
102
}
330
47
100
AcDbScale
 70
     0
300
1:50
140
1.0
141
50.0
290
     0
  0
SCALE
  5
53
102
{ACAD_REACTORS
330
47
102
}
330
47
100
AcDbScale
 70
     0
300
1:100
140
1.0
141
100.0
290
     0
  0
SCALE
  5
54
102
{ACAD_REACTORS
330
47
102
}
330
47
100
AcDbScale
 70
     0
300
2:1
140
2.0
141
1.0
290
     0
  0
SCALE
  5
55
102
{ACAD_REACTORS
330
47
102
}
330
47
100
AcDbScale
 70
     0
300
4:1
140
4.0
141
1.0
290
     0
  0
SCALE
  5
56
102
{ACAD_REACTORS
330
47
102
}
330
47
100
AcDbScale
 70
     0
300
8:1
140
8.0
141
1.0
290
     0
  0
SCALE
  5
57
102
{ACAD_REACTORS
330
47
102
}
330
47
100
AcDbScale
 70
     0
300
10:1
140
10.0
141
1.0
290
     0
  0
SCALE
  5
58
102
{ACAD_REACTORS
330
47
102
}
330
47
100
AcDbScale
 70
     0
300
100:1
140
100.0
141
1.0
290
     0
  0
SCALE
  5
59
102
{ACAD_REACTORS
330
47
102
}
330
47
100
AcDbScale
 70
     0
300
1/128" = 1'-0"
140
0.0078125
141
12.0
290
     0
  0
SCALE
  5
5A
102
{ACAD_REACTORS
330
47
102
}
330
47
100
AcDbScale
 70
     0
300
1/64" = 1'-0"
140
0.015625
141
12.0
290
     0
  0
SCALE
  5
5B
102
{ACAD_REACTORS
330
47
102
}
330
47
100
AcDbScale
 70
     0
300
1/32" = 1'-0"
140
0.03125
141
12.0
290
     0
  0
SCALE
  5
5C
102
{ACAD_REACTORS
330
47
102
}
330
47
100
AcDbScale
 70
     0
300
1/16" = 1'-0"
140
0.0625
141
12.0
290
     0
  0
SCALE
  5
5D
102
{ACAD_REACTORS
330
47
102
}
330
47
100
AcDbScale
 70
     0
300
3/32" = 1'-0"
140
0.09375
141
12.0
290
     0
  0
SCALE
  5
5E
102
{ACAD_REACTORS
330
47
102
}
330
47
100
AcDbScale
 70
     0
300
1/8" = 1'-0"
140
0.125
141
12.0
290
     0
  0
SCALE
  5
5F
102
{ACAD_REACTORS
330
47
102
}
330
47
100
AcDbScale
 70
     0
300
3/16" = 1'-0"
140
0.1875
141
12.0
290
     0
  0
SCALE
  5
60
102
{ACAD_REACTORS
330
47
102
}
330
47
100
AcDbScale
 70
     0
300
1/4" = 1'-0"
140
0.25
141
12.0
290
     0
  0
SCALE
  5
61
102
{ACAD_REACTORS
330
47
102
}
330
47
100
AcDbScale
 70
     0
300
3/8" = 1'-0"
140
0.375
141
12.0
290
     0
  0
SCALE
  5
62
102
{ACAD_REACTORS
330
47
102
}
330
47
100
AcDbScale
 70
     0
300
1/2" = 1'-0"
140
0.5
141
12.0
290
     0
  0
SCALE
  5
63
102
{ACAD_REACTORS
330
47
102
}
330
47
100
AcDbScale
 70
     0
300
3/4" = 1'-0"
140
0.75
141
12.0
290
     0
  0
SCALE
  5
64
102
{ACAD_REACTORS
330
47
102
}
330
47
100
AcDbScale
 70
     0
300
1" = 1'-0"
140
1.0
141
12.0
290
     0
  0
SCALE
  5
65
102
{ACAD_REACTORS
330
47
102
}
330
47
100
AcDbScale
 70
     0
300
1-1/2" = 1'-0"
140
1.5
141
12.0
290
     0
  0
SCALE
  5
66
102
{ACAD_REACTORS
330
47
102
}
330
47
100
AcDbScale
 70
     0
300
3" = 1'-0"
140
3.0
141
12.0
290
     0
  0
SCALE
  5
67
102
{ACAD_REACTORS
330
47
102
}
330
47
100
AcDbScale
 70
     0
300
6" = 1'-0"
140
6.0
141
12.0
290
     0
  0
SCALE
  5
68
102
{ACAD_REACTORS
330
47
102
}
330
47
100
AcDbScale
 70
     0
300
1'-0" = 1'-0"
140
12.0
141
12.0
290
     0
  0
TABLESTYLE
  5
6A
102
{ACAD_REACTORS
330
69
102
}
102
{ACAD_XDICTIONARY
360
1D8
102
}
330
69
100
AcDbTableStyle
  3
Standard
 70
     0
 71
     0
 40
0.06
 41
0.06
280
     0
281
     0
  7
Standard
140
0.18
170
     2
 62
     0
 63
   257
283
     0
 90
        4
 91
        0
  1

274
    -2
284
     1
 64
     0
275
    -2
285
     1
 65
     0
276
    -2
286
     1
 66
     0
277
    -2
287
     1
 67
     0
278
    -2
288
     1
 68
     0
279
    -2
289
     1
 69
     0
  7
Standard
140
0.25
170
     5
 62
     0
 63
   257
283
     0
 90
        4
 91
        0
  1

274
    -2
284
     1
 64
     0
275
    -2
285
     1
 65
     0
276
    -2
286
     1
 66
     0
277
    -2
287
     1
 67
     0
278
    -2
288
     1
 68
     0
279
    -2
289
     1
 69
     0
  7
Standard
140
0.18
170
     5
 62
     0
 63
   257
283
     0
 90
        4
 91
        0
  1

274
    -2
284
     1
 64
     0
275
    -2
285
     1
 65
     0
276
    -2
286
     1
 66
     0
277
    -2
287
     1
 67
     0
278
    -2
288
     1
 68
     0
279
    -2
289
     1
 69
     0
  0
VISUALSTYLE
  5
2F
102
{ACAD_REACTORS
330
2A
102
}
330
2A
100
AcDbVisualStyle
  2
2dWireframe
 70
     4
177
     3
291
     0
 70
    58
 90
        0
176
     1
 90
        2
176
     1
 90
        0
176
     1
 90
        0
176
     1
 40
0.6
176
     1
 40
30.0
176
     1
 62
     7
420
 16777215
176
     1
 90
        1
176
     1
 90
        4
176
     1
 62
     7
176
     1
 62
   257
176
     1
 90
        1
176
     1
 90
        1
176
     1
 40
1.0
176
     1
 90
        0
176
     1
 62
   257
176
     1
 40
1.0
176
     1
 90
        1
176
     1
 90
        6
176
     1
 90
        2
176
     1
 62
     7
176
     1
 90
        5
176
     1
 90
        0
176
     1
 90
        0
176
     1
290
     0
176
     1
 90
        1
176
     1
 40
0.0
176
     1
 90
        0
176
     1
290
     1
176
     1
290
     1
176
     1
290
     0
176
     1
290
     0
176
     1
290
     0
176
     1
290
     0
176
     1
290
     0
176
     1
290
     0
176
     1
290
     0
176
     1
 90
       50
176
     1
 40
0.0
176
     1
 40
1.0
176
     1
 90
        0
176
     1
 62
    18
420
        0
176
     1
 90
       50
176
     1
 90
        3
176
     1
 62
     5
420
      255
176
     1
290
     0
176
     1
 90
       50
176
     1
 90
       50
176
     1
 90
       50
176
     1
290
     0
176
     1
 90
       50
176
     1
 62
   256
176
     0
 40
1.0
176
     0
 90
        2
176
     1
  1
strokes_ogs.tif
176
     1
290
     0
176
     1
 40
1.0
176
     1
 40
1.0
176
     1
  0
VISUALSTYLE
  5
32
102
{ACAD_REACTORS
330
2A
102
}
330
2A
100
AcDbVisualStyle
  2
Basic
 70
     7
177
     3
291
     1
 70
    58
 90
        1
176
     1
 90
        0
176
     1
 90
        1
176
     1
 90
        0
176
     1
 40
0.6
176
     1
 40
30.0
176
     1
 62
     7
420
 16777215
176
     1
 90
        0
176
     1
 90
        4
176
     1
 62
     7
176
     1
 62
   257
176
     1
 90
        1
176
     1
 90
        1
176
     1
 40
1.0
176
     1
 90
        8
176
     1
 62
     7
176
     1
 40
1.0
176
     1
 90
        1
176
     1
 90
        6
176
     1
 90
        2
176
     1
 62
     7
176
     1
 90
        5
176
     1
 90
        0
176
     1
 90
        0
176
     1
290
     0
176
     1
 90
        1
176
     1
 40
0.0
176
     1
 90
        0
176
     1
290
     0
176
     1
290
     1
176
     1
290
     1
176
     1
290
     0
176
     1
290
     0
176
     1
290
     0
176
     1
290
     0
176
     1
290
     0
176
     1
290
     0
176
     1
 90
       50
176
     1
 40
0.0
176
     1
 40
1.0
176
     1
 90
        0
176
     1
 62
    18
420
        0
176
     1
 90
       50
176
     1
 90
        3
176
     1
 62
     5
420
      255
176
     1
290
     0
176
     1
 90
       50
176
     1
 90
       50
176
     1
 90
       50
176
     1
290
     0
176
     1
 90
       50
176
     1
 62
   256
176
     0
 40
1.0
176
     0
 90
        2
176
     1
  1
strokes_ogs.tif
176
     1
290
     0
176
     1
 40
1.0
176
     1
 40
1.0
176
     1
  0
VISUALSTYLE
  5
36
102
{ACAD_REACTORS
330
2A
102
}
330
2A
100
AcDbVisualStyle
  2
Brighten
 70
    12
177
     3
291
     1
 70
    58
 90
        2
176
     1
 90
        2
176
     1
 90
        0
176
     1
 90
        0
176
     1
 40
0.6
176
     1
 40
30.0
176
     1
 62
     7
420
 16777215
176
     1
 90
        1
176
     1
 90
        4
176
     1
 62
     7
176
     1
 62
   257
176
     1
 90
        1
176
     1
 90
        1
176
     1
 40
1.0
176
     1
 90
        8
176
     1
 62
     7
176
     1
 40
1.0
176
     1
 90
        1
176
     1
 90
        6
176
     1
 90
        2
176
     1
 62
     7
176
     1
 90
        5
176
     1
 90
        0
176
     1
 90
        0
176
     1
290
     0
176
     1
 90
        1
176
     1
 40
50.0
176
     1
 90
        0
176
     1
290
     0
176
     1
290
     1
176
     1
290
     1
176
     1
290
     0
176
     1
290
     0
176
     1
290
     0
176
     1
290
     0
176
     1
290
     0
176
     1
290
     0
176
     1
 90
       50
176
     1
 40
0.0
176
     1
 40
1.0
176
     1
 90
        0
176
     1
 62
    18
420
        0
176
     1
 90
       50
176
     1
 90
        3
176
     1
 62
     5
420
      255
176
     1
290
     0
176
     1
 90
       50
176
     1
 90
       50
176
     1
 90
       50
176
     1
290
     0
176
     1
 90
       50
176
     1
 62
   256
176
     0
 40
1.0
176
     0
 90
        2
176
     1
  1
strokes_ogs.tif
176
     1
290
     0
176
     1
 40
1.0
176
     1
 40
1.0
176
     1
  0
VISUALSTYLE
  5
3A
102
{ACAD_REACTORS
330
2A
102
}
330
2A
100
AcDbVisualStyle
  2
ColorChange
 70
    16
177
     3
291
     1
 70
    58
 90
        2
176
     1
 90
        2
176
     1
 90
        3
176
     1
 90
        0
176
     1
 40
0.6
176
     1
 40
30.0
176
     1
 62
     8
420
  8421504
176
     1
 90
        1
176
     1
 90
        4
176
     1
 62
     7
176
     1
 62
   257
176
     1
 90
        1
176
     1
 90
        1
176
     1
 40
1.0
176
     1
 90
        8
176
     1
 62
     8
420
  8421504
176
     1
 40
1.0
176
     1
 90
        1
176
     1
 90
        6
176
     1
 90
        2
176
     1
 62
     7
176
     1
 90
        5
176
     1
 90
        0
176
     1
 90
        0
176
     1
290
     0
176
     1
 90
        1
176
     1
 40
0.0
176
     1
 90
        0
176
     1
290
     0
176
     1
290
     1
176
     1
290
     1
176
     1
290
     0
176
     1
290
     0
176
     1
290
     0
176
     1
290
     0
176
     1
290
     0
176
     1
290
     0
176
     1
 90
       50
176
     1
 40
0.0
176
     1
 40
1.0
176
     1
 90
        0
176
     1
 62
    18
420
        0
176
     1
 90
       50
176
     1
 90
        3
176
     1
 62
     5
420
      255
176
     1
290
     0
176
     1
 90
       50
176
     1
 90
       50
176
     1
 90
       50
176
     1
290
     0
176
     1
 90
       50
176
     1
 62
   256
176
     0
 40
1.0
176
     0
 90
        2
176
     1
  1
strokes_ogs.tif
176
     1
290
     0
176
     1
 40
1.0
176
     1
 40
1.0
176
     1
  0
VISUALSTYLE
  5
34
102
{ACAD_REACTORS
330
2A
102
}
330
2A
100
AcDbVisualStyle
  2
Conceptual
 70
     9
177
     3
291
     0
 70
    58
 90
        3
176
     1
 90
        2
176
     1
 90
        0
176
     1
 90
        0
176
     1
 40
0.6
176
     1
 40
30.0
176
     1
 62
     7
420
 16777215
176
     1
 90
        2
176
     1
 90
        2
176
     1
 62
     7
176
     1
 62
   257
176
     1
 90
        1
176
     1
 90
        1
176
     1
 40
179.0
176
     1
 90
        8
176
     1
 62
     7
176
     1
 40
1.0
176
     1
 90
        1
176
     1
 90
        6
176
     1
 90
        2
176
     1
 62
     7
176
     1
 90
        3
176
     1
 90
        0
176
     1
 90
        0
176
     1
290
     0
176
     1
 90
        1
176
     1
 40
0.0
176
     1
 90
        0
176
     1
290
     0
176
     1
290
     1
176
     1
290
     1
176
     1
290
     0
176
     1
290
     0
176
     1
290
     0
176
     1
290
     0
176
     1
290
     0
176
     1
290
     0
176
     1
 90
       50
176
     1
 40
0.0
176
     1
 40
1.0
176
     1
 90
        0
176
     1
 62
    18
420
        0
176
     1
 90
       50
176
     1
 90
        3
176
     1
 62
     5
420
      255
176
     1
290
     0
176
     1
 90
       50
176
     1
 90
       50
176
     1
 90
       50
176
     1
290
     0
176
     1
 90
       50
176
     1
 62
   256
176
     0
 40
1.0
176
     0
 90
        2
176
     1
  1
strokes_ogs.tif
176
     1
290
     0
176
     1
 40
1.0
176
     1
 40
1.0
176
     1
  0
VISUALSTYLE
  5
35
102
{ACAD_REACTORS
330
2A
102
}
330
2A
100
AcDbVisualStyle
  2
Dim
 70
    11
177
     3
291
     1
 70
    58
 90
        2
176
     1
 90
        2
176
     1
 90
        0
176
     1
 90
        0
176
     1
 40
0.6
176
     1
 40
30.0
176
     1
 62
     7
420
 16777215
176
     1
 90
        1
176
     1
 90
        4
176
     1
 62
     7
176
     1
 62
   257
176
     1
 90
        1
176
     1
 90
        1
176
     1
 40
1.0
176
     1
 90
        8
176
     1
 62
     7
176
     1
 40
1.0
176
     1
 90
        1
176
     1
 90
        6
176
     1
 90
        2
176
     1
 62
     7
176
     1
 90
        5
176
     1
 90
        0
176
     1
 90
        0
176
     1
290
     0
176
     1
 90
        1
176
     1
 40
-50.0
176
     1
 90
        0
176
     1
290
     0
176
     1
290
     1
176
     1
290
     1
176
     1
290
     0
176
     1
290
     0
176
     1
290
     0
176
     1
290
     0
176
     1
290
     0
176
     1
290
     0
176
     1
 90
       50
176
     1
 40
0.0
176
     1
 40
1.0
176
     1
 90
        0
176
     1
 62
    18
420
        0
176
     1
 90
       50
176
     1
 90
        3
176
     1
 62
     5
420
      255
176
     1
290
     0
176
     1
 90
       50
176
     1
 90
       50
176
     1
 90
       50
176
     1
290
     0
176
     1
 90
       50
176
     1
 62
   256
176
     0
 40
1.0
176
     0
 90
        2
176
     1
  1
strokes_ogs.tif
176
     1
290
     0
176
     1
 40
1.0
176
     1
 40
1.0
176
     1
  0
VISUALSTYLE
  5
3D
102
{ACAD_REACTORS
330
2A
102
}
330
2A
100
AcDbVisualStyle
  2
EdgeColorOff
 70
    22
177
     3
291
     1
 70
    58
 90
        2
176
     0
 90
        2
176
     0
 90
        0
176
     0
 90
        0
176
     0
 40
0.6
176
     0
 40
30.0
176
     0
 62
     7
420
 16777215
176
     0
 90
        1
176
     0
 90
        4
176
     0
 62
     7
176
     0
 62
   257
176
     0
 90
        1
176
     0
 90
        1
176
     0
 40
1.0
176
     0
 90
        8
176
     2
 62
     7
176
     0
 40
1.0
176
     0
 90
        1
176
     0
 90
        6
176
     0
 90
        2
176
     0
 62
     7
176
     0
 90
        5
176
     0
 90
        0
176
     0
 90
        0
176
     0
290
     0
176
     0
 90
        1
176
     0
 40
0.0
176
     0
 90
        0
176
     0
290
     0
176
     0
290
     1
176
     0
290
     1
176
     0
290
     0
176
     0
290
     0
176
     0
290
     0
176
     0
290
     0
176
     0
290
     0
176
     0
290
     0
176
     0
 90
       50
176
     0
 40
0.0
176
     0
 40
1.0
176
     0
 90
        0
176
     0
 62
    18
420
        0
176
     0
 90
       50
176
     0
 90
        3
176
     0
 62
     5
420
      255
176
     0
290
     0
176
     0
 90
       50
176
     0
 90
       50
176
     0
 90
       50
176
     0
290
     0
176
     0
 90
       50
176
     0
 62
   256
176
     0
 40
1.0
176
     0
 90
        2
176
     0
  1
strokes_ogs.tif
176
     0
290
     0
176
     0
 40
1.0
176
     0
 40
1.0
176
     0
  0
VISUALSTYLE
  5
39
102
{ACAD_REACTORS
330
2A
102
}
330
2A
100
AcDbVisualStyle
  2
Facepattern
 70
    15
177
     3
291
     1
 70
    58
 90
        2
176
     1
 90
        2
176
     1
 90
        0
176
     1
 90
        0
176
     1
 40
0.6
176
     1
 40
30.0
176
     1
 62
     7
420
 16777215
176
     1
 90
        1
176
     1
 90
        4
176
     1
 62
     7
176
     1
 62
   257
176
     1
 90
        1
176
     1
 90
        1
176
     1
 40
1.0
176
     1
 90
        8
176
     1
 62
     7
176
     1
 40
1.0
176
     1
 90
        1
176
     1
 90
        6
176
     1
 90
        2
176
     1
 62
     7
176
     1
 90
        5
176
     1
 90
        0
176
     1
 90
        0
176
     1
290
     0
176
     1
 90
        1
176
     1
 40
0.0
176
     1
 90
        0
176
     1
290
     0
176
     1
290
     1
176
     1
290
     1
176
     1
290
     0
176
     1
290
     0
176
     1
290
     0
176
     1
290
     0
176
     1
290
     0
176
     1
290
     0
176
     1
 90
       50
176
     1
 40
0.0
176
     1
 40
1.0
176
     1
 90
        0
176
     1
 62
    18
420
        0
176
     1
 90
       50
176
     1
 90
        3
176
     1
 62
     5
420
      255
176
     1
290
     0
176
     1
 90
       50
176
     1
 90
       50
176
     1
 90
       50
176
     1
290
     0
176
     1
 90
       50
176
     1
 62
   256
176
     0
 40
1.0
176
     0
 90
        2
176
     1
  1
strokes_ogs.tif
176
     1
290
     0
176
     1
 40
1.0
176
     1
 40
1.0
176
     1
  0
VISUALSTYLE
  5
2B
102
{ACAD_REACTORS
330
2A
102
}
330
2A
100
AcDbVisualStyle
  2
Flat
 70
     0
177
     3
291
     1
 70
    58
 90
        2
176
     1
 90
        1
176
     1
 90
        1
176
     1
 90
        2
176
     1
 40
0.6
176
     1
 40
30.0
176
     1
 62
     7
420
 16777215
176
     1
 90
        0
176
     1
 90
        0
176
     1
 62
     7
176
     1
 62
   257
176
     1
 90
        1
176
     1
 90
        1
176
     1
 40
1.0
176
     1
 90
        8
176
     1
 62
     7
176
     1
 40
1.0
176
     1
 90
        1
176
     1
 90
        6
176
     1
 90
        2
176
     1
 62
     7
176
     1
 90
        5
176
     1
 90
        0
176
     1
 90
        0
176
     1
290
     0
176
     1
 90
       13
176
     1
 40
0.0
176
     1
 90
        0
176
     1
290
     0
176
     1
290
     1
176
     1
290
     1
176
     1
290
     0
176
     1
290
     0
176
     1
290
     0
176
     1
290
     0
176
     1
290
     0
176
     1
290
     0
176
     1
 90
       50
176
     1
 40
0.0
176
     1
 40
1.0
176
     1
 90
        0
176
     1
 62
    18
420
        0
176
     1
 90
       50
176
     1
 90
        3
176
     1
 62
     5
420
      255
176
     1
290
     0
176
     1
 90
       50
176
     1
 90
       50
176
     1
 90
       50
176
     1
290
     0
176
     1
 90
       50
176
     1
 62
   256
176
     0
 40
1.0
176
     0
 90
        2
176
     1
  1
strokes_ogs.tif
176
     1
290
     0
176
     1
 40
1.0
176
     1
 40
1.0
176
     1
  0
VISUALSTYLE
  5
2C
102
{ACAD_REACTORS
330
2A
102
}
330
2A
100
AcDbVisualStyle
  2
FlatWithEdges
 70
     1
177
     3
291
     1
 70
    58
 90
        2
176
     1
 90
        1
176
     1
 90
        1
176
     1
 90
        2
176
     1
 40
0.6
176
     1
 40
30.0
176
     1
 62
     7
420
 16777215
176
     1
 90
        1
176
     1
 90
        0
176
     1
 62
     7
176
     1
 62
   257
176
     1
 90
        1
176
     1
 90
        1
176
     1
 40
1.0
176
     1
 90
        0
176
     1
 62
   257
176
     1
 40
1.0
176
     1
 90
        1
176
     1
 90
        6
176
     1
 90
        2
176
     1
 62
     7
176
     1
 90
        5
176
     1
 90
        0
176
     1
 90
        0
176
     1
290
     0
176
     1
 90
       13
176
     1
 40
0.0
176
     1
 90
        0
176
     1
290
     0
176
     1
290
     1
176
     1
290
     1
176
     1
290
     0
176
     1
290
     0
176
     1
290
     0
176
     1
290
     0
176
     1
290
     0
176
     1
290
     0
176
     1
 90
       50
176
     1
 40
0.0
176
     1
 40
1.0
176
     1
 90
        0
176
     1
 62
    18
420
        0
176
     1
 90
       50
176
     1
 90
        3
176
     1
 62
     5
420
      255
176
     1
290
     0
176
     1
 90
       50
176
     1
 90
       50
176
     1
 90
       50
176
     1
290
     0
176
     1
 90
       50
176
     1
 62
   256
176
     0
 40
1.0
176
     0
 90
        2
176
     1
  1
strokes_ogs.tif
176
     1
290
     0
176
     1
 40
1.0
176
     1
 40
1.0
176
     1
  0
VISUALSTYLE
  5
2D
102
{ACAD_REACTORS
330
2A
102
}
330
2A
100
AcDbVisualStyle
  2
Gouraud
 70
     2
177
     3
291
     1
 70
    58
 90
        2
176
     1
 90
        2
176
     1
 90
        1
176
     1
 90
        2
176
     1
 40
0.6
176
     1
 40
30.0
176
     1
 62
     7
420
 16777215
176
     1
 90
        0
176
     1
 90
        0
176
     1
 62
     7
176
     1
 62
   257
176
     1
 90
        1
176
     1
 90
        1
176
     1
 40
1.0
176
     1
 90
        0
176
     1
 62
     7
176
     1
 40
1.0
176
     1
 90
        1
176
     1
 90
        6
176
     1
 90
        2
176
     1
 62
     7
176
     1
 90
        5
176
     1
 90
        0
176
     1
 90
        0
176
     1
290
     0
176
     1
 90
       13
176
     1
 40
0.0
176
     1
 90
        0
176
     1
290
     0
176
     1
290
     1
176
     1
290
     1
176
     1
290
     0
176
     1
290
     0
176
     1
290
     0
176
     1
290
     0
176
     1
290
     0
176
     1
290
     0
176
     1
 90
       50
176
     1
 40
0.0
176
     1
 40
1.0
176
     1
 90
        0
176
     1
 62
    18
420
        0
176
     1
 90
       50
176
     1
 90
        3
176
     1
 62
     5
420
      255
176
     1
290
     0
176
     1
 90
       50
176
     1
 90
       50
176
     1
 90
       50
176
     1
290
     0
176
     1
 90
       50
176
     1
 62
   256
176
     0
 40
1.0
176
     0
 90
        2
176
     1
  1
strokes_ogs.tif
176
     1
290
     0
176
     1
 40
1.0
176
     1
 40
1.0
176
     1
  0
VISUALSTYLE
  5
2E
102
{ACAD_REACTORS
330
2A
102
}
330
2A
100
AcDbVisualStyle
  2
GouraudWithEdges
 70
     3
177
     3
291
     1
 70
    58
 90
        2
176
     1
 90
        2
176
     1
 90
        1
176
     1
 90
        2
176
     1
 40
0.6
176
     1
 40
30.0
176
     1
 62
     7
420
 16777215
176
     1
 90
        1
176
     1
 90
        0
176
     1
 62
     7
176
     1
 62
   257
176
     1
 90
        1
176
     1
 90
        1
176
     1
 40
1.0
176
     1
 90
        0
176
     1
 62
   257
176
     1
 40
1.0
176
     1
 90
        1
176
     1
 90
        6
176
     1
 90
        2
176
     1
 62
     7
176
     1
 90
        5
176
     1
 90
        0
176
     1
 90
        0
176
     1
290
     0
176
     1
 90
       13
176
     1
 40
0.0
176
     1
 90
        0
176
     1
290
     0
176
     1
290
     1
176
     1
290
     1
176
     1
290
     0
176
     1
290
     0
176
     1
290
     0
176
     1
290
     0
176
     1
290
     0
176
     1
290
     0
176
     1
 90
       50
176
     1
 40
0.0
176
     1
 40
1.0
176
     1
 90
        0
176
     1
 62
    18
420
        0
176
     1
 90
       50
176
     1
 90
        3
176
     1
 62
     5
420
      255
176
     1
290
     0
176
     1
 90
       50
176
     1
 90
       50
176
     1
 90
       50
176
     1
290
     0
176
     1
 90
       50
176
     1
 62
   256
176
     0
 40
1.0
176
     0
 90
        2
176
     1
  1
strokes_ogs.tif
176
     1
290
     0
176
     1
 40
1.0
176
     1
 40
1.0
176
     1
  0
VISUALSTYLE
  5
31
102
{ACAD_REACTORS
330
2A
102
}
330
2A
100
AcDbVisualStyle
  2
Hidden
 70
     6
177
     3
291
     0
 70
    58
 90
        1
176
     1
 90
        2
176
     1
 90
        2
176
     1
 90
        0
176
     1
 40
0.6
176
     1
 40
30.0
176
     1
 62
     7
420
 16777215
176
     1
 90
        2
176
     1
 90
        2
176
     1
 62
     7
176
     1
 62
   257
176
     1
 90
        2
176
     1
 90
        1
176
     1
 40
40.0
176
     1
 90
        0
176
     1
 62
   257
176
     1
 40
1.0
176
     1
 90
        1
176
     1
 90
        6
176
     1
 90
        2
176
     1
 62
     7
176
     1
 90
        3
176
     1
 90
        0
176
     1
 90
        0
176
     1
290
     0
176
     1
 90
        1
176
     1
 40
0.0
176
     1
 90
        0
176
     1
290
     0
176
     1
290
     1
176
     1
290
     1
176
     1
290
     0
176
     1
290
     0
176
     1
290
     0
176
     1
290
     0
176
     1
290
     0
176
     1
290
     0
176
     1
 90
       50
176
     1
 40
0.0
176
     1
 40
1.0
176
     1
 90
        0
176
     1
 62
    18
420
        0
176
     1
 90
       50
176
     1
 90
        3
176
     1
 62
     5
420
      255
176
     1
290
     0
176
     1
 90
       50
176
     1
 90
       50
176
     1
 90
       50
176
     1
290
     0
176
     1
 90
       50
176
     1
 62
   256
176
     0
 40
1.0
176
     0
 90
        2
176
     1
  1
strokes_ogs.tif
176
     1
290
     0
176
     1
 40
1.0
176
     1
 40
1.0
176
     1
  0
VISUALSTYLE
  5
3B
102
{ACAD_REACTORS
330
2A
102
}
330
2A
100
AcDbVisualStyle
  2
JitterOff
 70
    20
177
     3
291
     1
 70
    58
 90
        2
176
     0
 90
        2
176
     0
 90
        0
176
     0
 90
        0
176
     0
 40
0.6
176
     0
 40
30.0
176
     0
 62
     7
420
 16777215
176
     0
 90
        1
176
     0
 90
        4
176
     0
 62
     7
176
     0
 62
   257
176
     0
 90
        1
176
     0
 90
        1
176
     0
 40
1.0
176
     0
 90
       10
176
     2
 62
     7
176
     0
 40
1.0
176
     0
 90
        1
176
     0
 90
        6
176
     0
 90
        2
176
     0
 62
     7
176
     0
 90
        5
176
     0
 90
        0
176
     0
 90
        0
176
     0
290
     0
176
     0
 90
        1
176
     0
 40
0.0
176
     0
 90
        0
176
     0
290
     0
176
     0
290
     1
176
     0
290
     1
176
     0
290
     0
176
     0
290
     0
176
     0
290
     0
176
     0
290
     0
176
     0
290
     0
176
     0
290
     0
176
     0
 90
       50
176
     0
 40
0.0
176
     0
 40
1.0
176
     0
 90
        0
176
     0
 62
    18
420
        0
176
     0
 90
       50
176
     0
 90
        3
176
     0
 62
     5
420
      255
176
     0
290
     0
176
     0
 90
       50
176
     0
 90
       50
176
     0
 90
       50
176
     0
290
     0
176
     0
 90
       50
176
     0
 62
   256
176
     0
 40
1.0
176
     0
 90
        2
176
     0
  1
strokes_ogs.tif
176
     0
290
     0
176
     0
 40
1.0
176
     0
 40
1.0
176
     0
  0
VISUALSTYLE
  5
38
102
{ACAD_REACTORS
330
2A
102
}
330
2A
100
AcDbVisualStyle
  2
Linepattern
 70
    14
177
     3
291
     1
 70
    58
 90
        2
176
     1
 90
        2
176
     1
 90
        0
176
     1
 90
        0
176
     1
 40
0.6
176
     1
 40
30.0
176
     1
 62
     7
420
 16777215
176
     1
 90
        1
176
     1
 90
        4
176
     1
 62
     7
176
     1
 62
   257
176
     1
 90
        7
176
     1
 90
        7
176
     1
 40
1.0
176
     1
 90
        8
176
     1
 62
     7
176
     1
 40
1.0
176
     1
 90
        1
176
     1
 90
        6
176
     1
 90
        2
176
     1
 62
     7
176
     1
 90
        5
176
     1
 90
        0
176
     1
 90
        0
176
     1
290
     0
176
     1
 90
        1
176
     1
 40
0.0
176
     1
 90
        0
176
     1
290
     0
176
     1
290
     1
176
     1
290
     1
176
     1
290
     0
176
     1
290
     0
176
     1
290
     0
176
     1
290
     0
176
     1
290
     0
176
     1
290
     0
176
     1
 90
       50
176
     1
 40
0.0
176
     1
 40
1.0
176
     1
 90
        0
176
     1
 62
    18
420
        0
176
     1
 90
       50
176
     1
 90
        3
176
     1
 62
     5
420
      255
176
     1
290
     0
176
     1
 90
       50
176
     1
 90
       50
176
     1
 90
       50
176
     1
290
     0
176
     1
 90
       50
176
     1
 62
   256
176
     0
 40
1.0
176
     0
 90
        2
176
     1
  1
strokes_ogs.tif
176
     1
290
     0
176
     1
 40
1.0
176
     1
 40
1.0
176
     1
  0
VISUALSTYLE
  5
3C
102
{ACAD_REACTORS
330
2A
102
}
330
2A
100
AcDbVisualStyle
  2
OverhangOff
 70
    21
177
     3
291
     1
 70
    58
 90
        2
176
     0
 90
        2
176
     0
 90
        0
176
     0
 90
        0
176
     0
 40
0.6
176
     0
 40
30.0
176
     0
 62
     7
420
 16777215
176
     0
 90
        1
176
     0
 90
        4
176
     0
 62
     7
176
     0
 62
   257
176
     0
 90
        1
176
     0
 90
        1
176
     0
 40
1.0
176
     0
 90
        9
176
     2
 62
     7
176
     0
 40
1.0
176
     0
 90
        1
176
     0
 90
        6
176
     0
 90
        2
176
     0
 62
     7
176
     0
 90
        5
176
     0
 90
        0
176
     0
 90
        0
176
     0
290
     0
176
     0
 90
        1
176
     0
 40
0.0
176
     0
 90
        0
176
     0
290
     0
176
     0
290
     1
176
     0
290
     1
176
     0
290
     0
176
     0
290
     0
176
     0
290
     0
176
     0
290
     0
176
     0
290
     0
176
     0
290
     0
176
     0
 90
       50
176
     0
 40
0.0
176
     0
 40
1.0
176
     0
 90
        0
176
     0
 62
    18
420
        0
176
     0
 90
       50
176
     0
 90
        3
176
     0
 62
     5
420
      255
176
     0
290
     0
176
     0
 90
       50
176
     0
 90
       50
176
     0
 90
       50
176
     0
290
     0
176
     0
 90
       50
176
     0
 62
   256
176
     0
 40
1.0
176
     0
 90
        2
176
     0
  1
strokes_ogs.tif
176
     0
290
     0
176
     0
 40
1.0
176
     0
 40
1.0
176
     0
  0
VISUALSTYLE
  5
33
102
{ACAD_REACTORS
330
2A
102
}
330
2A
100
AcDbVisualStyle
  2
Realistic
 70
     8
177
     3
291
     0
 70
    58
 90
        2
176
     1
 90
        3
176
     1
 90
        0
176
     1
 90
        2
176
     1
 40
0.6
176
     1
 40
30.0
176
     1
 62
     7
420
 16777215
176
     1
 90
        0
176
     1
 90
        0
176
     1
 62
     7
176
     1
 62
   257
176
     1
 90
        1
176
     1
 90
        1
176
     1
 40
1.0
176
     1
 90
        8
176
     1
 62
   257
176
     1
 40
1.0
176
     1
 90
        1
176
     1
 90
        6
176
     1
 90
        2
176
     1
 62
     7
176
     1
 90
        3
176
     1
 90
        0
176
     1
 90
        0
176
     1
290
     0
176
     1
 90
       13
176
     1
 40
0.0
176
     1
 90
        0
176
     1
290
     0
176
     1
290
     1
176
     1
290
     1
176
     1
290
     0
176
     1
290
     0
176
     1
290
     0
176
     1
290
     0
176
     1
290
     0
176
     1
290
     0
176
     1
 90
       50
176
     1
 40
0.0
176
     1
 40
1.0
176
     1
 90
        0
176
     1
 62
    18
420
        0
176
     1
 90
       50
176
     1
 90
        3
176
     1
 62
     5
420
      255
176
     1
290
     0
176
     1
 90
       50
176
     1
 90
       50
176
     1
 90
       50
176
     1
290
     0
176
     1
 90
       50
176
     1
 62
   256
176
     0
 40
1.0
176
     0
 90
        2
176
     1
  1
strokes_ogs.tif
176
     1
290
     0
176
     1
 40
1.0
176
     1
 40
1.0
176
     1
  0
VISUALSTYLE
  5
42
102
{ACAD_REACTORS
330
2A
102
}
330
2A
100
AcDbVisualStyle
  2
Shaded
 70
    27
177
     3
291
     0
 70
    58
 90
        2
176
     1
 90
        2
176
     1
 90
        1
176
     1
 90
        2
176
     1
 40
0.6
176
     1
 40
30.0
176
     1
 62
     7
420
 16777215
176
     1
 90
        0
176
     1
 90
        4
176
     1
 62
     7
176
     1
 62
   257
176
     1
 90
        1
176
     1
 90
        1
176
     1
 40
1.0
176
     1
 90
        8
176
     1
 62
   257
176
     1
 40
1.0
176
     1
 90
        1
176
     1
 90
        6
176
     1
 90
        2
176
     1
 62
     8
420
  7895160
176
     1
 90
        3
176
     1
 90
        0
176
     1
 90
        0
176
     1
290
     0
176
     1
 90
        5
176
     1
 40
0.0
176
     1
 90
        0
176
     1
290
     0
176
     1
290
     1
176
     1
290
     1
176
     1
290
     0
176
     1
290
     0
176
     1
290
     0
176
     1
290
     0
176
     1
290
     0
176
     1
290
     0
176
     1
 90
       50
176
     1
 40
0.0
176
     1
 40
1.0
176
     1
 90
        0
176
     1
 62
    18
420
        0
176
     1
 90
       50
176
     1
 90
        3
176
     1
 62
     5
420
      255
176
     1
290
     0
176
     1
 90
       50
176
     1
 90
       50
176
     1
 90
       50
176
     1
290
     0
176
     1
 90
       50
176
     1
 62
   256
176
     0
 40
1.0
176
     0
 90
        2
176
     1
  1
strokes_ogs.tif
176
     1
290
     0
176
     1
 40
1.0
176
     1
 40
1.0
176
     1
  0
VISUALSTYLE
  5
41
102
{ACAD_REACTORS
330
2A
102
}
330
2A
100
AcDbVisualStyle
  2
Shaded with edges
 70
    26
177
     3
291
     0
 70
    58
 90
        2
176
     1
 90
        2
176
     1
 90
        1
176
     1
 90
        2
176
     1
 40
0.6
176
     1
 40
30.0
176
     1
 62
     7
420
 16777215
176
     1
 90
        1
176
     1
 90
       10
176
     1
 62
     7
176
     1
 62
   257
176
     1
 90
        2
176
     1
 90
        1
176
     1
 40
1.0
176
     1
 90
        8
176
     1
 62
   257
176
     1
 40
1.0
176
     1
 90
        1
176
     1
 90
        6
176
     1
 90
        2
176
     1
 62
     7
176
     1
 90
        3
176
     1
 90
        0
176
     1
 90
        0
176
     1
290
     0
176
     1
 90
        5
176
     1
 40
0.0
176
     1
 90
        0
176
     1
290
     0
176
     1
290
     1
176
     1
290
     1
176
     1
290
     0
176
     1
290
     0
176
     1
290
     0
176
     1
290
     0
176
     1
290
     0
176
     1
290
     0
176
     1
 90
       50
176
     1
 40
0.0
176
     1
 40
1.0
176
     1
 90
        0
176
     1
 62
    18
420
        0
176
     1
 90
       50
176
     1
 90
        3
176
     1
 62
     5
420
      255
176
     1
290
     0
176
     1
 90
       50
176
     1
 90
       50
176
     1
 90
       50
176
     1
290
     0
176
     1
 90
       50
176
     1
 62
   256
176
     0
 40
1.0
176
     0
 90
        2
176
     1
  1
strokes_ogs.tif
176
     1
290
     0
176
     1
 40
1.0
176
     1
 40
1.0
176
     1
  0
VISUALSTYLE
  5
3E
102
{ACAD_REACTORS
330
2A
102
}
330
2A
100
AcDbVisualStyle
  2
Shades of Gray
 70
    23
177
     3
291
     0
 70
    58
 90
        2
176
     1
 90
        2
176
     1
 90
        3
176
     1
 90
        0
176
     1
 40
0.6
176
     1
 40
30.0
176
     1
 62
     7
420
 16777215
176
     1
 90
        2
176
     1
 90
        2
176
     1
 62
     7
176
     1
 62
     7
176
     1
 90
        1
176
     1
 90
        1
176
     1
 40
40.0
176
     1
 90
        8
176
     1
 62
     7
176
     1
 40
1.0
176
     1
 90
        1
176
     1
 90
        6
176
     1
 90
        2
176
     1
 62
     7
176
     1
 90
        3
176
     1
 90
        0
176
     1
 90
        0
176
     1
290
     0
176
     1
 90
        1
176
     1
 40
0.0
176
     1
 90
        0
176
     1
290
     0
176
     1
290
     1
176
     1
290
     1
176
     1
290
     0
176
     1
290
     0
176
     1
290
     0
176
     1
290
     0
176
     1
290
     0
176
     1
290
     0
176
     1
 90
       50
176
     1
 40
0.0
176
     1
 40
1.0
176
     1
 90
        0
176
     1
 62
    18
420
        0
176
     1
 90
       50
176
     1
 90
        3
176
     1
 62
     5
420
      255
176
     1
290
     0
176
     1
 90
       50
176
     1
 90
       50
176
     1
 90
       50
176
     1
290
     0
176
     1
 90
       50
176
     1
 62
   256
176
     0
 40
1.0
176
     0
 90
        2
176
     1
  1
strokes_ogs.tif
176
     1
290
     0
176
     1
 40
1.0
176
     1
 40
1.0
176
     1
  0
VISUALSTYLE
  5
3F
102
{ACAD_REACTORS
330
2A
102
}
330
2A
100
AcDbVisualStyle
  2
Sketchy
 70
    24
177
     3
291
     0
 70
    58
 90
        1
176
     1
 90
        2
176
     1
 90
        2
176
     1
 90
        0
176
     1
 40
0.6
176
     1
 40
30.0
176
     1
 62
     7
420
 16777215
176
     1
 90
        2
176
     1
 90
        2
176
     1
 62
     7
176
     1
 62
     7
176
     1
 90
        1
176
     1
 90
        1
176
     1
 40
40.0
176
     1
 90
       11
176
     1
 62
     7
176
     1
 40
1.0
176
     1
 90
        1
176
     1
 90
        6
176
     1
 90
        2
176
     1
 62
     7
176
     1
 90
        6
176
     1
 90
        0
176
     1
 90
        0
176
     1
290
     0
176
     1
 90
        1
176
     1
 40
0.0
176
     1
 90
        0
176
     1
290
     0
176
     1
290
     1
176
     1
290
     1
176
     1
290
     0
176
     1
290
     0
176
     1
290
     0
176
     1
290
     0
176
     1
290
     0
176
     1
290
     0
176
     1
 90
       50
176
     1
 40
0.0
176
     1
 40
1.0
176
     1
 90
        0
176
     1
 62
    18
420
        0
176
     1
 90
       50
176
     1
 90
        3
176
     1
 62
     5
420
      255
176
     1
290
     0
176
     1
 90
       50
176
     1
 90
       50
176
     1
 90
       50
176
     1
290
     0
176
     1
 90
       50
176
     1
 62
   256
176
     0
 40
1.0
176
     0
 90
        2
176
     1
  1
strokes_ogs.tif
176
     1
290
     0
176
     1
 40
1.0
176
     1
 40
1.0
176
     1
  0
VISUALSTYLE
  5
37
102
{ACAD_REACTORS
330
2A
102
}
330
2A
100
AcDbVisualStyle
  2
Thicken
 70
    13
177
     3
291
     1
 70
    58
 90
        2
176
     1
 90
        2
176
     1
 90
        0
176
     1
 90
        0
176
     1
 40
0.6
176
     1
 40
30.0
176
     1
 62
     7
420
 16777215
176
     1
 90
        1
176
     1
 90
        4
176
     1
 62
     7
176
     1
 62
   257
176
     1
 90
        1
176
     1
 90
        1
176
     1
 40
1.0
176
     1
 90
       12
176
     1
 62
     7
176
     1
 40
1.0
176
     1
 90
        1
176
     1
 90
        6
176
     1
 90
        2
176
     1
 62
     7
176
     1
 90
        5
176
     1
 90
        0
176
     1
 90
        0
176
     1
290
     0
176
     1
 90
        1
176
     1
 40
0.0
176
     1
 90
        0
176
     1
290
     0
176
     1
290
     1
176
     1
290
     1
176
     1
290
     0
176
     1
290
     0
176
     1
290
     0
176
     1
290
     0
176
     1
290
     0
176
     1
290
     0
176
     1
 90
       50
176
     1
 40
0.0
176
     1
 40
1.0
176
     1
 90
        0
176
     1
 62
    18
420
        0
176
     1
 90
       50
176
     1
 90
        3
176
     1
 62
     5
420
      255
176
     1
290
     0
176
     1
 90
       50
176
     1
 90
       50
176
     1
 90
       50
176
     1
290
     0
176
     1
 90
       50
176
     1
 62
   256
176
     0
 40
1.0
176
     0
 90
        2
176
     1
  1
strokes_ogs.tif
176
     1
290
     0
176
     1
 40
1.0
176
     1
 40
1.0
176
     1
  0
VISUALSTYLE
  5
30
102
{ACAD_REACTORS
330
2A
102
}
330
2A
100
AcDbVisualStyle
  2
Wireframe
 70
     5
177
     3
291
     0
 70
    58
 90
        0
176
     1
 90
        2
176
     1
 90
        0
176
     1
 90
        0
176
     1
 40
0.6
176
     1
 40
30.0
176
     1
 62
     7
420
 16777215
176
     1
 90
        1
176
     1
 90
        4
176
     1
 62
     7
176
     1
 62
   257
176
     1
 90
        1
176
     1
 90
        1
176
     1
 40
1.0
176
     1
 90
        0
176
     1
 62
   257
176
     1
 40
1.0
176
     1
 90
        1
176
     1
 90
        6
176
     1
 90
        2
176
     1
 62
     7
176
     1
 90
        3
176
     1
 90
        0
176
     1
 90
        0
176
     1
290
     0
176
     1
 90
        1
176
     1
 40
0.0
176
     1
 90
        0
176
     1
290
     0
176
     1
290
     1
176
     1
290
     1
176
     1
290
     0
176
     1
290
     0
176
     1
290
     0
176
     1
290
     0
176
     1
290
     0
176
     1
290
     0
176
     1
 90
       50
176
     1
 40
0.0
176
     1
 40
1.0
176
     1
 90
        0
176
     1
 62
    18
420
        0
176
     1
 90
       50
176
     1
 90
        3
176
     1
 62
     5
420
      255
176
     1
290
     0
176
     1
 90
       50
176
     1
 90
       50
176
     1
 90
       50
176
     1
290
     0
176
     1
 90
       50
176
     1
 62
   256
176
     0
 40
1.0
176
     0
 90
        2
176
     1
  1
strokes_ogs.tif
176
     1
290
     0
176
     1
 40
1.0
176
     1
 40
1.0
176
     1
  0
VISUALSTYLE
  5
40
102
{ACAD_REACTORS
330
2A
102
}
330
2A
100
AcDbVisualStyle
  2
X-Ray
 70
    25
177
     3
291
     0
 70
    58
 90
        2
176
     1
 90
        2
176
     1
 90
        1
176
     1
 90
        1
176
     1
 40
0.5
176
     1
 40
30.0
176
     1
 62
     7
420
 16777215
176
     1
 90
        1
176
     1
 90
        0
176
     1
 62
     7
176
     1
 62
   257
176
     1
 90
        1
176
     1
 90
        1
176
     1
 40
1.0
176
     1
 90
        8
176
     1
 62
     7
176
     1
 40
1.0
176
     1
 90
        1
176
     1
 90
        6
176
     1
 90
        2
176
     1
 62
     7
176
     1
 90
        3
176
     1
 90
        0
176
     1
 90
        0
176
     1
290
     0
176
     1
 90
       13
176
     1
 40
0.0
176
     1
 90
        0
176
     1
290
     0
176
     1
290
     1
176
     1
290
     1
176
     1
290
     0
176
     1
290
     0
176
     1
290
     0
176
     1
290
     0
176
     1
290
     0
176
     1
290
     0
176
     1
 90
       50
176
     1
 40
0.0
176
     1
 40
1.0
176
     1
 90
        0
176
     1
 62
    18
420
        0
176
     1
 90
       50
176
     1
 90
        3
176
     1
 62
     5
420
      255
176
     1
290
     0
176
     1
 90
       50
176
     1
 90
       50
176
     1
 90
       50
176
     1
290
     0
176
     1
 90
       50
176
     1
 62
   256
176
     0
 40
1.0
176
     0
 90
        2
176
     1
  1
strokes_ogs.tif
176
     1
290
     0
176
     1
 40
1.0
176
     1
 40
1.0
176
     1
  0
DICTIONARYVAR
  5
1D7
102
{ACAD_REACTORS
330
1D6
102
}
330
1D6
100
DictionaryVariables
280
     0
  1
1:1
  0
DICTIONARYVAR
  5
1DC
102
{ACAD_REACTORS
330
1D6
102
}
330
1D6
100
DictionaryVariables
280
     0
  1
Standard
  0
DICTIONARYVAR
  5
1DB
102
{ACAD_REACTORS
330
1D6
102
}
330
1D6
100
DictionaryVariables
280
     0
  1
Standard
  0
DICTIONARY
  5
1D8
330
6A
100
AcDbDictionary
280
     1
281
     1
  3
ACAD_ROUNDTRIP_2008_TABLESTYLE_CELLSTYLEMAP
360
1D9
  0
CELLSTYLEMAP
  5
1D9
102
{ACAD_REACTORS
330
1D8
102
}
330
1D8
100
AcDbCellStyleMap
 90
        3
300
CELLSTYLE
  1
TABLEFORMAT_BEGIN
 90
        5
170
     1
 91
        0
 92
    32768
 62
   257
 93
        1
300
CONTENTFORMAT
  1
CONTENTFORMAT_BEGIN
 90
        0
 91
        0
 92
        4
 93
        0
300

 40
0.0
140
1.0
 94
        5
 62
     0
340
11
144
0.25
309
CONTENTFORMAT_END
171
     1
301
MARGIN
  1
CELLMARGIN_BEGIN
 40
0.06
 40
0.06
 40
0.06
 40
0.06
 40
0.06
 40
0.06
309
CELLMARGIN_END
 94
        6
 95
        1
302
GRIDFORMAT
  1
GRIDFORMAT_BEGIN
 90
        0
 91
        1
 62
     0
 92
       -2
340
14
 93
        0
 40
0.045
309
GRIDFORMAT_END
 95
        2
302
GRIDFORMAT
  1
GRIDFORMAT_BEGIN
 90
        0
 91
        1
 62
     0
 92
       -2
340
14
 93
        0
 40
0.045
309
GRIDFORMAT_END
 95
        4
302
GRIDFORMAT
  1
GRIDFORMAT_BEGIN
 90
        0
 91
        1
 62
     0
 92
       -2
340
14
 93
        0
 40
0.045
309
GRIDFORMAT_END
 95
        8
302
GRIDFORMAT
  1
GRIDFORMAT_BEGIN
 90
        0
 91
        1
 62
     0
 92
       -2
340
14
 93
        0
 40
0.045
309
GRIDFORMAT_END
 95
       16
302
GRIDFORMAT
  1
GRIDFORMAT_BEGIN
 90
        0
 91
        1
 62
     0
 92
       -2
340
14
 93
        0
 40
0.045
309
GRIDFORMAT_END
 95
       32
302
GRIDFORMAT
  1
GRIDFORMAT_BEGIN
 90
        0
 91
        1
 62
     0
 92
       -2
340
14
 93
        0
 40
0.045
309
GRIDFORMAT_END
309
TABLEFORMAT_END
  1
CELLSTYLE_BEGIN
 90
        1
 91
        1
300
_TITLE
309
CELLSTYLE_END
300
CELLSTYLE
  1
TABLEFORMAT_BEGIN
 90
        5
170
     1
 91
        0
 92
        0
 62
   257
 93
        1
300
CONTENTFORMAT
  1
CONTENTFORMAT_BEGIN
 90
        0
 91
        0
 92
        4
 93
        0
300

 40
0.0
140
1.0
 94
        5
 62
     0
340
11
144
0.18
309
CONTENTFORMAT_END
171
     1
301
MARGIN
  1
CELLMARGIN_BEGIN
 40
0.06
 40
0.06
 40
0.06
 40
0.06
 40
0.06
 40
0.06
309
CELLMARGIN_END
 94
        6
 95
        1
302
GRIDFORMAT
  1
GRIDFORMAT_BEGIN
 90
        0
 91
        1
 62
     0
 92
       -2
340
14
 93
        0
 40
0.045
309
GRIDFORMAT_END
 95
        2
302
GRIDFORMAT
  1
GRIDFORMAT_BEGIN
 90
        0
 91
        1
 62
     0
 92
       -2
340
14
 93
        0
 40
0.045
309
GRIDFORMAT_END
 95
        4
302
GRIDFORMAT
  1
GRIDFORMAT_BEGIN
 90
        0
 91
        1
 62
     0
 92
       -2
340
14
 93
        0
 40
0.045
309
GRIDFORMAT_END
 95
        8
302
GRIDFORMAT
  1
GRIDFORMAT_BEGIN
 90
        0
 91
        1
 62
     0
 92
       -2
340
14
 93
        0
 40
0.045
309
GRIDFORMAT_END
 95
       16
302
GRIDFORMAT
  1
GRIDFORMAT_BEGIN
 90
        0
 91
        1
 62
     0
 92
       -2
340
14
 93
        0
 40
0.045
309
GRIDFORMAT_END
 95
       32
302
GRIDFORMAT
  1
GRIDFORMAT_BEGIN
 90
        0
 91
        1
 62
     0
 92
       -2
340
14
 93
        0
 40
0.045
309
GRIDFORMAT_END
309
TABLEFORMAT_END
  1
CELLSTYLE_BEGIN
 90
        2
 91
        1
300
_HEADER
309
CELLSTYLE_END
300
CELLSTYLE
  1
TABLEFORMAT_BEGIN
 90
        5
170
     1
 91
        0
 92
        0
 62
   257
 93
        1
300
CONTENTFORMAT
  1
CONTENTFORMAT_BEGIN
 90
        0
 91
        0
 92
        4
 93
        0
300

 40
0.0
140
1.0
 94
        2
 62
     0
340
11
144
0.18
309
CONTENTFORMAT_END
171
     1
301
MARGIN
  1
CELLMARGIN_BEGIN
 40
0.06
 40
0.06
 40
0.06
 40
0.06
 40
0.06
 40
0.06
309
CELLMARGIN_END
 94
        6
 95
        1
302
GRIDFORMAT
  1
GRIDFORMAT_BEGIN
 90
        0
 91
        1
 62
     0
 92
       -2
340
14
 93
        0
 40
0.045
309
GRIDFORMAT_END
 95
        2
302
GRIDFORMAT
  1
GRIDFORMAT_BEGIN
 90
        0
 91
        1
 62
     0
 92
       -2
340
14
 93
        0
 40
0.045
309
GRIDFORMAT_END
 95
        4
302
GRIDFORMAT
  1
GRIDFORMAT_BEGIN
 90
        0
 91
        1
 62
     0
 92
       -2
340
14
 93
        0
 40
0.045
309
GRIDFORMAT_END
 95
        8
302
GRIDFORMAT
  1
GRIDFORMAT_BEGIN
 90
        0
 91
        1
 62
     0
 92
       -2
340
14
 93
        0
 40
0.045
309
GRIDFORMAT_END
 95
       16
302
GRIDFORMAT
  1
GRIDFORMAT_BEGIN
 90
        0
 91
        1
 62
     0
 92
       -2
340
14
 93
        0
 40
0.045
309
GRIDFORMAT_END
 95
       32
302
GRIDFORMAT
  1
GRIDFORMAT_BEGIN
 90
        0
 91
        1
 62
     0
 92
       -2
340
14
 93
        0
 40
0.045
309
GRIDFORMAT_END
309
TABLEFORMAT_END
  1
CELLSTYLE_BEGIN
 90
        3
 91
        2
300
_DATA
309
CELLSTYLE_END
  0
ENDSEC
  0
EOF