0
SECTION
  2
HEADER
  9
$ACADVER
  1
AC1027
  9
$ACADMAINTVER
 70
     8
  9
$DWGCODEPAGE
  3
ANSI_1252
  9
$REQUIREDVERSIONS
160
                 0
  9
$COMMENTS
  1
File was created by Cadenas
  9
$CUSTOMPROPERTYTAG
  1
NN
  9
$CUSTOMPROPERTY
  1
Type E-Xtra TP Take-Up Bearing Inch Bore
  9
$CUSTOMPROPERTYTAG
  1
NT
  9
$CUSTOMPROPERTY
  1
Type E-xtra TP Take-Up Bearing -(Contact Seal) -Inch
  9
$CUSTOMPROPERTYTAG
  1
NB
  9
$CUSTOMPROPERTY
  1
023151
  9
$CUSTOMPROPERTYTAG
  1
NBSYN
  9
$CUSTOMPROPERTY
  1
$PN.
  9
$CUSTOMPROPERTYTAG
  1
LINA
  9
$CUSTOMPROPERTY
  1
023151
  9
$CUSTOMPROPERTYTAG
  1
SS
  9
$CUSTOMPROPERTY
  1
1-15/16
  9
$CUSTOMPROPERTYTAG
  1
PN
  9
$CUSTOMPROPERTY
  1
023151
  9
$CUSTOMPROPERTYTAG
  1
DESCRIPTION
  9
$CUSTOMPROPERTY
  1
TP-E-115R
  9
$CUSTOMPROPERTYTAG
  1
A
  9
$CUSTOMPROPERTY
  1
3-1/2
  9
$CUSTOMPROPERTYTAG
  1
B
  9
$CUSTOMPROPERTY
  1
5-3/16
  9
$CUSTOMPROPERTYTAG
  1
C
  9
$CUSTOMPROPERTY
  1
6-3/8
  9
$CUSTOMPROPERTYTAG
  1
D
  9
$CUSTOMPROPERTY
  1
3-1/4
  9
$CUSTOMPROPERTYTAG
  1
E
  9
$CUSTOMPROPERTY
  1
2-3/8
  9
$CUSTOMPROPERTYTAG
  1
F
  9
$CUSTOMPROPERTY
  1
2-3/8
  9
$CUSTOMPROPERTYTAG
  1
G
  9
$CUSTOMPROPERTY
  1
9/16
  9
$CUSTOMPROPERTYTAG
  1
H
  9
$CUSTOMPROPERTY
  1
13/16
  9
$CUSTOMPROPERTYTAG
  1
J
  9
$CUSTOMPROPERTY
  1
2-9/16
  9
$CUSTOMPROPERTYTAG
  1
L
  9
$CUSTOMPROPERTY
  1
3-7/16
  9
$CUSTOMPROPERTYTAG
  1
N
  9
$CUSTOMPROPERTY
  1
1-3/4
  9
$CUSTOMPROPERTYTAG
  1
U
  9
$CUSTOMPROPERTY
  1
1-1/4
  9
$CUSTOMPROPERTYTAG
  1
V
  9
$CUSTOMPROPERTY
  1
13/16
  9
$CUSTOMPROPERTYTAG
  1
W
  9
$CUSTOMPROPERTY
  1
1-3/8
  9
$CUSTOMPROPERTYTAG
  1
X
  9
$CUSTOMPROPERTY
  1
6-1/2
  9
$CUSTOMPROPERTYTAG
  1
Y
  9
$CUSTOMPROPERTY
  1
6
  9
$CUSTOMPROPERTYTAG
  1
COMPANY
  9
$CUSTOMPROPERTY
  1
baldor
  9
$INSBASE
 10
0.0
 20
0.0
 30
0.0
  9
$EXTMIN
 10
1.000000000000000E+20
 20
1.000000000000000E+20
 30
1.000000000000000E+20
  9
$EXTMAX
 10
-1.000000000000000E+20
 20
-1.000000000000000E+20
 30
-1.000000000000000E+20
  9
$LIMMIN
 10
0.0
 20
0.0
  9
$LIMMAX
 10
12.0
 20
9.0
  9
$ORTHOMODE
 70
     0
  9
$REGENMODE
 70
     1
  9
$FILLMODE
 70
     1
  9
$QTEXTMODE
 70
     0
  9
$MIRRTEXT
 70
     1
  9
$LTSCALE
 40
1.0
  9
$ATTMODE
 70
     1
  9
$TEXTSIZE
 40
0.2
  9
$TRACEWID
 40
0.05
  9
$TEXTSTYLE
  7
Standard
  9
$CLAYER
  8
0
  9
$CELTYPE
  6
ByLayer
  9
$CECOLOR
 62
   256
  9
$CELTSCALE
 40
1.0
  9
$DISPSILH
 70
     0
  9
$DIMSCALE
 40
1.0
  9
$DIMASZ
 40
0.18
  9
$DIMEXO
 40
0.0625
  9
$DIMDLI
 40
0.38
  9
$DIMRND
 40
0.0
  9
$DIMDLE
 40
0.0
  9
$DIMEXE
 40
0.18
  9
$DIMTP
 40
0.0
  9
$DIMTM
 40
0.0
  9
$DIMTXT
 40
0.18
  9
$DIMCEN
 40
0.09
  9
$DIMTSZ
 40
0.0
  9
$DIMTOL
 70
     0
  9
$DIMLIM
 70
     0
  9
$DIMTIH
 70
     1
  9
$DIMTOH
 70
     1
  9
$DIMSE1
 70
     0
  9
$DIMSE2
 70
     0
  9
$DIMTAD
 70
     0
  9
$DIMZIN
 70
     0
  9
$DIMBLK
  1

  9
$DIMASO
 70
     1
  9
$DIMSHO
 70
     1
  9
$DIMPOST
  1

  9
$DIMAPOST
  1

  9
$DIMALT
 70
     0
  9
$DIMALTD
 70
     2
  9
$DIMALTF
 40
25.4
  9
$DIMLFAC
 40
1.0
  9
$DIMTOFL
 70
     0
  9
$DIMTVP
 40
0.0
  9
$DIMTIX
 70
     0
  9
$DIMSOXD
 70
     0
  9
$DIMSAH
 70
     0
  9
$DIMBLK1
  1

  9
$DIMBLK2
  1

  9
$DIMSTYLE
  2
Standard
  9
$DIMCLRD
 70
     0
  9
$DIMCLRE
 70
     0
  9
$DIMCLRT
 70
     0
  9
$DIMTFAC
 40
1.0
  9
$DIMGAP
 40
0.09
  9
$DIMJUST
 70
     0
  9
$DIMSD1
 70
     0
  9
$DIMSD2
 70
     0
  9
$DIMTOLJ
 70
     1
  9
$DIMTZIN
 70
     0
  9
$DIMALTZ
 70
     0
  9
$DIMALTTZ
 70
     0
  9
$DIMUPT
 70
     0
  9
$DIMDEC
 70
     4
  9
$DIMTDEC
 70
     4
  9
$DIMALTU
 70
     2
  9
$DIMALTTD
 70
     2
  9
$DIMTXSTY
  7
Standard
  9
$DIMAUNIT
 70
     0
  9
$DIMADEC
 70
     0
  9
$DIMALTRND
 40
0.0
  9
$DIMAZIN
 70
     0
  9
$DIMDSEP
 70
    46
  9
$DIMATFIT
 70
     3
  9
$DIMFRAC
 70
     0
  9
$DIMLDRBLK
  1

  9
$DIMLUNIT
 70
     2
  9
$DIMLWD
 70
    -2
  9
$DIMLWE
 70
    -2
  9
$DIMTMOVE
 70
     0
  9
$DIMFXL
 40
1.0
  9
$DIMFXLON
 70
     0
  9
$DIMJOGANG
 40
0.7853981633974483
  9
$DIMTFILL
 70
     0
  9
$DIMTFILLCLR
 70
     0
  9
$DIMARCSYM
 70
     0
  9
$DIMLTYPE
  6

  9
$DIMLTEX1
  6

  9
$DIMLTEX2
  6

  9
$DIMTXTDIRECTION
 70
     0
  9
$LUNITS
 70
     2
  9
$LUPREC
 70
     4
  9
$SKETCHINC
 40
0.1
  9
$FILLETRAD
 40
0.5
  9
$AUNITS
 70
     0
  9
$AUPREC
 70
     0
  9
$MENU
  1
.
  9
$ELEVATION
 40
0.0
  9
$PELEVATION
 40
0.0
  9
$THICKNESS
 40
0.0
  9
$LIMCHECK
 70
     0
  9
$CHAMFERA
 40
0.0
  9
$CHAMFERB
 40
0.0
  9
$CHAMFERC
 40
0.0
  9
$CHAMFERD
 40
0.0
  9
$SKPOLY
 70
     0
  9
$TDCREATE
 40
2458168.970747986
  9
$TDUCREATE
 40
2458168.929081319
  9
$TDUPDATE
 40
2458168.970748171
  9
$TDUUPDATE
 40
2458168.929081505
  9
$TDINDWG
 40
0.0000000116
  9
$TDUSRTIMER
 40
0.0000000116
  9
$USRTIMER
 70
     1
  9
$ANGBASE
 50
0.0
  9
$ANGDIR
 70
     0
  9
$PDMODE
 70
     0
  9
$PDSIZE
 40
0.0
  9
$PLINEWID
 40
0.0
  9
$SPLFRAME
 70
     0
  9
$SPLINETYPE
 70
     6
  9
$SPLINESEGS
 70
     8
  9
$HANDSEED
  5
24E
  9
$SURFTAB1
 70
     6
  9
$SURFTAB2
 70
     6
  9
$SURFTYPE
 70
     6
  9
$SURFU
 70
     6
  9
$SURFV
 70
     6
  9
$UCSBASE
  2

  9
$UCSNAME
  2

  9
$UCSORG
 10
0.0
 20
0.0
 30
0.0
  9
$UCSXDIR
 10
1.0
 20
0.0
 30
0.0
  9
$UCSYDIR
 10
0.0
 20
1.0
 30
0.0
  9
$UCSORTHOREF
  2

  9
$UCSORTHOVIEW
 70
     0
  9
$UCSORGTOP
 10
0.0
 20
0.0
 30
0.0
  9
$UCSORGBOTTOM
 10
0.0
 20
0.0
 30
0.0
  9
$UCSORGLEFT
 10
0.0
 20
0.0
 30
0.0
  9
$UCSORGRIGHT
 10
0.0
 20
0.0
 30
0.0
  9
$UCSORGFRONT
 10
0.0
 20
0.0
 30
0.0
  9
$UCSORGBACK
 10
0.0
 20
0.0
 30
0.0
  9
$PUCSBASE
  2

  9
$PUCSNAME
  2

  9
$PUCSORG
 10
0.0
 20
0.0
 30
0.0
  9
$PUCSXDIR
 10
1.0
 20
0.0
 30
0.0
  9
$PUCSYDIR
 10
0.0
 20
1.0
 30
0.0
  9
$PUCSORTHOREF
  2

  9
$PUCSORTHOVIEW
 70
     0
  9
$PUCSORGTOP
 10
0.0
 20
0.0
 30
0.0
  9
$PUCSORGBOTTOM
 10
0.0
 20
0.0
 30
0.0
  9
$PUCSORGLEFT
 10
0.0
 20
0.0
 30
0.0
  9
$PUCSORGRIGHT
 10
0.0
 20
0.0
 30
0.0
  9
$PUCSORGFRONT
 10
0.0
 20
0.0
 30
0.0
  9
$PUCSORGBACK
 10
0.0
 20
0.0
 30
0.0
  9
$USERI1
 70
     0
  9
$USERI2
 70
     0
  9
$USERI3
 70
     0
  9
$USERI4
 70
     0
  9
$USERI5
 70
     0
  9
$USERR1
 40
0.0
  9
$USERR2
 40
0.0
  9
$USERR3
 40
0.0
  9
$USERR4
 40
0.0
  9
$USERR5
 40
0.0
  9
$WORLDVIEW
 70
     1
  9
$SHADEDGE
 70
     3
  9
$SHADEDIF
 70
    70
  9
$TILEMODE
 70
     1
  9
$MAXACTVP
 70
    64
  9
$PINSBASE
 10
0.0
 20
0.0
 30
0.0
  9
$PLIMCHECK
 70
     0
  9
$PEXTMIN
 10
1.000000000000000E+20
 20
1.000000000000000E+20
 30
1.000000000000000E+20
  9
$PEXTMAX
 10
-1.000000000000000E+20
 20
-1.000000000000000E+20
 30
-1.000000000000000E+20
  9
$PLIMMIN
 10
0.0
 20
0.0
  9
$PLIMMAX
 10
12.0
 20
9.0
  9
$UNITMODE
 70
     0
  9
$VISRETAIN
 70
     1
  9
$PLINEGEN
 70
     0
  9
$PSLTSCALE
 70
     1
  9
$TREEDEPTH
 70
  3020
  9
$CMLSTYLE
  2
Standard
  9
$CMLJUST
 70
     0
  9
$CMLSCALE
 40
1.0
  9
$PROXYGRAPHICS
 70
     1
  9
$MEASUREMENT
 70
     0
  9
$CELWEIGHT
370
    -1
  9
$ENDCAPS
280
     0
  9
$JOINSTYLE
280
     0
  9
$LWDISPLAY
290
     0
  9
$INSUNITS
 70
     1
  9
$HYPERLINKBASE
  1

  9
$STYLESHEET
  1

  9
$XEDIT
290
     1
  9
$CEPSNTYPE
380
     0
  9
$PSTYLEMODE
290
     1
  9
$FINGERPRINTGUID
  2
{E9CB0BC2-BA66-411E-B66E-9305EC43E242}
  9
$VERSIONGUID
  2
{FAEB1C32-E019-11D5-929B-00C0DF256EC4}
  9
$EXTNAMES
290
     1
  9
$PSVPSCALE
 40
0.0
  9
$OLESTARTUP
290
     0
  9
$SORTENTS
280
   127
  9
$INDEXCTL
280
     0
  9
$HIDETEXT
280
     1
  9
$XCLIPFRAME
280
     2
  9
$HALOGAP
280
     0
  9
$OBSCOLOR
 70
   257
  9
$OBSLTYPE
280
     0
  9
$INTERSECTIONDISPLAY
280
     0
  9
$INTERSECTIONCOLOR
 70
   257
  9
$DIMASSOC
280
     2
  9
$PROJECTNAME
  1

  9
$CAMERADISPLAY
290
     0
  9
$LENSLENGTH
 40
50.0
  9
$CAMERAHEIGHT
 40
0.0
  9
$STEPSPERSEC
 40
2.0
  9
$STEPSIZE
 40
6.0
  9
$3DDWFPREC
 40
2.0
  9
$PSOLWIDTH
 40
0.25
  9
$PSOLHEIGHT
 40
4.0
  9
$LOFTANG1
 40
1.570796326794897
  9
$LOFTANG2
 40
1.570796326794897
  9
$LOFTMAG1
 40
0.0
  9
$LOFTMAG2
 40
0.0
  9
$LOFTPARAM
 70
     7
  9
$LOFTNORMALS
280
     1
  9
$LATITUDE
 40
37.795
  9
$LONGITUDE
 40
-122.394
  9
$NORTHDIRECTION
 40
0.0
  9
$TIMEZONE
 70
 -8000
  9
$LIGHTGLYPHDISPLAY
280
     1
  9
$TILEMODELIGHTSYNCH
280
     1
  9
$CMATERIAL
347
44
  9
$SOLIDHIST
280
     0
  9
$SHOWHIST
280
     1
  9
$DWFFRAME
280
     2
  9
$DGNFRAME
280
     2
  9
$REALWORLDSCALE
290
     1
  9
$INTERFERECOLOR
 62
   256
  9
$CSHADOW
280
     0
  9
$SHADOWPLANELOCATION
 40
0.0
  0
ENDSEC
  0
SECTION
  2
CLASSES
  0
CLASS
  1
ACDBDICTIONARYWDFLT
  2
AcDbDictionaryWithDefault
  3
ObjectDBX Classes
 90
        0
 91
        4
280
     0
281
     0
  0
CLASS
  1
VISUALSTYLE
  2
AcDbVisualStyle
  3
ObjectDBX Classes
 90
     4095
 91
        4
280
     0
281
     0
  0
CLASS
  1
MATERIAL
  2
AcDbMaterial
  3
ObjectDBX Classes
 90
     1153
 91
        4
280
     0
281
     0
  0
CLASS
  1
SCALE
  2
AcDbScale
  3
ObjectDBX Classes
 90
     1153
 91
        4
280
     0
281
     0
  0
CLASS
  1
TABLESTYLE
  2
AcDbTableStyle
  3
ObjectDBX Classes
 90
     4095
 91
        4
280
     0
281
     0
  0
CLASS
  1
MLEADERSTYLE
  2
AcDbMLeaderStyle
  3
ACDB_MLEADERSTYLE_CLASS
 90
     4095
 91
        4
280
     0
281
     0
  0
CLASS
  1
SUN
  2
AcDbSun
  3
SCENEOE
 90
     1153
 91
        4
280
     0
281
     0
  0
CLASS
  1
DICTIONARYVAR
  2
AcDbDictionaryVar
  3
ObjectDBX Classes
 90
        0
 91
        4
280
     0
281
     0
  0
CLASS
  1
CELLSTYLEMAP
  2
AcDbCellStyleMap
  3
ObjectDBX Classes
 90
     1152
 91
        4
280
     0
281
     0
  0
ENDSEC
  0
SECTION
  2
TABLES
  0
TABLE
  2
VPORT
  5
8
330
0
100
AcDbSymbolTable
 70
     1
  0
VPORT
  5
29
330
8
100
AcDbSymbolTableRecord
100
AcDbViewportTableRecord
  2
*Active
 70
     0
 10
0.0
 20
0.0
 11
1.0
 21
1.0
 12
0.0
 22
-0.2916406250000003
 13
0.0
 23
0.0
 14
0.5
 24
0.5
 15
0.5
 25
0.5
 16
0.0
 26
0.0
 36
1.0
 17
0.0
 27
0.0
 37
0.0
 40
6.969946875000001
 41
0.5634189284979307
 42
50.0
 43
0.0
 44
0.0
 50
0.0
 51
0.0
 71
     0
 72
   100
 73
     1
 74
     3
 75
     0
 76
     0
 77
     0
 78
     0
281
     0
 65
     1
110
0.0
120
0.0
130
0.0
111
1.0
121
0.0
131
0.0
112
0.0
122
1.0
132
0.0
 79
     0
146
0.0
348
2F
 60
     3
 61
     5
292
     1
282
     1
141
0.0
142
0.0
 63
   250
361
6D
  0
ENDTAB
  0
TABLE
  2
LTYPE
  5
5
330
0
100
AcDbSymbolTable
 70
     3
  0
LTYPE
  5
14
330
5
100
AcDbSymbolTableRecord
100
AcDbLinetypeTableRecord
  2
ByBlock
 70
     0
  3

 72
    65
 73
     0
 40
0.0
  0
LTYPE
  5
15
330
5
100
AcDbSymbolTableRecord
100
AcDbLinetypeTableRecord
  2
ByLayer
 70
     0
  3

 72
    65
 73
     0
 40
0.0
  0
LTYPE
  5
16
330
5
100
AcDbSymbolTableRecord
100
AcDbLinetypeTableRecord
  2
Continuous
 70
     0
  3
Solid line
 72
    65
 73
     0
 40
0.0
  0
LTYPE
  5
9D
330
5
100
AcDbSymbolTableRecord
100
AcDbLinetypeTableRecord
  2
Dashed
 70
     0
  3

 72
    65
 73
     2
 40
2.0
 49
1.0
 74
     0
 49
-1.0
 74
     0
  0
LTYPE
  5
1B8
330
5
100
AcDbSymbolTableRecord
100
AcDbLinetypeTableRecord
  2
Center
 70
     0
  3

 72
    65
 73
     4
 40
1.5
 49
0.45
 74
     0
 49
-0.5
 74
     0
 49
0.05
 74
     0
 49
-0.5
 74
     0
  0
ENDTAB
  0
TABLE
  2
LAYER
  5
2
330
0
100
AcDbSymbolTable
 70
     7
  0
LAYER
  5
10
330
2
100
AcDbSymbolTableRecord
100
AcDbLayerTableRecord
  2
0
 70
     0
 62
     7
  6
Continuous
370
    -3
390
F
347
46
348
0
  0
LAYER
  5
72
330
2
100
AcDbSymbolTableRecord
100
AcDbLayerTableRecord
  2
AM_6
 70
     0
 62
    -2
  6
Continuous
370
    35
390
F
347
46
348
0
  0
LAYER
  5
9E
330
2
100
AcDbSymbolTableRecord
100
AcDbLayerTableRecord
  2
AM_9
 70
     0
 62
     6
  6
Dashed
370
    25
390
F
347
46
348
0
  0
LAYER
  5
C9
330
2
100
AcDbSymbolTableRecord
100
AcDbLayerTableRecord
  2
AM_4
 70
     0
 62
     7
  6
Continuous
370
    50
390
F
347
46
348
0
  0
LAYER
  5
EF
330
2
100
AcDbSymbolTableRecord
100
AcDbLayerTableRecord
  2
AM_5
 70
     0
 62
     3
  6
Continuous
370
    25
390
F
347
46
348
0
  0
LAYER
  5
1B9
330
2
100
AcDbSymbolTableRecord
100
AcDbLayerTableRecord
  2
AM_7
 70
     0
 62
     7
  6
Center
370
    25
390
F
347
46
348
0
  0
LAYER
  5
23D
330
2
100
AcDbSymbolTableRecord
100
AcDbLayerTableRecord
  2
ConnectionPoints
 70
     0
 62
     7
  6
Continuous
370
    50
390
F
347
46
348
0
  0
ENDTAB
  0
TABLE
  2
STYLE
  5
3
330
0
100
AcDbSymbolTable
 70
     1
  0
STYLE
  5
11
330
3
100
AcDbSymbolTableRecord
100
AcDbTextStyleTableRecord
  2
Standard
 70
     0
 40
0.0
 41
1.0
 50
0.0
 71
     0
 42
0.2
  3
txt
  4

  0
ENDTAB
  0
TABLE
  2
VIEW
  5
6
330
0
100
AcDbSymbolTable
 70
     0
  0
ENDTAB
  0
TABLE
  2
UCS
  5
7
330
0
100
AcDbSymbolTable
 70
     0
  0
ENDTAB
  0
TABLE
  2
APPID
  5
9
330
0
100
AcDbSymbolTable
 70
     1
  0
APPID
  5
12
330
9
100
AcDbSymbolTableRecord
100
AcDbRegAppTableRecord
  2
ACAD
 70
     0
  0
ENDTAB
  0
TABLE
  2
DIMSTYLE
  5
A
330
0
100
AcDbSymbolTable
 70
     1
100
AcDbDimStyleTable
  0
DIMSTYLE
105
27
330
A
100
AcDbSymbolTableRecord
100
AcDbDimStyleTableRecord
  2
Standard
 70
     0
178
     0
340
11
  0
ENDTAB
  0
TABLE
  2
BLOCK_RECORD
  5
1
330
0
100
AcDbSymbolTable
 70
     7
  0
BLOCK_RECORD
  5
1F
330
1
100
AcDbSymbolTableRecord
100
AcDbBlockTableRecord
  2
*Model_Space
340
22
 70
     0
280
     1
281
     0
  0
BLOCK_RECORD
  5
1B
330
1
100
AcDbSymbolTableRecord
100
AcDbBlockTableRecord
  2
*Paper_Space
340
1E
 70
     0
280
     1
281
     0
  0
BLOCK_RECORD
  5
23
330
1
100
AcDbSymbolTableRecord
100
AcDbBlockTableRecord
  2
*Paper_Space0
340
26
 70
     0
280
     1
281
     0
  0
BLOCK_RECORD
  5
6E
330
1
100
AcDbSymbolTableRecord
100
AcDbBlockTableRecord
  2
1_023151_2
340
0
102
{BLKREFS
331
6F
102
}
 70
     0
280
     1
281
     0
  0
BLOCK_RECORD
  5
8C
330
1
100
AcDbSymbolTableRecord
100
AcDbBlockTableRecord
  2
2_405016_Inch_0_in_023151_2
340
0
102
{BLKREFS
331
8D
102
}
 70
     0
280
     1
281
     0
  0
BLOCK_RECORD
  5
F3
330
1
100
AcDbSymbolTableRecord
100
AcDbBlockTableRecord
  2
3_1_15_16C_1_0_in_023151_2
340
0
102
{BLKREFS
331
F4
102
}
 70
     0
280
     1
281
     0
  0
BLOCK_RECORD
  5
12F
330
1
100
AcDbSymbolTableRecord
100
AcDbBlockTableRecord
  2
4_1_15_16C_2_0_in_023151_2
340
0
102
{BLKREFS
331
130
102
}
 70
     0
280
     1
281
     0
  0
BLOCK_RECORD
  5
169
330
1
100
AcDbSymbolTableRecord
100
AcDbBlockTableRecord
  2
5_1_15_16I_0_in_023151_2
340
0
102
{BLKREFS
331
16A
102
}
 70
     0
280
     1
281
     0
  0
BLOCK_RECORD
  5
1C1
330
1
100
AcDbSymbolTableRecord
100
AcDbBlockTableRecord
  2
6_023151H_0_in_023151_2
340
0
102
{BLKREFS
331
1C2
102
}
 70
     0
280
     1
281
     0
  0
ENDTAB
  0
ENDSEC
  0
SECTION
  2
BLOCKS
  0
BLOCK
  5
20
330
1F
100
AcDbEntity
  8
0
100
AcDbBlockBegin
  2
*Model_Space
 70
     0
 10
0.0
 20
0.0
 30
0.0
  3
*Model_Space
  1

  0
ENDBLK
  5
21
330
1F
100
AcDbEntity
  8
0
100
AcDbBlockEnd
  0
BLOCK
  5
1C
330
1B
100
AcDbEntity
 67
     1
  8
0
100
AcDbBlockBegin
  2
*Paper_Space
 70
     0
 10
0.0
 20
0.0
 30
0.0
  3
*Paper_Space
  1

  0
ENDBLK
  5
1D
330
1B
100
AcDbEntity
 67
     1
  8
0
100
AcDbBlockEnd
  0
BLOCK
  5
24
330
23
100
AcDbEntity
  8
0
100
AcDbBlockBegin
  2
*Paper_Space0
 70
     0
 10
0.0
 20
0.0
 30
0.0
  3
*Paper_Space0
  1

  0
ENDBLK
  5
25
330
23
100
AcDbEntity
  8
0
100
AcDbBlockEnd
  0
BLOCK
  5
70
330
6E
100
AcDbEntity
  8
0
100
AcDbBlockBegin
  2
1_023151_2
 70
     2
 10
0.0
 20
0.0
 30
0.0
  3
1_023151_2
  1

  0
ATTDEF
  5
73
330
6E
100
AcDbEntity
  8
AM_6
100
AcDbText
 10
6.925
 20
3.125
 30
0.0
 40
0.5
  1
Type E-Xtra TP Take-Up Bearing Inch Bore
100
AcDbAttributeDefinition
  3

  2
NN
 70
     8
280
     0
  0
ATTDEF
  5
74
330
6E
100
AcDbEntity
  8
AM_6
100
AcDbText
 10
6.925
 20
2.625
 30
0.0
 40
0.5
  1
Type E-xtra TP Take-Up Bearing -(Contact Seal) -Inch
100
AcDbAttributeDefinition
  3

  2
NT
 70
     8
280
     0
  0
ATTDEF
  5
75
330
6E
100
AcDbEntity
  8
AM_6
100
AcDbText
 10
6.925
 20
2.125
 30
0.0
 40
0.5
  1
023151
100
AcDbAttributeDefinition
  3

  2
NB
 70
     8
280
     0
  0
ATTDEF
  5
76
330
6E
100
AcDbEntity
  8
AM_6
100
AcDbText
 10
6.925
 20
1.625
 30
0.0
 40
0.5
  1
$PN.
100
AcDbAttributeDefinition
  3

  2
NBSYN
 70
     8
280
     0
  0
ATTDEF
  5
77
330
6E
100
AcDbEntity
  8
AM_6
100
AcDbText
 10
6.925
 20
1.125
 30
0.0
 40
0.5
  1
023151
100
AcDbAttributeDefinition
  3

  2
LINA
 70
     8
280
     0
  0
ATTDEF
  5
78
330
6E
100
AcDbEntity
  8
AM_6
100
AcDbText
 10
6.925
 20
0.625
 30
0.0
 40
0.5
  1
1-15/16
100
AcDbAttributeDefinition
  3

  2
SS
 70
     8
280
     0
  0
ATTDEF
  5
79
330
6E
100
AcDbEntity
  8
AM_6
100
AcDbText
 10
6.925
 20
0.125
 30
0.0
 40
0.5
  1
023151
100
AcDbAttributeDefinition
  3

  2
PN
 70
     8
280
     0
  0
ATTDEF
  5
7A
330
6E
100
AcDbEntity
  8
AM_6
100
AcDbText
 10
6.925
 20
-0.375
 30
0.0
 40
0.5
  1
TP-E-115R
100
AcDbAttributeDefinition
  3

  2
DESCRIPTION
 70
     8
280
     0
  0
ATTDEF
  5
7B
330
6E
100
AcDbEntity
  8
AM_6
100
AcDbText
 10
6.925
 20
-0.875
 30
0.0
 40
0.5
  1
3-1/2
100
AcDbAttributeDefinition
  3

  2
A
 70
     8
280
     0
  0
ATTDEF
  5
7C
330
6E
100
AcDbEntity
  8
AM_6
100
AcDbText
 10
6.925
 20
-1.375
 30
0.0
 40
0.5
  1
5-3/16
100
AcDbAttributeDefinition
  3

  2
B
 70
     8
280
     0
  0
ATTDEF
  5
7D
330
6E
100
AcDbEntity
  8
AM_6
100
AcDbText
 10
6.925
 20
-1.875
 30
0.0
 40
0.5
  1
6-3/8
100
AcDbAttributeDefinition
  3

  2
C
 70
     8
280
     0
  0
ATTDEF
  5
7E
330
6E
100
AcDbEntity
  8
AM_6
100
AcDbText
 10
6.925
 20
-2.375
 30
0.0
 40
0.5
  1
3-1/4
100
AcDbAttributeDefinition
  3

  2
D
 70
     8
280
     0
  0
ATTDEF
  5
7F
330
6E
100
AcDbEntity
  8
AM_6
100
AcDbText
 10
6.925
 20
-2.875
 30
0.0
 40
0.5
  1
2-3/8
100
AcDbAttributeDefinition
  3

  2
E
 70
     8
280
     0
  0
ATTDEF
  5
80
330
6E
100
AcDbEntity
  8
AM_6
100
AcDbText
 10
6.925
 20
-3.375
 30
0.0
 40
0.5
  1
2-3/8
100
AcDbAttributeDefinition
  3

  2
F
 70
     8
280
     0
  0
ATTDEF
  5
81
330
6E
100
AcDbEntity
  8
AM_6
100
AcDbText
 10
6.925
 20
-3.875
 30
0.0
 40
0.5
  1
9/16
100
AcDbAttributeDefinition
  3

  2
G
 70
     8
280
     0
  0
ATTDEF
  5
82
330
6E
100
AcDbEntity
  8
AM_6
100
AcDbText
 10
6.925
 20
-4.375
 30
0.0
 40
0.5
  1
13/16
100
AcDbAttributeDefinition
  3

  2
H
 70
     8
280
     0
  0
ATTDEF
  5
83
330
6E
100
AcDbEntity
  8
AM_6
100
AcDbText
 10
6.925
 20
-4.875
 30
0.0
 40
0.5
  1
2-9/16
100
AcDbAttributeDefinition
  3

  2
J
 70
     8
280
     0
  0
ATTDEF
  5
84
330
6E
100
AcDbEntity
  8
AM_6
100
AcDbText
 10
6.925
 20
-5.375
 30
0.0
 40
0.5
  1
3-7/16
100
AcDbAttributeDefinition
  3

  2
L
 70
     8
280
     0
  0
ATTDEF
  5
85
330
6E
100
AcDbEntity
  8
AM_6
100
AcDbText
 10
6.925
 20
-5.875
 30
0.0
 40
0.5
  1
1-3/4
100
AcDbAttributeDefinition
  3

  2
N
 70
     8
280
     0
  0
ATTDEF
  5
86
330
6E
100
AcDbEntity
  8
AM_6
100
AcDbText
 10
6.925
 20
-6.375
 30
0.0
 40
0.5
  1
1-1/4
100
AcDbAttributeDefinition
  3

  2
U
 70
     8
280
     0
  0
ATTDEF
  5
87
330
6E
100
AcDbEntity
  8
AM_6
100
AcDbText
 10
6.925
 20
-6.875
 30
0.0
 40
0.5
  1
13/16
100
AcDbAttributeDefinition
  3

  2
V
 70
     8
280
     0
  0
ATTDEF
  5
88
330
6E
100
AcDbEntity
  8
AM_6
100
AcDbText
 10
6.925
 20
-7.375
 30
0.0
 40
0.5
  1
1-3/8
100
AcDbAttributeDefinition
  3

  2
W
 70
     8
280
     0
  0
ATTDEF
  5
89
330
6E
100
AcDbEntity
  8
AM_6
100
AcDbText
 10
6.925
 20
-7.875
 30
0.0
 40
0.5
  1
6-1/2
100
AcDbAttributeDefinition
  3

  2
X
 70
     8
280
     0
  0
ATTDEF
  5
8A
330
6E
100
AcDbEntity
  8
AM_6
100
AcDbText
 10
6.925
 20
-8.375
 30
0.0
 40
0.5
  1
6
100
AcDbAttributeDefinition
  3

  2
Y
 70
     8
280
     0
  0
ATTDEF
  5
8B
330
6E
100
AcDbEntity
  8
AM_6
100
AcDbText
 10
6.925
 20
-8.875
 30
0.0
 40
0.5
  1
baldor
100
AcDbAttributeDefinition
  3

  2
COMPANY
 70
     8
280
     0
  0
INSERT
  5
8D
330
6E
100
AcDbEntity
  8
0
100
AcDbBlockReference
  2
2_405016_Inch_0_in_023151_2
 10
0.0
 20
0.0
 30
0.0
  0
INSERT
  5
F4
330
6E
100
AcDbEntity
  8
0
100
AcDbBlockReference
  2
3_1_15_16C_1_0_in_023151_2
 10
0.0
 20
0.0
 30
0.0
  0
INSERT
  5
130
330
6E
100
AcDbEntity
  8
0
100
AcDbBlockReference
  2
4_1_15_16C_2_0_in_023151_2
 10
0.0
 20
0.0
 30
0.0
  0
INSERT
  5
16A
330
6E
100
AcDbEntity
  8
0
100
AcDbBlockReference
  2
5_1_15_16I_0_in_023151_2
 10
0.0
 20
0.0
 30
0.0
  0
INSERT
  5
1C2
330
6E
100
AcDbEntity
  8
0
100
AcDbBlockReference
  2
6_023151H_0_in_023151_2
 10
0.0
 20
0.0
 30
0.0
  0
ENDBLK
  5
71
330
6E
100
AcDbEntity
  8
0
100
AcDbBlockEnd
  0
BLOCK
  5
8E
330
8C
100
AcDbEntity
  8
0
100
AcDbBlockBegin
  2
2_405016_Inch_0_in_023151_2
 70
     2
 10
0.0
 20
0.0
 30
0.0
  3
2_405016_Inch_0_in_023151_2
  1

  0
ATTDEF
  5
90
330
8C
100
AcDbEntity
  8
AM_6
100
AcDbText
 10
5.21875
 20
0.2525907427704612
 30
0.0
 40
0.5
  1
405016 -Inch
100
AcDbAttributeDefinition
  3

  2
NN
 70
     8
280
     0
  0
ATTDEF
  5
91
330
8C
100
AcDbEntity
  8
AM_6
100
AcDbText
 10
5.21875
 20
-0.2474092572295388
 30
0.0
 40
0.5
  1
Grease Fitting
100
AcDbAttributeDefinition
  3

  2
NT
 70
     8
280
     0
  0
ATTDEF
  5
92
330
8C
100
AcDbEntity
  8
AM_6
100
AcDbText
 10
5.21875
 20
-0.7474092572295388
 30
0.0
 40
0.5
  1
405016-Inch
100
AcDbAttributeDefinition
  3

  2
NB
 70
     8
280
     0
  0
ATTDEF
  5
93
330
8C
100
AcDbEntity
  8
AM_6
100
AcDbText
 10
5.21875
 20
-1.247409257229539
 30
0.0
 40
0.5
  1
$MN.-Inch
100
AcDbAttributeDefinition
  3

  2
NBSYN
 70
     8
280
     0
  0
ATTDEF
  5
94
330
8C
100
AcDbEntity
  8
AM_6
100
AcDbText
 10
5.21875
 20
-1.747409257229539
 30
0.0
 40
0.5
  1
405016
100
AcDbAttributeDefinition
  3

  2
LINA
 70
     8
280
     0
  0
ATTDEF
  5
95
330
8C
100
AcDbEntity
  8
AM_6
100
AcDbText
 10
5.21875
 20
-2.247409257229539
 30
0.0
 40
0.5
  1
405016
100
AcDbAttributeDefinition
  3

  2
MN
 70
     8
280
     0
  0
ATTDEF
  5
96
330
8C
100
AcDbEntity
  8
AM_6
100
AcDbText
 10
5.21875
 20
-2.747409257229539
 30
0.0
 40
0.5
  1
7/16 HEX
100
AcDbAttributeDefinition
  3

  2
H
 70
     8
280
     0
  0
ATTDEF
  5
97
330
8C
100
AcDbEntity
  8
AM_6
100
AcDbText
 10
5.21875
 20
-3.247409257229539
 30
0.0
 40
0.5
  1
0.383
100
AcDbAttributeDefinition
  3

  2
NDR
 70
     8
280
     0
  0
ATTDEF
  5
98
330
8C
100
AcDbEntity
  8
AM_6
100
AcDbText
 10
5.21875
 20
-3.747409257229539
 30
0.0
 40
0.5
  1
0.337
100
AcDbAttributeDefinition
  3

  2
KDR
 70
     8
280
     0
  0
ATTDEF
  5
99
330
8C
100
AcDbEntity
  8
AM_6
100
AcDbText
 10
5.21875
 20
-4.247409257229538
 30
0.0
 40
0.5
  1
0.1575
100
AcDbAttributeDefinition
  3

  2
BZE
 70
     8
280
     0
  0
ATTDEF
  5
9A
330
8C
100
AcDbEntity
  8
AM_6
100
AcDbText
 10
5.21875
 20
-4.747409257229538
 30
0.0
 40
0.5
  1
0.4375
100
AcDbAttributeDefinition
  3

  2
HEX
 70
     8
280
     0
  0
ATTDEF
  5
9B
330
8C
100
AcDbEntity
  8
AM_6
100
AcDbText
 10
5.21875
 20
-5.247409257229538
 30
0.0
 40
0.5
  1
0.281250
100
AcDbAttributeDefinition
  3

  2
HEX2
 70
     8
280
     0
  0
ATTDEF
  5
9C
330
8C
100
AcDbEntity
  8
AM_6
100
AcDbText
 10
5.21875
 20
-5.747409257229538
 30
0.0
 40
0.5
  1
baldor
100
AcDbAttributeDefinition
  3

  2
COMPANY
 70
     8
280
     0
  0
CIRCLE
  5
9F
330
8C
100
AcDbEntity
  8
AM_9
100
AcDbCircle
 10
0.0000000000000002
 20
0.0
 30
0.0
 40
0.1616637258772237
  0
CIRCLE
  5
A0
330
8C
100
AcDbEntity
  8
AM_9
100
AcDbCircle
 10
0.0000000000000002
 20
0.0
 30
0.0
 40
0.1854172907249859
  0
ARC
  5
A1
330
8C
100
AcDbEntity
  8
AM_9
100
AcDbCircle
 10
-0.0000000000000645
 20
-0.0000000000003282
 30
0.0
 40
0.2000000000000647
100
AcDbArc
 50
0.0
 51
157.6851835966563
  0
LINE
  5
A2
330
8C
100
AcDbEntity
  8
AM_9
100
AcDbLine
 10
-0.2187499999999998
 20
-0.1262953713852306
 30
0.0
 11
-0.1901924455245478
 21
-0.1427830831490303
 31
0.0
  0
LINE
  5
A3
330
8C
100
AcDbEntity
  8
AM_9
100
AcDbLine
 10
-0.2187499999999998
 20
0.1262953713852306
 30
0.0
 11
-0.2187499999999998
 21
-0.1262953713852306
 31
0.0
  0
LINE
  5
A4
330
8C
100
AcDbEntity
  8
AM_9
100
AcDbLine
 10
-0.1897043345002184
 20
0.1430648941803213
 30
0.0
 11
-0.2187499999999998
 21
0.1262953713852306
 31
0.0
  0
ARC
  5
A5
330
8C
100
AcDbEntity
  8
AM_9
100
AcDbCircle
 10
-0.0000000000000284
 20
0.0
 30
0.0
 40
0.2187499999999769
100
AcDbArc
 50
143.9952554601137
 51
215.9349883063675
  0
LINE
  5
A6
330
8C
100
AcDbEntity
  8
AM_9
100
AcDbLine
 10
-0.2602304684431302
 20
0.01975639995327
 30
0.0
 11
-0.2602304684431206
 21
-0.0197563999532738
 31
0.0
  0
LINE
  5
A7
330
8C
100
AcDbEntity
  8
AM_9
100
AcDbLine
 10
-0.2689146070947219
 20
-0.0811898816047911
 30
0.0
 11
-0.2987675689889716
 21
-0.0811898816047911
 31
0.0
  0
LINE
  5
A8
330
8C
100
AcDbEntity
  8
AM_9
100
AcDbLine
 10
-0.2689146070947219
 20
0.0811898816047911
 30
0.0
 11
-0.2987675689889716
 21
0.0811898816047911
 31
0.0
  0
LWPOLYLINE
  5
A9
330
8C
100
AcDbEntity
  8
AM_9
100
AcDbPolyline
 90
        3
 70
     0
 43
0.0
 10
-0.2602304684431206
 20
-0.0197563999532738
 10
-0.2616913382589201
 20
-0.0370737721666024
 10
-0.2689146070947219
 20
-0.0811898816047911
  0
LWPOLYLINE
  5
AA
330
8C
100
AcDbEntity
  8
AM_9
100
AcDbPolyline
 90
        3
 70
     0
 43
0.0
 10
-0.2689146070947219
 20
0.0811898816047911
 10
-0.2634308483997526
 20
0.0507690464395923
 10
-0.2602304684431302
 20
0.01975639995327
  0
ELLIPSE
  5
AB
330
8C
100
AcDbEntity
  8
AM_9
100
AcDbEllipse
 10
-0.2013892028241853
 20
-0.0000000000000022
 30
0.0
 11
8.610797806505063E-18
 21
0.1406250000000039
 31
0.0
210
0.0
220
0.0
230
1.0
 40
0.4226182617407063
 41
0.6232286105021716
 42
1.429840066212898
  0
LWPOLYLINE
  5
AC
330
8C
100
AcDbEntity
  8
AM_9
100
AcDbPolyline
 90
        3
 70
     0
 43
0.0
 10
-0.2360765106845274
 20
0.1141872583780656
 10
-0.2462091938631848
 20
0.1027100776026271
 10
-0.2689146070947219
 20
0.0811898816047911
  0
ELLIPSE
  5
AD
330
8C
100
AcDbEntity
  8
AM_9
100
AcDbEllipse
 10
-0.201389202824189
 20
0.0000000000000005
 30
0.0
 11
8.610797806504864E-18
 21
0.1406250000000006
 31
0.0
210
0.0
220
0.0
230
1.0
 40
0.4226182617406142
 41
1.711752587376911
 42
2.518364043087566
  0
LWPOLYLINE
  5
AE
330
8C
100
AcDbEntity
  8
AM_9
100
AcDbPolyline
 90
        3
 70
     0
 43
0.0
 10
-0.2689146070947219
 20
-0.0811898816047911
 10
-0.2512755937295758
 20
-0.0975167708288354
 10
-0.2360765106845272
 20
-0.114187258378066
  0
LWPOLYLINE
  5
AF
330
8C
100
AcDbEntity
  8
AM_9
100
AcDbPolyline
 90
        3
 70
     0
 43
0.0
 10
-0.2987675689889716
 20
0.0811898816047911
 10
-0.2912216284034022
 20
0.0975825203205425
 10
-0.2813919000363596
 20
0.1141872583780661
  0
LINE
  5
B0
330
8C
100
AcDbEntity
  8
AM_9
100
AcDbLine
 10
-0.3055458577949628
 20
0.0197563999532697
 30
0.0
 11
-0.2987675689889716
 21
0.0811898816047911
 31
0.0
  0
LWPOLYLINE
  5
B1
330
8C
100
AcDbEntity
  8
AM_9
100
AcDbPolyline
 90
        3
 70
     0
 43
0.0
 10
-0.2813919000363597
 20
-0.1141872583780661
 10
-0.291177595274624
 20
-0.0976669589939311
 10
-0.2987675689889716
 20
-0.0811898816047911
  0
LINE
  5
B2
330
8C
100
AcDbEntity
  8
AM_9
100
AcDbLine
 10
-0.2987675689889716
 20
-0.0811898816047911
 30
0.0
 11
-0.3055458577949628
 21
-0.0197563999532697
 31
0.0
  0
LWPOLYLINE
  5
B3
330
8C
100
AcDbEntity
  8
AM_9
100
AcDbPolyline
 90
        3
 70
     0
 43
0.0
 10
-0.2099962668917051
 20
0.1623797632095822
 10
-0.216347937124691
 20
0.1454641154142716
 10
-0.2258378743019626
 20
0.1281745372222425
  0
LINE
  5
B4
330
8C
100
AcDbEntity
  8
AM_9
100
AcDbLine
 10
-0.2258378743019626
 20
0.1281745372222425
 30
0.0
 11
-0.2360765106845274
 21
0.1141872583780656
 31
0.0
  0
LWPOLYLINE
  5
B5
330
8C
100
AcDbEntity
  8
AM_9
100
AcDbPolyline
 90
        3
 70
     0
 43
0.0
 10
-0.2258378743019624
 20
-0.1281745372222428
 10
-0.2189176876709012
 20
-0.14013919758686
 10
-0.2099962668917051
 20
-0.1623797632095822
  0
LINE
  5
B6
330
8C
100
AcDbEntity
  8
AM_9
100
AcDbLine
 10
-0.2360765106845272
 20
-0.114187258378066
 30
0.0
 11
-0.2258378743019624
 21
-0.1281745372222428
 31
0.0
  0
LWPOLYLINE
  5
B7
330
8C
100
AcDbEntity
  8
AM_9
100
AcDbPolyline
 90
       13
 70
     0
 43
0.0
 10
-0.1790373738501777
 20
0.0891382003679202
 10
-0.1842628795203938
 20
0.0777636883825141
 10
-0.1892274110627138
 20
0.06473495013335
 10
-0.1936098952159721
 20
0.0501518541477802
 10
-0.1972182994908369
 20
0.0331837612147967
 10
-0.1994144431868152
 20
0.0152931307616317
 10
-0.1999640770715869
 20
-0.0031900807110608
 10
-0.198832111550905
 20
-0.0215822013754014
 10
-0.1961081631011964
 20
-0.0392160055560207
 10
-0.1920694300574955
 20
-0.0557614027566447
 10
-0.187009643149415
 20
-0.0708827954963352
 10
-0.1815005947613927
 20
-0.0840091310588356
 10
-0.1790373738501781
 20
-0.0891382003679202
  0
LINE
  5
B8
330
8C
100
AcDbEntity
  8
AM_9
100
AcDbLine
 10
-0.1637075535334888
 20
0.1099999999999999
 30
0.0
 11
-0.2013892028241878
 21
0.1099999999999999
 31
0.0
  0
LINE
  5
B9
330
8C
100
AcDbEntity
  8
AM_9
100
AcDbLine
 10
-0.2013892028241878
 20
-0.1099999999999999
 30
0.0
 11
-0.1639909404217726
 21
-0.1099999999999999
 31
0.0
  0
LWPOLYLINE
  5
BA
330
8C
100
AcDbEntity
  8
AM_9
100
AcDbPolyline
 90
        5
 70
     0
 43
0.0
 10
-0.1557761074387943
 20
-0.1099999996045751
 10
-0.160179943325958
 20
-0.1093244165839199
 10
-0.1668493358980658
 20
-0.1056462146448629
 10
-0.1731116383367603
 20
-0.0989726456321526
 10
-0.1790373738502112
 20
-0.0891382003679049
  0
LWPOLYLINE
  5
BB
330
8C
100
AcDbEntity
  8
AM_9
100
AcDbPolyline
 90
        5
 70
     0
 43
0.0
 10
-0.1790373738501776
 20
0.0891382003679202
 10
-0.1733931390117464
 20
0.0985900119595949
 10
-0.1670729780242508
 20
0.1054645023299315
 10
-0.1606047421316793
 20
0.1091871113029
 10
-0.1557751699345313
 20
0.1099999993542103
  0
ARC
  5
BC
330
8C
100
AcDbEntity
  8
AM_9
100
AcDbCircle
 10
-0.0000000000027307
 20
-0.0000000000013599
 30
0.0
 40
0.1999999999969757
100
AcDbArc
 50
198.9264533491732
 51
214.006657039793
  0
ELLIPSE
  5
BD
330
8C
100
AcDbEntity
  8
AM_9
100
AcDbEllipse
 10
-0.2013892028241879
 20
-0.0000000000000002
 30
0.0
 11
8.610797806504814E-18
 21
0.1406249999999998
 31
0.0
210
0.0
220
0.0
230
1.0
 40
0.4226182617407005
 41
2.717623712895351
 42
6.707154247874032
  0
ELLIPSE
  5
BE
330
8C
100
AcDbEntity
  8
AM_9
100
AcDbEllipse
 10
-0.2467045921760792
 20
0.0000000000000063
 30
0.0
 11
8.610797806504456E-18
 21
0.1406249999999939
 31
0.0
210
0.0
220
0.0
230
1.0
 40
0.4226182617404507
 41
0.6232286105016485
 42
1.429840066212899
  0
LINE
  5
BF
330
8C
100
AcDbEntity
  8
AM_9
100
AcDbLine
 10
-0.3055458577949628
 20
-0.0197563999532697
 30
0.0
 11
-0.3055458577949628
 21
0.0197563999532697
 31
0.0
  0
LWPOLYLINE
  5
C0
330
8C
100
AcDbEntity
  8
AM_9
100
AcDbPolyline
 90
        3
 70
     0
 43
0.0
 10
-0.34381141727158
 20
-0.1138932839791388
 10
-0.3441055615343936
 20
-0.1143036254992337
 10
-0.3445239399801802
 20
-0.1148433556507742
  0
LWPOLYLINE
  5
C1
330
8C
100
AcDbEntity
  8
AM_9
100
AcDbPolyline
 90
        4
 70
     0
 43
0.0
 10
-0.2806053774633818
 20
-0.1148433556507742
 10
-0.2810977077507072
 20
-0.1142023813905855
 10
-0.2827871717997879
 20
-0.1116006073936718
 10
-0.2847867804757787
 20
-0.1079584999887662
  0
LWPOLYLINE
  5
C2
330
8C
100
AcDbEntity
  8
AM_9
100
AcDbPolyline
 90
        5
 70
     0
 43
0.0
 10
-0.2847389682793584
 20
0.1080520491409282
 10
-0.2840110055167475
 20
0.1094377570772221
 10
-0.2816826152681313
 20
0.1133591274889243
 10
-0.2806260815217552
 20
0.1148187790909937
 10
-0.2806053774633818
 20
0.1148433556507742
  0
LWPOLYLINE
  5
C3
330
8C
100
AcDbEntity
  8
AM_9
100
AcDbPolyline
 90
        3
 70
     0
 43
0.0
 10
-0.3445239399801802
 20
0.1148433556507742
 10
-0.3444154150688331
 20
0.1147105330239884
 10
-0.3439186760783423
 20
0.1140452163503445
  0
ELLIPSE
  5
C4
330
8C
100
AcDbEntity
  8
AM_9
100
AcDbEllipse
 10
-0.372996256974664
 20
-0.0000000000000003
 30
0.0
 11
8.155773951865166E-18
 21
0.1331938965184661
 31
0.0
210
0.0
220
0.0
230
1.0
 40
0.4226182617406972
 41
5.746589296359589
 42
9.96856071492299
  0
ELLIPSE
  5
C5
330
8C
100
AcDbEntity
  8
AM_9
100
AcDbEllipse
 10
-0.2467045921734808
 20
0.0000000000029822
 30
0.0
 11
8.610797806731107E-18
 21
0.1406250000036954
 31
0.0
210
0.0
220
0.0
230
1.0
 40
0.422618261747498
 41
1.711752587394112
 42
2.518364043072948
  0
ELLIPSE
  5
C6
330
8C
100
AcDbEntity
  8
AM_9
100
AcDbEllipse
 10
-0.3994303217889756
 20
0.0
 30
0.0
 11
8.520391689943312E-18
 21
0.139148556071441
 31
0.0
210
0.0
220
0.0
230
1.0
 40
0.422618261740697
 41
0.2191938495164214
 42
2.922398804073373
  0
CIRCLE
  5
C7
330
8C
100
AcDbEntity
  8
AM_9
100
AcDbCircle
 10
0.0000000000000002
 20
0.0
 30
0.0
 40
0.1915112338502295
  0
ELLIPSE
  5
C8
330
8C
100
AcDbEntity
  8
AM_9
100
AcDbEllipse
 10
-0.2013892028241878
 20
0.0
 30
0.0
 11
6.735557395310439E-18
 21
0.1099999999999999
 31
0.0
210
0.0
220
0.0
230
1.0
 40
0.4226182617406989
 41
0.0
 42
6.283185307179586
  0
LINE
  5
CA
330
8C
100
AcDbEntity
  8
AM_4
100
AcDbLine
 10
0.2187500000000002
 20
-0.1262953713852306
 30
0.0
 11
0.2187500000000002
 21
0.1262953713852306
 31
0.0
  0
LINE
  5
CB
330
8C
100
AcDbEntity
  8
AM_4
100
AcDbLine
 10
0.0000000000000002
 20
-0.2525907427704612
 30
0.0
 11
0.2187500000000002
 21
-0.1262953713852306
 31
0.0
  0
LINE
  5
CC
330
8C
100
AcDbEntity
  8
AM_4
100
AcDbLine
 10
0.2187500000000002
 20
0.1262953713852306
 30
0.0
 11
0.0000000000000002
 21
0.2525907427704612
 31
0.0
  0
LINE
  5
CD
330
8C
100
AcDbEntity
  8
AM_4
100
AcDbLine
 10
-0.1901924455245478
 20
-0.1427830831490303
 30
0.0
 11
0.0000000000000002
 21
-0.2525907427704612
 31
0.0
  0
LINE
  5
CE
330
8C
100
AcDbEntity
  8
AM_4
100
AcDbLine
 10
0.0000000000000002
 20
0.2525907427704612
 30
0.0
 11
-0.1897043345002184
 21
0.1430648941803213
 31
0.0
  0
ARC
  5
CF
330
8C
100
AcDbEntity
  8
AM_4
100
AcDbCircle
 10
0.0000000000000011
 20
0.0
 30
0.0
 40
0.2187500000000007
100
AcDbArc
 50
215.934988306363
 51
143.9952554601182
  0
LINE
  5
D0
330
8C
100
AcDbEntity
  8
AM_4
100
AcDbLine
 10
-0.1557793102687525
 20
0.1099999999999999
 30
0.0
 11
-0.1637075535334888
 21
0.1099999999999999
 31
0.0
  0
LINE
  5
D1
330
8C
100
AcDbEntity
  8
AM_4
100
AcDbLine
 10
-0.1639909404217726
 20
-0.1099999999999999
 30
0.0
 11
-0.1557791335654665
 21
-0.1099999999999999
 31
0.0
  0
LWPOLYLINE
  5
D2
330
8C
100
AcDbEntity
  8
AM_4
100
AcDbPolyline
 90
       21
 70
     0
 43
0.0
 10
-0.1557751699345313
 20
0.1099999993542103
 10
-0.1538031670974774
 20
0.1098642299902842
 10
-0.147233607373639
 20
0.1074361169500106
 10
-0.1407130262602574
 20
0.101829760403791
 10
-0.1347930597680664
 20
0.0935179578124376
 10
-0.1293028157827814
 20
0.0822566453824391
 10
-0.1247141396218189
 20
0.0690147372405694
 10
-0.1208880884981778
 20
0.0533912635798488
 10
-0.1181545989145986
 20
0.0367379904268302
 10
-0.1164278875396125
 20
0.018541691433427
 10
-0.1158549073091551
 20
0.0003663009477912
 10
-0.1164156227038165
 20
-0.0183436549788656
 10
-0.1180609686233499
 20
-0.0360039211946314
 10
-0.1208367673933809
 20
-0.0531364268189174
 10
-0.124510751350602
 20
-0.0683147951973784
 10
-0.129184265228056
 20
-0.0819658231771869
 10
-0.1344729790611517
 20
-0.0929661484870866
 10
-0.1405186270901956
 20
-0.1016091178663899
 10
-0.1468270783017118
 20
-0.1071833219201679
 10
-0.1535654953592162
 20
-0.109829591708451
 10
-0.1557761074387943
 20
-0.1099999996045751
  0
ARC
  5
D3
330
8C
100
AcDbEntity
  8
AM_4
100
AcDbCircle
 10
0.0000000000000002
 20
0.0
 30
0.0
 40
0.2
100
AcDbArc
 50
214.0066570396784
 51
145.7853239691747
  0
LWPOLYLINE
  5
D4
330
8C
100
AcDbEntity
  8
AM_4
100
AcDbPolyline
 90
        5
 70
     0
 43
0.0
 10
-0.2099962668917051
 20
-0.1623797632095822
 10
-0.18054914203323
 20
-0.1333383958028655
 10
-0.1688997677199806
 20
-0.1182584107681147
 10
-0.1598729403210868
 20
-0.1030720446435313
 10
-0.1510741298357567
 20
-0.0811898816047911
  0
LINE
  5
D5
330
8C
100
AcDbEntity
  8
AM_4
100
AcDbLine
 10
-0.2099962668917051
 20
-0.1623797632095822
 30
0.0
 11
-0.2389369657326273
 21
-0.1623797632095822
 31
0.0
  0
LWPOLYLINE
  5
D6
330
8C
100
AcDbEntity
  8
AM_4
100
AcDbPolyline
 90
        6
 70
     0
 43
0.0
 10
-0.1510741298357567
 20
0.0811898816047911
 10
-0.156422238446444
 20
0.0957436559643702
 10
-0.1639940363880802
 20
0.1105606069314186
 10
-0.174406321286612
 20
0.1258239699714564
 10
-0.1876759562813855
 20
0.1412050309358237
 10
-0.2099962668917051
 20
0.1623797632095822
  0
LINE
  5
D7
330
8C
100
AcDbEntity
  8
AM_4
100
AcDbLine
 10
-0.2099962668917051
 20
0.1623797632095822
 30
0.0
 11
-0.2389369657326273
 21
0.1623797632095822
 31
0.0
  0
LWPOLYLINE
  5
D8
330
8C
100
AcDbEntity
  8
AM_4
100
AcDbPolyline
 90
        6
 70
     0
 43
0.0
 10
-0.1510741298357567
 20
-0.0811898816047911
 10
-0.1458778226760517
 20
-0.052155091529337
 10
-0.1427138007556459
 20
-0.0226013472343071
 10
-0.1420496512545703
 20
0.0078295722246356
 10
-0.1441228263802212
 20
0.0384818408139635
 10
-0.1510741298357567
 20
0.0811898816047911
  0
LINE
  5
D9
330
8C
100
AcDbEntity
  8
AM_4
100
AcDbLine
 10
-0.1510741298357567
 20
0.0811898816047911
 30
0.0
 11
-0.1791093260592884
 21
0.0811898816047911
 31
0.0
  0
LINE
  5
DA
330
8C
100
AcDbEntity
  8
AM_4
100
AcDbLine
 10
-0.1510741298357567
 20
-0.0811898816047911
 30
0.0
 11
-0.1791093260592884
 21
-0.0811898816047911
 31
0.0
  0
LWPOLYLINE
  5
DB
330
8C
100
AcDbEntity
  8
AM_4
100
AcDbPolyline
 90
        5
 70
     0
 43
0.0
 10
-0.1791093260592884
 20
0.0811898816047911
 10
-0.1842540823997051
 20
0.0416203625313734
 10
-0.1862220679364948
 20
0.0014176687078843
 10
-0.1844124966919378
 20
-0.0398791041957931
 10
-0.1791093260592884
 20
-0.0811898816047911
  0
LWPOLYLINE
  5
DC
330
8C
100
AcDbEntity
  8
AM_4
100
AcDbPolyline
 90
        5
 70
     0
 43
0.0
 10
-0.2389369657326273
 20
0.1623797632095822
 10
-0.2295338871417793
 20
0.1425944959554254
 10
-0.2166871171046318
 20
0.1224916336047983
 10
-0.1996402057054675
 20
0.1018412668053538
 10
-0.1791093260592884
 20
0.0811898816047911
  0
LWPOLYLINE
  5
DD
330
8C
100
AcDbEntity
  8
AM_4
100
AcDbPolyline
 90
        3
 70
     0
 43
0.0
 10
-0.2711532636537953
 20
0.1281745372222423
 10
-0.2561815527589918
 20
0.1453001843968683
 10
-0.2389369657326273
 20
0.1623797632095822
  0
LWPOLYLINE
  5
DE
330
8C
100
AcDbEntity
  8
AM_4
100
AcDbPolyline
 90
        3
 70
     0
 43
0.0
 10
-0.2389369657326273
 20
-0.1623797632095822
 10
-0.256093971320235
 20
-0.1453926299734447
 10
-0.2711532636537953
 20
-0.1281745372222423
  0
LWPOLYLINE
  5
DF
330
8C
100
AcDbEntity
  8
AM_4
100
AcDbPolyline
 90
        5
 70
     0
 43
0.0
 10
-0.1791093260592884
 20
-0.0811898816047911
 10
-0.1988355121406936
 20
-0.1009664231904839
 10
-0.2156330920108722
 20
-0.121062844630589
 10
-0.2290462109660018
 20
-0.1417146509141334
 10
-0.2389369657326273
 20
-0.1623797632095822
  0
LINE
  5
E0
330
8C
100
AcDbEntity
  8
AM_4
100
AcDbLine
 10
-0.2711532636537953
 20
-0.1281745372222423
 30
0.0
 11
-0.2813919000363597
 21
-0.1141872583780661
 31
0.0
  0
ELLIPSE
  5
E1
330
8C
100
AcDbEntity
  8
AM_4
100
AcDbEllipse
 10
-0.2467045921760205
 20
-0.0000000000000002
 30
0.0
 11
8.610797806504814E-18
 21
0.1406249999999998
 31
0.0
210
0.0
220
0.0
230
1.0
 40
0.4226182617406998
 41
2.717623712895344
 42
6.707154247874034
  0
LINE
  5
E2
330
8C
100
AcDbEntity
  8
AM_4
100
AcDbLine
 10
-0.2813919000363596
 20
0.1141872583780661
 30
0.0
 11
-0.2711532636537953
 21
0.1281745372222423
 31
0.0
  0
LWPOLYLINE
  5
E3
330
8C
100
AcDbEntity
  8
AM_4
100
AcDbPolyline
 90
       11
 70
     0
 43
0.0
 10
-0.3426283326421162
 20
-0.113092674550878
 10
-0.3389177656403507
 20
-0.1104829857921066
 10
-0.3323701626363544
 20
-0.1072105525961206
 10
-0.3231787891974561
 20
-0.1044889043809696
 10
-0.3120272554379055
 20
-0.1034549271159193
 10
-0.3006625852744101
 20
-0.1047607901064748
 10
-0.2913335463096489
 20
-0.1078123833430677
 10
-0.2851388329838969
 20
-0.1111643826162368
 10
-0.2817911817069456
 20
-0.1136941984811096
 10
-0.2806280257855303
 20
-0.1148177396237936
 10
-0.2806053774633818
 20
-0.1148433556507742
  0
LWPOLYLINE
  5
E4
330
8C
100
AcDbEntity
  8
AM_4
100
AcDbPolyline
 90
        3
 70
     0
 43
0.0
 10
-0.3444430664077351
 20
-0.1147538709631259
 10
-0.3428452998888384
 20
-0.1132717708003003
 10
-0.3426283326421162
 20
-0.113092674550878
  0
LWPOLYLINE
  5
E5
330
8C
100
AcDbEntity
  8
AM_4
100
AcDbPolyline
 90
       11
 70
     0
 43
0.0
 10
-0.2806053774633818
 20
0.1148433556507742
 10
-0.2812973155098835
 20
0.1141436211062676
 10
-0.2841322748696763
 20
0.1118528843613131
 10
-0.2894736299666009
 20
0.1086836447027984
 10
-0.297503212859475
 20
0.1055724640512086
 10
-0.3079238782575303
 20
0.1036481535196119
 10
-0.3194652622693775
 20
0.10388676043926
 10
-0.3299794301197734
 20
0.1063184483641263
 10
-0.3376012580548149
 20
0.1097111121885172
 10
-0.3421465542146118
 20
0.1127081052869035
 10
-0.344210690630829
 20
0.1145120603063318
  0
ELLIPSE
  5
E6
330
8C
100
AcDbEntity
  8
AM_4
100
AcDbEllipse
 10
-0.3729962569756534
 20
0.0000000000017805
 30
0.0
 11
8.155773951993765E-18
 21
0.1331938965205663
 31
0.0
210
0.0
220
0.0
230
1.0
 40
0.4226182617427715
 41
3.685375407749351
 42
3.714354685871297
  0
ELLIPSE
  5
E7
330
8C
100
AcDbEntity
  8
AM_4
100
AcDbEllipse
 10
-0.3729962569746661
 20
-0.0000000000000012
 30
0.0
 11
8.155773951865320E-18
 21
0.1331938965184686
 31
0.0
210
0.0
220
0.0
230
1.0
 40
0.4226182617407072
 41
3.714354685866031
 42
5.694299024312969
  0
LWPOLYLINE
  5
E8
330
8C
100
AcDbEntity
  8
AM_4
100
AcDbPolyline
 90
        9
 70
     0
 43
0.0
 10
-0.3413643513751092
 20
0.110205561467803
 10
-0.3488899620193224
 20
0.1205023968856576
 10
-0.3575788762547948
 20
0.1291500668808881
 10
-0.3667786105644292
 20
0.1354360746722048
 10
-0.3764544792475856
 20
0.1395040714864135
 10
-0.3865101100119452
 20
0.141368649408226
 10
-0.3973929535355127
 20
0.140867944589032
 10
-0.4075638246599138
 20
0.1379852195677849
 10
-0.413073437503736
 20
0.1353578756207858
  0
LINE
  5
E9
330
8C
100
AcDbEntity
  8
AM_4
100
AcDbLine
 10
-0.3437604198670839
 20
-0.1138201847199025
 30
0.0
 11
-0.3422546189329628
 21
-0.111588938988024
 31
0.0
  0
LWPOLYLINE
  5
EA
330
8C
100
AcDbEntity
  8
AM_4
100
AcDbPolyline
 90
        9
 70
     0
 43
0.0
 10
-0.4129130246420178
 20
-0.1354458552500922
 10
-0.4107345803044785
 20
-0.1365710942898241
 10
-0.4009574613255967
 20
-0.1401327750686167
 10
-0.3897161833778893
 20
-0.1414906517587477
 10
-0.3790174761899935
 20
-0.1401974971838482
 10
-0.3691189682595686
 20
-0.1366409910410118
 10
-0.3600049872540648
 20
-0.1310651771264678
 10
-0.351514821108911
 20
-0.1234366821710024
 10
-0.3437604198670839
 20
-0.1138201847199025
  0
ELLIPSE
  5
EB
330
8C
100
AcDbEntity
  8
AM_4
100
AcDbEllipse
 10
-0.372996256974617
 20
-0.0000000000002759
 30
0.0
 11
8.155773951885239E-18
 21
0.1331938965187939
 31
0.0
210
0.0
220
0.0
230
1.0
 40
0.4226182617402168
 41
-0.5888862828652837
 42
-0.5365960108187204
  0
ELLIPSE
  5
EC
330
8C
100
AcDbEntity
  8
AM_4
100
AcDbEllipse
 10
-0.399430321788976
 20
0.0
 30
0.0
 11
8.520391689943294E-18
 21
0.1391485560714407
 31
0.0
210
0.0
220
0.0
230
1.0
 40
0.4226182617407007
 41
2.92239880407338
 42
6.502379156695998
  0
LINE
  5
ED
330
8C
100
AcDbEntity
  8
AM_4
100
AcDbLine
 10
-0.4782595695260258
 20
-0.101006617594416
 30
0.0
 11
-0.4122174217232457
 21
-0.1358191566576766
 31
0.0
  0
LINE
  5
EE
330
8C
100
AcDbEntity
  8
AM_4
100
AcDbLine
 10
-0.4122174217232457
 20
0.1358191566576766
 30
0.0
 11
-0.4782595695260258
 21
0.101006617594416
 31
0.0
  0
ARC
  5
F0
330
8C
100
AcDbEntity
  8
AM_5
100
AcDbCircle
 10
0.0000000000000002
 20
0.0
 30
0.0
 40
0.1685000050000001
100
AcDbArc
 50
75.00000000000001
 51
15.0
  0
ARC
  5
F1
330
8C
100
AcDbEntity
  8
AM_5
100
AcDbCircle
 10
0.0000000000000002
 20
0.0
 30
0.0
 40
0.168500005
100
AcDbArc
 50
14.99999999999994
 51
195.0
  0
ELLIPSE
  5
F2
330
8C
100
AcDbEntity
  8
AM_4
100
AcDbEllipse
 10
-0.4687500000000001
 20
-0.0000000000000002
 30
0.0
 11
6.336484236534252E-18
 21
0.1034826407245903
 31
0.0
210
0.0
220
0.0
230
1.0
 40
0.4226182617407002
 41
0.0
 42
6.283185307179586
  0
ENDBLK
  5
8F
330
8C
100
AcDbEntity
  8
0
100
AcDbBlockEnd
  0
BLOCK
  5
F5
330
F3
100
AcDbEntity
  8
0
100
AcDbBlockBegin
  2
3_1_15_16C_1_0_in_023151_2
 70
     2
 10
0.0
 20
0.0
 30
0.0
  3
3_1_15_16C_1_0_in_023151_2
  1

  0
ATTDEF
  5
F7
330
F3
100
AcDbEntity
  8
AM_6
100
AcDbText
 10
6.75
 20
1.718750000000004
 30
0.0
 40
0.5
  1
E-Type Collar -Inch
100
AcDbAttributeDefinition
  3

  2
NN
 70
     8
280
     0
  0
ATTDEF
  5
F8
330
F3
100
AcDbEntity
  8
AM_6
100
AcDbText
 10
6.75
 20
1.218750000000004
 30
0.0
 40
0.5
  1
E-Type Bearings
100
AcDbAttributeDefinition
  3

  2
NT
 70
     8
280
     0
  0
ATTDEF
  5
F9
330
F3
100
AcDbEntity
  8
AM_6
100
AcDbText
 10
6.75
 20
0.7187500000000042
 30
0.0
 40
0.5
  1
1-15/16C
100
AcDbAttributeDefinition
  3

  2
NB
 70
     8
280
     0
  0
ATTDEF
  5
FA
330
F3
100
AcDbEntity
  8
AM_6
100
AcDbText
 10
6.75
 20
0.2187500000000042
 30
0.0
 40
0.5
  1
$BORE.C
100
AcDbAttributeDefinition
  3

  2
NBSYN
 70
     8
280
     0
  0
ATTDEF
  5
FB
330
F3
100
AcDbEntity
  8
AM_6
100
AcDbText
 10
6.75
 20
-0.2812499999999958
 30
0.0
 40
0.5
  1
1-15/16C
100
AcDbAttributeDefinition
  3

  2
LINA
 70
     8
280
     0
  0
ATTDEF
  5
FC
330
F3
100
AcDbEntity
  8
AM_6
100
AcDbText
 10
6.75
 20
-0.7812499999999958
 30
0.0
 40
0.5
  1
1-15/16
100
AcDbAttributeDefinition
  3

  2
BORE
 70
     8
280
     0
  0
ATTDEF
  5
FD
330
F3
100
AcDbEntity
  8
AM_6
100
AcDbText
 10
6.75
 20
-1.281249999999996
 30
0.0
 40
0.5
  1
3.43750
100
AcDbAttributeDefinition
  3

  2
L
 70
     8
280
     0
  0
ATTDEF
  5
FE
330
F3
100
AcDbEntity
  8
AM_6
100
AcDbText
 10
6.75
 20
-1.781249999999996
 30
0.0
 40
0.5
  1
3.50
100
AcDbAttributeDefinition
  3

  2
A
 70
     8
280
     0
  0
ATTDEF
  5
FF
330
F3
100
AcDbEntity
  8
AM_6
100
AcDbText
 10
6.75
 20
-2.281249999999996
 30
0.0
 40
0.5
  1
1.62
100
AcDbAttributeDefinition
  3

  2
B
 70
     8
280
     0
  0
ATTDEF
  5
100
330
F3
100
AcDbEntity
  8
AM_6
100
AcDbText
 10
6.75
 20
-2.781249999999996
 30
0.0
 40
0.5
  1
2.31
100
AcDbAttributeDefinition
  3

  2
C
 70
     8
280
     0
  0
ATTDEF
  5
101
330
F3
100
AcDbEntity
  8
AM_6
100
AcDbText
 10
6.75
 20
-3.281249999999996
 30
0.0
 40
0.5
  1
3.50
100
AcDbAttributeDefinition
  3

  2
D
 70
     8
280
     0
  0
ATTDEF
  5
102
330
F3
100
AcDbEntity
  8
AM_6
100
AcDbText
 10
6.75
 20
-3.781249999999996
 30
0.0
 40
0.5
  1
0.41
100
AcDbAttributeDefinition
  3

  2
E
 70
     8
280
     0
  0
ATTDEF
  5
103
330
F3
100
AcDbEntity
  8
AM_6
100
AcDbText
 10
6.75
 20
-4.281249999999996
 30
0.0
 40
0.5
  1
0.31
100
AcDbAttributeDefinition
  3

  2
F
 70
     8
280
     0
  0
ATTDEF
  5
104
330
F3
100
AcDbEntity
  8
AM_6
100
AcDbText
 10
6.75
 20
-4.781249999999996
 30
0.0
 40
0.5
  1
3/8-16
100
AcDbAttributeDefinition
  3

  2
CS
 70
     8
280
     0
  0
ATTDEF
  5
105
330
F3
100
AcDbEntity
  8
AM_6
100
AcDbText
 10
6.75
 20
-5.281249999999996
 30
0.0
 40
0.5
  1
0.3750
100
AcDbAttributeDefinition
  3

  2
NDM
 70
     8
280
     0
  0
ATTDEF
  5
106
330
F3
100
AcDbEntity
  8
AM_6
100
AcDbText
 10
6.75
 20
-5.781249999999996
 30
0.0
 40
0.5
  1
0.3070
100
AcDbAttributeDefinition
  3

  2
KDM
 70
     8
280
     0
  0
ATTDEF
  5
107
330
F3
100
AcDbEntity
  8
AM_6
100
AcDbText
 10
6.75
 20
-6.281249999999996
 30
0.0
 40
0.5
  1
baldor
100
AcDbAttributeDefinition
  3

  2
COMPANY
 70
     8
280
     0
  0
LINE
  5
108
330
F3
100
AcDbEntity
  8
AM_9
100
AcDbLine
 10
1.28635
 20
1.16385
 30
0.0
 11
1.277760617000382
 21
1.155260617000382
 31
0.0
  0
LINE
  5
109
330
F3
100
AcDbEntity
  8
AM_9
100
AcDbLine
 10
1.602285733431799
 20
1.1552142665682
 30
0.0
 11
1.59365
 21
1.16385
 31
0.0
  0
LINE
  5
10A
330
F3
100
AcDbEntity
  8
AM_9
100
AcDbLine
 10
1.59365
 20
1.6849
 30
0.0
 11
1.627173245798873
 21
1.718423245798874
 31
0.0
  0
LINE
  5
10B
330
F3
100
AcDbEntity
  8
AM_9
100
AcDbLine
 10
1.252578655768017
 20
1.718671344231983
 30
0.0
 11
1.28635
 21
1.6849
 31
0.0
  0
LINE
  5
10C
330
F3
100
AcDbEntity
  8
AM_9
100
AcDbLine
 10
1.28635
 20
1.6849
 30
0.0
 11
1.59365
 21
1.6849
 31
0.0
  0
LINE
  5
10D
330
F3
100
AcDbEntity
  8
AM_9
100
AcDbLine
 10
1.28635
 20
1.16385
 30
0.0
 11
1.59365
 21
1.16385
 31
0.0
  0
LINE
  5
10E
330
F3
100
AcDbEntity
  8
AM_9
100
AcDbLine
 10
1.59365
 20
1.16385
 30
0.0
 11
1.59365
 21
1.6849
 31
0.0
  0
LINE
  5
10F
330
F3
100
AcDbEntity
  8
AM_9
100
AcDbLine
 10
1.28635
 20
1.6849
 30
0.0
 11
1.28635
 21
1.16385
 31
0.0
  0
LWPOLYLINE
  5
110
330
F3
100
AcDbEntity
  8
AM_9
100
AcDbPolyline
 90
        5
 70
     0
 43
0.0
 10
1.280640324894413
 20
0.4568213014285022
 10
1.283435477134436
 20
0.4451618597707855
 10
1.2939759471943
 20
0.4172813402254554
 10
1.306624464030878
 20
0.395409198614198
 10
1.322988104473678
 20
0.3749511740468588
  0
LWPOLYLINE
  5
111
330
F3
100
AcDbEntity
  8
AM_9
100
AcDbPolyline
 90
       34
 70
     0
 43
0.0
 10
1.322988104473678
 20
0.3749511740468588
 10
1.340713367160157
 20
0.3584939211419256
 10
1.361296829177464
 20
0.3443637149507601
 10
1.386123368754636
 20
0.3326488221851257
 10
1.413676700585799
 20
0.3252016799316819
 10
1.43909755075259
 20
0.3229296420656222
 10
1.465344761521262
 20
0.3250347720234152
 10
1.489067654958651
 20
0.3309536301770637
 10
1.512086348440228
 20
0.340725760252607
 10
1.53332277245758
 20
0.3539202904949935
 10
1.552629049811226
 20
0.3704285356413808
 10
1.569875588346395
 20
0.3904635028744868
 10
1.583972487909668
 20
0.4131782349156591
 10
1.594606359131619
 20
0.4386576569871657
 10
1.600907010899622
 20
0.4658214315193196
 10
1.602400986662972
 20
0.4936625531485579
 10
1.598757120128051
 20
0.5217762650915018
 10
1.590131994249788
 20
0.5481284107094868
 10
1.576198885410673
 20
0.57320137068181
 10
1.558385052348585
 20
0.5944991512068611
 10
1.535771329989637
 20
0.6130976508702548
 10
1.511815148278001
 20
0.6265153458013043
 10
1.484423654001466
 20
0.6362320913584267
 10
1.458763695572541
 20
0.6409239298336616
 10
1.431641036554751
 20
0.6417246593686735
 10
1.407239733160895
 20
0.6388566806906473
 10
1.383078803751198
 20
0.6324516492732203
 10
1.360897546785489
 20
0.6229826895125401
 10
1.340242928870741
 20
0.6103088687472106
 10
1.321398942507807
 20
0.5942839217735159
 10
1.30528701758864
 20
0.5753151595208473
 10
1.292095250353039
 20
0.5530075425784006
 10
1.282858838042085
 20
0.5282330707675195
 10
1.280713237225646
 20
0.5193466927661488
  0
LINE
  5
112
330
F3
100
AcDbEntity
  8
AM_9
100
AcDbLine
 10
1.75
 20
1.155
 30
0.0
 11
1.601984837517368
 21
1.155
 31
0.0
  0
LINE
  5
113
330
F3
100
AcDbEntity
  8
AM_9
100
AcDbLine
 10
1.278125351196577
 20
1.155
 30
0.0
 11
1.13
 21
1.155
 31
0.0
  0
LINE
  5
114
330
F3
100
AcDbEntity
  8
AM_9
100
AcDbLine
 10
1.13
 20
-1.155
 30
0.0
 11
1.75
 21
-1.155
 31
0.0
  0
LWPOLYLINE
  5
115
330
F3
100
AcDbEntity
  8
AM_9
100
AcDbPolyline
 90
       21
 70
     0
 43
0.0
 10
1.277500000000189
 20
1.154999999999969
 10
1.277922827735137
 20
1.154927775839699
 10
1.282506840884038
 20
1.154192211649515
 10
1.292264255474736
 20
1.152684893509513
 10
1.306916029846858
 20
1.150600189647072
 10
1.325828571350548
 20
1.148218191684252
 10
1.348740925088391
 20
1.14580753959554
 10
1.373509356111881
 20
1.14380255842948
 10
1.400615795223777
 20
1.142316433174313
 10
1.426671165229202
 20
1.141611636818776
 10
1.453147638067585
 20
1.141603360445361
 10
1.4776973154402
 20
1.142253088701593
 10
1.501212472618772
 20
1.143450341347159
 10
1.523400298022892
 20
1.145104275967014
 10
1.54343708596584
 20
1.147023031076418
 10
1.562064809653997
 20
1.149168989365262
 10
1.577445301954543
 20
1.151199533469865
 10
1.590080868890708
 20
1.153038661842084
 10
1.598404421512374
 20
1.154337447255613
 10
1.602292849706193
 20
1.154963121158799
 10
1.602499999999334
 20
1.154999999999891
  0
LINE
  5
116
330
F3
100
AcDbEntity
  8
AM_9
100
AcDbLine
 10
1.322029481057176
 20
1.148667808586113
 30
0.0
 11
1.320270700757611
 21
1.148881094757858
 31
0.0
  0
LINE
  5
117
330
F3
100
AcDbEntity
  8
AM_9
100
AcDbLine
 10
1.602499999999334
 20
1.154999999999891
 30
0.0
 11
1.598120444559921
 21
1.154292102140588
 31
0.0
  0
ELLIPSE
  5
118
330
F3
100
AcDbEntity
  8
AM_9
100
AcDbEllipse
 10
1.44
 20
0.491864263926913
 30
0.0
 11
0.1536500000000001
 21
0.0
 31
0.0
210
0.0
220
0.0
230
1.0
 40
0.9063077870366502
 41
2.2297075544777
 42
6.283185307179586
  0
ELLIPSE
  5
119
330
F3
100
AcDbEntity
  8
AM_9
100
AcDbEllipse
 10
1.439999999999999
 20
0.4918642639269123
 30
0.0
 11
0.1536500000000012
 21
0.0
 31
0.0
210
0.0
220
0.0
230
1.0
 40
0.9063077870366502
 41
0.0
 42
0.911885099112092
  0
LINE
  5
11A
330
F3
100
AcDbEntity
  8
AM_9
100
AcDbLine
 10
1.59365
 20
0.491864263926913
 30
0.0
 11
1.59365
 21
0.7120695092069046
 31
0.0
  0
LINE
  5
11B
330
F3
100
AcDbEntity
  8
AM_9
100
AcDbLine
 10
1.28635
 20
0.7120695092069046
 30
0.0
 11
1.28635
 21
0.491864263926913
 31
0.0
  0
LWPOLYLINE
  5
11C
330
F3
100
AcDbEntity
  8
AM_9
100
AcDbPolyline
 90
        9
 70
     0
 43
0.0
 10
1.280877041310507
 20
0.6399073575330448
 10
1.276488379014762
 20
0.6464518461253409
 10
1.263523464908372
 20
0.6714119473295433
 10
1.255247113266768
 20
0.6987408352440845
 10
1.252510416616958
 20
0.7246738577947912
 10
1.254754850172967
 20
0.75123182175456
 10
1.261557762316057
 20
0.775558610116668
 10
1.273040450456119
 20
0.7990148381312852
 10
1.280772875354931
 20
0.8105188337060465
  0
LINE
  5
11D
330
F3
100
AcDbEntity
  8
AM_9
100
AcDbLine
 10
1.252642250347084
 20
1.71875
 30
0.0
 11
1.13
 21
1.71875
 31
0.0
  0
LINE
  5
11E
330
F3
100
AcDbEntity
  8
AM_9
100
AcDbLine
 10
1.13
 20
-1.71875
 30
0.0
 11
1.28125
 21
-1.71875
 31
0.0
  0
LINE
  5
11F
330
F3
100
AcDbEntity
  8
AM_9
100
AcDbLine
 10
1.13
 20
-1.71875
 30
0.0
 11
1.13
 21
1.71875
 31
0.0
  0
LWPOLYLINE
  5
120
330
F3
100
AcDbEntity
  8
AM_9
100
AcDbPolyline
 90
        6
 70
     0
 43
0.0
 10
1.28080061029062
 20
1.716172928022002
 10
1.276671691984436
 20
1.716523106383967
 10
1.263450346773515
 20
1.717702695108029
 10
1.255259034383965
 20
1.718480578150946
 10
1.25252732013253
 20
1.718745736824434
 10
1.252500000000039
 20
1.718749999999996
  0
LINE
  5
121
330
F3
100
AcDbEntity
  8
AM_5
100
AcDbLine
 10
1.6275
 20
1.71875
 30
0.0
 11
1.6275
 21
1.155
 31
0.0
  0
LINE
  5
122
330
F3
100
AcDbEntity
  8
AM_5
100
AcDbLine
 10
1.2525
 20
1.71875
 30
0.0
 11
1.2525
 21
1.155
 31
0.0
  0
ELLIPSE
  5
123
330
F3
100
AcDbEntity
  8
AM_4
100
AcDbEllipse
 10
1.44
 20
0.4918642639269127
 30
0.0
 11
0.1536500000000001
 21
0.0
 31
0.0
210
0.0
220
0.0
230
1.0
 40
0.9063077870366516
 41
0.9118850991120953
 42
2.229707554477698
  0
ELLIPSE
  5
124
330
F3
100
AcDbEntity
  8
AM_4
100
AcDbEllipse
 10
1.44
 20
0.7120695092069045
 30
0.0
 11
0.1536499999999998
 21
0.0
 31
0.0
210
0.0
220
0.0
230
1.0
 40
0.9063077870366497
 41
3.141592653589793
 42
6.283185307179586
  0
ELLIPSE
  5
125
330
F3
100
AcDbEntity
  8
AM_4
100
AcDbEllipse
 10
1.44
 20
0.7120695092069047
 30
0.0
 11
0.1536499999999998
 21
0.0
 31
0.0
210
0.0
220
0.0
230
1.0
 40
0.9063077870366497
 41
0.0
 42
3.141592653589793
  0
LWPOLYLINE
  5
126
330
F3
100
AcDbEntity
  8
AM_4
100
AcDbPolyline
 90
       31
 70
     0
 43
0.0
 10
1.280772875354931
 20
0.8105188337060465
 10
1.288508929883739
 20
0.8201358997961166
 10
1.308116984994908
 20
0.839160898808286
 10
1.331371207655331
 20
0.8553924164780867
 10
1.357993906127274
 20
0.868446052596736
 10
1.387302242362799
 20
0.8777796960859083
 10
1.418819167410728
 20
0.8830075393029946
 10
1.451025836554178
 20
0.8837270106908539
 10
1.483831687781893
 20
0.8797233703702488
 10
1.514752581646669
 20
0.871199947737808
 10
1.5443890283441
 20
0.8578159389306583
 10
1.569722403196131
 20
0.8409115116664049
 10
1.591938761563095
 20
0.8196198792894778
 10
1.608299306696605
 20
0.7967621107334444
 10
1.62019335997593
 20
0.7706869530699212
 10
1.626214696784885
 20
0.7451831793061634
 10
1.627253751777905
 20
0.7180978129454443
 10
1.623423356923394
 20
0.6927413362247896
 10
1.614780154882027
 20
0.6674365746444095
 10
1.602026628267551
 20
0.6441611049311045
 10
1.584939301521433
 20
0.6223938278404729
 10
1.564069348991543
 20
0.6031232120919556
 10
1.539547566021341
 20
0.5867210630590332
 10
1.511918815838759
 20
0.5738823436767873
 10
1.481656258933318
 20
0.5651641381401371
 10
1.449960096061155
 20
0.5611641391831985
 10
1.417102405960584
 20
0.5621948131524074
 10
1.385283178758049
 20
0.5683050990320095
 10
1.354128342489267
 20
0.5797185732857352
 10
1.331585683444245
 20
0.5920265662130335
 10
1.31068385290223
 20
0.6074187524636393
  0
LWPOLYLINE
  5
127
330
F3
100
AcDbEntity
  8
AM_4
100
AcDbPolyline
 90
        3
 70
     0
 43
0.0
 10
1.31068385290223
 20
0.6074187524636393
 10
1.292203207971266
 20
0.6255628601080078
 10
1.280877041310507
 20
0.6399073575330448
  0
LINE
  5
128
330
F3
100
AcDbEntity
  8
AM_4
100
AcDbLine
 10
1.646666666666667
 20
1.71875
 30
0.0
 11
1.626905374023519
 21
1.71875
 31
0.0
  0
LINE
  5
129
330
F3
100
AcDbEntity
  8
AM_4
100
AcDbLine
 10
1.28125
 20
-1.71875
 30
0.0
 11
1.646666666666667
 21
-1.71875
 31
0.0
  0
LWPOLYLINE
  5
12A
330
F3
100
AcDbEntity
  8
AM_4
100
AcDbPolyline
 90
       17
 70
     0
 43
0.0
 10
1.627500000000041
 20
1.718750000000004
 10
1.626604209972099
 20
1.71866064891838
 10
1.621299623303223
 20
1.718150021891785
 10
1.611447793556051
 20
1.717236912964924
 10
1.597422983049049
 20
1.716024988647427
 10
1.579059853466126
 20
1.714592490102402
 10
1.557316266457222
 20
1.713122067970519
 10
1.531497738300273
 20
1.711700702921953
 10
1.503357658603039
 20
1.710546286180404
 10
1.472271594632547
 20
1.709763003781414
 10
1.440318634536983
 20
1.709483671300415
 10
1.407583310751253
 20
1.709765845866362
 10
1.375761669974212
 20
1.710576015739573
 10
1.345765251530746
 20
1.711835645638334
 10
1.318516415794893
 20
1.713384606250794
 10
1.295463197498034
 20
1.715001645415693
 10
1.28080061029062
 20
1.716172928022002
  0
LINE
  5
12B
330
F3
100
AcDbEntity
  8
AM_4
100
AcDbLine
 10
1.75
 20
-1.615416666666667
 30
0.0
 11
1.75
 21
1.615416666666667
 31
0.0
  0
LINE
  5
12C
330
F3
100
AcDbEntity
  8
AM_4
100
AcDbLine
 10
1.646666666666667
 20
-1.71875
 30
0.0
 11
1.646666666666667
 21
1.71875
 31
0.0
  0
ARC
  5
12D
330
F3
100
AcDbEntity
  8
AM_4
100
AcDbCircle
 10
1.646666666666666
 20
1.615416666666666
 30
0.0
 40
0.1033333333333337
100
AcDbArc
 50
0.0000008537736463
 51
90.0
  0
ARC
  5
12E
330
F3
100
AcDbEntity
  8
AM_4
100
AcDbCircle
 10
1.646666666666666
 20
-1.615416666666666
 30
0.0
 40
0.1033333333333335
100
AcDbArc
 50
270.0
 51
0.0000008537736463
  0
ENDBLK
  5
F6
330
F3
100
AcDbEntity
  8
0
100
AcDbBlockEnd
  0
BLOCK
  5
131
330
12F
100
AcDbEntity
  8
0
100
AcDbBlockBegin
  2
4_1_15_16C_2_0_in_023151_2
 70
     2
 10
0.0
 20
0.0
 30
0.0
  3
4_1_15_16C_2_0_in_023151_2
  1

  0
ATTDEF
  5
133
330
12F
100
AcDbEntity
  8
AM_6
100
AcDbText
 10
3.87
 20
1.71875
 30
0.0
 40
0.5
  1
E-Type Collar -Inch
100
AcDbAttributeDefinition
  3

  2
NN
 70
     8
280
     0
  0
ATTDEF
  5
134
330
12F
100
AcDbEntity
  8
AM_6
100
AcDbText
 10
3.87
 20
1.21875
 30
0.0
 40
0.5
  1
E-Type Bearings
100
AcDbAttributeDefinition
  3

  2
NT
 70
     8
280
     0
  0
ATTDEF
  5
135
330
12F
100
AcDbEntity
  8
AM_6
100
AcDbText
 10
3.87
 20
0.7187500000000004
 30
0.0
 40
0.5
  1
1-15/16C
100
AcDbAttributeDefinition
  3

  2
NB
 70
     8
280
     0
  0
ATTDEF
  5
136
330
12F
100
AcDbEntity
  8
AM_6
100
AcDbText
 10
3.87
 20
0.2187500000000004
 30
0.0
 40
0.5
  1
$BORE.C
100
AcDbAttributeDefinition
  3

  2
NBSYN
 70
     8
280
     0
  0
ATTDEF
  5
137
330
12F
100
AcDbEntity
  8
AM_6
100
AcDbText
 10
3.87
 20
-0.2812499999999996
 30
0.0
 40
0.5
  1
1-15/16C
100
AcDbAttributeDefinition
  3

  2
LINA
 70
     8
280
     0
  0
ATTDEF
  5
138
330
12F
100
AcDbEntity
  8
AM_6
100
AcDbText
 10
3.87
 20
-0.7812499999999996
 30
0.0
 40
0.5
  1
1-15/16
100
AcDbAttributeDefinition
  3

  2
BORE
 70
     8
280
     0
  0
ATTDEF
  5
139
330
12F
100
AcDbEntity
  8
AM_6
100
AcDbText
 10
3.87
 20
-1.28125
 30
0.0
 40
0.5
  1
3.43750
100
AcDbAttributeDefinition
  3

  2
L
 70
     8
280
     0
  0
ATTDEF
  5
13A
330
12F
100
AcDbEntity
  8
AM_6
100
AcDbText
 10
3.87
 20
-1.78125
 30
0.0
 40
0.5
  1
3.50
100
AcDbAttributeDefinition
  3

  2
A
 70
     8
280
     0
  0
ATTDEF
  5
13B
330
12F
100
AcDbEntity
  8
AM_6
100
AcDbText
 10
3.87
 20
-2.28125
 30
0.0
 40
0.5
  1
1.62
100
AcDbAttributeDefinition
  3

  2
B
 70
     8
280
     0
  0
ATTDEF
  5
13C
330
12F
100
AcDbEntity
  8
AM_6
100
AcDbText
 10
3.87
 20
-2.78125
 30
0.0
 40
0.5
  1
2.31
100
AcDbAttributeDefinition
  3

  2
C
 70
     8
280
     0
  0
ATTDEF
  5
13D
330
12F
100
AcDbEntity
  8
AM_6
100
AcDbText
 10
3.87
 20
-3.28125
 30
0.0
 40
0.5
  1
3.50
100
AcDbAttributeDefinition
  3

  2
D
 70
     8
280
     0
  0
ATTDEF
  5
13E
330
12F
100
AcDbEntity
  8
AM_6
100
AcDbText
 10
3.87
 20
-3.78125
 30
0.0
 40
0.5
  1
0.41
100
AcDbAttributeDefinition
  3

  2
E
 70
     8
280
     0
  0
ATTDEF
  5
13F
330
12F
100
AcDbEntity
  8
AM_6
100
AcDbText
 10
3.87
 20
-4.28125
 30
0.0
 40
0.5
  1
0.31
100
AcDbAttributeDefinition
  3

  2
F
 70
     8
280
     0
  0
ATTDEF
  5
140
330
12F
100
AcDbEntity
  8
AM_6
100
AcDbText
 10
3.87
 20
-4.78125
 30
0.0
 40
0.5
  1
3/8-16
100
AcDbAttributeDefinition
  3

  2
CS
 70
     8
280
     0
  0
ATTDEF
  5
141
330
12F
100
AcDbEntity
  8
AM_6
100
AcDbText
 10
3.87
 20
-5.28125
 30
0.0
 40
0.5
  1
0.3750
100
AcDbAttributeDefinition
  3

  2
NDM
 70
     8
280
     0
  0
ATTDEF
  5
142
330
12F
100
AcDbEntity
  8
AM_6
100
AcDbText
 10
3.87
 20
-5.78125
 30
0.0
 40
0.5
  1
0.3070
100
AcDbAttributeDefinition
  3

  2
KDM
 70
     8
280
     0
  0
ATTDEF
  5
143
330
12F
100
AcDbEntity
  8
AM_6
100
AcDbText
 10
3.87
 20
-6.28125
 30
0.0
 40
0.5
  1
baldor
100
AcDbAttributeDefinition
  3

  2
COMPANY
 70
     8
280
     0
  0
LINE
  5
144
330
12F
100
AcDbEntity
  8
AM_9
100
AcDbLine
 10
-1.28635
 20
1.16385
 30
0.0
 11
-1.28635
 21
1.6849
 31
0.0
  0
LINE
  5
145
330
12F
100
AcDbEntity
  8
AM_9
100
AcDbLine
 10
-1.59365
 20
1.6849
 30
0.0
 11
-1.59365
 21
1.16385
 31
0.0
  0
LINE
  5
146
330
12F
100
AcDbEntity
  8
AM_9
100
AcDbLine
 10
-1.59365
 20
1.16385
 30
0.0
 11
-1.28635
 21
1.16385
 31
0.0
  0
LINE
  5
147
330
12F
100
AcDbEntity
  8
AM_9
100
AcDbLine
 10
-1.59365
 20
1.16385
 30
0.0
 11
-1.602333859590502
 21
1.155166140409497
 31
0.0
  0
LINE
  5
148
330
12F
100
AcDbEntity
  8
AM_9
100
AcDbLine
 10
-1.277768486589464
 20
1.155268486589464
 30
0.0
 11
-1.28635
 21
1.16385
 31
0.0
  0
LINE
  5
149
330
12F
100
AcDbEntity
  8
AM_9
100
AcDbLine
 10
-1.59365
 20
1.6849
 30
0.0
 11
-1.28635
 21
1.6849
 31
0.0
  0
LINE
  5
14A
330
12F
100
AcDbEntity
  8
AM_9
100
AcDbLine
 10
-1.28635
 20
1.6849
 30
0.0
 11
-1.2525
 21
1.71875
 31
0.0
  0
LINE
  5
14B
330
12F
100
AcDbEntity
  8
AM_9
100
AcDbLine
 10
-1.6275
 20
1.71875
 30
0.0
 11
-1.59365
 21
1.6849
 31
0.0
  0
LWPOLYLINE
  5
14C
330
12F
100
AcDbEntity
  8
AM_9
100
AcDbPolyline
 90
       33
 70
     0
 43
0.0
 10
-1.280741504684705
 20
0.519481429277824
 10
-1.282506840884038
 20
0.5269257457283391
 10
-1.292264255474736
 20
0.5533184649773233
 10
-1.306916029846857
 20
0.5775465560041894
 10
-1.325828571350548
 20
0.5985069496908872
 10
-1.348740925088391
 20
0.6160441469379795
 10
-1.373509356111881
 20
0.6288048404677834
 10
-1.400615795223777
 20
0.6374696658014961
 10
-1.426671165229201
 20
0.6414014566813423
 10
-1.453147638067585
 20
0.6414329664232039
 10
-1.4776973154402
 20
0.6378349976865151
 10
-1.501212472618772
 20
0.6309080904423755
 10
-1.523400298022892
 20
0.6206741931724533
 10
-1.54343708596584
 20
0.6075673369347371
 10
-1.562064809653996
 20
0.5906952130942349
 10
-1.577445301954543
 20
0.5713661406842143
 10
-1.590080868890708
 20
0.5482122720450486
 10
-1.598404421512374
 20
0.5232951791991903
 10
-1.602292849706193
 20
0.4958213139565705
 10
-1.60117665001329
 20
0.4677970280308608
 10
-1.594858942332217
 20
0.4394979658413339
 10
-1.583504583658789
 20
0.412279727198437
 10
-1.56743230373832
 20
0.387246833657287
 10
-1.546972829888136
 20
0.3650564070238982
 10
-1.523678283758053
 20
0.3473968064820104
 10
-1.497411069580452
 20
0.3340073621826995
 10
-1.471336514347769
 20
0.326183497435596
 10
-1.444224615848441
 20
0.322985231694274
 10
-1.419021520915243
 20
0.3243871284980401
 10
-1.39441924203597
 20
0.3298323777881105
 10
-1.37135532203937
 20
0.3390024523154558
 10
-1.350078384257334
 20
0.3514964254536931
 10
-1.320270700757611
 20
0.3779306153227042
  0
LWPOLYLINE
  5
14D
330
12F
100
AcDbEntity
  8
AM_9
100
AcDbPolyline
 90
        5
 70
     0
 43
0.0
 10
-1.320270700757611
 20
0.3779306153227042
 10
-1.305573278082183
 20
0.3969823851245571
 10
-1.293808271443681
 20
0.4176293360648106
 10
-1.283801432537046
 20
0.4439182519710257
 10
-1.280653365801807
 20
0.456756545937799
  0
LINE
  5
14E
330
12F
100
AcDbEntity
  8
AM_9
100
AcDbLine
 10
-1.75
 20
-1.155
 30
0.0
 11
-1.13
 21
-1.155
 31
0.0
  0
LINE
  5
14F
330
12F
100
AcDbEntity
  8
AM_9
100
AcDbLine
 10
-1.13
 20
1.155
 30
0.0
 11
-1.278141874627085
 21
1.155
 31
0.0
  0
LINE
  5
150
330
12F
100
AcDbEntity
  8
AM_9
100
AcDbLine
 10
-1.602102342789093
 20
1.155
 30
0.0
 11
-1.75
 21
1.155
 31
0.0
  0
LWPOLYLINE
  5
151
330
12F
100
AcDbEntity
  8
AM_9
100
AcDbPolyline
 90
       21
 70
     0
 43
0.0
 10
-1.602499999999293
 20
1.154999999999884
 10
-1.602400986662972
 20
1.15498379342257
 10
-1.598757120128051
 20
1.154393873255462
 10
-1.590131994249788
 20
1.153048235227184
 10
-1.576198885410673
 20
1.151026350938733
 10
-1.558385052348585
 20
1.148717802829725
 10
-1.535771329989636
 20
1.146240524342773
 10
-1.511815148278001
 20
1.144177281125706
 10
-1.484423654001466
 20
1.142534733138016
 10
-1.458763695572541
 20
1.141696141547657
 10
-1.431641036554751
 20
1.1415500348332
 10
-1.407239733160895
 20
1.14206930960979
 10
-1.383078803751198
 20
1.143188797776558
 10
-1.360897546785489
 20
1.144743350316933
 10
-1.340242928870741
 20
1.146640022566709
 10
-1.321398942507806
 20
1.148743921308349
 10
-1.30528701758864
 20
1.150821876167579
 10
-1.292095250353039
 20
1.152712392277049
 10
-1.282858838042085
 20
1.154136323883433
 10
-1.278073151141623
 20
1.154906315782236
 10
-1.277500000000017
 20
1.154999999999997
  0
LINE
  5
152
330
12F
100
AcDbEntity
  8
AM_9
100
AcDbLine
 10
-1.28635
 20
0.491864263926913
 30
0.0
 11
-1.28635
 21
0.7120695092069046
 31
0.0
  0
LINE
  5
153
330
12F
100
AcDbEntity
  8
AM_9
100
AcDbLine
 10
-1.59365
 20
0.7120695092069046
 30
0.0
 11
-1.59365
 21
0.491864263926913
 31
0.0
  0
ELLIPSE
  5
154
330
12F
100
AcDbEntity
  8
AM_9
100
AcDbEllipse
 10
-1.44
 20
0.4918642639269126
 30
0.0
 11
0.1536500000000003
 21
0.0
 31
0.0
210
0.0
220
0.0
230
1.0
 40
0.9063077870366506
 41
2.229707554477702
 42
7.195070406291675
  0
LWPOLYLINE
  5
155
330
12F
100
AcDbEntity
  8
AM_9
100
AcDbPolyline
 90
        9
 70
     0
 43
0.0
 10
-1.28080061029062
 20
0.8105562594737931
 10
-1.276671691984436
 20
0.8047035046119496
 10
-1.263450346773515
 20
0.7802161807407949
 10
-1.255259034383965
 20
0.7538414137987154
 10
-1.252527320132529
 20
0.7277339641470991
 10
-1.254745591100707
 20
0.7013834469947793
 10
-1.261682101193912
 20
0.6761688379620842
 10
-1.273013566975309
 20
0.6521659761147418
 10
-1.280322024241184
 20
0.6406988743495681
  0
LINE
  5
156
330
12F
100
AcDbEntity
  8
AM_9
100
AcDbLine
 10
-1.28125
 20
-1.71875
 30
0.0
 11
-1.13
 21
-1.71875
 31
0.0
  0
LINE
  5
157
330
12F
100
AcDbEntity
  8
AM_9
100
AcDbLine
 10
-1.13
 20
1.71875
 30
0.0
 11
-1.2525
 21
1.71875
 31
0.0
  0
LINE
  5
158
330
12F
100
AcDbEntity
  8
AM_9
100
AcDbLine
 10
-1.252500000000037
 20
1.718749999999996
 30
0.0
 11
-1.280772875354931
 21
1.716175250768662
 31
0.0
  0
LINE
  5
159
330
12F
100
AcDbEntity
  8
AM_9
100
AcDbLine
 10
-1.13
 20
1.71875
 30
0.0
 11
-1.13
 21
-1.71875
 31
0.0
  0
LINE
  5
15A
330
12F
100
AcDbEntity
  8
AM_5
100
AcDbLine
 10
-1.6275
 20
1.71875
 30
0.0
 11
-1.6275
 21
1.155
 31
0.0
  0
LINE
  5
15B
330
12F
100
AcDbEntity
  8
AM_5
100
AcDbLine
 10
-1.2525
 20
1.71875
 30
0.0
 11
-1.2525
 21
1.155
 31
0.0
  0
ELLIPSE
  5
15C
330
12F
100
AcDbEntity
  8
AM_4
100
AcDbEllipse
 10
-1.44
 20
0.4918642639269147
 30
0.0
 11
0.153649999999999
 21
0.0
 31
0.0
210
0.0
220
0.0
230
1.0
 40
0.9063077870366449
 41
1.570796326794897
 42
2.229707554477708
  0
ELLIPSE
  5
15D
330
12F
100
AcDbEntity
  8
AM_4
100
AcDbEllipse
 10
-1.44
 20
0.7120695092069045
 30
0.0
 11
0.1536499999999998
 21
0.0
 31
0.0
210
0.0
220
0.0
230
1.0
 40
0.9063077870366497
 41
3.141592653589793
 42
7.853981633974483
  0
ELLIPSE
  5
15E
330
12F
100
AcDbEntity
  8
AM_4
100
AcDbEllipse
 10
-1.44
 20
0.4918642639269146
 30
0.0
 11
0.153649999999999
 21
0.0
 31
0.0
210
0.0
220
0.0
230
1.0
 40
0.9063077870366455
 41
0.9118850991120855
 42
1.570796326794897
  0
ELLIPSE
  5
15F
330
12F
100
AcDbEntity
  8
AM_4
100
AcDbEllipse
 10
-1.44
 20
0.7120695092069054
 30
0.0
 11
0.1536499999999994
 21
0.0
 31
0.0
210
0.0
220
0.0
230
1.0
 40
0.9063077870366482
 41
1.570796326794897
 42
3.141592653589793
  0
LINE
  5
160
330
12F
100
AcDbEntity
  8
AM_4
100
AcDbLine
 10
-1.280322024241184
 20
0.6406988743495681
 30
0.0
 11
-1.296930807006646
 21
0.620401127536357
 31
0.0
  0
LWPOLYLINE
  5
161
330
12F
100
AcDbEntity
  8
AM_4
100
AcDbPolyline
 90
       31
 70
     0
 43
0.0
 10
-1.296930807006646
 20
0.620401127536357
 10
-1.316514390619005
 20
0.6026772403173434
 10
-1.338652563181371
 20
0.5877464461645957
 10
-1.36653292523478
 20
0.5744856075499754
 10
-1.396319497257078
 20
0.5655918426281175
 10
-1.428388967470955
 20
0.5612671253337135
 10
-1.46077568009637
 20
0.5619696181972665
 10
-1.493116697527709
 20
0.5678900374206148
 10
-1.523941721387244
 20
0.5788362043451799
 10
-1.552119366843909
 20
0.5944649060961978
 10
-1.577004661601931
 20
0.6143379728590016
 10
-1.597099450482889
 20
0.6371373069737768
 10
-1.612586246790908
 20
0.6627039385728177
 10
-1.622389013083795
 20
0.6888285276339489
 10
-1.627107159433268
 20
0.7159190693475173
 10
-1.626604209972099
 20
0.7419184397725251
 10
-1.621299623303223
 20
0.7672769790728751
 10
-1.611447793556051
 20
0.7910366203213197
 10
-1.597422983049049
 20
0.8129052086842058
 10
-1.579059853466126
 20
0.8328886625445291
 10
-1.557316266457222
 20
0.849951747685816
 10
-1.531497738300273
 20
0.8643395065520344
 10
-1.503357658603039
 20
0.8749220561279052
 10
-1.472271594632547
 20
0.8816808926539007
 10
-1.440318634536983
 20
0.8839933237186927
 10
-1.407583310751253
 20
0.8816586394749941
 10
-1.375761669974212
 20
0.8746595853048477
 10
-1.345765251530746
 20
0.8630451330807581
 10
-1.318516415794893
 20
0.8470944708211451
 10
-1.295463197498034
 20
0.8275917740042813
 10
-1.28080061029062
 20
0.8105562594737931
  0
LINE
  5
162
330
12F
100
AcDbEntity
  8
AM_4
100
AcDbLine
 10
-1.646666666666667
 20
-1.71875
 30
0.0
 11
-1.28125
 21
-1.71875
 31
0.0
  0
LINE
  5
163
330
12F
100
AcDbEntity
  8
AM_4
100
AcDbLine
 10
-1.6275
 20
1.71875
 30
0.0
 11
-1.646666666666667
 21
1.71875
 31
0.0
  0
LWPOLYLINE
  5
164
330
12F
100
AcDbEntity
  8
AM_4
100
AcDbPolyline
 90
       17
 70
     0
 43
0.0
 10
-1.280772875354931
 20
1.716175250768662
 10
-1.288508929883739
 20
1.715542845283204
 10
-1.308116984994908
 20
1.714079377104359
 10
-1.331371207655331
 20
1.712604011323974
 10
-1.357993906127274
 20
1.71126321852817
 10
-1.387302242362799
 20
1.710218916693832
 10
-1.418819167410728
 20
1.709602465016823
 10
-1.451025836554177
 20
1.709515843880191
 10
-1.483831687781893
 20
1.709992380340885
 10
-1.514752581646669
 20
1.710962566616508
 10
-1.5443890283441
 20
1.712365553290242
 10
-1.569722403196131
 20
1.713930378857723
 10
-1.591938761563095
 20
1.715578595844378
 10
-1.608299306696605
 20
1.716956419087102
 10
-1.62019335997593
 20
1.718045056547901
 10
-1.626214696784885
 20
1.718624001717391
 10
-1.627499999999895
 20
1.71874999999999
  0
LINE
  5
165
330
12F
100
AcDbEntity
  8
AM_4
100
AcDbLine
 10
-1.75
 20
1.615416666666667
 30
0.0
 11
-1.75
 21
-1.615416666666667
 31
0.0
  0
ARC
  5
166
330
12F
100
AcDbEntity
  8
AM_4
100
AcDbCircle
 10
-1.646666666666666
 20
-1.615416666666666
 30
0.0
 40
0.1033333333333339
100
AcDbArc
 50
180.0
 51
270.0
  0
ARC
  5
167
330
12F
100
AcDbEntity
  8
AM_4
100
AcDbCircle
 10
-1.646666666666666
 20
1.615416666666666
 30
0.0
 40
0.1033333333333339
100
AcDbArc
 50
90.0
 51
180.0
  0
LINE
  5
168
330
12F
100
AcDbEntity
  8
AM_4
100
AcDbLine
 10
-1.646666666666667
 20
1.71875
 30
0.0
 11
-1.646666666666667
 21
-1.71875
 31
0.0
  0
ENDBLK
  5
132
330
12F
100
AcDbEntity
  8
0
100
AcDbBlockEnd
  0
BLOCK
  5
16B
330
169
100
AcDbEntity
  8
0
100
AcDbBlockBegin
  2
5_1_15_16I_0_in_023151_2
 70
     2
 10
0.0
 20
0.0
 30
0.0
  3
5_1_15_16I_0_in_023151_2
  1

  0
ATTDEF
  5
16D
330
169
100
AcDbEntity
  8
AM_6
100
AcDbText
 10
6.925
 20
1.75
 30
0.0
 40
0.5
  1
E-Type Insert -Inch
100
AcDbAttributeDefinition
  3

  2
NN
 70
     8
280
     0
  0
ATTDEF
  5
16E
330
169
100
AcDbEntity
  8
AM_6
100
AcDbText
 10
6.925
 20
1.25
 30
0.0
 40
0.5
  1
E-Type Bearings
100
AcDbAttributeDefinition
  3

  2
NT
 70
     8
280
     0
  0
ATTDEF
  5
16F
330
169
100
AcDbEntity
  8
AM_6
100
AcDbText
 10
6.925
 20
0.75
 30
0.0
 40
0.5
  1
1-15/16I
100
AcDbAttributeDefinition
  3

  2
NB
 70
     8
280
     0
  0
ATTDEF
  5
170
330
169
100
AcDbEntity
  8
AM_6
100
AcDbText
 10
6.925
 20
0.25
 30
0.0
 40
0.5
  1
$BORE.I
100
AcDbAttributeDefinition
  3

  2
NBSYN
 70
     8
280
     0
  0
ATTDEF
  5
171
330
169
100
AcDbEntity
  8
AM_6
100
AcDbText
 10
6.925
 20
-0.25
 30
0.0
 40
0.5
  1
1-15/16I
100
AcDbAttributeDefinition
  3

  2
LINA
 70
     8
280
     0
  0
ATTDEF
  5
172
330
169
100
AcDbEntity
  8
AM_6
100
AcDbText
 10
6.925
 20
-0.75
 30
0.0
 40
0.5
  1
1-15/16
100
AcDbAttributeDefinition
  3

  2
BORE
 70
     8
280
     0
  0
ATTDEF
  5
173
330
169
100
AcDbEntity
  8
AM_6
100
AcDbText
 10
6.925
 20
-1.25
 30
0.0
 40
0.5
  1
3.50
100
AcDbAttributeDefinition
  3

  2
A
 70
     8
280
     0
  0
ATTDEF
  5
174
330
169
100
AcDbEntity
  8
AM_6
100
AcDbText
 10
6.925
 20
-1.75
 30
0.0
 40
0.5
  1
1.62
100
AcDbAttributeDefinition
  3

  2
B
 70
     8
280
     0
  0
ATTDEF
  5
175
330
169
100
AcDbEntity
  8
AM_6
100
AcDbText
 10
6.925
 20
-2.25
 30
0.0
 40
0.5
  1
2.31
100
AcDbAttributeDefinition
  3

  2
C
 70
     8
280
     0
  0
ATTDEF
  5
176
330
169
100
AcDbEntity
  8
AM_6
100
AcDbText
 10
6.925
 20
-2.75
 30
0.0
 40
0.5
  1
3.50
100
AcDbAttributeDefinition
  3

  2
D
 70
     8
280
     0
  0
ATTDEF
  5
177
330
169
100
AcDbEntity
  8
AM_6
100
AcDbText
 10
6.925
 20
-3.25
 30
0.0
 40
0.5
  1
0.41
100
AcDbAttributeDefinition
  3

  2
E
 70
     8
280
     0
  0
ATTDEF
  5
178
330
169
100
AcDbEntity
  8
AM_6
100
AcDbText
 10
6.925
 20
-3.75
 30
0.0
 40
0.5
  1
0.31
100
AcDbAttributeDefinition
  3

  2
F
 70
     8
280
     0
  0
ATTDEF
  5
179
330
169
100
AcDbEntity
  8
AM_6
100
AcDbText
 10
6.925
 20
-4.25
 30
0.0
 40
0.5
  1
baldor
100
AcDbAttributeDefinition
  3

  2
COMPANY
 70
     8
280
     0
  0
LINE
  5
17A
330
169
100
AcDbEntity
  8
AM_9
100
AcDbLine
 10
-1.645
 20
1.155
 30
0.0
 11
-1.645
 21
0.96875
 31
0.0
  0
LINE
  5
17B
330
169
100
AcDbEntity
  8
AM_9
100
AcDbLine
 10
-1.235
 20
0.96875
 30
0.0
 11
-1.235
 21
1.155
 31
0.0
  0
LINE
  5
17C
330
169
100
AcDbEntity
  8
AM_9
100
AcDbLine
 10
1.235
 20
1.155
 30
0.0
 11
1.235
 21
0.96875
 31
0.0
  0
LINE
  5
17D
330
169
100
AcDbEntity
  8
AM_9
100
AcDbLine
 10
1.645
 20
0.96875
 30
0.0
 11
1.645
 21
1.155
 31
0.0
  0
LINE
  5
17E
330
169
100
AcDbEntity
  8
AM_9
100
AcDbLine
 10
-1.75
 20
-0.96875
 30
0.0
 11
1.75
 21
-0.96875
 31
0.0
  0
LINE
  5
17F
330
169
100
AcDbEntity
  8
AM_9
100
AcDbLine
 10
1.75
 20
0.96875
 30
0.0
 11
1.645
 21
0.96875
 31
0.0
  0
LINE
  5
180
330
169
100
AcDbEntity
  8
AM_9
100
AcDbLine
 10
1.235
 20
0.96875
 30
0.0
 11
-1.235
 21
0.96875
 31
0.0
  0
LINE
  5
181
330
169
100
AcDbEntity
  8
AM_9
100
AcDbLine
 10
-1.645
 20
0.96875
 30
0.0
 11
-1.75
 21
0.96875
 31
0.0
  0
LWPOLYLINE
  5
182
330
169
100
AcDbEntity
  8
AM_9
100
AcDbPolyline
 90
       21
 70
     0
 43
0.0
 10
1.235000000000972
 20
0.9687499999997943
 10
1.236136064059495
 20
0.968510230651775
 10
1.242325354843034
 20
0.967226358117857
 10
1.254121992397568
 20
0.9648845507159131
 10
1.27066809767324
 20
0.9618341102526982
 10
1.292347258118034
 20
0.9582551302681676
 10
1.317932644642339
 20
0.9546475798660015
 10
1.347798434943482
 20
0.9512900141906628
 10
1.379543145009841
 20
0.9487394762606336
 10
1.414060385800203
 20
0.9471665250022481
 10
1.447691235750861
 20
0.9468424988388381
 10
1.482086076776439
 20
0.9477461687384617
 10
1.513980668122994
 20
0.9496971631819927
 10
1.544684066716186
 20
0.9525808712777298
 10
1.572099986300245
 20
0.9559822011316554
 10
1.596558288531906
 20
0.9596676821733864
 10
1.616383833305868
 20
0.9631006277392162
 10
1.631678285948385
 20
0.9660186995105793
 10
1.641075348862429
 20
0.9679270935458659
 10
1.644939807045839
 20
0.968737264180534
 10
1.64499999999808
 20
0.9687499999995938
  0
LINE
  5
183
330
169
100
AcDbEntity
  8
AM_9
100
AcDbLine
 10
1.444449230336141
 20
0.9468217140257104
 30
0.0
 11
1.44
 21
0.9468112602308868
 31
0.0
  0
LINE
  5
184
330
169
100
AcDbEntity
  8
AM_9
100
AcDbLine
 10
1.64499999999808
 20
0.9687499999995938
 30
0.0
 11
1.634202738014789
 21
0.9665227705297174
 31
0.0
  0
LWPOLYLINE
  5
185
330
169
100
AcDbEntity
  8
AM_9
100
AcDbPolyline
 90
       21
 70
     0
 43
0.0
 10
-1.644999999999027
 20
0.9687499999997943
 10
-1.643863935940505
 20
0.968510230651775
 10
-1.637674645156966
 20
0.967226358117857
 10
-1.625878007602432
 20
0.9648845507159131
 10
-1.60933190232676
 20
0.9618341102526982
 10
-1.587652741881966
 20
0.9582551302681676
 10
-1.562067355357661
 20
0.9546475798660015
 10
-1.532201565056518
 20
0.9512900141906628
 10
-1.500456854990158
 20
0.9487394762606336
 10
-1.465939614199797
 20
0.9471665250022481
 10
-1.432308764249139
 20
0.9468424988388381
 10
-1.397913923223561
 20
0.9477461687384617
 10
-1.366019331877006
 20
0.9496971631819927
 10
-1.335315933283814
 20
0.9525808712777298
 10
-1.307900013699755
 20
0.9559822011316554
 10
-1.283441711468094
 20
0.9596676821733864
 10
-1.263616166694132
 20
0.9631006277392162
 10
-1.248321714051615
 20
0.9660186995105793
 10
-1.238924651137571
 20
0.9679270935458659
 10
-1.235060192954161
 20
0.968737264180534
 10
-1.23500000000192
 20
0.9687499999995938
  0
LWPOLYLINE
  5
186
330
169
100
AcDbEntity
  8
AM_9
100
AcDbPolyline
 90
        3
 70
     0
 43
0.0
 10
1.23977982266857
 20
0.4488753504438469
 10
1.235434388217628
 20
0.4214612453438162
 10
1.235000000490112
 20
0.4094242884180022
  0
LWPOLYLINE
  5
187
330
169
100
AcDbEntity
  8
AM_9
100
AcDbPolyline
 90
        5
 70
     0
 43
0.0
 10
1.280726158491823
 20
0.5227312379185085
 10
1.267465047962213
 20
0.5070664358360574
 10
1.251435925789876
 20
0.4808901464517306
 10
1.24042199397038
 20
0.4513805915063785
 10
1.23977982266857
 20
0.4488753504438469
  0
LWPOLYLINE
  5
188
330
169
100
AcDbEntity
  8
AM_9
100
AcDbPolyline
 90
        3
 70
     0
 43
0.0
 10
1.29533204440006
 20
0.536420570610332
 10
1.288723840198574
 20
0.5306019265218255
 10
1.280726158491823
 20
0.5227312379185085
  0
LWPOLYLINE
  5
189
330
169
100
AcDbEntity
  8
AM_9
100
AcDbPolyline
 90
        5
 70
     0
 43
0.0
 10
1.392121663471844
 20
0.5813058274263423
 10
1.373010007254815
 20
0.5767331405050735
 10
1.342345648858122
 20
0.5656207956122146
 10
1.313586626444858
 20
0.5499536565846486
 10
1.29533204440006
 20
0.536420570610332
  0
LINE
  5
18A
330
169
100
AcDbEntity
  8
AM_9
100
AcDbLine
 10
1.235
 20
0.4881076412112373
 30
0.0
 11
1.235
 21
0.4093487560270379
 31
0.0
  0
LINE
  5
18B
330
169
100
AcDbEntity
  8
AM_9
100
AcDbLine
 10
1.645
 20
0.4093806894140369
 30
0.0
 11
1.645
 21
0.4880725092054524
 31
0.0
  0
LWPOLYLINE
  5
18C
330
169
100
AcDbEntity
  8
AM_9
100
AcDbPolyline
 90
       21
 70
     0
 43
0.0
 10
1.235000000490112
 20
0.4094242884180022
 10
1.236136064059495
 20
0.3897772192543238
 10
1.242325354843034
 20
0.359544623265021
 10
1.254121992397568
 20
0.3294235198813641
 10
1.27066809767324
 20
0.301765170061049
 10
1.292347258118033
 20
0.2760901389567564
 10
1.317932644642339
 20
0.2541868158586207
 10
1.347798434943482
 20
0.2360918793134508
 10
1.379543145009841
 20
0.2234247587880953
 10
1.414060385800203
 20
0.2159901452848828
 10
1.447691235750862
 20
0.2144906434743364
 10
1.482086076776439
 20
0.2186992235073488
 10
1.513980668122994
 20
0.2280865390324301
 10
1.544684066716186
 20
0.2428357102022852
 10
1.572099986300245
 20
0.2619401372571927
 10
1.596558288531906
 20
0.2856301692754171
 10
1.616383833305868
 20
0.3123429690855087
 10
1.631678285948385
 20
0.3423738989788782
 10
1.641075348862429
 20
0.3728827501067971
 10
1.644939807045839
 20
0.4049040265761835
 10
1.644999999031816
 20
0.4093933839346698
  0
LWPOLYLINE
  5
18D
330
169
100
AcDbEntity
  8
AM_9
100
AcDbPolyline
 90
        6
 70
     0
 43
0.0
 10
1.584957931921739
 20
0.536176811938178
 10
1.582451064148255
 20
0.5382512289749826
 10
1.555469681517259
 20
0.5566206707832223
 10
1.525647955376678
 20
0.5705742588637172
 10
1.49238298668423
 20
0.5803767951538183
 10
1.488165272119492
 20
0.5812493085938589
  0
LWPOLYLINE
  5
18E
330
169
100
AcDbEntity
  8
AM_9
100
AcDbPolyline
 90
        5
 70
     0
 43
0.0
 10
1.640330835323406
 20
0.4484259984808028
 10
1.635383226411993
 20
0.4648085111363556
 10
1.622745862267386
 20
0.4917137706382524
 10
1.604757328877598
 20
0.5167075346618185
 10
1.584957931921739
 20
0.536176811938178
  0
LWPOLYLINE
  5
18F
330
169
100
AcDbEntity
  8
AM_9
100
AcDbPolyline
 90
        3
 70
     0
 43
0.0
 10
1.644999999031816
 20
0.4093933839346698
 10
1.643013454135101
 20
0.4350371315687189
 10
1.640330835323406
 20
0.4484259984808028
  0
LWPOLYLINE
  5
190
330
169
100
AcDbEntity
  8
AM_9
100
AcDbPolyline
 90
        6
 70
     0
 43
0.0
 10
1.281169899416732
 20
0.3675772154281942
 10
1.262245335435469
 20
0.3936983893967246
 10
1.247555624917102
 20
0.4231877156710321
 10
1.238441907098632
 20
0.4540719850384655
 10
1.235019874684364
 20
0.4855355372143438
 10
1.235000000576729
 20
0.4881101557715589
  0
LWPOLYLINE
  5
191
330
169
100
AcDbEntity
  8
AM_9
100
AcDbPolyline
 90
       17
 70
     0
 43
0.0
 10
1.644999999363772
 20
0.4881387299977162
 10
1.643794998115517
 20
0.4679188545951772
 10
1.637298212665202
 20
0.4371744941705606
 10
1.625420443226721
 20
0.4074837453702556
 10
1.60833651427101
 20
0.379610097828691
 10
1.586639899355452
 20
0.3545227402605503
 10
1.560481352391878
 20
0.3327693832822596
 10
1.530900303144283
 20
0.3153783686275085
 10
1.49862500327932
 20
0.3030020108582965
 10
1.464645425831918
 20
0.2960413747677831
 10
1.430404582061244
 20
0.2948240869715158
 10
1.396437555419073
 20
0.2991768908283279
 10
1.363960575943977
 20
0.3089297927979093
 10
1.333592745364521
 20
0.3236699157196553
 10
1.305918559939227
 20
0.343185947518981
 10
1.281969404785717
 20
0.3666481447704773
 10
1.281169899416732
 20
0.3675772154281942
  0
LWPOLYLINE
  5
192
330
169
100
AcDbEntity
  8
AM_9
100
AcDbPolyline
 90
        6
 70
     0
 43
0.0
 10
1.315475388539008
 20
0.6308361590871213
 10
1.327073889191244
 20
0.6378014968234393
 10
1.357560959345697
 20
0.6517252120896527
 10
1.390435264890733
 20
0.6611113656534127
 10
1.415026989680055
 20
0.6648947039647001
 10
1.44
 20
0.6661671216004318
  0
LWPOLYLINE
  5
193
330
169
100
AcDbEntity
  8
AM_9
100
AcDbPolyline
 90
        3
 70
     0
 43
0.0
 10
1.280909767354092
 20
0.6022307703941971
 10
1.300066196985514
 20
0.6197528055456031
 10
1.315475388539008
 20
0.6308361590871213
  0
LWPOLYLINE
  5
194
330
169
100
AcDbEntity
  8
AM_9
100
AcDbPolyline
 90
        6
 70
     0
 43
0.0
 10
1.235000000576729
 20
0.4881101557715589
 10
1.237407761293978
 20
0.5162123387929745
 10
1.245363953789169
 20
0.5456929045843851
 10
1.258702571434621
 20
0.5731313362391617
 10
1.276976360126783
 20
0.5979356195792978
 10
1.280909767354092
 20
0.6022307703941971
  0
LWPOLYLINE
  5
195
330
169
100
AcDbEntity
  8
AM_9
100
AcDbPolyline
 90
        3
 70
     0
 43
0.0
 10
-1.64022017733143
 20
0.4488753504438469
 10
-1.644565611782372
 20
0.4214612453438162
 10
-1.644999999509888
 20
0.4094242884180022
  0
LWPOLYLINE
  5
196
330
169
100
AcDbEntity
  8
AM_9
100
AcDbPolyline
 90
        6
 70
     0
 43
0.0
 10
-1.584712169195897
 20
0.536383469310173
 10
-1.591276159801426
 20
0.5306019265218255
 10
-1.612534952037787
 20
0.5070664358360574
 10
-1.628564074210124
 20
0.4808901464517306
 10
-1.63957800602962
 20
0.4513805915063785
 10
-1.64022017733143
 20
0.4488753504438469
  0
LWPOLYLINE
  5
197
330
169
100
AcDbEntity
  8
AM_9
100
AcDbPolyline
 90
        5
 70
     0
 43
0.0
 10
-1.487301829343856
 20
0.5814182984678071
 10
-1.506989992745184
 20
0.5767331405050735
 10
-1.537654351141878
 20
0.5656207956122146
 10
-1.566413373555142
 20
0.5499536565846486
 10
-1.584712169195897
 20
0.536383469310173
  0
LINE
  5
198
330
169
100
AcDbEntity
  8
AM_9
100
AcDbLine
 10
-1.645
 20
0.4881076412112375
 30
0.0
 11
-1.645
 21
0.4093487560270378
 31
0.0
  0
LINE
  5
199
330
169
100
AcDbEntity
  8
AM_9
100
AcDbLine
 10
-1.235
 20
0.4093806894140369
 30
0.0
 11
-1.235
 21
0.4880725092054527
 31
0.0
  0
LWPOLYLINE
  5
19A
330
169
100
AcDbEntity
  8
AM_9
100
AcDbPolyline
 90
       21
 70
     0
 43
0.0
 10
-1.644999999509888
 20
0.4094242884180022
 10
-1.643863935940505
 20
0.3897772192543238
 10
-1.637674645156966
 20
0.359544623265021
 10
-1.625878007602432
 20
0.3294235198813641
 10
-1.60933190232676
 20
0.301765170061049
 10
-1.587652741881967
 20
0.2760901389567564
 10
-1.562067355357661
 20
0.2541868158586207
 10
-1.532201565056518
 20
0.2360918793134508
 10
-1.500456854990158
 20
0.2234247587880953
 10
-1.465939614199797
 20
0.2159901452848828
 10
-1.432308764249138
 20
0.2144906434743364
 10
-1.397913923223561
 20
0.2186992235073488
 10
-1.366019331877006
 20
0.2280865390324301
 10
-1.335315933283814
 20
0.2428357102022852
 10
-1.307900013699755
 20
0.2619401372571927
 10
-1.283441711468094
 20
0.2856301692754171
 10
-1.263616166694132
 20
0.3123429690855087
 10
-1.248321714051615
 20
0.3423738989788782
 10
-1.238924651137571
 20
0.3728827501067971
 10
-1.235060192954161
 20
0.4049040265761835
 10
-1.235000000968184
 20
0.4093933839346698
  0
LWPOLYLINE
  5
19B
330
169
100
AcDbEntity
  8
AM_9
100
AcDbPolyline
 90
        6
 70
     0
 43
0.0
 10
-1.295670108098
 20
0.5367034789154201
 10
-1.297548935851744
 20
0.5382512289749826
 10
-1.324530318482741
 20
0.5566206707832223
 10
-1.354352044623321
 20
0.5705742588637172
 10
-1.38761701331577
 20
0.5803767951538183
 10
-1.390708497303989
 20
0.5810239894727791
  0
LINE
  5
19C
330
169
100
AcDbEntity
  8
AM_9
100
AcDbLine
 10
-1.280824244012067
 20
0.5228339837968099
 30
0.0
 11
-1.295670108098
 21
0.5367034789154201
 31
0.0
  0
LWPOLYLINE
  5
19D
330
169
100
AcDbEntity
  8
AM_9
100
AcDbPolyline
 90
        5
 70
     0
 43
0.0
 10
-1.239669164676594
 20
0.4484259984808029
 10
-1.244616773588007
 20
0.4648085111363556
 10
-1.257254137732613
 20
0.4917137706382524
 10
-1.275242671122402
 20
0.5167075346618185
 10
-1.280824244012067
 20
0.5228339837968099
  0
LWPOLYLINE
  5
19E
330
169
100
AcDbEntity
  8
AM_9
100
AcDbPolyline
 90
        3
 70
     0
 43
0.0
 10
-1.235000000968184
 20
0.4093933839346698
 10
-1.236986545864899
 20
0.4350371315687189
 10
-1.239669164676594
 20
0.4484259984808029
  0
LWPOLYLINE
  5
19F
330
169
100
AcDbEntity
  8
AM_9
100
AcDbPolyline
 90
       17
 70
     0
 43
0.0
 10
-1.28069911811162
 20
0.3681296131496083
 10
-1.293360100644548
 20
0.3545227402605505
 10
-1.319518647608122
 20
0.3327693832822598
 10
-1.349099696855717
 20
0.3153783686275088
 10
-1.38137499672068
 20
0.3030020108582968
 10
-1.415354574168082
 20
0.2960413747677834
 10
-1.449595417938757
 20
0.2948240869715161
 10
-1.483562444580927
 20
0.2991768908283282
 10
-1.516039424056023
 20
0.3089297927979094
 10
-1.546407254635479
 20
0.3236699157196555
 10
-1.574081440060773
 20
0.3431859475189811
 10
-1.598030595214283
 20
0.3666481447704775
 10
-1.617754664564531
 20
0.3936983893967249
 10
-1.632444375082898
 20
0.4231877156710324
 10
-1.641558092901368
 20
0.4540719850384657
 10
-1.644980125315636
 20
0.4855355372143441
 10
-1.644999999423271
 20
0.4881101557715591
  0
LWPOLYLINE
  5
1A0
330
169
100
AcDbEntity
  8
AM_9
100
AcDbPolyline
 90
        6
 70
     0
 43
0.0
 10
-1.235000000636228
 20
0.4881387299977162
 10
-1.236205001884483
 20
0.4679188545951775
 10
-1.242701787334798
 20
0.4371744941705608
 10
-1.254579556773278
 20
0.4074837453702558
 10
-1.27166348572899
 20
0.3796100978286911
 10
-1.28069911811162
 20
0.3681296131496083
  0
LWPOLYLINE
  5
1A1
330
169
100
AcDbEntity
  8
AM_9
100
AcDbPolyline
 90
        6
 70
     0
 43
0.0
 10
-1.564179000011486
 20
0.6310592696648725
 10
-1.552926110808756
 20
0.6378014968234396
 10
-1.522439040654303
 20
0.6517252120896532
 10
-1.489564735109266
 20
0.6611113656534129
 10
-1.464973010319945
 20
0.6648947039647004
 10
-1.44
 20
0.6661671216004321
  0
LWPOLYLINE
  5
1A2
330
169
100
AcDbEntity
  8
AM_9
100
AcDbPolyline
 90
        7
 70
     0
 43
0.0
 10
-1.644999999423271
 20
0.4881101557715591
 10
-1.642592238706021
 20
0.5162123387929747
 10
-1.634636046210831
 20
0.5456929045843854
 10
-1.621297428565379
 20
0.5731313362391619
 10
-1.603023639873217
 20
0.5979356195792981
 10
-1.579933803014486
 20
0.6197528055456033
 10
-1.564179000011486
 20
0.6310592696648725
  0
LWPOLYLINE
  5
1A3
330
169
100
AcDbEntity
  8
AM_9
100
AcDbPolyline
 90
        8
 70
     0
 43
0.0
 10
1.564455604506607
 20
0.630880787272608
 10
1.566905193923415
 20
0.6292716526535126
 10
1.59204195531181
 20
0.6092504519323205
 10
1.612924449120014
 20
0.5856862682312745
 10
1.628999307750009
 20
0.5588790456255525
 10
1.639705549264894
 20
0.5296842227210451
 10
1.644613652474626
 20
0.4991717065309166
 10
1.644999999363772
 20
0.4881387299977162
  0
LWPOLYLINE
  5
1A4
330
169
100
AcDbEntity
  8
AM_9
100
AcDbPolyline
 90
        5
 70
     0
 43
0.0
 10
1.44
 20
0.6661671216004318
 10
1.47410843538501
 20
0.6637774144538402
 10
1.507248002252064
 20
0.6567260809097473
 10
1.538447523479572
 20
0.6451211240031776
 10
1.564455604506607
 20
0.630880787272608
  0
LINE
  5
1A5
330
169
100
AcDbEntity
  8
AM_9
100
AcDbLine
 10
0.8099999999999996
 20
-1.155
 30
0.0
 11
1.75
 21
-1.155
 31
0.0
  0
LINE
  5
1A6
330
169
100
AcDbEntity
  8
AM_9
100
AcDbLine
 10
1.75
 20
1.155
 30
0.0
 11
1.645
 21
1.155
 31
0.0
  0
LINE
  5
1A7
330
169
100
AcDbEntity
  8
AM_9
100
AcDbLine
 10
1.234999999999999
 20
1.154999999999999
 30
0.0
 11
0.8099999999999996
 21
1.155
 31
0.0
  0
LWPOLYLINE
  5
1A8
330
169
100
AcDbEntity
  8
AM_9
100
AcDbPolyline
 90
        6
 70
     0
 43
0.0
 10
1.281171862564987
 20
1.147704830189833
 10
1.262478500940255
 20
1.150440734079083
 10
1.247555624917102
 20
1.152837732510975
 10
1.238514060983806
 20
1.154381472313739
 10
1.235019874684364
 20
1.15499647262423
 10
1.235000000000512
 20
1.154999999999909
  0
LWPOLYLINE
  5
1A9
330
169
100
AcDbEntity
  8
AM_9
100
AcDbPolyline
 90
       17
 70
     0
 43
0.0
 10
1.644999999999383
 20
1.15499999999989
 10
1.643794998115517
 20
1.154786734101541
 10
1.637447675917633
 20
1.153683485504267
 10
1.625420443226721
 20
1.151686042620294
 10
1.608622884621411
 20
1.149101247592241
 10
1.586639899355452
 20
1.14608169869472
 10
1.560893103462161
 20
1.143072675933036
 10
1.530900303144283
 20
1.14029069324963
 10
1.499121906782522
 20
1.138198313063941
 10
1.464645425831918
 20
1.136928932262011
 10
1.430901700706359
 20
1.136698191715829
 10
1.396437555419073
 20
1.137496235852174
 10
1.36439573921888
 20
1.139173386385171
 10
1.333592745364521
 20
1.141631509655834
 10
1.306269013320945
 20
1.144501628132591
 10
1.281969404785717
 20
1.147594732047764
 10
1.281171862564987
 20
1.147704830189833
  0
LWPOLYLINE
  5
1AA
330
169
100
AcDbEntity
  8
AM_9
100
AcDbPolyline
 90
        6
 70
     0
 43
0.0
 10
-1.280750665826398
 20
0.602062437829102
 10
-1.267075550879986
 20
0.5856862682312747
 10
-1.251000692249991
 20
0.5588790456255526
 10
-1.240294450735106
 20
0.5296842227210452
 10
-1.235386347525375
 20
0.4991717065309168
 10
-1.235000000636228
 20
0.4881387299977162
  0
LWPOLYLINE
  5
1AB
330
169
100
AcDbEntity
  8
AM_9
100
AcDbPolyline
 90
        4
 70
     0
 43
0.0
 10
-1.315787970164748
 20
0.6310379906606848
 10
-1.313094806076585
 20
0.6292716526535128
 10
-1.28795804468819
 20
0.6092504519323209
 10
-1.280750665826398
 20
0.602062437829102
  0
LWPOLYLINE
  5
1AC
330
169
100
AcDbEntity
  8
AM_9
100
AcDbPolyline
 90
        5
 70
     0
 43
0.0
 10
-1.44
 20
0.6661671216004321
 10
-1.40589156461499
 20
0.6637774144538405
 10
-1.372751997747935
 20
0.6567260809097476
 10
-1.341552476520428
 20
0.645121124003178
 10
-1.315787970164748
 20
0.6310379906606848
  0
LINE
  5
1AD
330
169
100
AcDbEntity
  8
AM_9
100
AcDbLine
 10
-1.75
 20
-1.155
 30
0.0
 11
-0.81
 21
-1.155
 31
0.0
  0
LINE
  5
1AE
330
169
100
AcDbEntity
  8
AM_9
100
AcDbLine
 10
-0.81
 20
1.155
 30
0.0
 11
-1.235
 21
1.155
 31
0.0
  0
LINE
  5
1AF
330
169
100
AcDbEntity
  8
AM_9
100
AcDbLine
 10
-1.645
 20
1.155
 30
0.0
 11
-1.75
 21
1.155
 31
0.0
  0
LWPOLYLINE
  5
1B0
330
169
100
AcDbEntity
  8
AM_9
100
AcDbPolyline
 90
       17
 70
     0
 43
0.0
 10
-1.280690233486917
 20
1.147771580806239
 10
-1.293360100644548
 20
1.146081698694721
 10
-1.319106896537839
 20
1.143072675933037
 10
-1.349099696855717
 20
1.14029069324963
 10
-1.380878093217478
 20
1.138198313063941
 10
-1.415354574168082
 20
1.136928932262011
 10
-1.449098299293641
 20
1.13669819171583
 10
-1.483562444580927
 20
1.137496235852175
 10
-1.51560426078112
 20
1.139173386385172
 10
-1.546407254635479
 20
1.141631509655834
 10
-1.573730986679055
 20
1.144501628132592
 10
-1.598030595214283
 20
1.147594732047765
 10
-1.617521499059745
 20
1.150440734079083
 10
-1.632444375082898
 20
1.152837732510975
 10
-1.641485939016194
 20
1.15438147231374
 10
-1.644980125315636
 20
1.15499647262423
 10
-1.644999999999488
 20
1.154999999999909
  0
LWPOLYLINE
  5
1B1
330
169
100
AcDbEntity
  8
AM_9
100
AcDbPolyline
 90
        6
 70
     0
 43
0.0
 10
-1.235000000000617
 20
1.154999999999891
 10
-1.236205001884483
 20
1.154786734101541
 10
-1.242552324082367
 20
1.153683485504267
 10
-1.254579556773278
 20
1.151686042620294
 10
-1.271377115378589
 20
1.149101247592242
 10
-1.280690233486917
 20
1.147771580806239
  0
LINE
  5
1B2
330
169
100
AcDbEntity
  8
AM_9
100
AcDbLine
 10
-1.445515276663211
 20
1.136675159523015
 30
0.0
 11
-1.44
 21
1.136661779070626
 31
0.0
  0
LINE
  5
1B3
330
169
100
AcDbEntity
  8
AM_9
100
AcDbLine
 10
-1.644999999999488
 20
1.154999999999909
 30
0.0
 11
-1.629225819355353
 21
1.152304825430626
 31
0.0
  0
LINE
  5
1B4
330
169
100
AcDbEntity
  8
AM_9
100
AcDbLine
 10
-0.81
 20
-1.75
 30
0.0
 11
0.8099999999999996
 21
-1.75
 31
0.0
  0
LINE
  5
1B5
330
169
100
AcDbEntity
  8
AM_9
100
AcDbLine
 10
0.8099999999999996
 20
1.75
 30
0.0
 11
-0.81
 21
1.75
 31
0.0
  0
LINE
  5
1B6
330
169
100
AcDbEntity
  8
AM_9
100
AcDbLine
 10
-0.81
 20
1.75
 30
0.0
 11
-0.81
 21
-1.75
 31
0.0
  0
LINE
  5
1B7
330
169
100
AcDbEntity
  8
AM_9
100
AcDbLine
 10
0.8099999999999996
 20
1.75
 30
0.0
 11
0.8099999999999996
 21
-1.75
 31
0.0
  0
LINE
  5
1BA
330
169
100
AcDbEntity
  8
AM_7
100
AcDbLine
 10
-1.925
 20
0.0
 30
0.0
 11
1.925
 21
0.0
 31
0.0
  0
LINE
  5
1BB
330
169
100
AcDbEntity
  8
AM_7
100
AcDbLine
 10
1.44
 20
-0.0592307692307692
 30
0.0
 11
1.44
 21
1.7481875
 31
0.0
  0
LINE
  5
1BC
330
169
100
AcDbEntity
  8
AM_7
100
AcDbLine
 10
-1.44
 20
-0.0592307692307692
 30
0.0
 11
-1.44
 21
1.7481875
 31
0.0
  0
LWPOLYLINE
  5
1BD
330
169
100
AcDbEntity
  8
AM_4
100
AcDbPolyline
 90
        3
 70
     0
 43
0.0
 10
1.44
 20
0.5859328253378117
 10
1.406505003627408
 20
0.5836863590497227
 10
1.392121663471844
 20
0.5813058274263423
  0
LWPOLYLINE
  5
1BE
330
169
100
AcDbEntity
  8
AM_4
100
AcDbPolyline
 90
        3
 70
     0
 43
0.0
 10
1.488165272119492
 20
0.5812493085938589
 10
1.466650336268896
 20
0.5845146239401353
 10
1.44
 20
0.5859328253378117
  0
LWPOLYLINE
  5
1BF
330
169
100
AcDbEntity
  8
AM_4
100
AcDbPolyline
 90
        3
 70
     0
 43
0.0
 10
-1.44
 20
0.5859328253378117
 10
-1.473494996372592
 20
0.5836863590497227
 10
-1.487301829343856
 20
0.5814182984678071
  0
LWPOLYLINE
  5
1C0
330
169
100
AcDbEntity
  8
AM_4
100
AcDbPolyline
 90
        3
 70
     0
 43
0.0
 10
-1.390708497303989
 20
0.5810239894727791
 10
-1.413349663731104
 20
0.5845146239401353
 10
-1.44
 20
0.5859328253378117
  0
ENDBLK
  5
16C
330
169
100
AcDbEntity
  8
0
100
AcDbBlockEnd
  0
BLOCK
  5
1C3
330
1C1
100
AcDbEntity
  8
0
100
AcDbBlockBegin
  2
6_023151H_0_in_023151_2
 70
     2
 10
0.0
 20
0.0
 30
0.0
  3
6_023151H_0_in_023151_2
  1

  0
ATTDEF
  5
1C5
330
1C1
100
AcDbEntity
  8
AM_6
100
AcDbText
 10
6.28125
 20
3.125
 30
0.0
 40
0.5
  1
TP-E-Housing
100
AcDbAttributeDefinition
  3

  2
NN
 70
     8
280
     0
  0
ATTDEF
  5
1C6
330
1C1
100
AcDbEntity
  8
AM_6
100
AcDbText
 10
6.28125
 20
2.625
 30
0.0
 40
0.5
  1
Type E-xtra TP Take-Up Bearing (Contact Seal) -Inch
100
AcDbAttributeDefinition
  3

  2
NT
 70
     8
280
     0
  0
ATTDEF
  5
1C7
330
1C1
100
AcDbEntity
  8
AM_6
100
AcDbText
 10
6.28125
 20
2.125
 30
0.0
 40
0.5
  1
023151H
100
AcDbAttributeDefinition
  3

  2
NB
 70
     8
280
     0
  0
ATTDEF
  5
1C8
330
1C1
100
AcDbEntity
  8
AM_6
100
AcDbText
 10
6.28125
 20
1.625
 30
0.0
 40
0.5
  1
$PN.H
100
AcDbAttributeDefinition
  3

  2
NBSYN
 70
     8
280
     0
  0
ATTDEF
  5
1C9
330
1C1
100
AcDbEntity
  8
AM_6
100
AcDbText
 10
6.28125
 20
1.125
 30
0.0
 40
0.5
  1
023151
100
AcDbAttributeDefinition
  3

  2
LINA
 70
     8
280
     0
  0
ATTDEF
  5
1CA
330
1C1
100
AcDbEntity
  8
AM_6
100
AcDbText
 10
6.28125
 20
0.625
 30
0.0
 40
0.5
  1
1-15/16
100
AcDbAttributeDefinition
  3

  2
SS
 70
     8
280
     0
  0
ATTDEF
  5
1CB
330
1C1
100
AcDbEntity
  8
AM_6
100
AcDbText
 10
6.28125
 20
0.125
 30
0.0
 40
0.5
  1
023151
100
AcDbAttributeDefinition
  3

  2
PN
 70
     8
280
     0
  0
ATTDEF
  5
1CC
330
1C1
100
AcDbEntity
  8
AM_6
100
AcDbText
 10
6.28125
 20
-0.375
 30
0.0
 40
0.5
  1
TP-E-115R
100
AcDbAttributeDefinition
  3

  2
DESCRIPTION
 70
     8
280
     0
  0
ATTDEF
  5
1CD
330
1C1
100
AcDbEntity
  8
AM_6
100
AcDbText
 10
6.28125
 20
-0.875
 30
0.0
 40
0.5
  1
3-1/2
100
AcDbAttributeDefinition
  3

  2
A
 70
     8
280
     0
  0
ATTDEF
  5
1CE
330
1C1
100
AcDbEntity
  8
AM_6
100
AcDbText
 10
6.28125
 20
-1.375
 30
0.0
 40
0.5
  1
3-1/4
100
AcDbAttributeDefinition
  3

  2
D
 70
     8
280
     0
  0
ATTDEF
  5
1CF
330
1C1
100
AcDbEntity
  8
AM_6
100
AcDbText
 10
6.28125
 20
-1.875
 30
0.0
 40
0.5
  1
2-3/8
100
AcDbAttributeDefinition
  3

  2
E
 70
     8
280
     0
  0
ATTDEF
  5
1D0
330
1C1
100
AcDbEntity
  8
AM_6
100
AcDbText
 10
6.28125
 20
-2.375
 30
0.0
 40
0.5
  1
2-3/8
100
AcDbAttributeDefinition
  3

  2
F
 70
     8
280
     0
  0
ATTDEF
  5
1D1
330
1C1
100
AcDbEntity
  8
AM_6
100
AcDbText
 10
6.28125
 20
-2.875
 30
0.0
 40
0.5
  1
9/16
100
AcDbAttributeDefinition
  3

  2
G
 70
     8
280
     0
  0
ATTDEF
  5
1D2
330
1C1
100
AcDbEntity
  8
AM_6
100
AcDbText
 10
6.28125
 20
-3.375
 30
0.0
 40
0.5
  1
13/16
100
AcDbAttributeDefinition
  3

  2
H
 70
     8
280
     0
  0
ATTDEF
  5
1D3
330
1C1
100
AcDbEntity
  8
AM_6
100
AcDbText
 10
6.28125
 20
-3.875
 30
0.0
 40
0.5
  1
2-9/16
100
AcDbAttributeDefinition
  3

  2
J
 70
     8
280
     0
  0
ATTDEF
  5
1D4
330
1C1
100
AcDbEntity
  8
AM_6
100
AcDbText
 10
6.28125
 20
-4.375
 30
0.0
 40
0.5
  1
3-7/16
100
AcDbAttributeDefinition
  3

  2
L
 70
     8
280
     0
  0
ATTDEF
  5
1D5
330
1C1
100
AcDbEntity
  8
AM_6
100
AcDbText
 10
6.28125
 20
-4.875
 30
0.0
 40
0.5
  1
1-3/4
100
AcDbAttributeDefinition
  3

  2
N
 70
     8
280
     0
  0
ATTDEF
  5
1D6
330
1C1
100
AcDbEntity
  8
AM_6
100
AcDbText
 10
6.28125
 20
-5.375
 30
0.0
 40
0.5
  1
1-1/4
100
AcDbAttributeDefinition
  3

  2
U
 70
     8
280
     0
  0
ATTDEF
  5
1D7
330
1C1
100
AcDbEntity
  8
AM_6
100
AcDbText
 10
6.28125
 20
-5.875
 30
0.0
 40
0.5
  1
13/16
100
AcDbAttributeDefinition
  3

  2
V
 70
     8
280
     0
  0
ATTDEF
  5
1D8
330
1C1
100
AcDbEntity
  8
AM_6
100
AcDbText
 10
6.28125
 20
-6.375
 30
0.0
 40
0.5
  1
1-3/8
100
AcDbAttributeDefinition
  3

  2
W
 70
     8
280
     0
  0
ATTDEF
  5
1D9
330
1C1
100
AcDbEntity
  8
AM_6
100
AcDbText
 10
6.28125
 20
-6.875
 30
0.0
 40
0.5
  1
baldor
100
AcDbAttributeDefinition
  3

  2
COMPANY
 70
     8
280
     0
  0
LINE
  5
1DA
330
1C1
100
AcDbEntity
  8
AM_9
100
AcDbLine
 10
-0.2812500000000001
 20
-0.0773915379528522
 30
0.0
 11
0.2812500000000001
 21
-0.0773915379528522
 31
0.0
  0
LINE
  5
1DB
330
1C1
100
AcDbEntity
  8
AM_9
100
AcDbLine
 10
0.2812499999999999
 20
-0.4133986423538424
 30
0.0
 11
0.2812500000000001
 21
-0.0773915379528522
 31
0.0
  0
LINE
  5
1DC
330
1C1
100
AcDbEntity
  8
AM_9
100
AcDbLine
 10
-0.2812500000000001
 20
-0.0773915379528522
 30
0.0
 11
-0.2812500000000002
 21
-0.4133986423538424
 31
0.0
  0
LINE
  5
1DD
330
1C1
100
AcDbEntity
  8
AM_9
100
AcDbLine
 10
-0.2812500000000002
 20
0.4133986423538424
 30
0.0
 11
-0.2812500000000001
 21
-0.0000000000000082
 31
0.0
  0
LINE
  5
1DE
330
1C1
100
AcDbEntity
  8
AM_9
100
AcDbLine
 10
0.2812500000000001
 20
-0.0000000000000082
 30
0.0
 11
0.2812499999999999
 21
0.4133986423538424
 31
0.0
  0
LINE
  5
1DF
330
1C1
100
AcDbEntity
  8
AM_9
100
AcDbLine
 10
0.2812500000000001
 20
-0.0000000000000082
 30
0.0
 11
-0.2812500000000001
 21
-0.0000000000000082
 31
0.0
  0
LINE
  5
1E0
330
1C1
100
AcDbEntity
  8
AM_9
100
AcDbLine
 10
-1.195833333333333
 20
-1.75
 30
0.0
 11
1.195833333333333
 21
-1.75
 31
0.0
  0
LINE
  5
1E1
330
1C1
100
AcDbEntity
  8
AM_9
100
AcDbLine
 10
1.195833333333333
 20
1.75
 30
0.0
 11
-1.195833333333333
 21
1.75
 31
0.0
  0
LINE
  5
1E2
330
1C1
100
AcDbEntity
  8
AM_9
100
AcDbLine
 10
0.5625000000000001
 20
2.375
 30
0.0
 11
1.1875
 21
2.375
 31
0.0
  0
LINE
  5
1E3
330
1C1
100
AcDbEntity
  8
AM_9
100
AcDbLine
 10
0.5625000000000002
 20
2.475
 30
0.0
 11
1.1875
 21
2.475
 31
0.0
  0
LINE
  5
1E4
330
1C1
100
AcDbEntity
  8
AM_9
100
AcDbLine
 10
-1.1875
 20
2.475
 30
0.0
 11
-0.5624999999999999
 21
2.475
 31
0.0
  0
LINE
  5
1E5
330
1C1
100
AcDbEntity
  8
AM_9
100
AcDbLine
 10
-1.1875
 20
2.375
 30
0.0
 11
-0.5624999999999999
 21
2.375000008381903
 31
0.0
  0
LINE
  5
1E6
330
1C1
100
AcDbEntity
  8
AM_9
100
AcDbLine
 10
1.195833333333333
 20
1.9359375
 30
0.0
 11
1.195833333333333
 21
-1.9359375
 31
0.0
  0
ARC
  5
1E7
330
1C1
100
AcDbEntity
  8
AM_9
100
AcDbCircle
 10
1.259895833333334
 20
-1.935937499999999
 30
0.0
 40
0.0640625000000006
100
AcDbArc
 50
180.0
 51
270.0
  0
ARC
  5
1E8
330
1C1
100
AcDbEntity
  8
AM_9
100
AcDbCircle
 10
1.259895833333334
 20
1.935937499999999
 30
0.0
 40
0.0640625000000008
100
AcDbArc
 50
90.0
 51
180.0
  0
LINE
  5
1E9
330
1C1
100
AcDbEntity
  8
AM_9
100
AcDbLine
 10
1.259895833333333
 20
-2.0
 30
0.0
 11
1.28125
 21
-2.0
 31
0.0
  0
LINE
  5
1EA
330
1C1
100
AcDbEntity
  8
AM_9
100
AcDbLine
 10
1.28125
 20
2.0
 30
0.0
 11
1.259895833333333
 21
2.0
 31
0.0
  0
LINE
  5
1EB
330
1C1
100
AcDbEntity
  8
AM_9
100
AcDbLine
 10
1.259895833333333
 20
2.0
 30
0.0
 11
1.259895833333333
 21
-2.0
 31
0.0
  0
LINE
  5
1EC
330
1C1
100
AcDbEntity
  8
AM_9
100
AcDbLine
 10
0.8531250000000002
 20
-3.25
 30
0.0
 11
0.8531250000000002
 21
-2.8125
 31
0.0
  0
ARC
  5
1ED
330
1C1
100
AcDbEntity
  8
AM_9
100
AcDbCircle
 10
0.0000000000000002
 20
-2.8125
 30
0.0
 40
0.8531250000000001
100
AcDbArc
 50
0.0
 51
180.0
  0
LINE
  5
1EE
330
1C1
100
AcDbEntity
  8
AM_9
100
AcDbLine
 10
-0.8531249999999999
 20
-2.8125
 30
0.0
 11
-0.8531249999999999
 21
-3.25
 31
0.0
  0
LINE
  5
1EF
330
1C1
100
AcDbEntity
  8
AM_9
100
AcDbLine
 10
-1.28125
 20
-2.0
 30
0.0
 11
-1.259895833333333
 21
-2.0
 31
0.0
  0
LINE
  5
1F0
330
1C1
100
AcDbEntity
  8
AM_9
100
AcDbLine
 10
-1.259895833333333
 20
2.0
 30
0.0
 11
-1.28125
 21
2.0
 31
0.0
  0
LINE
  5
1F1
330
1C1
100
AcDbEntity
  8
AM_9
100
AcDbLine
 10
-1.195833333333333
 20
1.9359375
 30
0.0
 11
-1.195833333333333
 21
-1.9359375
 31
0.0
  0
ARC
  5
1F2
330
1C1
100
AcDbEntity
  8
AM_9
100
AcDbCircle
 10
-1.259895833333333
 20
-1.935937500000001
 30
0.0
 40
0.0640624999999995
100
AcDbArc
 50
270.0
 51
0.0
  0
ARC
  5
1F3
330
1C1
100
AcDbEntity
  8
AM_9
100
AcDbCircle
 10
-1.259895833333333
 20
1.935937500000001
 30
0.0
 40
0.0640624999999995
100
AcDbArc
 50
0.0
 51
90.0
  0
LINE
  5
1F4
330
1C1
100
AcDbEntity
  8
AM_9
100
AcDbLine
 10
-1.259895833333333
 20
2.0
 30
0.0
 11
-1.259895833333333
 21
-2.0
 31
0.0
  0
LINE
  5
1F5
330
1C1
100
AcDbEntity
  8
AM_9
100
AcDbLine
 10
-1.176350698922441
 20
1.377415132396131
 30
0.0
 11
-1.182228285859896
 21
1.394148795354593
 31
0.0
  0
LINE
  5
1F6
330
1C1
100
AcDbEntity
  8
AM_9
100
AcDbLine
 10
-1.16125
 20
1.350476325806899
 30
0.0
 11
-1.164905251578623
 21
1.355843969923802
 31
0.0
  0
LWPOLYLINE
  5
1F7
330
1C1
100
AcDbEntity
  8
AM_9
100
AcDbPolyline
 90
        9
 70
     0
 43
0.0
 10
-1.035518304396437
 20
-2.169807691223917
 10
-1.055788475601931
 20
-2.203679618207349
 10
-1.081174398421681
 20
-2.249730061043598
 10
-1.10092218073215
 20
-2.289065672364772
 10
-1.115701425666872
 20
-2.321359500568873
 10
-1.126181736359375
 20
-2.346284594053901
 10
-1.133032715943191
 20
-2.363514001217859
 10
-1.136871819257435
 20
-2.372989483560333
 10
-1.137517170191092
 20
-2.37499999997663
  0
LINE
  5
1F8
330
1C1
100
AcDbEntity
  8
AM_9
100
AcDbLine
 10
-0.4915292330567859
 20
-1.697264340800291
 30
0.0
 11
-0.5204539458652554
 21
-1.71046585682054
 31
0.0
  0
LINE
  5
1F9
330
1C1
100
AcDbEntity
  8
AM_9
100
AcDbLine
 10
-0.2827613699703488
 20
-1.540807252488866
 30
0.0
 11
-0.2812500000000001
 21
-1.520245429491542
 31
0.0
  0
LINE
  5
1FA
330
1C1
100
AcDbEntity
  8
AM_9
100
AcDbLine
 10
0.2812499999999999
 20
-1.520245429491542
 30
0.0
 11
0.2836537478483358
 21
-1.546135120077295
 31
0.0
  0
LINE
  5
1FB
330
1C1
100
AcDbEntity
  8
AM_9
100
AcDbLine
 10
0.522313013335148
 20
-1.71134575167656
 30
0.0
 11
0.4790503601338517
 21
-1.691847370968316
 31
0.0
  0
LWPOLYLINE
  5
1FC
330
1C1
100
AcDbEntity
  8
AM_9
100
AcDbPolyline
 90
        8
 70
     0
 43
0.0
 10
1.137517170197878
 20
-2.374999999994272
 10
1.137012021423212
 20
-2.373688849686907
 10
1.134298106561665
 20
-2.366387563181143
 10
1.129028836982439
 20
-2.352709290812888
 10
1.120816619538738
 20
-2.332823725290099
 10
1.109273861083766
 20
-2.30690055932073
 10
1.094012968470725
 20
-2.27510948561274
 10
1.083018146561436
 20
-2.253551651117359
  0
LINE
  5
1FD
330
1C1
100
AcDbEntity
  8
AM_9
100
AcDbLine
 10
1.16252680952603
 20
1.35229135680255
 30
0.0
 11
1.16125
 21
1.350476325806899
 31
0.0
  0
LINE
  5
1FE
330
1C1
100
AcDbEntity
  8
AM_9
100
AcDbLine
 10
1.180981109196655
 20
1.389972142790154
 30
0.0
 11
1.177087984642323
 21
1.379188283953896
 31
0.0
  0
ARC
  5
1FF
330
1C1
100
AcDbEntity
  8
AM_9
100
AcDbCircle
 10
0.0000000000000046
 20
0.0
 30
0.0
 40
0.5000000000000044
100
AcDbArc
 50
169.9655946544139
 51
190.0344053455861
  0
ARC
  5
200
330
1C1
100
AcDbEntity
  8
AM_9
100
AcDbCircle
 10
-0.0000000000000018
 20
0.0
 30
0.0
 40
0.3999999999999987
100
AcDbArc
 50
159.6805693986258
 51
200.3020823936473
  0
LINE
  5
201
330
1C1
100
AcDbEntity
  8
AM_7
100
AcDbLine
 10
-0.6562499999999999
 20
2.375
 30
0.0
 11
0.6562500000000001
 21
2.375
 31
0.0
  0
LINE
  5
202
330
1C1
100
AcDbEntity
  8
AM_7
100
AcDbLine
 10
0.0000000000000001
 20
1.71875
 30
0.0
 11
0.0000000000000001
 21
3.03125
 31
0.0
  0
LINE
  5
203
330
1C1
100
AcDbEntity
  8
AM_7
100
AcDbLine
 10
0.0000000000000001
 20
-0.5249999999999999
 30
0.0
 11
0.0000000000000001
 21
0.5249999999999999
 31
0.0
  0
LINE
  5
204
330
1C1
100
AcDbEntity
  8
AM_7
100
AcDbLine
 10
-0.89578125
 20
-2.8125
 30
0.0
 11
0.8957812500000004
 21
-2.8125
 31
0.0
  0
LINE
  5
205
330
1C1
100
AcDbEntity
  8
AM_7
100
AcDbLine
 10
0.0000000000000002
 20
-3.70828125
 30
0.0
 11
0.0000000000000002
 21
-1.91671875
 31
0.0
  0
LINE
  5
206
330
1C1
100
AcDbEntity
  8
AM_4
100
AcDbLine
 10
0.9062500000000001
 20
3.125
 30
0.0
 11
0.5624999999999999
 21
3.125
 31
0.0
  0
LINE
  5
207
330
1C1
100
AcDbEntity
  8
AM_4
100
AcDbLine
 10
-0.5624999999999999
 20
3.125
 30
0.0
 11
-0.9062499999999998
 21
3.125
 31
0.0
  0
LINE
  5
208
330
1C1
100
AcDbEntity
  8
AM_4
100
AcDbLine
 10
-0.5624999999999999
 20
3.125
 30
0.0
 11
-0.5624999999999999
 21
2.375000008381903
 31
0.0
  0
ARC
  5
209
330
1C1
100
AcDbEntity
  8
AM_4
100
AcDbCircle
 10
0.0000000000000002
 20
2.375
 30
0.0
 40
0.5625000000000001
100
AcDbArc
 50
180.0
 51
0.0
  0
LINE
  5
20A
330
1C1
100
AcDbEntity
  8
AM_4
100
AcDbLine
 10
0.5625000000000001
 20
2.375
 30
0.0
 11
0.5624999999999999
 21
3.125
 31
0.0
  0
LINE
  5
20B
330
1C1
100
AcDbEntity
  8
AM_4
100
AcDbLine
 10
-1.28125
 20
2.255
 30
0.0
 11
-1.28125
 21
-2.255
 31
0.0
  0
ARC
  5
20C
330
1C1
100
AcDbEntity
  8
AM_4
100
AcDbCircle
 10
-1.161250000000001
 20
-2.255
 30
0.0
 40
0.1199999999999994
100
AcDbArc
 50
180.0
 51
270.0
  0
ARC
  5
20D
330
1C1
100
AcDbEntity
  8
AM_4
100
AcDbCircle
 10
-1.16125
 20
2.254999999999999
 30
0.0
 40
0.1200000000000008
100
AcDbArc
 50
102.6356250930212
 51
180.0
  0
LINE
  5
20E
330
1C1
100
AcDbEntity
  8
AM_4
100
AcDbLine
 10
-1.16125
 20
1.350476325806899
 30
0.0
 11
-1.16125
 21
-2.375
 31
0.0
  0
LINE
  5
20F
330
1C1
100
AcDbEntity
  8
AM_4
100
AcDbLine
 10
-1.16125
 20
-2.375
 30
0.0
 11
-1.137517170200081
 21
-2.375
 31
0.0
  0
LINE
  5
210
330
1C1
100
AcDbEntity
  8
AM_4
100
AcDbLine
 10
1.137517170200081
 20
-2.375
 30
0.0
 11
1.16125
 21
-2.375
 31
0.0
  0
LINE
  5
211
330
1C1
100
AcDbEntity
  8
AM_4
100
AcDbLine
 10
1.16125
 20
1.350476325806899
 30
0.0
 11
1.16125
 21
-2.375
 31
0.0
  0
LINE
  5
212
330
1C1
100
AcDbEntity
  8
AM_4
100
AcDbLine
 10
1.28125
 20
2.255000001788138
 30
0.0
 11
1.28125
 21
-2.255000001788138
 31
0.0
  0
ARC
  5
213
330
1C1
100
AcDbEntity
  8
AM_4
100
AcDbCircle
 10
1.16125
 20
-2.254999999999999
 30
0.0
 40
0.1200000000000006
100
AcDbArc
 50
270.0
 51
0.0
  0
ARC
  5
214
330
1C1
100
AcDbEntity
  8
AM_4
100
AcDbCircle
 10
1.16125
 20
2.254999999999999
 30
0.0
 40
0.1200000000000003
100
AcDbArc
 50
0.0
 51
77.36437490697891
  0
ARC
  5
215
330
1C1
100
AcDbEntity
  8
AM_4
100
AcDbCircle
 10
0.0000000000000001
 20
0.0
 30
0.0
 40
0.4999999999999999
100
AcDbArc
 50
190.0344053455861
 51
169.9655946544139
  0
ARC
  5
216
330
1C1
100
AcDbEntity
  8
AM_4
100
AcDbCircle
 10
0.0000000000000002
 20
-0.0000000000000001
 30
0.0
 40
0.4000000000000005
100
AcDbArc
 50
200.3020823936472
 51
159.6805693986258
  0
LINE
  5
217
330
1C1
100
AcDbEntity
  8
AM_4
100
AcDbLine
 10
0.2812500000000003
 20
1.291666666666667
 30
0.0
 11
0.2812500000000003
 21
0.4133986423538424
 31
0.0
  0
LINE
  5
218
330
1C1
100
AcDbEntity
  8
AM_4
100
AcDbLine
 10
-0.2812499999999997
 20
0.4133986423538425
 30
0.0
 11
-0.2812499999999999
 21
1.291666666666667
 31
0.0
  0
LWPOLYLINE
  5
219
330
1C1
100
AcDbEntity
  8
AM_4
100
AcDbPolyline
 90
        8
 70
     0
 43
0.0
 10
1.046875
 20
1.291666666666667
 10
1.069650473697811
 20
1.293538439916792
 10
1.091753723336188
 20
1.299020173778226
 10
1.112509583291817
 20
1.30793435610644
 10
1.131525313048217
 20
1.319998678791916
 10
1.14914472404738
 20
1.335788839568626
 10
1.163940342128974
 20
1.354374426615275
 10
1.178687021277136
 20
1.383291853689107
  0
LWPOLYLINE
  5
21A
330
1C1
100
AcDbEntity
  8
AM_4
100
AcDbPolyline
 90
        8
 70
     0
 43
0.0
 10
-1.178687021277136
 20
1.383291853689107
 10
-1.169022357514397
 20
1.362640984386349
 10
-1.156230289184567
 20
1.343878933690248
 10
-1.140720672032526
 20
1.327574037717789
 10
-1.122864717771489
 20
1.31396604214683
 10
-1.101804447159168
 20
1.302853110628704
 10
-1.079075860620813
 20
1.295403043325357
 10
-1.046875
 20
1.291666666666667
  0
LINE
  5
21B
330
1C1
100
AcDbEntity
  8
AM_4
100
AcDbLine
 10
-1.046875
 20
1.291666666666667
 30
0.0
 11
-0.2812499999999999
 21
1.291666666666667
 31
0.0
  0
LINE
  5
21C
330
1C1
100
AcDbEntity
  8
AM_4
100
AcDbLine
 10
-0.2812499999999997
 20
1.227246898337474
 30
0.0
 11
0.2812500000000003
 21
1.227246898337474
 31
0.0
  0
LINE
  5
21D
330
1C1
100
AcDbEntity
  8
AM_4
100
AcDbLine
 10
0.2812500000000003
 20
1.291666666666667
 30
0.0
 11
1.046875
 21
1.291666666666667
 31
0.0
  0
LINE
  5
21E
330
1C1
100
AcDbEntity
  8
AM_4
100
AcDbLine
 10
-0.9062500000000004
 20
3.125
 30
0.0
 11
-1.1875
 21
2.84375
 31
0.0
  0
LINE
  5
21F
330
1C1
100
AcDbEntity
  8
AM_4
100
AcDbLine
 10
-0.6249999999999999
 20
2.375
 30
0.0
 11
-0.6249999999999999
 21
3.125
 31
0.0
  0
LINE
  5
220
330
1C1
100
AcDbEntity
  8
AM_4
100
AcDbLine
 10
1.1875
 20
1.432291666666667
 30
0.0
 11
1.1875
 21
2.84375
 31
0.0
  0
LINE
  5
221
330
1C1
100
AcDbEntity
  8
AM_4
100
AcDbLine
 10
1.1875
 20
2.84375
 30
0.0
 11
0.906250000000001
 21
3.125
 31
0.0
  0
ARC
  5
222
330
1C1
100
AcDbEntity
  8
AM_4
100
AcDbCircle
 10
0.0000000000000001
 20
2.375
 30
0.0
 40
0.625
100
AcDbArc
 50
180.0
 51
0.0
  0
ARC
  5
223
330
1C1
100
AcDbEntity
  8
AM_4
100
AcDbCircle
 10
1.046875000000006
 20
1.432291666666666
 30
0.0
 40
0.1406249999999936
100
AcDbArc
 50
339.6078814244581
 51
0.0
  0
LINE
  5
224
330
1C1
100
AcDbEntity
  8
AM_4
100
AcDbLine
 10
0.6250000000000001
 20
2.375
 30
0.0
 11
0.6250000000000001
 21
3.125
 31
0.0
  0
ARC
  5
225
330
1C1
100
AcDbEntity
  8
AM_4
100
AcDbCircle
 10
-1.046875000000003
 20
1.432291666666666
 30
0.0
 40
0.1406249999999969
100
AcDbArc
 50
180.0
 51
200.3921185755414
  0
LINE
  5
226
330
1C1
100
AcDbEntity
  8
AM_4
100
AcDbLine
 10
-1.1875
 20
2.84375
 30
0.0
 11
-1.1875
 21
1.432291666666667
 31
0.0
  0
LINE
  5
227
330
1C1
100
AcDbEntity
  8
AM_4
100
AcDbLine
 10
-1.077678571428571
 20
2.953571428571429
 30
0.0
 11
-0.6249999999999999
 21
2.953571428571428
 31
0.0
  0
LINE
  5
228
330
1C1
100
AcDbEntity
  8
AM_4
100
AcDbLine
 10
-1.178687021277136
 20
1.383291853689107
 30
0.0
 11
1.178687021277136
 21
1.383291853689107
 31
0.0
  0
LINE
  5
229
330
1C1
100
AcDbEntity
  8
AM_4
100
AcDbLine
 10
0.6250000000000001
 20
2.953571428571428
 30
0.0
 11
1.077678571428571
 21
2.953571428571429
 31
0.0
  0
LINE
  5
22A
330
1C1
100
AcDbEntity
  8
AM_4
100
AcDbLine
 10
0.2813608782630276
 20
-1.525828638021343
 30
0.0
 11
0.2812500000000003
 21
-1.520245429491542
 31
0.0
  0
LINE
  5
22B
330
1C1
100
AcDbEntity
  8
AM_4
100
AcDbLine
 10
-0.2812499999999998
 20
-1.520245429491542
 30
0.0
 11
-0.2813608782630272
 21
-1.525828638021343
 31
0.0
  0
LINE
  5
22C
330
1C1
100
AcDbEntity
  8
AM_4
100
AcDbLine
 10
0.2812500000000003
 20
-0.4133986423538424
 30
0.0
 11
0.2812500000000003
 21
-1.520245429491542
 31
0.0
  0
LINE
  5
22D
330
1C1
100
AcDbEntity
  8
AM_4
100
AcDbLine
 10
-0.2812499999999997
 20
-1.520245429491542
 30
0.0
 11
-0.2812499999999997
 21
-0.4133986423538425
 31
0.0
  0
LWPOLYLINE
  5
22E
330
1C1
100
AcDbEntity
  8
AM_4
100
AcDbPolyline
 90
        9
 70
     0
 43
0.0
 10
0.2813608782630276
 20
-1.525828638021343
 10
0.2833641454106458
 20
-1.544494909038294
 10
0.2885212553554633
 20
-1.564879154568882
 10
0.2959323020964746
 20
-1.582774549499065
 10
0.3064055891372776
 20
-1.600508782150247
 10
0.3200960474999688
 20
-1.617254957674552
 10
0.3366736734644414
 20
-1.632120916447269
 10
0.3564543648982071
 20
-1.644704688113433
 10
0.3782327586206901
 20
-1.65392693678552
  0
LWPOLYLINE
  5
22F
330
1C1
100
AcDbEntity
  8
AM_4
100
AcDbPolyline
 90
       10
 70
     0
 43
0.0
 10
-0.3782327586206895
 20
-1.65392693678552
 10
-0.3577266659938444
 20
-1.645370132890375
 10
-0.3389489297030207
 20
-1.633817686183484
 10
-0.3224420378836428
 20
-1.619660998257363
 10
-0.3086216379933467
 20
-1.603606491260151
 10
-0.2980355955118501
 20
-1.58684645372923
 10
-0.2902589669550831
 20
-1.56976926688849
 10
-0.2849918886223053
 20
-1.552446789062848
 10
-0.2821481595117317
 20
-1.5361136578793
 10
-0.2813608782630272
 20
-1.525828638021343
  0
LWPOLYLINE
  5
230
330
1C1
100
AcDbEntity
  8
AM_4
100
AcDbPolyline
 90
        3
 70
     0
 43
0.0
 10
-0.3782327586206895
 20
-1.65392693678552
 10
-0.4485580976766135
 20
-1.679297813491018
 10
-0.5176335789068058
 20
-1.709138300244144
  0
LWPOLYLINE
  5
231
330
1C1
100
AcDbEntity
  8
AM_4
100
AcDbPolyline
 90
        3
 70
     0
 43
0.0
 10
0.5176335789068053
 20
-1.709138300244144
 10
0.4489152549463982
 20
-1.679439253006967
 10
0.3782327586206896
 20
-1.65392693678552
  0
LINE
  5
232
330
1C1
100
AcDbEntity
  8
AM_4
100
AcDbLine
 10
-0.2813608782630273
 20
-1.525828638021343
 30
0.0
 11
0.2813608782630276
 21
-1.525828638021343
 31
0.0
  0
LINE
  5
233
330
1C1
100
AcDbEntity
  8
AM_4
100
AcDbLine
 10
0.8125000000000003
 20
-3.25
 30
0.0
 11
1.21875
 21
-3.25
 31
0.0
  0
LINE
  5
234
330
1C1
100
AcDbEntity
  8
AM_4
100
AcDbLine
 10
0.8125000000000003
 20
-3.25
 30
0.0
 11
0.8125000000000001
 21
-2.8125
 31
0.0
  0
LINE
  5
235
330
1C1
100
AcDbEntity
  8
AM_4
100
AcDbLine
 10
1.21875
 20
-3.25
 30
0.0
 11
1.21875
 21
-2.8125
 31
0.0
  0
LINE
  5
236
330
1C1
100
AcDbEntity
  8
AM_4
100
AcDbLine
 10
-1.21875
 20
-2.8125
 30
0.0
 11
-1.21875
 21
-3.25
 31
0.0
  0
LINE
  5
237
330
1C1
100
AcDbEntity
  8
AM_4
100
AcDbLine
 10
-0.8124999999999999
 20
-2.8125
 30
0.0
 11
-0.8125
 21
-3.25
 31
0.0
  0
ARC
  5
238
330
1C1
100
AcDbEntity
  8
AM_4
100
AcDbCircle
 10
0.0000000000000002
 20
-2.8125
 30
0.0
 40
0.8125
100
AcDbArc
 50
0.0
 51
180.0
  0
ARC
  5
239
330
1C1
100
AcDbEntity
  8
AM_4
100
AcDbCircle
 10
0.0000000000000029
 20
-2.812499999999998
 30
0.0
 40
1.218749999999997
100
AcDbArc
 50
0.0
 51
64.86674271814536
  0
LINE
  5
23A
330
1C1
100
AcDbEntity
  8
AM_4
100
AcDbLine
 10
-0.5176335789068058
 20
-1.709138300244144
 30
0.0
 11
0.5176335789068053
 21
-1.709138300244144
 31
0.0
  0
ARC
  5
23B
330
1C1
100
AcDbEntity
  8
AM_4
100
AcDbCircle
 10
-0.0000000000000001
 20
-2.8125
 30
0.0
 40
1.21875
100
AcDbArc
 50
115.1332572818547
 51
180.0
  0
LINE
  5
23C
330
1C1
100
AcDbEntity
  8
AM_4
100
AcDbLine
 10
-1.21875
 20
-3.25
 30
0.0
 11
-0.8125
 21
-3.25
 31
0.0
  0
ENDBLK
  5
1C4
330
1C1
100
AcDbEntity
  8
0
100
AcDbBlockEnd
  0
ENDSEC
  0
SECTION
  2
ENTITIES
  0
INSERT
  5
6F
330
1F
100
AcDbEntity
  8
0
100
AcDbBlockReference
  2
1_023151_2
 10
0.0
 20
0.0
 30
0.0
  0
POINT
  5
23E
330
1F
100
AcDbEntity
  8
ConnectionPoints
100
AcDbPoint
 10
1.75
 20
0.0
 30
-0.0000000000000001
  0
POINT
  5
23F
330
1F
100
AcDbEntity
  8
ConnectionPoints
100
AcDbPoint
 10
-1.75
 20
0.0
 30
0.0000000000000001
  0
POINT
  5
240
330
1F
100
AcDbEntity
  8
ConnectionPoints
100
AcDbPoint
 10
-1.75
 20
0.0
 30
0.0000000000000001
  0
POINT
  5
241
330
1F
100
AcDbEntity
  8
ConnectionPoints
100
AcDbPoint
 10
1.75
 20
0.0
 30
-0.0000000000000001
  0
POINT
  5
242
330
1F
100
AcDbEntity
  8
ConnectionPoints
100
AcDbPoint
 10
0.0
 20
0.0
 30
0.0
  0
POINT
  5
243
330
1F
100
AcDbEntity
  8
ConnectionPoints
100
AcDbPoint
 10
0.0000000000000002
 20
0.0
 30
2.675
  0
POINT
  5
244
330
1F
100
AcDbEntity
  8
ConnectionPoints
100
AcDbPoint
 10
0.0
 20
0.0
 30
0.0
  0
ENDSEC
  0
SECTION
  2
OBJECTS
  0
DICTIONARY
  5
C
330
0
100
AcDbDictionary
281
     1
  3
ACAD_DETAILVIEWSTYLE
350
24C
  3
ACAD_GROUP
350
D
  3
ACAD_LAYOUT
350
1A
  3
ACAD_MATERIAL
350
43
  3
ACAD_MLEADERSTYLE
350
6B
  3
ACAD_MLINESTYLE
350
17
  3
ACAD_PLOTSETTINGS
350
19
  3
ACAD_PLOTSTYLENAME
350
E
  3
ACAD_SCALELIST
350
47
  3
ACAD_SECTIONVIEWSTYLE
350
24D
  3
ACAD_TABLESTYLE
350
69
  3
ACAD_VISUALSTYLE
350
2A
  3
ACDB_RECOMPOSE_DATA
350
249
  3
AcDbVariableDictionary
350
245
  0
SUN
  5
6D
330
29
100
AcDbSun
 90
        1
290
     0
 63
     7
421
 16777215
 40
1.0
291
     1
 91
  2455826
 92
 54000000
292
     0
 70
     2
 71
   256
280
     1
  0
DICTIONARY
  5
24C
102
{ACAD_REACTORS
330
C
102
}
330
C
100
AcDbDictionary
281
     1
  0
DICTIONARY
  5
D
102
{ACAD_REACTORS
330
C
102
}
330
C
100
AcDbDictionary
281
     1
  0
DICTIONARY
  5
1A
102
{ACAD_REACTORS
330
C
102
}
330
C
100
AcDbDictionary
281
     1
  3
Layout1
350
1E
  3
Layout2
350
26
  3
Model
350
22
  0
DICTIONARY
  5
43
102
{ACAD_REACTORS
330
C
102
}
330
C
100
AcDbDictionary
281
     1
  3
ByBlock
350
45
  3
ByLayer
350
44
  3
Global
350
46
  0
DICTIONARY
  5
6B
102
{ACAD_REACTORS
330
C
102
}
330
C
100
AcDbDictionary
281
     1
  3
Standard
350
6C
  0
DICTIONARY
  5
17
102
{ACAD_REACTORS
330
C
102
}
330
C
100
AcDbDictionary
281
     1
  3
Standard
350
18
  0
DICTIONARY
  5
19
102
{ACAD_REACTORS
330
C
102
}
330
C
100
AcDbDictionary
281
     1
  0
ACDBDICTIONARYWDFLT
  5
E
102
{ACAD_REACTORS
330
C
102
}
330
C
100
AcDbDictionary
281
     1
  3
Normal
350
F
100
AcDbDictionaryWithDefault
340
F
  0
DICTIONARY
  5
47
102
{ACAD_REACTORS
330
C
102
}
330
C
100
AcDbDictionary
281
     1
  3
A0
350
48
  3
A1
350
49
  3
A2
350
4A
  3
A3
350
4B
  3
A4
350
4C
  3
A5
350
4D
  3
A6
350
4E
  3
A7
350
4F
  3
A8
350
50
  3
A9
350
51
  3
B0
350
52
  3
B1
350
53
  3
B2
350
54
  3
B3
350
55
  3
B4
350
56
  3
B5
350
57
  3
B6
350
58
  3
B7
350
59
  3
B8
350
5A
  3
B9
350
5B
  3
C0
350
5C
  3
C1
350
5D
  3
C2
350
5E
  3
C3
350
5F
  3
C4
350
60
  3
C5
350
61
  3
C6
350
62
  3
C7
350
63
  3
C8
350
64
  3
C9
350
65
  3
D0
350
66
  3
D1
350
67
  3
D2
350
68
  0
DICTIONARY
  5
24D
102
{ACAD_REACTORS
330
C
102
}
330
C
100
AcDbDictionary
281
     1
  0
DICTIONARY
  5
69
102
{ACAD_REACTORS
330
C
102
}
330
C
100
AcDbDictionary
281
     1
  3
Standard
350
6A
  0
DICTIONARY
  5
2A
102
{ACAD_REACTORS
330
C
102
}
330
C
100
AcDbDictionary
281
     1
  3
2dWireframe
350
2F
  3
Basic
350
32
  3
Brighten
350
36
  3
ColorChange
350
3A
  3
Conceptual
350
34
  3
Dim
350
35
  3
EdgeColorOff
350
3D
  3
Facepattern
350
39
  3
Flat
350
2B
  3
FlatWithEdges
350
2C
  3
Gouraud
350
2D
  3
GouraudWithEdges
350
2E
  3
Hidden
350
31
  3
JitterOff
350
3B
  3
Linepattern
350
38
  3
OverhangOff
350
3C
  3
Realistic
350
33
  3
Shaded
350
42
  3
Shaded with edges
350
41
  3
Shades of Gray
350
3E
  3
Sketchy
350
3F
  3
Thicken
350
37
  3
Wireframe
350
30
  3
X-Ray
350
40
  0
XRECORD
  5
249
102
{ACAD_REACTORS
330
C
102
}
330
C
100
AcDbXrecord
280
     1
 90
        1
330
6A
  0
DICTIONARY
  5
245
102
{ACAD_REACTORS
330
C
102
}
330
C
100
AcDbDictionary
281
     1
  3
CANNOSCALE
350
246
  3
CMLEADERSTYLE
350
24B
  3
CTABLESTYLE
350
24A
  0
LAYOUT
  5
1E
102
{ACAD_REACTORS
330
1A
102
}
330
1A
100
AcDbPlotSettings
  1

  2
none_device
  4

  6

 40
0.0
 41
0.0
 42
0.0
 43
0.0
 44
0.0
 45
0.0
 46
0.0
 47
0.0
 48
0.0
 49
0.0
140
0.0
141
0.0
142
1.0
143
1.0
 70
   688
 72
     0
 73
     0
 74
     5
  7

 75
    16
 76
     0
 77
     2
 78
   300
147
1.0
148
0.0
149
0.0
100
AcDbLayout
  1
Layout1
 70
     1
 71
     1
 10
0.0
 20
0.0
 11
12.0
 21
9.0
 12
0.0
 22
0.0
 32
0.0
 14
1.000000000000000E+20
 24
1.000000000000000E+20
 34
1.000000000000000E+20
 15
-1.000000000000000E+20
 25
-1.000000000000000E+20
 35
-1.000000000000000E+20
146
0.0
 13
0.0
 23
0.0
 33
0.0
 16
1.0
 26
0.0
 36
0.0
 17
0.0
 27
1.0
 37
0.0
 76
     0
330
1B
  0
LAYOUT
  5
26
102
{ACAD_REACTORS
330
1A
102
}
330
1A
100
AcDbPlotSettings
  1

  2
none_device
  4

  6

 40
0.0
 41
0.0
 42
0.0
 43
0.0
 44
0.0
 45
0.0
 46
0.0
 47
0.0
 48
0.0
 49
0.0
140
0.0
141
0.0
142
1.0
143
1.0
 70
   688
 72
     0
 73
     0
 74
     5
  7

 75
    16
 76
     0
 77
     2
 78
   300
147
1.0
148
0.0
149
0.0
100
AcDbLayout
  1
Layout2
 70
     1
 71
     2
 10
0.0
 20
0.0
 11
0.0
 21
0.0
 12
0.0
 22
0.0
 32
0.0
 14
0.0
 24
0.0
 34
0.0
 15
0.0
 25
0.0
 35
0.0
146
0.0
 13
0.0
 23
0.0
 33
0.0
 16
1.0
 26
0.0
 36
0.0
 17
0.0
 27
1.0
 37
0.0
 76
     0
330
23
  0
LAYOUT
  5
22
102
{ACAD_REACTORS
330
1A
102
}
330
1A
100
AcDbPlotSettings
  1

  2
none_device
  4
Letter_(8.50_x_11.00_Inches)
  6

 40
6.35
 41
6.35
 42
6.35000508
 43
6.35000508
 44
215.9
 45
279.4
 46
0.0
 47
0.0
 48
0.0
 49
0.0
140
0.0
141
0.0
142
1.0
143
1.0
 70
  1712
 72
     0
 73
     0
 74
     0
  7

 75
     0
 76
     0
 77
     2
 78
   300
147
1.0
148
0.0
149
0.0
100
AcDbLayout
  1
Model
 70
     1
 71
     0
 10
0.0
 20
0.0
 11
12.0
 21
9.0
 12
0.0
 22
0.0
 32
0.0
 14
1.000000000000000E+20
 24
1.000000000000000E+20
 34
1.000000000000000E+20
 15
-1.000000000000000E+20
 25
-1.000000000000000E+20
 35
-1.000000000000000E+20
146
0.0
 13
0.0
 23
0.0
 33
0.0
 16
1.0
 26
0.0
 36
0.0
 17
0.0
 27
1.0
 37
0.0
 76
     0
330
1F
331
29
  0
MATERIAL
  5
45
102
{ACAD_REACTORS
330
43
102
}
330
43
100
AcDbMaterial
  1
ByBlock
 72
     1
 94
      127
  0
MATERIAL
  5
44
102
{ACAD_REACTORS
330
43
102
}
330
43
100
AcDbMaterial
  1
ByLayer
 72
     1
 94
      127
  0
MATERIAL
  5
46
102
{ACAD_REACTORS
330
43
102
}
330
43
100
AcDbMaterial
  1
Global
 72
     1
 94
      127
  0
MLEADERSTYLE
  5
6C
102
{ACAD_REACTORS
330
6B
102
}
330
6B
100
AcDbMLeaderStyle
179
     2
170
     2
171
     1
172
     0
 90
        2
 40
0.0
 41
0.0
173
     1
 91
-1056964608
340
14
 92
       -2
290
     1
 42
0.09
291
     1
 43
0.36
  3
Standard
341
0
 44
0.18
300

342
11
174
     1
178
     6
175
     1
176
     0
 93
-1056964608
 45
0.18
292
     0
297
     0
 46
0.18
343
0
 94
-1056964608
 47
1.0
 49
1.0
140
1.0
293
     1
141
0.0
294
     1
177
     0
142
1.0
295
     0
296
     0
143
0.125
271
     0
272
     9
273
     9
298
     0
  0
MLINESTYLE
  5
18
102
{ACAD_REACTORS
330
17
102
}
330
17
100
AcDbMlineStyle
  2
Standard
 70
     0
  3

 62
   256
 51
90.0
 52
90.0
 71
     2
 49
0.5
 62
   256
  6
BYLAYER
 49
-0.5
 62
   256
  6
BYLAYER
  0
ACDBPLACEHOLDER
  5
F
102
{ACAD_REACTORS
330
E
102
}
330
E
  0
SCALE
  5
48
102
{ACAD_REACTORS
330
47
102
}
330
47
100
AcDbScale
 70
     0
300
1:1
140
1.0
141
1.0
290
     1
  0
SCALE
  5
49
102
{ACAD_REACTORS
330
47
102
}
330
47
100
AcDbScale
 70
     0
300
1:2
140
1.0
141
2.0
290
     0
  0
SCALE
  5
4A
102
{ACAD_REACTORS
330
47
102
}
330
47
100
AcDbScale
 70
     0
300
1:4
140
1.0
141
4.0
290
     0
  0
SCALE
  5
4B
102
{ACAD_REACTORS
330
47
102
}
330
47
100
AcDbScale
 70
     0
300
1:5
140
1.0
141
5.0
290
     0
  0
SCALE
  5
4C
102
{ACAD_REACTORS
330
47
102
}
330
47
100
AcDbScale
 70
     0
300
1:8
140
1.0
141
8.0
290
     0
  0
SCALE
  5
4D
102
{ACAD_REACTORS
330
47
102
}
330
47
100
AcDbScale
 70
     0
300
1:10
140
1.0
141
10.0
290
     0
  0
SCALE
  5
4E
102
{ACAD_REACTORS
330
47
102
}
330
47
100
AcDbScale
 70
     0
300
1:16
140
1.0
141
16.0
290
     0
  0
SCALE
  5
4F
102
{ACAD_REACTORS
330
47
102
}
330
47
100
AcDbScale
 70
     0
300
1:20
140
1.0
141
20.0
290
     0
  0
SCALE
  5
50
102
{ACAD_REACTORS
330
47
102
}
330
47
100
AcDbScale
 70
     0
300
1:30
140
1.0
141
30.0
290
     0
  0
SCALE
  5
51
102
{ACAD_REACTORS
330
47
102
}
330
47
100
AcDbScale
 70
     0
300
1:40
140
1.0
141
40.0
290
     0
  0
SCALE
  5
52
102
{ACAD_REACTORS
330
47
102
}
330
47
100
AcDbScale
 70
     0
300
1:50
140
1.0
141
50.0
290
     0
  0
SCALE
  5
53
102
{ACAD_REACTORS
330
47
102
}
330
47
100
AcDbScale
 70
     0
300
1:100
140
1.0
141
100.0
290
     0
  0
SCALE
  5
54
102
{ACAD_REACTORS
330
47
102
}
330
47
100
AcDbScale
 70
     0
300
2:1
140
2.0
141
1.0
290
     0
  0
SCALE
  5
55
102
{ACAD_REACTORS
330
47
102
}
330
47
100
AcDbScale
 70
     0
300
4:1
140
4.0
141
1.0
290
     0
  0
SCALE
  5
56
102
{ACAD_REACTORS
330
47
102
}
330
47
100
AcDbScale
 70
     0
300
8:1
140
8.0
141
1.0
290
     0
  0
SCALE
  5
57
102
{ACAD_REACTORS
330
47
102
}
330
47
100
AcDbScale
 70
     0
300
10:1
140
10.0
141
1.0
290
     0
  0
SCALE
  5
58
102
{ACAD_REACTORS
330
47
102
}
330
47
100
AcDbScale
 70
     0
300
100:1
140
100.0
141
1.0
290
     0
  0
SCALE
  5
59
102
{ACAD_REACTORS
330
47
102
}
330
47
100
AcDbScale
 70
     0
300
1/128" = 1'-0"
140
0.0078125
141
12.0
290
     0
  0
SCALE
  5
5A
102
{ACAD_REACTORS
330
47
102
}
330
47
100
AcDbScale
 70
     0
300
1/64" = 1'-0"
140
0.015625
141
12.0
290
     0
  0
SCALE
  5
5B
102
{ACAD_REACTORS
330
47
102
}
330
47
100
AcDbScale
 70
     0
300
1/32" = 1'-0"
140
0.03125
141
12.0
290
     0
  0
SCALE
  5
5C
102
{ACAD_REACTORS
330
47
102
}
330
47
100
AcDbScale
 70
     0
300
1/16" = 1'-0"
140
0.0625
141
12.0
290
     0
  0
SCALE
  5
5D
102
{ACAD_REACTORS
330
47
102
}
330
47
100
AcDbScale
 70
     0
300
3/32" = 1'-0"
140
0.09375
141
12.0
290
     0
  0
SCALE
  5
5E
102
{ACAD_REACTORS
330
47
102
}
330
47
100
AcDbScale
 70
     0
300
1/8" = 1'-0"
140
0.125
141
12.0
290
     0
  0
SCALE
  5
5F
102
{ACAD_REACTORS
330
47
102
}
330
47
100
AcDbScale
 70
     0
300
3/16" = 1'-0"
140
0.1875
141
12.0
290
     0
  0
SCALE
  5
60
102
{ACAD_REACTORS
330
47
102
}
330
47
100
AcDbScale
 70
     0
300
1/4" = 1'-0"
140
0.25
141
12.0
290
     0
  0
SCALE
  5
61
102
{ACAD_REACTORS
330
47
102
}
330
47
100
AcDbScale
 70
     0
300
3/8" = 1'-0"
140
0.375
141
12.0
290
     0
  0
SCALE
  5
62
102
{ACAD_REACTORS
330
47
102
}
330
47
100
AcDbScale
 70
     0
300
1/2" = 1'-0"
140
0.5
141
12.0
290
     0
  0
SCALE
  5
63
102
{ACAD_REACTORS
330
47
102
}
330
47
100
AcDbScale
 70
     0
300
3/4" = 1'-0"
140
0.75
141
12.0
290
     0
  0
SCALE
  5
64
102
{ACAD_REACTORS
330
47
102
}
330
47
100
AcDbScale
 70
     0
300
1" = 1'-0"
140
1.0
141
12.0
290
     0
  0
SCALE
  5
65
102
{ACAD_REACTORS
330
47
102
}
330
47
100
AcDbScale
 70
     0
300
1-1/2" = 1'-0"
140
1.5
141
12.0
290
     0
  0
SCALE
  5
66
102
{ACAD_REACTORS
330
47
102
}
330
47
100
AcDbScale
 70
     0
300
3" = 1'-0"
140
3.0
141
12.0
290
     0
  0
SCALE
  5
67
102
{ACAD_REACTORS
330
47
102
}
330
47
100
AcDbScale
 70
     0
300
6" = 1'-0"
140
6.0
141
12.0
290
     0
  0
SCALE
  5
68
102
{ACAD_REACTORS
330
47
102
}
330
47
100
AcDbScale
 70
     0
300
1'-0" = 1'-0"
140
12.0
141
12.0
290
     0
  0
TABLESTYLE
  5
6A
102
{ACAD_REACTORS
330
69
102
}
102
{ACAD_XDICTIONARY
360
247
102
}
330
69
100
AcDbTableStyle
  3
Standard
 70
     0
 71
     0
 40
0.06
 41
0.06
280
     0
281
     0
  7
Standard
140
0.18
170
     2
 62
     0
 63
   257
283
     0
 90
        4
 91
        0
  1

274
    -2
284
     1
 64
     0
275
    -2
285
     1
 65
     0
276
    -2
286
     1
 66
     0
277
    -2
287
     1
 67
     0
278
    -2
288
     1
 68
     0
279
    -2
289
     1
 69
     0
  7
Standard
140
0.25
170
     5
 62
     0
 63
   257
283
     0
 90
        4
 91
        0
  1

274
    -2
284
     1
 64
     0
275
    -2
285
     1
 65
     0
276
    -2
286
     1
 66
     0
277
    -2
287
     1
 67
     0
278
    -2
288
     1
 68
     0
279
    -2
289
     1
 69
     0
  7
Standard
140
0.18
170
     5
 62
     0
 63
   257
283
     0
 90
        4
 91
        0
  1

274
    -2
284
     1
 64
     0
275
    -2
285
     1
 65
     0
276
    -2
286
     1
 66
     0
277
    -2
287
     1
 67
     0
278
    -2
288
     1
 68
     0
279
    -2
289
     1
 69
     0
  0
VISUALSTYLE
  5
2F
102
{ACAD_REACTORS
330
2A
102
}
330
2A
100
AcDbVisualStyle
  2
2dWireframe
 70
     4
177
     3
291
     0
 70
    58
 90
        0
176
     1
 90
        2
176
     1
 90
        0
176
     1
 90
        0
176
     1
 40
0.6
176
     1
 40
30.0
176
     1
 62
     7
420
 16777215
176
     1
 90
        1
176
     1
 90
        4
176
     1
 62
     7
176
     1
 62
   257
176
     1
 90
        1
176
     1
 90
        1
176
     1
 40
1.0
176
     1
 90
        0
176
     1
 62
   257
176
     1
 40
1.0
176
     1
 90
        1
176
     1
 90
        6
176
     1
 90
        2
176
     1
 62
     7
176
     1
 90
        5
176
     1
 90
        0
176
     1
 90
        0
176
     1
290
     0
176
     1
 90
        1
176
     1
 40
0.0
176
     1
 90
        0
176
     1
290
     1
176
     1
290
     1
176
     1
290
     0
176
     1
290
     0
176
     1
290
     0
176
     1
290
     0
176
     1
290
     0
176
     1
290
     0
176
     1
290
     0
176
     1
 90
       50
176
     1
 40
0.0
176
     1
 40
1.0
176
     1
 90
        0
176
     1
 62
    18
420
        0
176
     1
 90
       50
176
     1
 90
        3
176
     1
 62
     5
420
      255
176
     1
290
     0
176
     1
 90
       50
176
     1
 90
       50
176
     1
 90
       50
176
     1
290
     0
176
     1
 90
       50
176
     1
 62
   256
176
     0
 40
1.0
176
     0
 90
        2
176
     1
  1
strokes_ogs.tif
176
     1
290
     0
176
     1
 40
1.0
176
     1
 40
1.0
176
     1
  0
VISUALSTYLE
  5
32
102
{ACAD_REACTORS
330
2A
102
}
330
2A
100
AcDbVisualStyle
  2
Basic
 70
     7
177
     3
291
     1
 70
    58
 90
        1
176
     1
 90
        0
176
     1
 90
        1
176
     1
 90
        0
176
     1
 40
0.6
176
     1
 40
30.0
176
     1
 62
     7
420
 16777215
176
     1
 90
        0
176
     1
 90
        4
176
     1
 62
     7
176
     1
 62
   257
176
     1
 90
        1
176
     1
 90
        1
176
     1
 40
1.0
176
     1
 90
        8
176
     1
 62
     7
176
     1
 40
1.0
176
     1
 90
        1
176
     1
 90
        6
176
     1
 90
        2
176
     1
 62
     7
176
     1
 90
        5
176
     1
 90
        0
176
     1
 90
        0
176
     1
290
     0
176
     1
 90
        1
176
     1
 40
0.0
176
     1
 90
        0
176
     1
290
     0
176
     1
290
     1
176
     1
290
     1
176
     1
290
     0
176
     1
290
     0
176
     1
290
     0
176
     1
290
     0
176
     1
290
     0
176
     1
290
     0
176
     1
 90
       50
176
     1
 40
0.0
176
     1
 40
1.0
176
     1
 90
        0
176
     1
 62
    18
420
        0
176
     1
 90
       50
176
     1
 90
        3
176
     1
 62
     5
420
      255
176
     1
290
     0
176
     1
 90
       50
176
     1
 90
       50
176
     1
 90
       50
176
     1
290
     0
176
     1
 90
       50
176
     1
 62
   256
176
     0
 40
1.0
176
     0
 90
        2
176
     1
  1
strokes_ogs.tif
176
     1
290
     0
176
     1
 40
1.0
176
     1
 40
1.0
176
     1
  0
VISUALSTYLE
  5
36
102
{ACAD_REACTORS
330
2A
102
}
330
2A
100
AcDbVisualStyle
  2
Brighten
 70
    12
177
     3
291
     1
 70
    58
 90
        2
176
     1
 90
        2
176
     1
 90
        0
176
     1
 90
        0
176
     1
 40
0.6
176
     1
 40
30.0
176
     1
 62
     7
420
 16777215
176
     1
 90
        1
176
     1
 90
        4
176
     1
 62
     7
176
     1
 62
   257
176
     1
 90
        1
176
     1
 90
        1
176
     1
 40
1.0
176
     1
 90
        8
176
     1
 62
     7
176
     1
 40
1.0
176
     1
 90
        1
176
     1
 90
        6
176
     1
 90
        2
176
     1
 62
     7
176
     1
 90
        5
176
     1
 90
        0
176
     1
 90
        0
176
     1
290
     0
176
     1
 90
        1
176
     1
 40
50.0
176
     1
 90
        0
176
     1
290
     0
176
     1
290
     1
176
     1
290
     1
176
     1
290
     0
176
     1
290
     0
176
     1
290
     0
176
     1
290
     0
176
     1
290
     0
176
     1
290
     0
176
     1
 90
       50
176
     1
 40
0.0
176
     1
 40
1.0
176
     1
 90
        0
176
     1
 62
    18
420
        0
176
     1
 90
       50
176
     1
 90
        3
176
     1
 62
     5
420
      255
176
     1
290
     0
176
     1
 90
       50
176
     1
 90
       50
176
     1
 90
       50
176
     1
290
     0
176
     1
 90
       50
176
     1
 62
   256
176
     0
 40
1.0
176
     0
 90
        2
176
     1
  1
strokes_ogs.tif
176
     1
290
     0
176
     1
 40
1.0
176
     1
 40
1.0
176
     1
  0
VISUALSTYLE
  5
3A
102
{ACAD_REACTORS
330
2A
102
}
330
2A
100
AcDbVisualStyle
  2
ColorChange
 70
    16
177
     3
291
     1
 70
    58
 90
        2
176
     1
 90
        2
176
     1
 90
        3
176
     1
 90
        0
176
     1
 40
0.6
176
     1
 40
30.0
176
     1
 62
     8
420
  8421504
176
     1
 90
        1
176
     1
 90
        4
176
     1
 62
     7
176
     1
 62
   257
176
     1
 90
        1
176
     1
 90
        1
176
     1
 40
1.0
176
     1
 90
        8
176
     1
 62
     8
420
  8421504
176
     1
 40
1.0
176
     1
 90
        1
176
     1
 90
        6
176
     1
 90
        2
176
     1
 62
     7
176
     1
 90
        5
176
     1
 90
        0
176
     1
 90
        0
176
     1
290
     0
176
     1
 90
        1
176
     1
 40
0.0
176
     1
 90
        0
176
     1
290
     0
176
     1
290
     1
176
     1
290
     1
176
     1
290
     0
176
     1
290
     0
176
     1
290
     0
176
     1
290
     0
176
     1
290
     0
176
     1
290
     0
176
     1
 90
       50
176
     1
 40
0.0
176
     1
 40
1.0
176
     1
 90
        0
176
     1
 62
    18
420
        0
176
     1
 90
       50
176
     1
 90
        3
176
     1
 62
     5
420
      255
176
     1
290
     0
176
     1
 90
       50
176
     1
 90
       50
176
     1
 90
       50
176
     1
290
     0
176
     1
 90
       50
176
     1
 62
   256
176
     0
 40
1.0
176
     0
 90
        2
176
     1
  1
strokes_ogs.tif
176
     1
290
     0
176
     1
 40
1.0
176
     1
 40
1.0
176
     1
  0
VISUALSTYLE
  5
34
102
{ACAD_REACTORS
330
2A
102
}
330
2A
100
AcDbVisualStyle
  2
Conceptual
 70
     9
177
     3
291
     0
 70
    58
 90
        3
176
     1
 90
        2
176
     1
 90
        0
176
     1
 90
        0
176
     1
 40
0.6
176
     1
 40
30.0
176
     1
 62
     7
420
 16777215
176
     1
 90
        2
176
     1
 90
        2
176
     1
 62
     7
176
     1
 62
   257
176
     1
 90
        1
176
     1
 90
        1
176
     1
 40
179.0
176
     1
 90
        8
176
     1
 62
     7
176
     1
 40
1.0
176
     1
 90
        1
176
     1
 90
        6
176
     1
 90
        2
176
     1
 62
     7
176
     1
 90
        3
176
     1
 90
        0
176
     1
 90
        0
176
     1
290
     0
176
     1
 90
        1
176
     1
 40
0.0
176
     1
 90
        0
176
     1
290
     0
176
     1
290
     1
176
     1
290
     1
176
     1
290
     0
176
     1
290
     0
176
     1
290
     0
176
     1
290
     0
176
     1
290
     0
176
     1
290
     0
176
     1
 90
       50
176
     1
 40
0.0
176
     1
 40
1.0
176
     1
 90
        0
176
     1
 62
    18
420
        0
176
     1
 90
       50
176
     1
 90
        3
176
     1
 62
     5
420
      255
176
     1
290
     0
176
     1
 90
       50
176
     1
 90
       50
176
     1
 90
       50
176
     1
290
     0
176
     1
 90
       50
176
     1
 62
   256
176
     0
 40
1.0
176
     0
 90
        2
176
     1
  1
strokes_ogs.tif
176
     1
290
     0
176
     1
 40
1.0
176
     1
 40
1.0
176
     1
  0
VISUALSTYLE
  5
35
102
{ACAD_REACTORS
330
2A
102
}
330
2A
100
AcDbVisualStyle
  2
Dim
 70
    11
177
     3
291
     1
 70
    58
 90
        2
176
     1
 90
        2
176
     1
 90
        0
176
     1
 90
        0
176
     1
 40
0.6
176
     1
 40
30.0
176
     1
 62
     7
420
 16777215
176
     1
 90
        1
176
     1
 90
        4
176
     1
 62
     7
176
     1
 62
   257
176
     1
 90
        1
176
     1
 90
        1
176
     1
 40
1.0
176
     1
 90
        8
176
     1
 62
     7
176
     1
 40
1.0
176
     1
 90
        1
176
     1
 90
        6
176
     1
 90
        2
176
     1
 62
     7
176
     1
 90
        5
176
     1
 90
        0
176
     1
 90
        0
176
     1
290
     0
176
     1
 90
        1
176
     1
 40
-50.0
176
     1
 90
        0
176
     1
290
     0
176
     1
290
     1
176
     1
290
     1
176
     1
290
     0
176
     1
290
     0
176
     1
290
     0
176
     1
290
     0
176
     1
290
     0
176
     1
290
     0
176
     1
 90
       50
176
     1
 40
0.0
176
     1
 40
1.0
176
     1
 90
        0
176
     1
 62
    18
420
        0
176
     1
 90
       50
176
     1
 90
        3
176
     1
 62
     5
420
      255
176
     1
290
     0
176
     1
 90
       50
176
     1
 90
       50
176
     1
 90
       50
176
     1
290
     0
176
     1
 90
       50
176
     1
 62
   256
176
     0
 40
1.0
176
     0
 90
        2
176
     1
  1
strokes_ogs.tif
176
     1
290
     0
176
     1
 40
1.0
176
     1
 40
1.0
176
     1
  0
VISUALSTYLE
  5
3D
102
{ACAD_REACTORS
330
2A
102
}
330
2A
100
AcDbVisualStyle
  2
EdgeColorOff
 70
    22
177
     3
291
     1
 70
    58
 90
        2
176
     0
 90
        2
176
     0
 90
        0
176
     0
 90
        0
176
     0
 40
0.6
176
     0
 40
30.0
176
     0
 62
     7
420
 16777215
176
     0
 90
        1
176
     0
 90
        4
176
     0
 62
     7
176
     0
 62
   257
176
     0
 90
        1
176
     0
 90
        1
176
     0
 40
1.0
176
     0
 90
        8
176
     2
 62
     7
176
     0
 40
1.0
176
     0
 90
        1
176
     0
 90
        6
176
     0
 90
        2
176
     0
 62
     7
176
     0
 90
        5
176
     0
 90
        0
176
     0
 90
        0
176
     0
290
     0
176
     0
 90
        1
176
     0
 40
0.0
176
     0
 90
        0
176
     0
290
     0
176
     0
290
     1
176
     0
290
     1
176
     0
290
     0
176
     0
290
     0
176
     0
290
     0
176
     0
290
     0
176
     0
290
     0
176
     0
290
     0
176
     0
 90
       50
176
     0
 40
0.0
176
     0
 40
1.0
176
     0
 90
        0
176
     0
 62
    18
420
        0
176
     0
 90
       50
176
     0
 90
        3
176
     0
 62
     5
420
      255
176
     0
290
     0
176
     0
 90
       50
176
     0
 90
       50
176
     0
 90
       50
176
     0
290
     0
176
     0
 90
       50
176
     0
 62
   256
176
     0
 40
1.0
176
     0
 90
        2
176
     0
  1
strokes_ogs.tif
176
     0
290
     0
176
     0
 40
1.0
176
     0
 40
1.0
176
     0
  0
VISUALSTYLE
  5
39
102
{ACAD_REACTORS
330
2A
102
}
330
2A
100
AcDbVisualStyle
  2
Facepattern
 70
    15
177
     3
291
     1
 70
    58
 90
        2
176
     1
 90
        2
176
     1
 90
        0
176
     1
 90
        0
176
     1
 40
0.6
176
     1
 40
30.0
176
     1
 62
     7
420
 16777215
176
     1
 90
        1
176
     1
 90
        4
176
     1
 62
     7
176
     1
 62
   257
176
     1
 90
        1
176
     1
 90
        1
176
     1
 40
1.0
176
     1
 90
        8
176
     1
 62
     7
176
     1
 40
1.0
176
     1
 90
        1
176
     1
 90
        6
176
     1
 90
        2
176
     1
 62
     7
176
     1
 90
        5
176
     1
 90
        0
176
     1
 90
        0
176
     1
290
     0
176
     1
 90
        1
176
     1
 40
0.0
176
     1
 90
        0
176
     1
290
     0
176
     1
290
     1
176
     1
290
     1
176
     1
290
     0
176
     1
290
     0
176
     1
290
     0
176
     1
290
     0
176
     1
290
     0
176
     1
290
     0
176
     1
 90
       50
176
     1
 40
0.0
176
     1
 40
1.0
176
     1
 90
        0
176
     1
 62
    18
420
        0
176
     1
 90
       50
176
     1
 90
        3
176
     1
 62
     5
420
      255
176
     1
290
     0
176
     1
 90
       50
176
     1
 90
       50
176
     1
 90
       50
176
     1
290
     0
176
     1
 90
       50
176
     1
 62
   256
176
     0
 40
1.0
176
     0
 90
        2
176
     1
  1
strokes_ogs.tif
176
     1
290
     0
176
     1
 40
1.0
176
     1
 40
1.0
176
     1
  0
VISUALSTYLE
  5
2B
102
{ACAD_REACTORS
330
2A
102
}
330
2A
100
AcDbVisualStyle
  2
Flat
 70
     0
177
     3
291
     1
 70
    58
 90
        2
176
     1
 90
        1
176
     1
 90
        1
176
     1
 90
        2
176
     1
 40
0.6
176
     1
 40
30.0
176
     1
 62
     7
420
 16777215
176
     1
 90
        0
176
     1
 90
        0
176
     1
 62
     7
176
     1
 62
   257
176
     1
 90
        1
176
     1
 90
        1
176
     1
 40
1.0
176
     1
 90
        8
176
     1
 62
     7
176
     1
 40
1.0
176
     1
 90
        1
176
     1
 90
        6
176
     1
 90
        2
176
     1
 62
     7
176
     1
 90
        5
176
     1
 90
        0
176
     1
 90
        0
176
     1
290
     0
176
     1
 90
       13
176
     1
 40
0.0
176
     1
 90
        0
176
     1
290
     0
176
     1
290
     1
176
     1
290
     1
176
     1
290
     0
176
     1
290
     0
176
     1
290
     0
176
     1
290
     0
176
     1
290
     0
176
     1
290
     0
176
     1
 90
       50
176
     1
 40
0.0
176
     1
 40
1.0
176
     1
 90
        0
176
     1
 62
    18
420
        0
176
     1
 90
       50
176
     1
 90
        3
176
     1
 62
     5
420
      255
176
     1
290
     0
176
     1
 90
       50
176
     1
 90
       50
176
     1
 90
       50
176
     1
290
     0
176
     1
 90
       50
176
     1
 62
   256
176
     0
 40
1.0
176
     0
 90
        2
176
     1
  1
strokes_ogs.tif
176
     1
290
     0
176
     1
 40
1.0
176
     1
 40
1.0
176
     1
  0
VISUALSTYLE
  5
2C
102
{ACAD_REACTORS
330
2A
102
}
330
2A
100
AcDbVisualStyle
  2
FlatWithEdges
 70
     1
177
     3
291
     1
 70
    58
 90
        2
176
     1
 90
        1
176
     1
 90
        1
176
     1
 90
        2
176
     1
 40
0.6
176
     1
 40
30.0
176
     1
 62
     7
420
 16777215
176
     1
 90
        1
176
     1
 90
        0
176
     1
 62
     7
176
     1
 62
   257
176
     1
 90
        1
176
     1
 90
        1
176
     1
 40
1.0
176
     1
 90
        0
176
     1
 62
   257
176
     1
 40
1.0
176
     1
 90
        1
176
     1
 90
        6
176
     1
 90
        2
176
     1
 62
     7
176
     1
 90
        5
176
     1
 90
        0
176
     1
 90
        0
176
     1
290
     0
176
     1
 90
       13
176
     1
 40
0.0
176
     1
 90
        0
176
     1
290
     0
176
     1
290
     1
176
     1
290
     1
176
     1
290
     0
176
     1
290
     0
176
     1
290
     0
176
     1
290
     0
176
     1
290
     0
176
     1
290
     0
176
     1
 90
       50
176
     1
 40
0.0
176
     1
 40
1.0
176
     1
 90
        0
176
     1
 62
    18
420
        0
176
     1
 90
       50
176
     1
 90
        3
176
     1
 62
     5
420
      255
176
     1
290
     0
176
     1
 90
       50
176
     1
 90
       50
176
     1
 90
       50
176
     1
290
     0
176
     1
 90
       50
176
     1
 62
   256
176
     0
 40
1.0
176
     0
 90
        2
176
     1
  1
strokes_ogs.tif
176
     1
290
     0
176
     1
 40
1.0
176
     1
 40
1.0
176
     1
  0
VISUALSTYLE
  5
2D
102
{ACAD_REACTORS
330
2A
102
}
330
2A
100
AcDbVisualStyle
  2
Gouraud
 70
     2
177
     3
291
     1
 70
    58
 90
        2
176
     1
 90
        2
176
     1
 90
        1
176
     1
 90
        2
176
     1
 40
0.6
176
     1
 40
30.0
176
     1
 62
     7
420
 16777215
176
     1
 90
        0
176
     1
 90
        0
176
     1
 62
     7
176
     1
 62
   257
176
     1
 90
        1
176
     1
 90
        1
176
     1
 40
1.0
176
     1
 90
        0
176
     1
 62
     7
176
     1
 40
1.0
176
     1
 90
        1
176
     1
 90
        6
176
     1
 90
        2
176
     1
 62
     7
176
     1
 90
        5
176
     1
 90
        0
176
     1
 90
        0
176
     1
290
     0
176
     1
 90
       13
176
     1
 40
0.0
176
     1
 90
        0
176
     1
290
     0
176
     1
290
     1
176
     1
290
     1
176
     1
290
     0
176
     1
290
     0
176
     1
290
     0
176
     1
290
     0
176
     1
290
     0
176
     1
290
     0
176
     1
 90
       50
176
     1
 40
0.0
176
     1
 40
1.0
176
     1
 90
        0
176
     1
 62
    18
420
        0
176
     1
 90
       50
176
     1
 90
        3
176
     1
 62
     5
420
      255
176
     1
290
     0
176
     1
 90
       50
176
     1
 90
       50
176
     1
 90
       50
176
     1
290
     0
176
     1
 90
       50
176
     1
 62
   256
176
     0
 40
1.0
176
     0
 90
        2
176
     1
  1
strokes_ogs.tif
176
     1
290
     0
176
     1
 40
1.0
176
     1
 40
1.0
176
     1
  0
VISUALSTYLE
  5
2E
102
{ACAD_REACTORS
330
2A
102
}
330
2A
100
AcDbVisualStyle
  2
GouraudWithEdges
 70
     3
177
     3
291
     1
 70
    58
 90
        2
176
     1
 90
        2
176
     1
 90
        1
176
     1
 90
        2
176
     1
 40
0.6
176
     1
 40
30.0
176
     1
 62
     7
420
 16777215
176
     1
 90
        1
176
     1
 90
        0
176
     1
 62
     7
176
     1
 62
   257
176
     1
 90
        1
176
     1
 90
        1
176
     1
 40
1.0
176
     1
 90
        0
176
     1
 62
   257
176
     1
 40
1.0
176
     1
 90
        1
176
     1
 90
        6
176
     1
 90
        2
176
     1
 62
     7
176
     1
 90
        5
176
     1
 90
        0
176
     1
 90
        0
176
     1
290
     0
176
     1
 90
       13
176
     1
 40
0.0
176
     1
 90
        0
176
     1
290
     0
176
     1
290
     1
176
     1
290
     1
176
     1
290
     0
176
     1
290
     0
176
     1
290
     0
176
     1
290
     0
176
     1
290
     0
176
     1
290
     0
176
     1
 90
       50
176
     1
 40
0.0
176
     1
 40
1.0
176
     1
 90
        0
176
     1
 62
    18
420
        0
176
     1
 90
       50
176
     1
 90
        3
176
     1
 62
     5
420
      255
176
     1
290
     0
176
     1
 90
       50
176
     1
 90
       50
176
     1
 90
       50
176
     1
290
     0
176
     1
 90
       50
176
     1
 62
   256
176
     0
 40
1.0
176
     0
 90
        2
176
     1
  1
strokes_ogs.tif
176
     1
290
     0
176
     1
 40
1.0
176
     1
 40
1.0
176
     1
  0
VISUALSTYLE
  5
31
102
{ACAD_REACTORS
330
2A
102
}
330
2A
100
AcDbVisualStyle
  2
Hidden
 70
     6
177
     3
291
     0
 70
    58
 90
        1
176
     1
 90
        2
176
     1
 90
        2
176
     1
 90
        0
176
     1
 40
0.6
176
     1
 40
30.0
176
     1
 62
     7
420
 16777215
176
     1
 90
        2
176
     1
 90
        2
176
     1
 62
     7
176
     1
 62
   257
176
     1
 90
        2
176
     1
 90
        1
176
     1
 40
40.0
176
     1
 90
        0
176
     1
 62
   257
176
     1
 40
1.0
176
     1
 90
        1
176
     1
 90
        6
176
     1
 90
        2
176
     1
 62
     7
176
     1
 90
        3
176
     1
 90
        0
176
     1
 90
        0
176
     1
290
     0
176
     1
 90
        1
176
     1
 40
0.0
176
     1
 90
        0
176
     1
290
     0
176
     1
290
     1
176
     1
290
     1
176
     1
290
     0
176
     1
290
     0
176
     1
290
     0
176
     1
290
     0
176
     1
290
     0
176
     1
290
     0
176
     1
 90
       50
176
     1
 40
0.0
176
     1
 40
1.0
176
     1
 90
        0
176
     1
 62
    18
420
        0
176
     1
 90
       50
176
     1
 90
        3
176
     1
 62
     5
420
      255
176
     1
290
     0
176
     1
 90
       50
176
     1
 90
       50
176
     1
 90
       50
176
     1
290
     0
176
     1
 90
       50
176
     1
 62
   256
176
     0
 40
1.0
176
     0
 90
        2
176
     1
  1
strokes_ogs.tif
176
     1
290
     0
176
     1
 40
1.0
176
     1
 40
1.0
176
     1
  0
VISUALSTYLE
  5
3B
102
{ACAD_REACTORS
330
2A
102
}
330
2A
100
AcDbVisualStyle
  2
JitterOff
 70
    20
177
     3
291
     1
 70
    58
 90
        2
176
     0
 90
        2
176
     0
 90
        0
176
     0
 90
        0
176
     0
 40
0.6
176
     0
 40
30.0
176
     0
 62
     7
420
 16777215
176
     0
 90
        1
176
     0
 90
        4
176
     0
 62
     7
176
     0
 62
   257
176
     0
 90
        1
176
     0
 90
        1
176
     0
 40
1.0
176
     0
 90
       10
176
     2
 62
     7
176
     0
 40
1.0
176
     0
 90
        1
176
     0
 90
        6
176
     0
 90
        2
176
     0
 62
     7
176
     0
 90
        5
176
     0
 90
        0
176
     0
 90
        0
176
     0
290
     0
176
     0
 90
        1
176
     0
 40
0.0
176
     0
 90
        0
176
     0
290
     0
176
     0
290
     1
176
     0
290
     1
176
     0
290
     0
176
     0
290
     0
176
     0
290
     0
176
     0
290
     0
176
     0
290
     0
176
     0
290
     0
176
     0
 90
       50
176
     0
 40
0.0
176
     0
 40
1.0
176
     0
 90
        0
176
     0
 62
    18
420
        0
176
     0
 90
       50
176
     0
 90
        3
176
     0
 62
     5
420
      255
176
     0
290
     0
176
     0
 90
       50
176
     0
 90
       50
176
     0
 90
       50
176
     0
290
     0
176
     0
 90
       50
176
     0
 62
   256
176
     0
 40
1.0
176
     0
 90
        2
176
     0
  1
strokes_ogs.tif
176
     0
290
     0
176
     0
 40
1.0
176
     0
 40
1.0
176
     0
  0
VISUALSTYLE
  5
38
102
{ACAD_REACTORS
330
2A
102
}
330
2A
100
AcDbVisualStyle
  2
Linepattern
 70
    14
177
     3
291
     1
 70
    58
 90
        2
176
     1
 90
        2
176
     1
 90
        0
176
     1
 90
        0
176
     1
 40
0.6
176
     1
 40
30.0
176
     1
 62
     7
420
 16777215
176
     1
 90
        1
176
     1
 90
        4
176
     1
 62
     7
176
     1
 62
   257
176
     1
 90
        7
176
     1
 90
        7
176
     1
 40
1.0
176
     1
 90
        8
176
     1
 62
     7
176
     1
 40
1.0
176
     1
 90
        1
176
     1
 90
        6
176
     1
 90
        2
176
     1
 62
     7
176
     1
 90
        5
176
     1
 90
        0
176
     1
 90
        0
176
     1
290
     0
176
     1
 90
        1
176
     1
 40
0.0
176
     1
 90
        0
176
     1
290
     0
176
     1
290
     1
176
     1
290
     1
176
     1
290
     0
176
     1
290
     0
176
     1
290
     0
176
     1
290
     0
176
     1
290
     0
176
     1
290
     0
176
     1
 90
       50
176
     1
 40
0.0
176
     1
 40
1.0
176
     1
 90
        0
176
     1
 62
    18
420
        0
176
     1
 90
       50
176
     1
 90
        3
176
     1
 62
     5
420
      255
176
     1
290
     0
176
     1
 90
       50
176
     1
 90
       50
176
     1
 90
       50
176
     1
290
     0
176
     1
 90
       50
176
     1
 62
   256
176
     0
 40
1.0
176
     0
 90
        2
176
     1
  1
strokes_ogs.tif
176
     1
290
     0
176
     1
 40
1.0
176
     1
 40
1.0
176
     1
  0
VISUALSTYLE
  5
3C
102
{ACAD_REACTORS
330
2A
102
}
330
2A
100
AcDbVisualStyle
  2
OverhangOff
 70
    21
177
     3
291
     1
 70
    58
 90
        2
176
     0
 90
        2
176
     0
 90
        0
176
     0
 90
        0
176
     0
 40
0.6
176
     0
 40
30.0
176
     0
 62
     7
420
 16777215
176
     0
 90
        1
176
     0
 90
        4
176
     0
 62
     7
176
     0
 62
   257
176
     0
 90
        1
176
     0
 90
        1
176
     0
 40
1.0
176
     0
 90
        9
176
     2
 62
     7
176
     0
 40
1.0
176
     0
 90
        1
176
     0
 90
        6
176
     0
 90
        2
176
     0
 62
     7
176
     0
 90
        5
176
     0
 90
        0
176
     0
 90
        0
176
     0
290
     0
176
     0
 90
        1
176
     0
 40
0.0
176
     0
 90
        0
176
     0
290
     0
176
     0
290
     1
176
     0
290
     1
176
     0
290
     0
176
     0
290
     0
176
     0
290
     0
176
     0
290
     0
176
     0
290
     0
176
     0
290
     0
176
     0
 90
       50
176
     0
 40
0.0
176
     0
 40
1.0
176
     0
 90
        0
176
     0
 62
    18
420
        0
176
     0
 90
       50
176
     0
 90
        3
176
     0
 62
     5
420
      255
176
     0
290
     0
176
     0
 90
       50
176
     0
 90
       50
176
     0
 90
       50
176
     0
290
     0
176
     0
 90
       50
176
     0
 62
   256
176
     0
 40
1.0
176
     0
 90
        2
176
     0
  1
strokes_ogs.tif
176
     0
290
     0
176
     0
 40
1.0
176
     0
 40
1.0
176
     0
  0
VISUALSTYLE
  5
33
102
{ACAD_REACTORS
330
2A
102
}
330
2A
100
AcDbVisualStyle
  2
Realistic
 70
     8
177
     3
291
     0
 70
    58
 90
        2
176
     1
 90
        3
176
     1
 90
        0
176
     1
 90
        2
176
     1
 40
0.6
176
     1
 40
30.0
176
     1
 62
     7
420
 16777215
176
     1
 90
        0
176
     1
 90
        0
176
     1
 62
     7
176
     1
 62
   257
176
     1
 90
        1
176
     1
 90
        1
176
     1
 40
1.0
176
     1
 90
        8
176
     1
 62
   257
176
     1
 40
1.0
176
     1
 90
        1
176
     1
 90
        6
176
     1
 90
        2
176
     1
 62
     7
176
     1
 90
        3
176
     1
 90
        0
176
     1
 90
        0
176
     1
290
     0
176
     1
 90
       13
176
     1
 40
0.0
176
     1
 90
        0
176
     1
290
     0
176
     1
290
     1
176
     1
290
     1
176
     1
290
     0
176
     1
290
     0
176
     1
290
     0
176
     1
290
     0
176
     1
290
     0
176
     1
290
     0
176
     1
 90
       50
176
     1
 40
0.0
176
     1
 40
1.0
176
     1
 90
        0
176
     1
 62
    18
420
        0
176
     1
 90
       50
176
     1
 90
        3
176
     1
 62
     5
420
      255
176
     1
290
     0
176
     1
 90
       50
176
     1
 90
       50
176
     1
 90
       50
176
     1
290
     0
176
     1
 90
       50
176
     1
 62
   256
176
     0
 40
1.0
176
     0
 90
        2
176
     1
  1
strokes_ogs.tif
176
     1
290
     0
176
     1
 40
1.0
176
     1
 40
1.0
176
     1
  0
VISUALSTYLE
  5
42
102
{ACAD_REACTORS
330
2A
102
}
330
2A
100
AcDbVisualStyle
  2
Shaded
 70
    27
177
     3
291
     0
 70
    58
 90
        2
176
     1
 90
        2
176
     1
 90
        1
176
     1
 90
        2
176
     1
 40
0.6
176
     1
 40
30.0
176
     1
 62
     7
420
 16777215
176
     1
 90
        0
176
     1
 90
        4
176
     1
 62
     7
176
     1
 62
   257
176
     1
 90
        1
176
     1
 90
        1
176
     1
 40
1.0
176
     1
 90
        8
176
     1
 62
   257
176
     1
 40
1.0
176
     1
 90
        1
176
     1
 90
        6
176
     1
 90
        2
176
     1
 62
     8
420
  7895160
176
     1
 90
        3
176
     1
 90
        0
176
     1
 90
        0
176
     1
290
     0
176
     1
 90
        5
176
     1
 40
0.0
176
     1
 90
        0
176
     1
290
     0
176
     1
290
     1
176
     1
290
     1
176
     1
290
     0
176
     1
290
     0
176
     1
290
     0
176
     1
290
     0
176
     1
290
     0
176
     1
290
     0
176
     1
 90
       50
176
     1
 40
0.0
176
     1
 40
1.0
176
     1
 90
        0
176
     1
 62
    18
420
        0
176
     1
 90
       50
176
     1
 90
        3
176
     1
 62
     5
420
      255
176
     1
290
     0
176
     1
 90
       50
176
     1
 90
       50
176
     1
 90
       50
176
     1
290
     0
176
     1
 90
       50
176
     1
 62
   256
176
     0
 40
1.0
176
     0
 90
        2
176
     1
  1
strokes_ogs.tif
176
     1
290
     0
176
     1
 40
1.0
176
     1
 40
1.0
176
     1
  0
VISUALSTYLE
  5
41
102
{ACAD_REACTORS
330
2A
102
}
330
2A
100
AcDbVisualStyle
  2
Shaded with edges
 70
    26
177
     3
291
     0
 70
    58
 90
        2
176
     1
 90
        2
176
     1
 90
        1
176
     1
 90
        2
176
     1
 40
0.6
176
     1
 40
30.0
176
     1
 62
     7
420
 16777215
176
     1
 90
        1
176
     1
 90
       10
176
     1
 62
     7
176
     1
 62
   257
176
     1
 90
        2
176
     1
 90
        1
176
     1
 40
1.0
176
     1
 90
        8
176
     1
 62
   257
176
     1
 40
1.0
176
     1
 90
        1
176
     1
 90
        6
176
     1
 90
        2
176
     1
 62
     7
176
     1
 90
        3
176
     1
 90
        0
176
     1
 90
        0
176
     1
290
     0
176
     1
 90
        5
176
     1
 40
0.0
176
     1
 90
        0
176
     1
290
     0
176
     1
290
     1
176
     1
290
     1
176
     1
290
     0
176
     1
290
     0
176
     1
290
     0
176
     1
290
     0
176
     1
290
     0
176
     1
290
     0
176
     1
 90
       50
176
     1
 40
0.0
176
     1
 40
1.0
176
     1
 90
        0
176
     1
 62
    18
420
        0
176
     1
 90
       50
176
     1
 90
        3
176
     1
 62
     5
420
      255
176
     1
290
     0
176
     1
 90
       50
176
     1
 90
       50
176
     1
 90
       50
176
     1
290
     0
176
     1
 90
       50
176
     1
 62
   256
176
     0
 40
1.0
176
     0
 90
        2
176
     1
  1
strokes_ogs.tif
176
     1
290
     0
176
     1
 40
1.0
176
     1
 40
1.0
176
     1
  0
VISUALSTYLE
  5
3E
102
{ACAD_REACTORS
330
2A
102
}
330
2A
100
AcDbVisualStyle
  2
Shades of Gray
 70
    23
177
     3
291
     0
 70
    58
 90
        2
176
     1
 90
        2
176
     1
 90
        3
176
     1
 90
        0
176
     1
 40
0.6
176
     1
 40
30.0
176
     1
 62
     7
420
 16777215
176
     1
 90
        2
176
     1
 90
        2
176
     1
 62
     7
176
     1
 62
     7
176
     1
 90
        1
176
     1
 90
        1
176
     1
 40
40.0
176
     1
 90
        8
176
     1
 62
     7
176
     1
 40
1.0
176
     1
 90
        1
176
     1
 90
        6
176
     1
 90
        2
176
     1
 62
     7
176
     1
 90
        3
176
     1
 90
        0
176
     1
 90
        0
176
     1
290
     0
176
     1
 90
        1
176
     1
 40
0.0
176
     1
 90
        0
176
     1
290
     0
176
     1
290
     1
176
     1
290
     1
176
     1
290
     0
176
     1
290
     0
176
     1
290
     0
176
     1
290
     0
176
     1
290
     0
176
     1
290
     0
176
     1
 90
       50
176
     1
 40
0.0
176
     1
 40
1.0
176
     1
 90
        0
176
     1
 62
    18
420
        0
176
     1
 90
       50
176
     1
 90
        3
176
     1
 62
     5
420
      255
176
     1
290
     0
176
     1
 90
       50
176
     1
 90
       50
176
     1
 90
       50
176
     1
290
     0
176
     1
 90
       50
176
     1
 62
   256
176
     0
 40
1.0
176
     0
 90
        2
176
     1
  1
strokes_ogs.tif
176
     1
290
     0
176
     1
 40
1.0
176
     1
 40
1.0
176
     1
  0
VISUALSTYLE
  5
3F
102
{ACAD_REACTORS
330
2A
102
}
330
2A
100
AcDbVisualStyle
  2
Sketchy
 70
    24
177
     3
291
     0
 70
    58
 90
        1
176
     1
 90
        2
176
     1
 90
        2
176
     1
 90
        0
176
     1
 40
0.6
176
     1
 40
30.0
176
     1
 62
     7
420
 16777215
176
     1
 90
        2
176
     1
 90
        2
176
     1
 62
     7
176
     1
 62
     7
176
     1
 90
        1
176
     1
 90
        1
176
     1
 40
40.0
176
     1
 90
       11
176
     1
 62
     7
176
     1
 40
1.0
176
     1
 90
        1
176
     1
 90
        6
176
     1
 90
        2
176
     1
 62
     7
176
     1
 90
        6
176
     1
 90
        0
176
     1
 90
        0
176
     1
290
     0
176
     1
 90
        1
176
     1
 40
0.0
176
     1
 90
        0
176
     1
290
     0
176
     1
290
     1
176
     1
290
     1
176
     1
290
     0
176
     1
290
     0
176
     1
290
     0
176
     1
290
     0
176
     1
290
     0
176
     1
290
     0
176
     1
 90
       50
176
     1
 40
0.0
176
     1
 40
1.0
176
     1
 90
        0
176
     1
 62
    18
420
        0
176
     1
 90
       50
176
     1
 90
        3
176
     1
 62
     5
420
      255
176
     1
290
     0
176
     1
 90
       50
176
     1
 90
       50
176
     1
 90
       50
176
     1
290
     0
176
     1
 90
       50
176
     1
 62
   256
176
     0
 40
1.0
176
     0
 90
        2
176
     1
  1
strokes_ogs.tif
176
     1
290
     0
176
     1
 40
1.0
176
     1
 40
1.0
176
     1
  0
VISUALSTYLE
  5
37
102
{ACAD_REACTORS
330
2A
102
}
330
2A
100
AcDbVisualStyle
  2
Thicken
 70
    13
177
     3
291
     1
 70
    58
 90
        2
176
     1
 90
        2
176
     1
 90
        0
176
     1
 90
        0
176
     1
 40
0.6
176
     1
 40
30.0
176
     1
 62
     7
420
 16777215
176
     1
 90
        1
176
     1
 90
        4
176
     1
 62
     7
176
     1
 62
   257
176
     1
 90
        1
176
     1
 90
        1
176
     1
 40
1.0
176
     1
 90
       12
176
     1
 62
     7
176
     1
 40
1.0
176
     1
 90
        1
176
     1
 90
        6
176
     1
 90
        2
176
     1
 62
     7
176
     1
 90
        5
176
     1
 90
        0
176
     1
 90
        0
176
     1
290
     0
176
     1
 90
        1
176
     1
 40
0.0
176
     1
 90
        0
176
     1
290
     0
176
     1
290
     1
176
     1
290
     1
176
     1
290
     0
176
     1
290
     0
176
     1
290
     0
176
     1
290
     0
176
     1
290
     0
176
     1
290
     0
176
     1
 90
       50
176
     1
 40
0.0
176
     1
 40
1.0
176
     1
 90
        0
176
     1
 62
    18
420
        0
176
     1
 90
       50
176
     1
 90
        3
176
     1
 62
     5
420
      255
176
     1
290
     0
176
     1
 90
       50
176
     1
 90
       50
176
     1
 90
       50
176
     1
290
     0
176
     1
 90
       50
176
     1
 62
   256
176
     0
 40
1.0
176
     0
 90
        2
176
     1
  1
strokes_ogs.tif
176
     1
290
     0
176
     1
 40
1.0
176
     1
 40
1.0
176
     1
  0
VISUALSTYLE
  5
30
102
{ACAD_REACTORS
330
2A
102
}
330
2A
100
AcDbVisualStyle
  2
Wireframe
 70
     5
177
     3
291
     0
 70
    58
 90
        0
176
     1
 90
        2
176
     1
 90
        0
176
     1
 90
        0
176
     1
 40
0.6
176
     1
 40
30.0
176
     1
 62
     7
420
 16777215
176
     1
 90
        1
176
     1
 90
        4
176
     1
 62
     7
176
     1
 62
   257
176
     1
 90
        1
176
     1
 90
        1
176
     1
 40
1.0
176
     1
 90
        0
176
     1
 62
   257
176
     1
 40
1.0
176
     1
 90
        1
176
     1
 90
        6
176
     1
 90
        2
176
     1
 62
     7
176
     1
 90
        3
176
     1
 90
        0
176
     1
 90
        0
176
     1
290
     0
176
     1
 90
        1
176
     1
 40
0.0
176
     1
 90
        0
176
     1
290
     0
176
     1
290
     1
176
     1
290
     1
176
     1
290
     0
176
     1
290
     0
176
     1
290
     0
176
     1
290
     0
176
     1
290
     0
176
     1
290
     0
176
     1
 90
       50
176
     1
 40
0.0
176
     1
 40
1.0
176
     1
 90
        0
176
     1
 62
    18
420
        0
176
     1
 90
       50
176
     1
 90
        3
176
     1
 62
     5
420
      255
176
     1
290
     0
176
     1
 90
       50
176
     1
 90
       50
176
     1
 90
       50
176
     1
290
     0
176
     1
 90
       50
176
     1
 62
   256
176
     0
 40
1.0
176
     0
 90
        2
176
     1
  1
strokes_ogs.tif
176
     1
290
     0
176
     1
 40
1.0
176
     1
 40
1.0
176
     1
  0
VISUALSTYLE
  5
40
102
{ACAD_REACTORS
330
2A
102
}
330
2A
100
AcDbVisualStyle
  2
X-Ray
 70
    25
177
     3
291
     0
 70
    58
 90
        2
176
     1
 90
        2
176
     1
 90
        1
176
     1
 90
        1
176
     1
 40
0.5
176
     1
 40
30.0
176
     1
 62
     7
420
 16777215
176
     1
 90
        1
176
     1
 90
        0
176
     1
 62
     7
176
     1
 62
   257
176
     1
 90
        1
176
     1
 90
        1
176
     1
 40
1.0
176
     1
 90
        8
176
     1
 62
     7
176
     1
 40
1.0
176
     1
 90
        1
176
     1
 90
        6
176
     1
 90
        2
176
     1
 62
     7
176
     1
 90
        3
176
     1
 90
        0
176
     1
 90
        0
176
     1
290
     0
176
     1
 90
       13
176
     1
 40
0.0
176
     1
 90
        0
176
     1
290
     0
176
     1
290
     1
176
     1
290
     1
176
     1
290
     0
176
     1
290
     0
176
     1
290
     0
176
     1
290
     0
176
     1
290
     0
176
     1
290
     0
176
     1
 90
       50
176
     1
 40
0.0
176
     1
 40
1.0
176
     1
 90
        0
176
     1
 62
    18
420
        0
176
     1
 90
       50
176
     1
 90
        3
176
     1
 62
     5
420
      255
176
     1
290
     0
176
     1
 90
       50
176
     1
 90
       50
176
     1
 90
       50
176
     1
290
     0
176
     1
 90
       50
176
     1
 62
   256
176
     0
 40
1.0
176
     0
 90
        2
176
     1
  1
strokes_ogs.tif
176
     1
290
     0
176
     1
 40
1.0
176
     1
 40
1.0
176
     1
  0
DICTIONARYVAR
  5
246
102
{ACAD_REACTORS
330
245
102
}
330
245
100
DictionaryVariables
280
     0
  1
1:1
  0
DICTIONARYVAR
  5
24B
102
{ACAD_REACTORS
330
245
102
}
330
245
100
DictionaryVariables
280
     0
  1
Standard
  0
DICTIONARYVAR
  5
24A
102
{ACAD_REACTORS
330
245
102
}
330
245
100
DictionaryVariables
280
     0
  1
Standard
  0
DICTIONARY
  5
247
330
6A
100
AcDbDictionary
280
     1
281
     1
  3
ACAD_ROUNDTRIP_2008_TABLESTYLE_CELLSTYLEMAP
360
248
  0
CELLSTYLEMAP
  5
248
102
{ACAD_REACTORS
330
247
102
}
330
247
100
AcDbCellStyleMap
 90
        3
300
CELLSTYLE
  1
TABLEFORMAT_BEGIN
 90
        5
170
     1
 91
        0
 92
    32768
 62
   257
 93
        1
300
CONTENTFORMAT
  1
CONTENTFORMAT_BEGIN
 90
        0
 91
        0
 92
        4
 93
        0
300

 40
0.0
140
1.0
 94
        5
 62
     0
340
11
144
0.25
309
CONTENTFORMAT_END
171
     1
301
MARGIN
  1
CELLMARGIN_BEGIN
 40
0.06
 40
0.06
 40
0.06
 40
0.06
 40
0.06
 40
0.06
309
CELLMARGIN_END
 94
        6
 95
        1
302
GRIDFORMAT
  1
GRIDFORMAT_BEGIN
 90
        0
 91
        1
 62
     0
 92
       -2
340
14
 93
        0
 40
0.045
309
GRIDFORMAT_END
 95
        2
302
GRIDFORMAT
  1
GRIDFORMAT_BEGIN
 90
        0
 91
        1
 62
     0
 92
       -2
340
14
 93
        0
 40
0.045
309
GRIDFORMAT_END
 95
        4
302
GRIDFORMAT
  1
GRIDFORMAT_BEGIN
 90
        0
 91
        1
 62
     0
 92
       -2
340
14
 93
        0
 40
0.045
309
GRIDFORMAT_END
 95
        8
302
GRIDFORMAT
  1
GRIDFORMAT_BEGIN
 90
        0
 91
        1
 62
     0
 92
       -2
340
14
 93
        0
 40
0.045
309
GRIDFORMAT_END
 95
       16
302
GRIDFORMAT
  1
GRIDFORMAT_BEGIN
 90
        0
 91
        1
 62
     0
 92
       -2
340
14
 93
        0
 40
0.045
309
GRIDFORMAT_END
 95
       32
302
GRIDFORMAT
  1
GRIDFORMAT_BEGIN
 90
        0
 91
        1
 62
     0
 92
       -2
340
14
 93
        0
 40
0.045
309
GRIDFORMAT_END
309
TABLEFORMAT_END
  1
CELLSTYLE_BEGIN
 90
        1
 91
        1
300
_TITLE
309
CELLSTYLE_END
300
CELLSTYLE
  1
TABLEFORMAT_BEGIN
 90
        5
170
     1
 91
        0
 92
        0
 62
   257
 93
        1
300
CONTENTFORMAT
  1
CONTENTFORMAT_BEGIN
 90
        0
 91
        0
 92
        4
 93
        0
300

 40
0.0
140
1.0
 94
        5
 62
     0
340
11
144
0.18
309
CONTENTFORMAT_END
171
     1
301
MARGIN
  1
CELLMARGIN_BEGIN
 40
0.06
 40
0.06
 40
0.06
 40
0.06
 40
0.06
 40
0.06
309
CELLMARGIN_END
 94
        6
 95
        1
302
GRIDFORMAT
  1
GRIDFORMAT_BEGIN
 90
        0
 91
        1
 62
     0
 92
       -2
340
14
 93
        0
 40
0.045
309
GRIDFORMAT_END
 95
        2
302
GRIDFORMAT
  1
GRIDFORMAT_BEGIN
 90
        0
 91
        1
 62
     0
 92
       -2
340
14
 93
        0
 40
0.045
309
GRIDFORMAT_END
 95
        4
302
GRIDFORMAT
  1
GRIDFORMAT_BEGIN
 90
        0
 91
        1
 62
     0
 92
       -2
340
14
 93
        0
 40
0.045
309
GRIDFORMAT_END
 95
        8
302
GRIDFORMAT
  1
GRIDFORMAT_BEGIN
 90
        0
 91
        1
 62
     0
 92
       -2
340
14
 93
        0
 40
0.045
309
GRIDFORMAT_END
 95
       16
302
GRIDFORMAT
  1
GRIDFORMAT_BEGIN
 90
        0
 91
        1
 62
     0
 92
       -2
340
14
 93
        0
 40
0.045
309
GRIDFORMAT_END
 95
       32
302
GRIDFORMAT
  1
GRIDFORMAT_BEGIN
 90
        0
 91
        1
 62
     0
 92
       -2
340
14
 93
        0
 40
0.045
309
GRIDFORMAT_END
309
TABLEFORMAT_END
  1
CELLSTYLE_BEGIN
 90
        2
 91
        1
300
_HEADER
309
CELLSTYLE_END
300
CELLSTYLE
  1
TABLEFORMAT_BEGIN
 90
        5
170
     1
 91
        0
 92
        0
 62
   257
 93
        1
300
CONTENTFORMAT
  1
CONTENTFORMAT_BEGIN
 90
        0
 91
        0
 92
        4
 93
        0
300

 40
0.0
140
1.0
 94
        2
 62
     0
340
11
144
0.18
309
CONTENTFORMAT_END
171
     1
301
MARGIN
  1
CELLMARGIN_BEGIN
 40
0.06
 40
0.06
 40
0.06
 40
0.06
 40
0.06
 40
0.06
309
CELLMARGIN_END
 94
        6
 95
        1
302
GRIDFORMAT
  1
GRIDFORMAT_BEGIN
 90
        0
 91
        1
 62
     0
 92
       -2
340
14
 93
        0
 40
0.045
309
GRIDFORMAT_END
 95
        2
302
GRIDFORMAT
  1
GRIDFORMAT_BEGIN
 90
        0
 91
        1
 62
     0
 92
       -2
340
14
 93
        0
 40
0.045
309
GRIDFORMAT_END
 95
        4
302
GRIDFORMAT
  1
GRIDFORMAT_BEGIN
 90
        0
 91
        1
 62
     0
 92
       -2
340
14
 93
        0
 40
0.045
309
GRIDFORMAT_END
 95
        8
302
GRIDFORMAT
  1
GRIDFORMAT_BEGIN
 90
        0
 91
        1
 62
     0
 92
       -2
340
14
 93
        0
 40
0.045
309
GRIDFORMAT_END
 95
       16
302
GRIDFORMAT
  1
GRIDFORMAT_BEGIN
 90
        0
 91
        1
 62
     0
 92
       -2
340
14
 93
        0
 40
0.045
309
GRIDFORMAT_END
 95
       32
302
GRIDFORMAT
  1
GRIDFORMAT_BEGIN
 90
        0
 91
        1
 62
     0
 92
       -2
340
14
 93
        0
 40
0.045
309
GRIDFORMAT_END
309
TABLEFORMAT_END
  1
CELLSTYLE_BEGIN
 90
        3
 91
        2
300
_DATA
309
CELLSTYLE_END
  0
ENDSEC
  0
EOF