0
SECTION
  2
HEADER
  9
$ACADVER
  1
AC1027
  9
$ACADMAINTVER
 70
     8
  9
$DWGCODEPAGE
  3
ANSI_1252
  9
$REQUIREDVERSIONS
160
                 0
  9
$COMMENTS
  1
File was created by Cadenas
  9
$CUSTOMPROPERTYTAG
  1
NN
  9
$CUSTOMPROPERTY
  1
Flange Cartridge Expansion Inch Bore
  9
$CUSTOMPROPERTYTAG
  1
NT
  9
$CUSTOMPROPERTY
  1
Type E Piloted Flange Bearing -Inch
  9
$CUSTOMPROPERTYTAG
  1
NB
  9
$CUSTOMPROPERTY
  1
023143
  9
$CUSTOMPROPERTYTAG
  1
NBSYN
  9
$CUSTOMPROPERTY
  1
$PN.
  9
$CUSTOMPROPERTYTAG
  1
LINA
  9
$CUSTOMPROPERTY
  1
023143
  9
$CUSTOMPROPERTYTAG
  1
SS
  9
$CUSTOMPROPERTY
  1
3-15/16
  9
$CUSTOMPROPERTYTAG
  1
PN
  9
$CUSTOMPROPERTY
  1
023143
  9
$CUSTOMPROPERTYTAG
  1
DESCRIPTION
  9
$CUSTOMPROPERTY
  1
FC-E-315R
  9
$CUSTOMPROPERTYTAG
  1
A
  9
$CUSTOMPROPERTY
  1
6-1/4
  9
$CUSTOMPROPERTYTAG
  1
B
  9
$CUSTOMPROPERTY
  1
10-7/8
  9
$CUSTOMPROPERTYTAG
  1
C
  9
$CUSTOMPROPERTY
  1
4-1/2
  9
$CUSTOMPROPERTYTAG
  1
D
  9
$CUSTOMPROPERTY
  1
9-3/8
  9
$CUSTOMPROPERTYTAG
  1
E
  9
$CUSTOMPROPERTY
  1
1-1/2
  9
$CUSTOMPROPERTYTAG
  1
F
  9
$CUSTOMPROPERTY
  1
3/4
  9
$CUSTOMPROPERTYTAG
  1
G
  9
$CUSTOMPROPERTY
  1
2-11/16
  9
$CUSTOMPROPERTYTAG
  1
H
  9
$CUSTOMPROPERTY
  1
1
  9
$CUSTOMPROPERTYTAG
  1
K
  9
$CUSTOMPROPERTY
  1
8-1/8
  9
$CUSTOMPROPERTYTAG
  1
L
  9
$CUSTOMPROPERTY
  1
6-1/8
  9
$CUSTOMPROPERTYTAG
  1
M
  9
$CUSTOMPROPERTY
  1
1-13/16
  9
$CUSTOMPROPERTYTAG
  1
COMPANY
  9
$CUSTOMPROPERTY
  1
baldor
  9
$INSBASE
 10
0.0
 20
0.0
 30
0.0
  9
$EXTMIN
 10
1.000000000000000E+20
 20
1.000000000000000E+20
 30
1.000000000000000E+20
  9
$EXTMAX
 10
-1.000000000000000E+20
 20
-1.000000000000000E+20
 30
-1.000000000000000E+20
  9
$LIMMIN
 10
0.0
 20
0.0
  9
$LIMMAX
 10
12.0
 20
9.0
  9
$ORTHOMODE
 70
     0
  9
$REGENMODE
 70
     1
  9
$FILLMODE
 70
     1
  9
$QTEXTMODE
 70
     0
  9
$MIRRTEXT
 70
     1
  9
$LTSCALE
 40
1.0
  9
$ATTMODE
 70
     1
  9
$TEXTSIZE
 40
0.2
  9
$TRACEWID
 40
0.05
  9
$TEXTSTYLE
  7
Standard
  9
$CLAYER
  8
0
  9
$CELTYPE
  6
ByLayer
  9
$CECOLOR
 62
   256
  9
$CELTSCALE
 40
1.0
  9
$DISPSILH
 70
     0
  9
$DIMSCALE
 40
1.0
  9
$DIMASZ
 40
0.18
  9
$DIMEXO
 40
0.0625
  9
$DIMDLI
 40
0.38
  9
$DIMRND
 40
0.0
  9
$DIMDLE
 40
0.0
  9
$DIMEXE
 40
0.18
  9
$DIMTP
 40
0.0
  9
$DIMTM
 40
0.0
  9
$DIMTXT
 40
0.18
  9
$DIMCEN
 40
0.09
  9
$DIMTSZ
 40
0.0
  9
$DIMTOL
 70
     0
  9
$DIMLIM
 70
     0
  9
$DIMTIH
 70
     1
  9
$DIMTOH
 70
     1
  9
$DIMSE1
 70
     0
  9
$DIMSE2
 70
     0
  9
$DIMTAD
 70
     0
  9
$DIMZIN
 70
     0
  9
$DIMBLK
  1

  9
$DIMASO
 70
     1
  9
$DIMSHO
 70
     1
  9
$DIMPOST
  1

  9
$DIMAPOST
  1

  9
$DIMALT
 70
     0
  9
$DIMALTD
 70
     2
  9
$DIMALTF
 40
25.4
  9
$DIMLFAC
 40
1.0
  9
$DIMTOFL
 70
     0
  9
$DIMTVP
 40
0.0
  9
$DIMTIX
 70
     0
  9
$DIMSOXD
 70
     0
  9
$DIMSAH
 70
     0
  9
$DIMBLK1
  1

  9
$DIMBLK2
  1

  9
$DIMSTYLE
  2
Standard
  9
$DIMCLRD
 70
     0
  9
$DIMCLRE
 70
     0
  9
$DIMCLRT
 70
     0
  9
$DIMTFAC
 40
1.0
  9
$DIMGAP
 40
0.09
  9
$DIMJUST
 70
     0
  9
$DIMSD1
 70
     0
  9
$DIMSD2
 70
     0
  9
$DIMTOLJ
 70
     1
  9
$DIMTZIN
 70
     0
  9
$DIMALTZ
 70
     0
  9
$DIMALTTZ
 70
     0
  9
$DIMUPT
 70
     0
  9
$DIMDEC
 70
     4
  9
$DIMTDEC
 70
     4
  9
$DIMALTU
 70
     2
  9
$DIMALTTD
 70
     2
  9
$DIMTXSTY
  7
Standard
  9
$DIMAUNIT
 70
     0
  9
$DIMADEC
 70
     0
  9
$DIMALTRND
 40
0.0
  9
$DIMAZIN
 70
     0
  9
$DIMDSEP
 70
    46
  9
$DIMATFIT
 70
     3
  9
$DIMFRAC
 70
     0
  9
$DIMLDRBLK
  1

  9
$DIMLUNIT
 70
     2
  9
$DIMLWD
 70
    -2
  9
$DIMLWE
 70
    -2
  9
$DIMTMOVE
 70
     0
  9
$DIMFXL
 40
1.0
  9
$DIMFXLON
 70
     0
  9
$DIMJOGANG
 40
0.7853981633974483
  9
$DIMTFILL
 70
     0
  9
$DIMTFILLCLR
 70
     0
  9
$DIMARCSYM
 70
     0
  9
$DIMLTYPE
  6

  9
$DIMLTEX1
  6

  9
$DIMLTEX2
  6

  9
$DIMTXTDIRECTION
 70
     0
  9
$LUNITS
 70
     2
  9
$LUPREC
 70
     4
  9
$SKETCHINC
 40
0.1
  9
$FILLETRAD
 40
0.5
  9
$AUNITS
 70
     0
  9
$AUPREC
 70
     0
  9
$MENU
  1
.
  9
$ELEVATION
 40
0.0
  9
$PELEVATION
 40
0.0
  9
$THICKNESS
 40
0.0
  9
$LIMCHECK
 70
     0
  9
$CHAMFERA
 40
0.0
  9
$CHAMFERB
 40
0.0
  9
$CHAMFERC
 40
0.0
  9
$CHAMFERD
 40
0.0
  9
$SKPOLY
 70
     0
  9
$TDCREATE
 40
2458168.979389491
  9
$TDUCREATE
 40
2458168.937722824
  9
$TDUPDATE
 40
2458168.979389491
  9
$TDUUPDATE
 40
2458168.937722824
  9
$TDINDWG
 40
0.0000000116
  9
$TDUSRTIMER
 40
0.0000000116
  9
$USRTIMER
 70
     1
  9
$ANGBASE
 50
0.0
  9
$ANGDIR
 70
     0
  9
$PDMODE
 70
     0
  9
$PDSIZE
 40
0.0
  9
$PLINEWID
 40
0.0
  9
$SPLFRAME
 70
     0
  9
$SPLINETYPE
 70
     6
  9
$SPLINESEGS
 70
     8
  9
$HANDSEED
  5
1D9
  9
$SURFTAB1
 70
     6
  9
$SURFTAB2
 70
     6
  9
$SURFTYPE
 70
     6
  9
$SURFU
 70
     6
  9
$SURFV
 70
     6
  9
$UCSBASE
  2

  9
$UCSNAME
  2

  9
$UCSORG
 10
0.0
 20
0.0
 30
0.0
  9
$UCSXDIR
 10
1.0
 20
0.0
 30
0.0
  9
$UCSYDIR
 10
0.0
 20
1.0
 30
0.0
  9
$UCSORTHOREF
  2

  9
$UCSORTHOVIEW
 70
     0
  9
$UCSORGTOP
 10
0.0
 20
0.0
 30
0.0
  9
$UCSORGBOTTOM
 10
0.0
 20
0.0
 30
0.0
  9
$UCSORGLEFT
 10
0.0
 20
0.0
 30
0.0
  9
$UCSORGRIGHT
 10
0.0
 20
0.0
 30
0.0
  9
$UCSORGFRONT
 10
0.0
 20
0.0
 30
0.0
  9
$UCSORGBACK
 10
0.0
 20
0.0
 30
0.0
  9
$PUCSBASE
  2

  9
$PUCSNAME
  2

  9
$PUCSORG
 10
0.0
 20
0.0
 30
0.0
  9
$PUCSXDIR
 10
1.0
 20
0.0
 30
0.0
  9
$PUCSYDIR
 10
0.0
 20
1.0
 30
0.0
  9
$PUCSORTHOREF
  2

  9
$PUCSORTHOVIEW
 70
     0
  9
$PUCSORGTOP
 10
0.0
 20
0.0
 30
0.0
  9
$PUCSORGBOTTOM
 10
0.0
 20
0.0
 30
0.0
  9
$PUCSORGLEFT
 10
0.0
 20
0.0
 30
0.0
  9
$PUCSORGRIGHT
 10
0.0
 20
0.0
 30
0.0
  9
$PUCSORGFRONT
 10
0.0
 20
0.0
 30
0.0
  9
$PUCSORGBACK
 10
0.0
 20
0.0
 30
0.0
  9
$USERI1
 70
     0
  9
$USERI2
 70
     0
  9
$USERI3
 70
     0
  9
$USERI4
 70
     0
  9
$USERI5
 70
     0
  9
$USERR1
 40
0.0
  9
$USERR2
 40
0.0
  9
$USERR3
 40
0.0
  9
$USERR4
 40
0.0
  9
$USERR5
 40
0.0
  9
$WORLDVIEW
 70
     1
  9
$SHADEDGE
 70
     3
  9
$SHADEDIF
 70
    70
  9
$TILEMODE
 70
     1
  9
$MAXACTVP
 70
    64
  9
$PINSBASE
 10
0.0
 20
0.0
 30
0.0
  9
$PLIMCHECK
 70
     0
  9
$PEXTMIN
 10
1.000000000000000E+20
 20
1.000000000000000E+20
 30
1.000000000000000E+20
  9
$PEXTMAX
 10
-1.000000000000000E+20
 20
-1.000000000000000E+20
 30
-1.000000000000000E+20
  9
$PLIMMIN
 10
0.0
 20
0.0
  9
$PLIMMAX
 10
12.0
 20
9.0
  9
$UNITMODE
 70
     0
  9
$VISRETAIN
 70
     1
  9
$PLINEGEN
 70
     0
  9
$PSLTSCALE
 70
     1
  9
$TREEDEPTH
 70
  3020
  9
$CMLSTYLE
  2
Standard
  9
$CMLJUST
 70
     0
  9
$CMLSCALE
 40
1.0
  9
$PROXYGRAPHICS
 70
     1
  9
$MEASUREMENT
 70
     0
  9
$CELWEIGHT
370
    -1
  9
$ENDCAPS
280
     0
  9
$JOINSTYLE
280
     0
  9
$LWDISPLAY
290
     0
  9
$INSUNITS
 70
     1
  9
$HYPERLINKBASE
  1

  9
$STYLESHEET
  1

  9
$XEDIT
290
     1
  9
$CEPSNTYPE
380
     0
  9
$PSTYLEMODE
290
     1
  9
$FINGERPRINTGUID
  2
{C62C5A09-D103-4E98-A76C-FE3A43187C4A}
  9
$VERSIONGUID
  2
{FAEB1C32-E019-11D5-929B-00C0DF256EC4}
  9
$EXTNAMES
290
     1
  9
$PSVPSCALE
 40
0.0
  9
$OLESTARTUP
290
     0
  9
$SORTENTS
280
   127
  9
$INDEXCTL
280
     0
  9
$HIDETEXT
280
     1
  9
$XCLIPFRAME
280
     2
  9
$HALOGAP
280
     0
  9
$OBSCOLOR
 70
   257
  9
$OBSLTYPE
280
     0
  9
$INTERSECTIONDISPLAY
280
     0
  9
$INTERSECTIONCOLOR
 70
   257
  9
$DIMASSOC
280
     2
  9
$PROJECTNAME
  1

  9
$CAMERADISPLAY
290
     0
  9
$LENSLENGTH
 40
50.0
  9
$CAMERAHEIGHT
 40
0.0
  9
$STEPSPERSEC
 40
2.0
  9
$STEPSIZE
 40
6.0
  9
$3DDWFPREC
 40
2.0
  9
$PSOLWIDTH
 40
0.25
  9
$PSOLHEIGHT
 40
4.0
  9
$LOFTANG1
 40
1.570796326794897
  9
$LOFTANG2
 40
1.570796326794897
  9
$LOFTMAG1
 40
0.0
  9
$LOFTMAG2
 40
0.0
  9
$LOFTPARAM
 70
     7
  9
$LOFTNORMALS
280
     1
  9
$LATITUDE
 40
37.795
  9
$LONGITUDE
 40
-122.394
  9
$NORTHDIRECTION
 40
0.0
  9
$TIMEZONE
 70
 -8000
  9
$LIGHTGLYPHDISPLAY
280
     1
  9
$TILEMODELIGHTSYNCH
280
     1
  9
$CMATERIAL
347
44
  9
$SOLIDHIST
280
     0
  9
$SHOWHIST
280
     1
  9
$DWFFRAME
280
     2
  9
$DGNFRAME
280
     2
  9
$REALWORLDSCALE
290
     1
  9
$INTERFERECOLOR
 62
   256
  9
$CSHADOW
280
     0
  9
$SHADOWPLANELOCATION
 40
0.0
  0
ENDSEC
  0
SECTION
  2
CLASSES
  0
CLASS
  1
ACDBDICTIONARYWDFLT
  2
AcDbDictionaryWithDefault
  3
ObjectDBX Classes
 90
        0
 91
        4
280
     0
281
     0
  0
CLASS
  1
VISUALSTYLE
  2
AcDbVisualStyle
  3
ObjectDBX Classes
 90
     4095
 91
        4
280
     0
281
     0
  0
CLASS
  1
MATERIAL
  2
AcDbMaterial
  3
ObjectDBX Classes
 90
     1153
 91
        4
280
     0
281
     0
  0
CLASS
  1
SCALE
  2
AcDbScale
  3
ObjectDBX Classes
 90
     1153
 91
        4
280
     0
281
     0
  0
CLASS
  1
TABLESTYLE
  2
AcDbTableStyle
  3
ObjectDBX Classes
 90
     4095
 91
        4
280
     0
281
     0
  0
CLASS
  1
MLEADERSTYLE
  2
AcDbMLeaderStyle
  3
ACDB_MLEADERSTYLE_CLASS
 90
     4095
 91
        4
280
     0
281
     0
  0
CLASS
  1
SUN
  2
AcDbSun
  3
SCENEOE
 90
     1153
 91
        4
280
     0
281
     0
  0
CLASS
  1
DICTIONARYVAR
  2
AcDbDictionaryVar
  3
ObjectDBX Classes
 90
        0
 91
        4
280
     0
281
     0
  0
CLASS
  1
CELLSTYLEMAP
  2
AcDbCellStyleMap
  3
ObjectDBX Classes
 90
     1152
 91
        4
280
     0
281
     0
  0
ENDSEC
  0
SECTION
  2
TABLES
  0
TABLE
  2
VPORT
  5
8
330
0
100
AcDbSymbolTable
 70
     1
  0
VPORT
  5
29
330
8
100
AcDbSymbolTableRecord
100
AcDbViewportTableRecord
  2
*Active
 70
     0
 10
0.0
 20
0.0
 11
1.0
 21
1.0
 12
0.0
 22
0.0437500000000011
 13
0.0
 23
0.0
 14
0.5
 24
0.5
 15
0.5
 25
0.5
 16
0.0
 26
0.0
 36
1.0
 17
0.0
 27
0.0
 37
0.0
 40
10.00875
 41
1.10828025477707
 42
50.0
 43
0.0
 44
0.0
 50
0.0
 51
0.0
 71
     0
 72
   100
 73
     1
 74
     3
 75
     0
 76
     0
 77
     0
 78
     0
281
     0
 65
     1
110
0.0
120
0.0
130
0.0
111
1.0
121
0.0
131
0.0
112
0.0
122
1.0
132
0.0
 79
     0
146
0.0
348
2F
 60
     3
 61
     5
292
     1
282
     1
141
0.0
142
0.0
 63
   250
361
6D
  0
ENDTAB
  0
TABLE
  2
LTYPE
  5
5
330
0
100
AcDbSymbolTable
 70
     3
  0
LTYPE
  5
14
330
5
100
AcDbSymbolTableRecord
100
AcDbLinetypeTableRecord
  2
ByBlock
 70
     0
  3

 72
    65
 73
     0
 40
0.0
  0
LTYPE
  5
15
330
5
100
AcDbSymbolTableRecord
100
AcDbLinetypeTableRecord
  2
ByLayer
 70
     0
  3

 72
    65
 73
     0
 40
0.0
  0
LTYPE
  5
16
330
5
100
AcDbSymbolTableRecord
100
AcDbLinetypeTableRecord
  2
Continuous
 70
     0
  3
Solid line
 72
    65
 73
     0
 40
0.0
  0
LTYPE
  5
93
330
5
100
AcDbSymbolTableRecord
100
AcDbLinetypeTableRecord
  2
Dashed
 70
     0
  3

 72
    65
 73
     2
 40
2.0
 49
1.0
 74
     0
 49
-1.0
 74
     0
  0
LTYPE
  5
FA
330
5
100
AcDbSymbolTableRecord
100
AcDbLinetypeTableRecord
  2
Center
 70
     0
  3

 72
    65
 73
     4
 40
1.5
 49
0.45
 74
     0
 49
-0.5
 74
     0
 49
0.05
 74
     0
 49
-0.5
 74
     0
  0
ENDTAB
  0
TABLE
  2
LAYER
  5
2
330
0
100
AcDbSymbolTable
 70
     7
  0
LAYER
  5
10
330
2
100
AcDbSymbolTableRecord
100
AcDbLayerTableRecord
  2
0
 70
     0
 62
     7
  6
Continuous
370
    -3
390
F
347
46
348
0
  0
LAYER
  5
72
330
2
100
AcDbSymbolTableRecord
100
AcDbLayerTableRecord
  2
AM_6
 70
     0
 62
    -2
  6
Continuous
370
    35
390
F
347
46
348
0
  0
LAYER
  5
94
330
2
100
AcDbSymbolTableRecord
100
AcDbLayerTableRecord
  2
AM_9
 70
     0
 62
     6
  6
Dashed
370
    25
390
F
347
46
348
0
  0
LAYER
  5
BA
330
2
100
AcDbSymbolTableRecord
100
AcDbLayerTableRecord
  2
AM_4
 70
     0
 62
     7
  6
Continuous
370
    50
390
F
347
46
348
0
  0
LAYER
  5
FB
330
2
100
AcDbSymbolTableRecord
100
AcDbLayerTableRecord
  2
AM_7
 70
     0
 62
     7
  6
Center
370
    25
390
F
347
46
348
0
  0
LAYER
  5
109
330
2
100
AcDbSymbolTableRecord
100
AcDbLayerTableRecord
  2
AM_5
 70
     0
 62
     3
  6
Continuous
370
    25
390
F
347
46
348
0
  0
LAYER
  5
1C7
330
2
100
AcDbSymbolTableRecord
100
AcDbLayerTableRecord
  2
ConnectionPoints
 70
     0
 62
     7
  6
Continuous
370
    50
390
F
347
46
348
0
  0
ENDTAB
  0
TABLE
  2
STYLE
  5
3
330
0
100
AcDbSymbolTable
 70
     1
  0
STYLE
  5
11
330
3
100
AcDbSymbolTableRecord
100
AcDbTextStyleTableRecord
  2
Standard
 70
     0
 40
0.0
 41
1.0
 50
0.0
 71
     0
 42
0.2
  3
txt
  4

  0
ENDTAB
  0
TABLE
  2
VIEW
  5
6
330
0
100
AcDbSymbolTable
 70
     0
  0
ENDTAB
  0
TABLE
  2
UCS
  5
7
330
0
100
AcDbSymbolTable
 70
     0
  0
ENDTAB
  0
TABLE
  2
APPID
  5
9
330
0
100
AcDbSymbolTable
 70
     1
  0
APPID
  5
12
330
9
100
AcDbSymbolTableRecord
100
AcDbRegAppTableRecord
  2
ACAD
 70
     0
  0
ENDTAB
  0
TABLE
  2
DIMSTYLE
  5
A
330
0
100
AcDbSymbolTable
 70
     1
100
AcDbDimStyleTable
  0
DIMSTYLE
105
27
330
A
100
AcDbSymbolTableRecord
100
AcDbDimStyleTableRecord
  2
Standard
 70
     0
178
     0
340
11
  0
ENDTAB
  0
TABLE
  2
BLOCK_RECORD
  5
1
330
0
100
AcDbSymbolTable
 70
     7
  0
BLOCK_RECORD
  5
1F
330
1
100
AcDbSymbolTableRecord
100
AcDbBlockTableRecord
  2
*Model_Space
340
22
 70
     0
280
     1
281
     0
  0
BLOCK_RECORD
  5
1B
330
1
100
AcDbSymbolTableRecord
100
AcDbBlockTableRecord
  2
*Paper_Space
340
1E
 70
     0
280
     1
281
     0
  0
BLOCK_RECORD
  5
23
330
1
100
AcDbSymbolTableRecord
100
AcDbBlockTableRecord
  2
*Paper_Space0
340
26
 70
     0
280
     1
281
     0
  0
BLOCK_RECORD
  5
6E
330
1
100
AcDbSymbolTableRecord
100
AcDbBlockTableRecord
  2
1_023143_4
340
0
102
{BLKREFS
331
6F
102
}
 70
     0
280
     1
281
     0
  0
BLOCK_RECORD
  5
87
330
1
100
AcDbSymbolTableRecord
100
AcDbBlockTableRecord
  2
2_405015E_Inch_0_in_023143_4
340
0
102
{BLKREFS
331
88
102
}
 70
     0
280
     1
281
     0
  0
BLOCK_RECORD
  5
D2
330
1
100
AcDbSymbolTableRecord
100
AcDbBlockTableRecord
  2
3_3_15_16C_1_0_in_023143_4
340
0
102
{BLKREFS
331
D3
102
}
 70
     0
280
     1
281
     0
  0
BLOCK_RECORD
  5
10C
330
1
100
AcDbSymbolTableRecord
100
AcDbBlockTableRecord
  2
4_3_15_16C_2_0_in_023143_4
340
0
102
{BLKREFS
331
10D
102
}
 70
     0
280
     1
281
     0
  0
BLOCK_RECORD
  5
140
330
1
100
AcDbSymbolTableRecord
100
AcDbBlockTableRecord
  2
5_3_15_16I_0_in_023143_4
340
0
102
{BLKREFS
331
141
102
}
 70
     0
280
     1
281
     0
  0
BLOCK_RECORD
  5
173
330
1
100
AcDbSymbolTableRecord
100
AcDbBlockTableRecord
  2
6_023143H_0_in_023143_4
340
0
102
{BLKREFS
331
174
102
}
 70
     0
280
     1
281
     0
  0
ENDTAB
  0
ENDSEC
  0
SECTION
  2
BLOCKS
  0
BLOCK
  5
20
330
1F
100
AcDbEntity
  8
0
100
AcDbBlockBegin
  2
*Model_Space
 70
     0
 10
0.0
 20
0.0
 30
0.0
  3
*Model_Space
  1

  0
ENDBLK
  5
21
330
1F
100
AcDbEntity
  8
0
100
AcDbBlockEnd
  0
BLOCK
  5
1C
330
1B
100
AcDbEntity
 67
     1
  8
0
100
AcDbBlockBegin
  2
*Paper_Space
 70
     0
 10
0.0
 20
0.0
 30
0.0
  3
*Paper_Space
  1

  0
ENDBLK
  5
1D
330
1B
100
AcDbEntity
 67
     1
  8
0
100
AcDbBlockEnd
  0
BLOCK
  5
24
330
23
100
AcDbEntity
  8
0
100
AcDbBlockBegin
  2
*Paper_Space0
 70
     0
 10
0.0
 20
0.0
 30
0.0
  3
*Paper_Space0
  1

  0
ENDBLK
  5
25
330
23
100
AcDbEntity
  8
0
100
AcDbBlockEnd
  0
BLOCK
  5
70
330
6E
100
AcDbEntity
  8
0
100
AcDbBlockBegin
  2
1_023143_4
 70
     2
 10
0.0
 20
0.0
 30
0.0
  3
1_023143_4
  1

  0
ATTDEF
  5
73
330
6E
100
AcDbEntity
  8
AM_6
100
AcDbText
 10
10.4375
 20
4.95
 30
0.0
 40
0.5
  1
Flange Cartridge Expansion Inch Bore
100
AcDbAttributeDefinition
  3

  2
NN
 70
     8
280
     0
  0
ATTDEF
  5
74
330
6E
100
AcDbEntity
  8
AM_6
100
AcDbText
 10
10.4375
 20
4.45
 30
0.0
 40
0.5
  1
Type E Piloted Flange Bearing -Inch
100
AcDbAttributeDefinition
  3

  2
NT
 70
     8
280
     0
  0
ATTDEF
  5
75
330
6E
100
AcDbEntity
  8
AM_6
100
AcDbText
 10
10.4375
 20
3.95
 30
0.0
 40
0.5
  1
023143
100
AcDbAttributeDefinition
  3

  2
NB
 70
     8
280
     0
  0
ATTDEF
  5
76
330
6E
100
AcDbEntity
  8
AM_6
100
AcDbText
 10
10.4375
 20
3.45
 30
0.0
 40
0.5
  1
$PN.
100
AcDbAttributeDefinition
  3

  2
NBSYN
 70
     8
280
     0
  0
ATTDEF
  5
77
330
6E
100
AcDbEntity
  8
AM_6
100
AcDbText
 10
10.4375
 20
2.95
 30
0.0
 40
0.5
  1
023143
100
AcDbAttributeDefinition
  3

  2
LINA
 70
     8
280
     0
  0
ATTDEF
  5
78
330
6E
100
AcDbEntity
  8
AM_6
100
AcDbText
 10
10.4375
 20
2.45
 30
0.0
 40
0.5
  1
3-15/16
100
AcDbAttributeDefinition
  3

  2
SS
 70
     8
280
     0
  0
ATTDEF
  5
79
330
6E
100
AcDbEntity
  8
AM_6
100
AcDbText
 10
10.4375
 20
1.95
 30
0.0
 40
0.5
  1
023143
100
AcDbAttributeDefinition
  3

  2
PN
 70
     8
280
     0
  0
ATTDEF
  5
7A
330
6E
100
AcDbEntity
  8
AM_6
100
AcDbText
 10
10.4375
 20
1.45
 30
0.0
 40
0.5
  1
FC-E-315R
100
AcDbAttributeDefinition
  3

  2
DESCRIPTION
 70
     8
280
     0
  0
ATTDEF
  5
7B
330
6E
100
AcDbEntity
  8
AM_6
100
AcDbText
 10
10.4375
 20
0.9500000000000002
 30
0.0
 40
0.5
  1
6-1/4
100
AcDbAttributeDefinition
  3

  2
A
 70
     8
280
     0
  0
ATTDEF
  5
7C
330
6E
100
AcDbEntity
  8
AM_6
100
AcDbText
 10
10.4375
 20
0.4500000000000002
 30
0.0
 40
0.5
  1
10-7/8
100
AcDbAttributeDefinition
  3

  2
B
 70
     8
280
     0
  0
ATTDEF
  5
7D
330
6E
100
AcDbEntity
  8
AM_6
100
AcDbText
 10
10.4375
 20
-0.0499999999999998
 30
0.0
 40
0.5
  1
4-1/2
100
AcDbAttributeDefinition
  3

  2
C
 70
     8
280
     0
  0
ATTDEF
  5
7E
330
6E
100
AcDbEntity
  8
AM_6
100
AcDbText
 10
10.4375
 20
-0.5499999999999998
 30
0.0
 40
0.5
  1
9-3/8
100
AcDbAttributeDefinition
  3

  2
D
 70
     8
280
     0
  0
ATTDEF
  5
7F
330
6E
100
AcDbEntity
  8
AM_6
100
AcDbText
 10
10.4375
 20
-1.05
 30
0.0
 40
0.5
  1
1-1/2
100
AcDbAttributeDefinition
  3

  2
E
 70
     8
280
     0
  0
ATTDEF
  5
80
330
6E
100
AcDbEntity
  8
AM_6
100
AcDbText
 10
10.4375
 20
-1.55
 30
0.0
 40
0.5
  1
3/4
100
AcDbAttributeDefinition
  3

  2
F
 70
     8
280
     0
  0
ATTDEF
  5
81
330
6E
100
AcDbEntity
  8
AM_6
100
AcDbText
 10
10.4375
 20
-2.05
 30
0.0
 40
0.5
  1
2-11/16
100
AcDbAttributeDefinition
  3

  2
G
 70
     8
280
     0
  0
ATTDEF
  5
82
330
6E
100
AcDbEntity
  8
AM_6
100
AcDbText
 10
10.4375
 20
-2.55
 30
0.0
 40
0.5
  1
1
100
AcDbAttributeDefinition
  3

  2
H
 70
     8
280
     0
  0
ATTDEF
  5
83
330
6E
100
AcDbEntity
  8
AM_6
100
AcDbText
 10
10.4375
 20
-3.05
 30
0.0
 40
0.5
  1
8-1/8
100
AcDbAttributeDefinition
  3

  2
K
 70
     8
280
     0
  0
ATTDEF
  5
84
330
6E
100
AcDbEntity
  8
AM_6
100
AcDbText
 10
10.4375
 20
-3.55
 30
0.0
 40
0.5
  1
6-1/8
100
AcDbAttributeDefinition
  3

  2
L
 70
     8
280
     0
  0
ATTDEF
  5
85
330
6E
100
AcDbEntity
  8
AM_6
100
AcDbText
 10
10.4375
 20
-4.05
 30
0.0
 40
0.5
  1
1-13/16
100
AcDbAttributeDefinition
  3

  2
M
 70
     8
280
     0
  0
ATTDEF
  5
86
330
6E
100
AcDbEntity
  8
AM_6
100
AcDbText
 10
10.4375
 20
-4.55
 30
0.0
 40
0.5
  1
baldor
100
AcDbAttributeDefinition
  3

  2
COMPANY
 70
     8
280
     0
  0
INSERT
  5
88
330
6E
100
AcDbEntity
  8
0
100
AcDbBlockReference
  2
2_405015E_Inch_0_in_023143_4
 10
0.0
 20
0.0
 30
0.0
  0
INSERT
  5
D3
330
6E
100
AcDbEntity
  8
0
100
AcDbBlockReference
  2
3_3_15_16C_1_0_in_023143_4
 10
0.0
 20
0.0
 30
0.0
  0
INSERT
  5
10D
330
6E
100
AcDbEntity
  8
0
100
AcDbBlockReference
  2
4_3_15_16C_2_0_in_023143_4
 10
0.0
 20
0.0
 30
0.0
  0
INSERT
  5
141
330
6E
100
AcDbEntity
  8
0
100
AcDbBlockReference
  2
5_3_15_16I_0_in_023143_4
 10
0.0
 20
0.0
 30
0.0
  0
INSERT
  5
174
330
6E
100
AcDbEntity
  8
0
100
AcDbBlockReference
  2
6_023143H_0_in_023143_4
 10
0.0
 20
0.0
 30
0.0
  0
ENDBLK
  5
71
330
6E
100
AcDbEntity
  8
0
100
AcDbBlockEnd
  0
BLOCK
  5
89
330
87
100
AcDbEntity
  8
0
100
AcDbBlockBegin
  2
2_405015E_Inch_0_in_023143_4
 70
     2
 10
0.0
 20
0.0
 30
0.0
  3
2_405015E_Inch_0_in_023143_4
  1

  0
ATTDEF
  5
8B
330
87
100
AcDbEntity
  8
AM_6
100
AcDbText
 10
5.218750000000002
 20
-1.04188408394322
 30
0.0
 40
0.5
  1
405015E -Inch
100
AcDbAttributeDefinition
  3

  2
NN
 70
     8
280
     0
  0
ATTDEF
  5
8C
330
87
100
AcDbEntity
  8
AM_6
100
AcDbText
 10
5.218750000000002
 20
-1.54188408394322
 30
0.0
 40
0.5
  1
Grease Fitting
100
AcDbAttributeDefinition
  3

  2
NT
 70
     8
280
     0
  0
ATTDEF
  5
8D
330
87
100
AcDbEntity
  8
AM_6
100
AcDbText
 10
5.218750000000002
 20
-2.04188408394322
 30
0.0
 40
0.5
  1
405015E-Inch
100
AcDbAttributeDefinition
  3

  2
NB
 70
     8
280
     0
  0
ATTDEF
  5
8E
330
87
100
AcDbEntity
  8
AM_6
100
AcDbText
 10
5.218750000000002
 20
-2.54188408394322
 30
0.0
 40
0.5
  1
$MN.-Inch
100
AcDbAttributeDefinition
  3

  2
NBSYN
 70
     8
280
     0
  0
ATTDEF
  5
8F
330
87
100
AcDbEntity
  8
AM_6
100
AcDbText
 10
5.218750000000002
 20
-3.04188408394322
 30
0.0
 40
0.5
  1
405015E
100
AcDbAttributeDefinition
  3

  2
LINA
 70
     8
280
     0
  0
ATTDEF
  5
90
330
87
100
AcDbEntity
  8
AM_6
100
AcDbText
 10
5.218750000000002
 20
-3.54188408394322
 30
0.0
 40
0.5
  1
405015E
100
AcDbAttributeDefinition
  3

  2
MN
 70
     8
280
     0
  0
ATTDEF
  5
91
330
87
100
AcDbEntity
  8
AM_6
100
AcDbText
 10
5.218750000000002
 20
-4.04188408394322
 30
0.0
 40
0.5
  1
1/8 x 27PTF
100
AcDbAttributeDefinition
  3

  2
T
 70
     8
280
     0
  0
ATTDEF
  5
92
330
87
100
AcDbEntity
  8
AM_6
100
AcDbText
 10
5.218750000000002
 20
-4.54188408394322
 30
0.0
 40
0.5
  1
baldor
100
AcDbAttributeDefinition
  3

  2
COMPANY
 70
     8
280
     0
  0
LWPOLYLINE
  5
95
330
87
100
AcDbEntity
  8
AM_9
100
AcDbPolyline
 90
        3
 70
     0
 43
0.0
 10
-0.0000000000000001
 20
-1.528770388288879
 10
-0.0544416102741496
 20
-1.501840259695017
 10
-0.109375
 20
-1.477706470284833
  0
LWPOLYLINE
  5
96
330
87
100
AcDbEntity
  8
AM_9
100
AcDbPolyline
 90
        4
 70
     0
 43
0.0
 10
0.109375
 20
-1.477706470284833
 10
0.0674595297570976
 20
-1.495820756151318
 10
0.0255440595141952
 20
-1.51580695949477
 10
-0.0000000000000001
 20
-1.528770388288879
  0
ELLIPSE
  5
97
330
87
100
AcDbEntity
  8
AM_9
100
AcDbEllipse
 10
0.0
 20
-1.156366702961943
 30
0.0
 11
0.161902872472269
 21
0.0
 31
0.0
210
0.0
220
0.0
230
1.0
 40
0.7071067811865478
 41
0.0
 42
6.283185307179586
  0
LINE
  5
98
330
87
100
AcDbEntity
  8
AM_9
100
AcDbLine
 10
-0.0000000000000001
 20
-1.586657543938412
 30
0.0
 11
-0.0000000000000001
 21
-1.528770388288879
 31
0.0
  0
LWPOLYLINE
  5
99
330
87
100
AcDbEntity
  8
AM_9
100
AcDbPolyline
 90
        3
 70
     0
 43
0.0
 10
0.21875
 20
-1.439466074749909
 10
0.1643083897258504
 20
-1.45698733480509
 10
0.109375
 20
-1.477706470284833
  0
LINE
  5
9A
330
87
100
AcDbEntity
  8
AM_9
100
AcDbLine
 10
-0.0118057880304214
 20
-1.583075591893917
 30
0.0
 11
-0.0000000000000001
 21
-1.586657543938412
 31
0.0
  0
LINE
  5
9B
330
87
100
AcDbEntity
  8
AM_9
100
AcDbLine
 10
-0.109375
 20
-1.548417148403488
 30
0.0
 11
-0.0701018521399425
 21
-1.5635690984695
 31
0.0
  0
LINE
  5
9C
330
87
100
AcDbEntity
  8
AM_9
100
AcDbLine
 10
0.069930642254654
 20
-1.563631375193007
 30
0.0
 11
0.109375
 21
-1.548417148403488
 31
0.0
  0
LINE
  5
9D
330
87
100
AcDbEntity
  8
AM_9
100
AcDbLine
 10
-0.0000000000000001
 20
-1.586657543938412
 30
0.0
 11
0.0133776677143493
 21
-1.582590329019468
 31
0.0
  0
LWPOLYLINE
  5
9E
330
87
100
AcDbEntity
  8
AM_9
100
AcDbPolyline
 90
        3
 70
     0
 43
0.0
 10
-0.109375
 20
-1.477706470284833
 10
-0.1640625
 20
-1.45707276768315
 10
-0.2187499999999999
 20
-1.439466074749909
  0
LINE
  5
9F
330
87
100
AcDbEntity
  8
AM_9
100
AcDbLine
 10
-0.1312003611252502
 20
-1.539232832796039
 30
0.0
 11
-0.109375
 21
-1.548417148403488
 31
0.0
  0
LINE
  5
A0
330
87
100
AcDbEntity
  8
AM_9
100
AcDbLine
 10
0.109375
 20
-1.548417148403488
 30
0.0
 11
0.1314394328888579
 21
-1.539129213558013
 31
0.0
  0
LINE
  5
A1
330
87
100
AcDbEntity
  8
AM_9
100
AcDbLine
 10
-0.1985206121313388
 20
-1.17793886441037
 30
0.0
 11
-0.2056513978434625
 21
-1.339203255211028
 31
0.0
  0
LINE
  5
A2
330
87
100
AcDbEntity
  8
AM_9
100
AcDbLine
 10
0.2056513978434626
 20
-1.339203255211028
 30
0.0
 11
0.1985206121313388
 21
-1.17793886441037
 31
0.0
  0
LINE
  5
A3
330
87
100
AcDbEntity
  8
AM_9
100
AcDbLine
 10
-0.21875
 20
-1.263656446692549
 30
0.0
 11
-0.21875
 21
-1.260857447671969
 31
0.0
  0
LWPOLYLINE
  5
A4
330
87
100
AcDbEntity
  8
AM_9
100
AcDbPolyline
 90
        3
 70
     0
 43
0.0
 10
-0.109375
 20
-1.209793529667923
 10
-0.0546875
 20
-1.18915982706624
 10
0.0000000000000001
 20
-1.171553134132999
  0
LWPOLYLINE
  5
A5
330
87
100
AcDbEntity
  8
AM_9
100
AcDbPolyline
 90
        4
 70
     0
 43
0.0
 10
-0.21875
 20
-1.260857447671969
 10
-0.1932059404858048
 20
-1.24789401887786
 10
-0.1514139872822688
 20
-1.227964087178225
 10
-0.109375
 20
-1.209793529667923
  0
LINE
  5
A6
330
87
100
AcDbEntity
  8
AM_9
100
AcDbLine
 10
0.0948683298050514
 20
-1.520526695273015
 30
0.0
 11
0.107354891002899
 21
-1.501912828843949
 31
0.0
  0
LINE
  5
A7
330
87
100
AcDbEntity
  8
AM_9
100
AcDbLine
 10
-0.107354891002899
 20
-1.501912828843949
 30
0.0
 11
-0.0948683298050514
 21
-1.520526695273015
 31
0.0
  0
ELLIPSE
  5
A8
330
87
100
AcDbEntity
  8
AM_9
100
AcDbEllipse
 10
0.0
 20
-1.48870689011962
 30
0.0
 11
-0.1049999999999996
 21
1.285879139104717E-17
 31
0.0
210
0.0
220
0.0
230
1.0
 40
0.7071067811865498
 41
0.0
 42
3.141592653589793
  0
ELLIPSE
  5
A9
330
87
100
AcDbEntity
  8
AM_9
100
AcDbEllipse
 10
0.000000000000036
 20
-1.465904903744226
 30
0.0
 11
-0.118820090734858
 21
1.455126437928420E-17
 31
0.0
210
0.0
220
0.0
230
1.0
 40
0.7071067811858789
 41
0.3762206260987915
 42
2.765372027490776
  0
LINE
  5
AA
330
87
100
AcDbEntity
  8
AM_9
100
AcDbLine
 10
-0.105
 20
-1.490025881002159
 30
0.0
 11
-0.105
 21
-1.509920093555217
 31
0.0
  0
LINE
  5
AB
330
87
100
AcDbEntity
  8
AM_9
100
AcDbLine
 10
0.105
 20
-1.509920093555217
 30
0.0
 11
0.105
 21
-1.490025881002158
 31
0.0
  0
ELLIPSE
  5
AC
330
87
100
AcDbEntity
  8
AM_9
100
AcDbEllipse
 10
0.0
 20
-1.509920093555217
 30
0.0
 11
-0.1049999999999995
 21
1.285879139104715E-17
 31
0.0
210
0.0
220
0.0
230
1.0
 40
0.7071067811865465
 41
5.759586531581287
 42
9.948376736367681
  0
ELLIPSE
  5
AD
330
87
100
AcDbEntity
  8
AM_9
100
AcDbEllipse
 10
0.0
 20
-1.414460678095031
 30
0.0
 11
-0.2187500000000005
 21
2.678914873134841E-17
 31
0.0
210
0.0
220
0.0
230
1.0
 40
0.7071067811865557
 41
0.9156936017146986
 42
2.225899051875095
  0
LINE
  5
AE
330
87
100
AcDbEntity
  8
AM_9
100
AcDbLine
 10
0.0192743186691522
 20
-1.548810617063693
 30
0.0
 11
0.0279874918769157
 21
-1.547797776872702
 31
0.0
  0
LINE
  5
AF
330
87
100
AcDbEntity
  8
AM_9
100
AcDbLine
 10
-0.0279874918769157
 20
-1.547797776872702
 30
0.0
 11
-0.0192743186691523
 21
-1.548810617063693
 31
0.0
  0
ELLIPSE
  5
B0
330
87
100
AcDbEntity
  8
AM_9
100
AcDbEllipse
 10
0.0
 20
-1.427413600502415
 30
0.0
 11
-0.1725340532830231
 21
2.112932760969731E-17
 31
0.0
210
0.0
220
0.0
230
1.0
 40
0.7071067811864993
 41
0.7772913431420596
 42
2.364301310447734
  0
ELLIPSE
  5
B1
330
87
100
AcDbEntity
  8
AM_9
100
AcDbEllipse
 10
0.0
 20
-1.41446067809503
 30
0.0
 11
-0.2137500000000008
 21
2.617682533177477E-17
 31
0.0
210
0.0
220
0.0
230
1.0
 40
0.7071067811865575
 41
0.9036552188403331
 42
2.237937434749461
  0
LINE
  5
B2
330
87
100
AcDbEntity
  8
AM_9
100
AcDbLine
 10
0.0000000000000001
 20
-1.183562893408721
 30
0.0
 11
0.0000000000000001
 21
-1.171553134132999
 31
0.0
  0
LINE
  5
B3
330
87
100
AcDbEntity
  8
AM_9
100
AcDbLine
 10
0.2187499999999999
 20
-1.263656446692549
 30
0.0
 11
0.2187499999999999
 21
-1.260857447671969
 31
0.0
  0
LWPOLYLINE
  5
B4
330
87
100
AcDbEntity
  8
AM_9
100
AcDbPolyline
 90
        3
 70
     0
 43
0.0
 10
0.109375
 20
-1.209793529667923
 10
0.1640625
 20
-1.233811983835725
 10
0.2187499999999999
 20
-1.260857447671969
  0
LWPOLYLINE
  5
B5
330
87
100
AcDbEntity
  8
AM_9
100
AcDbPolyline
 90
        3
 70
     0
 43
0.0
 10
0.0000000000000001
 20
-1.171553134132999
 10
0.0544416102741496
 20
-1.18907439418818
 10
0.109375
 20
-1.209793529667923
  0
ELLIPSE
  5
B6
330
87
100
AcDbEntity
  8
AM_9
100
AcDbEllipse
 10
0.0
 20
-1.552346500426409
 30
0.0
 11
-0.1350000000000004
 21
1.653273178848932E-17
 31
0.0
210
0.0
220
0.0
230
1.0
 40
0.7071067811865525
 41
0.4159140521025524
 42
2.725678601487241
  0
ELLIPSE
  5
B7
330
87
100
AcDbEntity
  8
AM_9
100
AcDbEllipse
 10
0.0
 20
-1.34374999997638
 30
0.0
 11
-0.2187500000000016
 21
3.259629037943347E-9
 31
0.0
210
0.0
220
0.0
230
1.0
 40
0.707106781186551
 41
0.0
 42
6.283185307179586
  0
ELLIPSE
  5
B8
330
87
100
AcDbEntity
  8
AM_9
100
AcDbEllipse
 10
0.0000000000000002
 20
-1.343749999976378
 30
0.0
 11
-0.2057518972230693
 21
2.519734023527270E-17
 31
0.0
210
0.0
220
0.0
230
1.0
 40
0.7071067811865461
 41
0.0
 42
6.283185307179586
  0
ELLIPSE
  5
B9
330
87
100
AcDbEntity
  8
AM_9
100
AcDbEllipse
 10
0.0000000000000001
 20
-1.182327954703397
 30
0.0
 11
-0.1986176267812156
 21
2.432364408918593E-17
 31
0.0
210
0.0
220
0.0
230
1.0
 40
0.7071067811865493
 41
0.0
 42
6.283185307179586
  0
LWPOLYLINE
  5
BB
330
87
100
AcDbEntity
  8
AM_4
100
AcDbPolyline
 90
        3
 70
     0
 43
0.0
 10
-0.2187499999999999
 20
-1.497353230399442
 10
-0.1643083897258504
 20
-1.524283358993304
 10
-0.1312003611252502
 20
-1.539232832796039
  0
LWPOLYLINE
  5
BC
330
87
100
AcDbEntity
  8
AM_4
100
AcDbPolyline
 90
        3
 70
     0
 43
0.0
 10
0.1314394328888579
 20
-1.539129213558013
 10
0.1640625
 20
-1.524398694235686
 10
0.21875
 20
-1.497353230399442
  0
LINE
  5
BD
330
87
100
AcDbEntity
  8
AM_4
100
AcDbLine
 10
-0.2187499999999999
 20
-1.497353230399442
 30
0.0
 11
-0.21875
 21
-1.263656446692549
 31
0.0
  0
LWPOLYLINE
  5
BE
330
87
100
AcDbEntity
  8
AM_4
100
AcDbPolyline
 90
        4
 70
     0
 43
0.0
 10
-0.109375
 20
-1.280504207786578
 10
-0.1512904702429024
 20
-1.2966137600614
 10
-0.1932059404858048
 20
-1.310851394859256
 10
-0.21875
 20
-1.318744603321502
  0
ELLIPSE
  5
BF
330
87
100
AcDbEntity
  8
AM_4
100
AcDbEllipse
 10
0.0000000000000001
 20
-1.465904903744014
 30
0.0
 11
-0.1188200907348975
 21
1.455126437928903E-17
 31
0.0
210
0.0
220
0.0
230
1.0
 40
0.7071067811865469
 41
2.76537202748886
 42
6.659405933280515
  0
ELLIPSE
  5
C0
330
87
100
AcDbEntity
  8
AM_4
100
AcDbEllipse
 10
0.0000000000000001
 20
-1.48870689011962
 30
0.0
 11
-0.1050000000000002
 21
1.285879139104723E-17
 31
0.0
210
0.0
220
0.0
230
1.0
 40
0.7071067811865464
 41
3.141592653589793
 42
6.283185307179586
  0
LINE
  5
C1
330
87
100
AcDbEntity
  8
AM_4
100
AcDbLine
 10
-0.105
 20
-1.48870689011962
 30
0.0
 11
-0.105
 21
-1.490025881002159
 31
0.0
  0
LINE
  5
C2
330
87
100
AcDbEntity
  8
AM_4
100
AcDbLine
 10
0.105
 20
-1.490025881002158
 30
0.0
 11
0.105
 21
-1.48870689011962
 31
0.0
  0
LWPOLYLINE
  5
C3
330
87
100
AcDbEntity
  8
AM_4
100
AcDbPolyline
 90
        3
 70
     0
 43
0.0
 10
0.0000000000000001
 20
-1.229440289782532
 10
-0.0544416102741496
 20
-1.256370418376394
 10
-0.109375
 20
-1.280504207786578
  0
ELLIPSE
  5
C4
330
87
100
AcDbEntity
  8
AM_4
100
AcDbEllipse
 10
0.0
 20
-1.414460678095035
 30
0.0
 11
-0.2187500000000005
 21
2.678914873134841E-17
 31
0.0
210
0.0
220
0.0
230
1.0
 40
0.7071067811865557
 41
2.225899051875111
 42
7.198878908894269
  0
ELLIPSE
  5
C5
330
87
100
AcDbEntity
  8
AM_4
100
AcDbEllipse
 10
0.0000000000000003
 20
-1.427413600502412
 30
0.0
 11
-0.172534053283015
 21
2.112932760969633E-17
 31
0.0
210
0.0
220
0.0
230
1.0
 40
0.7071067811865489
 41
2.364301310447749
 42
7.060476650321627
  0
ELLIPSE
  5
C6
330
87
100
AcDbEntity
  8
AM_4
100
AcDbEllipse
 10
-0.0000000000000003
 20
-1.414460678095032
 30
0.0
 11
-0.2137500000000002
 21
2.617682533177471E-17
 31
0.0
210
0.0
220
0.0
230
1.0
 40
0.7071067811865489
 41
2.237937434749462
 42
7.186840526019919
  0
LINE
  5
C7
330
87
100
AcDbEntity
  8
AM_4
100
AcDbLine
 10
0.0000000000000001
 20
-1.229440289782532
 30
0.0
 11
0.0000000000000001
 21
-1.183562893408721
 31
0.0
  0
LWPOLYLINE
  5
C8
330
87
100
AcDbEntity
  8
AM_4
100
AcDbPolyline
 90
        3
 70
     0
 43
0.0
 10
0.109375
 20
-1.280504207786578
 10
0.0546875000000001
 20
-1.256485753618776
 10
0.0000000000000001
 20
-1.229440289782532
  0
LWPOLYLINE
  5
C9
330
87
100
AcDbEntity
  8
AM_4
100
AcDbPolyline
 90
        3
 70
     0
 43
0.0
 10
0.2187499999999999
 20
-1.318744603321502
 10
0.1643083897258504
 20
-1.301223343266321
 10
0.109375
 20
-1.280504207786578
  0
LINE
  5
CA
330
87
100
AcDbEntity
  8
AM_4
100
AcDbLine
 10
0.21875
 20
-1.497353230399442
 30
0.0
 11
0.2187499999999999
 21
-1.263656446692549
 31
0.0
  0
ELLIPSE
  5
CB
330
87
100
AcDbEntity
  8
AM_4
100
AcDbEllipse
 10
0.0
 20
-1.509920093555216
 30
0.0
 11
-0.1049999999999995
 21
1.285879139104715E-17
 31
0.0
210
0.0
220
0.0
230
1.0
 40
0.7071067811865444
 41
3.665191429188081
 42
5.759586531581298
  0
LINE
  5
CC
330
87
100
AcDbEntity
  8
AM_4
100
AcDbLine
 10
-0.090932667397366
 20
-1.472796987542923
 30
0.0
 11
-0.1169134295108992
 21
-1.504616792696318
 31
0.0
  0
LINE
  5
CD
330
87
100
AcDbEntity
  8
AM_4
100
AcDbLine
 10
0.1169134295108992
 20
-1.504616792696318
 30
0.0
 11
0.0909326673973661
 21
-1.472796987542923
 31
0.0
  0
LINE
  5
CE
330
87
100
AcDbEntity
  8
AM_4
100
AcDbLine
 10
0.0939243440009287
 20
-1.638249060285108
 30
0.0
 11
0.1234908992236334
 21
-1.590914607775218
 31
0.0
  0
LINE
  5
CF
330
87
100
AcDbEntity
  8
AM_4
100
AcDbLine
 10
-0.1234908992236335
 20
-1.590914607775218
 30
0.0
 11
-0.0939243440009287
 21
-1.638249060285108
 31
0.0
  0
ELLIPSE
  5
D0
330
87
100
AcDbEntity
  8
AM_4
100
AcDbEllipse
 10
0.0000000000000002
 20
-1.552346500426409
 30
0.0
 11
-0.1349999999999998
 21
1.653273178848924E-17
 31
0.0
210
0.0
220
0.0
230
1.0
 40
0.7071067811865459
 41
2.725678601487239
 42
6.69909935928214
  0
ELLIPSE
  5
D1
330
87
100
AcDbEntity
  8
AM_4
100
AcDbEllipse
 10
0.0
 20
-1.608915042921333
 30
0.0
 11
-0.1026779019331875
 21
1.257441639456439E-17
 31
0.0
210
0.0
220
0.0
230
1.0
 40
0.707106781186527
 41
0.0
 42
6.283185307179586
  0
ENDBLK
  5
8A
330
87
100
AcDbEntity
  8
0
100
AcDbBlockEnd
  0
BLOCK
  5
D4
330
D2
100
AcDbEntity
  8
0
100
AcDbBlockBegin
  2
3_3_15_16C_1_0_in_023143_4
 70
     2
 10
0.0
 20
0.0
 30
0.0
  3
3_3_15_16C_1_0_in_023143_4
  1

  0
ATTDEF
  5
D6
330
D2
100
AcDbEntity
  8
AM_6
100
AcDbText
 10
8.0625
 20
3.5625
 30
0.0
 40
0.5
  1
E-Type Collar -Inch
100
AcDbAttributeDefinition
  3

  2
NN
 70
     8
280
     0
  0
ATTDEF
  5
D7
330
D2
100
AcDbEntity
  8
AM_6
100
AcDbText
 10
8.0625
 20
3.0625
 30
0.0
 40
0.5
  1
E-Type Bearings
100
AcDbAttributeDefinition
  3

  2
NT
 70
     8
280
     0
  0
ATTDEF
  5
D8
330
D2
100
AcDbEntity
  8
AM_6
100
AcDbText
 10
8.0625
 20
2.5625
 30
0.0
 40
0.5
  1
3-15/16C
100
AcDbAttributeDefinition
  3

  2
NB
 70
     8
280
     0
  0
ATTDEF
  5
D9
330
D2
100
AcDbEntity
  8
AM_6
100
AcDbText
 10
8.0625
 20
2.0625
 30
0.0
 40
0.5
  1
$BORE.C
100
AcDbAttributeDefinition
  3

  2
NBSYN
 70
     8
280
     0
  0
ATTDEF
  5
DA
330
D2
100
AcDbEntity
  8
AM_6
100
AcDbText
 10
8.0625
 20
1.5625
 30
0.0
 40
0.5
  1
3-15/16C
100
AcDbAttributeDefinition
  3

  2
LINA
 70
     8
280
     0
  0
ATTDEF
  5
DB
330
D2
100
AcDbEntity
  8
AM_6
100
AcDbText
 10
8.0625
 20
1.0625
 30
0.0
 40
0.5
  1
3-15/16
100
AcDbAttributeDefinition
  3

  2
BORE
 70
     8
280
     0
  0
ATTDEF
  5
DC
330
D2
100
AcDbEntity
  8
AM_6
100
AcDbText
 10
8.0625
 20
0.5625
 30
0.0
 40
0.5
  1
6.12500
100
AcDbAttributeDefinition
  3

  2
L
 70
     8
280
     0
  0
ATTDEF
  5
DD
330
D2
100
AcDbEntity
  8
AM_6
100
AcDbText
 10
8.0625
 20
0.0625
 30
0.0
 40
0.5
  1
6.25
100
AcDbAttributeDefinition
  3

  2
A
 70
     8
280
     0
  0
ATTDEF
  5
DE
330
D2
100
AcDbEntity
  8
AM_6
100
AcDbText
 10
8.0625
 20
-0.4375
 30
0.0
 40
0.5
  1
3.12
100
AcDbAttributeDefinition
  3

  2
B
 70
     8
280
     0
  0
ATTDEF
  5
DF
330
D2
100
AcDbEntity
  8
AM_6
100
AcDbText
 10
8.0625
 20
-0.9375
 30
0.0
 40
0.5
  1
4.50
100
AcDbAttributeDefinition
  3

  2
C
 70
     8
280
     0
  0
ATTDEF
  5
E0
330
D2
100
AcDbEntity
  8
AM_6
100
AcDbText
 10
8.0625
 20
-1.4375
 30
0.0
 40
0.5
  1
6.38
100
AcDbAttributeDefinition
  3

  2
D
 70
     8
280
     0
  0
ATTDEF
  5
E1
330
D2
100
AcDbEntity
  8
AM_6
100
AcDbText
 10
8.0625
 20
-1.9375
 30
0.0
 40
0.5
  1
0.66
100
AcDbAttributeDefinition
  3

  2
E
 70
     8
280
     0
  0
ATTDEF
  5
E2
330
D2
100
AcDbEntity
  8
AM_6
100
AcDbText
 10
8.0625
 20
-2.4375
 30
0.0
 40
0.5
  1
0.50
100
AcDbAttributeDefinition
  3

  2
F
 70
     8
280
     0
  0
ATTDEF
  5
E3
330
D2
100
AcDbEntity
  8
AM_6
100
AcDbText
 10
8.0625
 20
-2.9375
 30
0.0
 40
0.5
  1
5/8-11
100
AcDbAttributeDefinition
  3

  2
CS
 70
     8
280
     0
  0
ATTDEF
  5
E4
330
D2
100
AcDbEntity
  8
AM_6
100
AcDbText
 10
8.0625
 20
-3.4375
 30
0.0
 40
0.5
  1
0.6250
100
AcDbAttributeDefinition
  3

  2
NDM
 70
     8
280
     0
  0
ATTDEF
  5
E5
330
D2
100
AcDbEntity
  8
AM_6
100
AcDbText
 10
8.0625
 20
-3.9375
 30
0.0
 40
0.5
  1
0.5270
100
AcDbAttributeDefinition
  3

  2
KDM
 70
     8
280
     0
  0
ATTDEF
  5
E6
330
D2
100
AcDbEntity
  8
AM_6
100
AcDbText
 10
8.0625
 20
-4.4375
 30
0.0
 40
0.5
  1
baldor
100
AcDbAttributeDefinition
  3

  2
COMPANY
 70
     8
280
     0
  0
LINE
  5
E7
330
D2
100
AcDbEntity
  8
AM_9
100
AcDbLine
 10
2.09790860523088
 20
3.29542113407955
 30
0.0
 11
2.090010523318073
 21
3.305272305702132
 31
0.0
  0
LINE
  5
E8
330
D2
100
AcDbEntity
  8
AM_9
100
AcDbLine
 10
2.090073758819692
 20
2.819806567090777
 30
0.0
 11
2.09790860523088
 21
2.82957886592045
 31
0.0
  0
LWPOLYLINE
  5
E9
330
D2
100
AcDbEntity
  8
AM_9
100
AcDbPolyline
 90
       25
 70
     0
 43
0.0
 10
2.089981691871336
 20
3.305308266778885
 10
2.073169564031962
 20
3.321701068495301
 10
2.053746884821737
 20
3.331334159892084
 10
2.032763272717587
 20
3.332962607440459
 10
2.010323310485024
 20
3.32611806861081
 10
1.988154047994733
 20
3.311146827757242
 10
1.965989395886057
 20
3.287500172924427
 10
1.946351958637909
 20
3.257651131989309
 10
1.928589132796399
 20
3.220093089846569
 10
1.915350045533364
 20
3.18032770580223
 10
1.905609981472748
 20
3.135143841859465
 10
1.900820351081274
 20
3.092201320489271
 10
1.900132207928192
 20
3.04693962131652
 10
1.903370466244899
 20
3.005620692678949
 10
1.910388058324633
 20
2.96474844128487
 10
1.920534357908923
 20
2.927307228378661
 10
1.933791260752487
 20
2.892521789540427
 10
1.949831961080101
 20
2.861319443424516
 10
1.968116166296121
 20
2.83481363970213
 10
1.988378436291518
 20
2.813660028593252
 10
2.009742879236897
 20
2.799169989647122
 10
2.031394605856817
 20
2.792210563360627
 10
2.052838304806676
 20
2.793419465138447
 10
2.07267657628766
 20
2.80294217554158
 10
2.089981533701795
 20
2.819691535938955
  0
LWPOLYLINE
  5
EA
330
D2
100
AcDbEntity
  8
AM_9
100
AcDbPolyline
 90
        3
 70
     0
 43
0.0
 10
2.093160897902261
 20
2.823844762115266
 10
2.104386989741614
 20
2.841905345489852
 10
2.116145170315185
 20
2.868235211364563
  0
LWPOLYLINE
  5
EB
330
D2
100
AcDbEntity
  8
AM_9
100
AcDbPolyline
 90
        3
 70
     0
 43
0.0
 10
2.089981533701795
 20
2.819691535938955
 10
2.091167402921126
 20
2.821196355065427
 10
2.093160897902261
 20
2.823844762115266
  0
LINE
  5
EC
330
D2
100
AcDbEntity
  8
AM_9
100
AcDbLine
 10
2.046020039494805
 20
2.7992
 30
0.0
 11
2.730977254677537
 21
2.7992
 31
0.0
  0
LINE
  5
ED
330
D2
100
AcDbEntity
  8
AM_9
100
AcDbLine
 10
2.730977254677537
 20
3.3258
 30
0.0
 11
2.046020039494805
 21
3.3258
 31
0.0
  0
LINE
  5
EE
330
D2
100
AcDbEntity
  8
AM_9
100
AcDbLine
 10
2.679088688941463
 20
2.829578865920449
 30
0.0
 11
2.711359615141762
 21
2.789327772562789
 31
0.0
  0
LINE
  5
EF
330
D2
100
AcDbEntity
  8
AM_9
100
AcDbLine
 10
2.711229571938249
 20
3.335510026293908
 30
0.0
 11
2.679088688941463
 21
3.29542113407955
 31
0.0
  0
ELLIPSE
  5
F0
330
D2
100
AcDbEntity
  8
AM_9
100
AcDbEllipse
 10
2.730977254677516
 20
3.062500000000003
 30
0.0
 11
-4.836742533232530E-17
 21
-0.2633000000000032
 31
0.0
210
0.0
220
0.0
230
1.0
 40
0.4226182617406625
 41
3.488298308540898
 42
5.941083566284191
  0
LWPOLYLINE
  5
F1
330
D2
100
AcDbEntity
  8
AM_9
100
AcDbPolyline
 90
        3
 70
     0
 43
0.0
 10
2.094959375317697
 20
3.298633006239431
 10
2.090364483813966
 20
3.304828153422485
 10
2.089981691871336
 20
3.305308266778885
  0
LWPOLYLINE
  5
F2
330
D2
100
AcDbEntity
  8
AM_9
100
AcDbPolyline
 90
       13
 70
     0
 43
0.0
 10
2.116145170315185
 20
2.868235211364563
 10
2.125625505217487
 20
2.897939735924683
 10
2.133423410842156
 20
2.932340353049987
 10
2.139635963735513
 20
2.973635796202668
 10
2.143462075827082
 20
3.019274836284429
 10
2.144602866949908
 20
3.062035921085054
 10
2.143440562341229
 20
3.10612715521264
 10
2.140198413113936
 20
3.14636390285018
 10
2.134739441714001
 20
3.185380977350693
 10
2.127188561616894
 20
3.221090902897186
 10
2.117360887623854
 20
3.253467199008946
 10
2.105054119190362
 20
3.281830235923442
 10
2.094959375317697
 20
3.298633006239431
  0
LWPOLYLINE
  5
F3
330
D2
100
AcDbEntity
  8
AM_9
100
AcDbPolyline
 90
       38
 70
     0
 43
0.0
 10
-0.1938703118744619
 20
2.861582972374702
 10
-0.1604629188747181
 20
2.837263396888957
 10
-0.1239519686303263
 20
2.81785931398409
 10
-0.0774429297815953
 20
2.801608572602769
 10
-0.0288947699956696
 20
2.793025839022781
 10
0.022033666588382
 20
2.792482978911711
 10
0.0723491015655266
 20
2.800301822298493
 10
0.120996110324291
 20
2.816595114298603
 10
0.1661334341670247
 20
2.840881185166674
 10
0.2055808691515491
 20
2.872088846538541
 10
0.2388908850873985
 20
2.909750357517013
 10
0.2635262948123833
 20
2.950637637236524
 10
0.2804385038247794
 20
2.995295473323702
 10
0.2884024305133324
 20
3.038944316209666
 10
0.2886794020329315
 20
3.083320447616849
 10
0.2816519568855976
 20
3.125020023580483
 10
0.2679032718614688
 20
3.164992995204234
 10
0.2476007832085148
 20
3.202578911131668
 10
0.2216412556766514
 20
3.236491935643684
 10
0.1888409931034339
 20
3.267542125346482
 10
0.1515689590722256
 20
3.293090758007776
 10
0.1079496356351934
 20
3.313688683155973
 10
0.0615738178060735
 20
3.327106347972983
 10
0.0114303708962269
 20
3.333095235730551
 10
-0.0390256398414227
 20
3.330848926536561
 10
-0.0892093724914506
 20
3.320062895888696
 10
-0.136837795600302
 20
3.301036016522357
 10
-0.1800522676194873
 20
3.274339356576486
 10
-0.217928363863895
 20
3.240545015133619
 10
-0.2478944885855969
 20
3.202096931006785
 10
-0.2704889406862703
 20
3.158892751805567
 10
-0.2838833364074826
 20
3.11546272900591
 10
-0.2894189645939418
 20
3.0703368690661
 10
-0.287095297839137
 20
3.02768222178112
 10
-0.2776972540850446
 20
2.986021681249181
 10
-0.2616725356475154
 20
2.946872715778862
 10
-0.2396412663493741
 20
2.910780229800552
 10
-0.1938703118744618
 20
2.861582972374702
  0
LINE
  5
F4
330
D2
100
AcDbEntity
  8
AM_9
100
AcDbLine
 10
-2.25
 20
3.5625
 30
0.0
 11
-2.25
 21
2.5625
 31
0.0
  0
LINE
  5
F5
330
D2
100
AcDbEntity
  8
AM_9
100
AcDbLine
 10
2.25
 20
2.5625
 30
0.0
 11
2.25
 21
3.5625
 31
0.0
  0
LINE
  5
F6
330
D2
100
AcDbEntity
  8
AM_9
100
AcDbLine
 10
-3.0625
 20
2.6875
 30
0.0
 11
-3.0625
 21
2.5625
 31
0.0
  0
LINE
  5
F7
330
D2
100
AcDbEntity
  8
AM_9
100
AcDbLine
 10
3.0625
 20
2.5625
 30
0.0
 11
3.0625
 21
2.6875
 31
0.0
  0
LINE
  5
F8
330
D2
100
AcDbEntity
  8
AM_9
100
AcDbLine
 10
3.0625
 20
2.5625
 30
0.0
 11
-3.0625
 21
2.5625
 31
0.0
  0
ELLIPSE
  5
F9
330
D2
100
AcDbEntity
  8
AM_9
100
AcDbEllipse
 10
2.046020039494805
 20
3.0625
 30
0.0
 11
-4.836742533232465E-17
 21
-0.2632999999999996
 31
0.0
210
0.0
220
0.0
230
1.0
 40
0.4226182617407002
 41
0.0
 42
6.283185307179586
  0
LINE
  5
FC
330
D2
100
AcDbEntity
  8
AM_7
100
AcDbLine
 10
-0.2764650000000001
 20
3.0625
 30
0.0
 11
0.2764649999999999
 21
3.0625
 31
0.0
  0
ELLIPSE
  5
FD
330
D2
100
AcDbEntity
  8
AM_4
100
AcDbEllipse
 10
2.730977254677537
 20
3.0625
 30
0.0
 11
-4.836742533232473E-17
 21
-0.2633000000000001
 31
0.0
210
0.0
220
0.0
230
1.0
 40
0.4226182617406995
 41
5.941083566284036
 42
9.771483615720637
  0
LWPOLYLINE
  5
FE
330
D2
100
AcDbEntity
  8
AM_4
100
AcDbPolyline
 90
       14
 70
     0
 43
0.0
 10
2.711571573002264
 20
2.789063400599946
 10
2.696395995110317
 20
2.810753700854286
 10
2.678985215742449
 20
2.843735021022639
 10
2.663802828594863
 20
2.882715298746451
 10
2.651355512334427
 20
2.927324193208893
 10
2.642377824538326
 20
2.976257032163892
 10
2.637358563128315
 20
3.028844420951939
 10
2.636782396409258
 20
3.082443905495578
 10
2.64086006877775
 20
3.136996661741504
 10
2.649292870025857
 20
3.188334228741049
 10
2.662239329471878
 20
3.237489448102393
 10
2.678178741897289
 20
3.279476268288858
 10
2.697641802145287
 20
3.316248219438782
 10
2.711565921648028
 20
3.335929549602141
  0
LWPOLYLINE
  5
FF
330
D2
100
AcDbEntity
  8
AM_4
100
AcDbPolyline
 90
       19
 70
     0
 43
0.0
 10
2.711565921648028
 20
3.335929549602141
 10
2.717862206608196
 20
3.343346642915295
 10
2.740051403243347
 20
3.363001483050373
 10
2.760966917241035
 20
3.372938087309889
 10
2.782263968031653
 20
3.37455200994823
 10
2.801428083789894
 20
3.368021316926254
 10
2.819769520730124
 20
3.353413603985693
 10
2.835959678509728
 20
3.331911869708007
 10
2.850520319951466
 20
3.303127237334802
 10
2.86291275294776
 20
3.268082360535034
 10
2.873114177893973
 20
3.226923960297643
 10
2.880842047864626
 20
3.180726532860237
 10
2.885953765562637
 20
3.13015697279029
 10
2.888213581712409
 20
3.077353742653766
 10
2.887511733725857
 20
3.022660247710521
 10
2.883811125549522
 20
2.969798454948959
 10
2.876873012215222
 20
2.918092874092776
 10
2.869320472862295
 20
2.880956407984777
 10
2.859677999209171
 20
2.846538501595008
  0
CIRCLE
  5
100
330
D2
100
AcDbEntity
  8
AM_4
100
AcDbCircle
 10
-0.0000000000000001
 20
3.0625
 30
0.0
 40
0.2633
  0
LWPOLYLINE
  5
101
330
D2
100
AcDbEntity
  8
AM_4
100
AcDbPolyline
 90
       10
 70
     0
 43
0.0
 10
2.859677999209171
 20
2.846538501595008
 10
2.847867405272923
 20
2.815793999030464
 10
2.833815283992496
 20
2.789684302563256
 10
2.816373576045458
 20
2.768179345382352
 10
2.796450994829777
 20
2.754493321100946
 10
2.776653386024917
 20
2.750011660087832
 10
2.755521879892494
 20
2.753864188673969
 10
2.735344674935221
 20
2.765363685547852
 10
2.715164377154847
 20
2.784725504573121
 10
2.711571573002264
 20
2.789063400599946
  0
LWPOLYLINE
  5
102
330
D2
100
AcDbEntity
  8
AM_4
100
AcDbPolyline
 90
       38
 70
     0
 43
0.0
 10
-0.1926182919772859
 20
2.824169224223005
 10
-0.2242171794153091
 20
2.856824124323393
 10
-0.2507190797356877
 20
2.893749300311387
 10
-0.2741455899849232
 20
2.940228121440682
 10
-0.289800320546681
 20
2.989892895672697
 10
-0.2973755882803293
 20
3.043265715781386
 10
-0.2961273813265272
 20
3.097164745061728
 10
-0.2857316511242128
 20
3.150947471209891
 10
-0.266482881111914
 20
3.202207014395128
 10
-0.2389097386799759
 20
3.249075755604574
 10
-0.2036916870325367
 20
3.29047705462223
 10
-0.162992638934204
 20
3.323980688049365
 10
-0.1170524704187887
 20
3.349834954168392
 10
-0.0695980461547678
 20
3.366301648034093
 10
-0.0199994603940524
 20
3.374293940430575
 10
0.0281505444248591
 20
3.373566908349552
 10
0.0754944755395464
 20
3.364784698360943
 10
0.1202340239949204
 20
3.348354155132226
 10
0.1617143724549278
 20
3.324897751366644
 10
0.1997976296683674
 20
3.29420269498981
 10
0.2325053266085196
 20
3.257824030547974
 10
0.2601322038476578
 20
3.214737509533978
 10
0.2805246390515899
 20
3.167766433147624
 10
0.2935348085144329
 20
3.115998866304246
 10
0.2979697222981352
 20
3.062791056265331
 10
0.2934225983302889
 20
3.008345484767137
 10
0.2799011817026286
 20
2.955426403221255
 10
0.257563803569339
 20
2.905553092116228
 10
0.2270549441923862
 20
2.860248950221814
 10
0.1899527838339341
 20
2.821874815552092
 10
0.1467239380067627
 20
2.790575900607327
 10
0.1007060844360344
 20
2.768461778577955
 10
0.0515263119735765
 20
2.754716726338115
 10
0.0030598616032723
 20
2.750050753690213
 10
-0.0454963264728179
 20
2.753671210940322
 10
-0.0916894590253664
 20
2.765220709455908
 10
-0.1353644808136844
 20
2.784163868003403
 10
-0.192618292007151
 20
2.824169224151817
  0
LINE
  5
103
330
D2
100
AcDbEntity
  8
AM_4
100
AcDbLine
 10
-3.0625
 20
3.395833333333333
 30
0.0
 11
-3.0625
 21
2.6875
 31
0.0
  0
LINE
  5
104
330
D2
100
AcDbEntity
  8
AM_4
100
AcDbLine
 10
3.0625
 20
2.6875
 30
0.0
 11
3.0625
 21
3.395833333333333
 31
0.0
  0
LINE
  5
105
330
D2
100
AcDbEntity
  8
AM_4
100
AcDbLine
 10
2.895833333333333
 20
3.5625
 30
0.0
 11
-2.895833333333333
 21
3.5625
 31
0.0
  0
ARC
  5
106
330
D2
100
AcDbEntity
  8
AM_4
100
AcDbCircle
 10
-2.895833333333333
 20
3.395833333333333
 30
0.0
 40
0.1666666666666674
100
AcDbArc
 50
90.0
 51
180.0
  0
ARC
  5
107
330
D2
100
AcDbEntity
  8
AM_4
100
AcDbCircle
 10
2.895833333333333
 20
3.395833333333333
 30
0.0
 40
0.1666666666666674
100
AcDbArc
 50
0.0
 51
90.0
  0
LINE
  5
108
330
D2
100
AcDbEntity
  8
AM_4
100
AcDbLine
 10
3.0625
 20
3.395833333333333
 30
0.0
 11
-3.0625
 21
3.395833333333333
 31
0.0
  0
ARC
  5
10A
330
D2
100
AcDbEntity
  8
AM_5
100
AcDbCircle
 10
0.0000000000000037
 20
3.062500000000008
 30
0.0
 40
0.3124999999999911
100
AcDbArc
 50
63.85157066748187
 51
75.00000000000055
  0
ARC
  5
10B
330
D2
100
AcDbEntity
  8
AM_5
100
AcDbCircle
 10
0.000000000000002
 20
3.062499999999999
 30
0.0
 40
0.3125000000000006
100
AcDbArc
 50
75.0000000000007
 51
15.00000000000027
  0
ENDBLK
  5
D5
330
D2
100
AcDbEntity
  8
0
100
AcDbBlockEnd
  0
BLOCK
  5
10E
330
10C
100
AcDbEntity
  8
0
100
AcDbBlockBegin
  2
4_3_15_16C_2_0_in_023143_4
 70
     2
 10
0.0
 20
0.0
 30
0.0
  3
4_3_15_16C_2_0_in_023143_4
  1

  0
ATTDEF
  5
110
330
10C
100
AcDbEntity
  8
AM_6
100
AcDbText
 10
8.0625
 20
-1.6875
 30
0.0
 40
0.5
  1
E-Type Collar -Inch
100
AcDbAttributeDefinition
  3

  2
NN
 70
     8
280
     0
  0
ATTDEF
  5
111
330
10C
100
AcDbEntity
  8
AM_6
100
AcDbText
 10
8.0625
 20
-2.1875
 30
0.0
 40
0.5
  1
E-Type Bearings
100
AcDbAttributeDefinition
  3

  2
NT
 70
     8
280
     0
  0
ATTDEF
  5
112
330
10C
100
AcDbEntity
  8
AM_6
100
AcDbText
 10
8.0625
 20
-2.6875
 30
0.0
 40
0.5
  1
3-15/16C
100
AcDbAttributeDefinition
  3

  2
NB
 70
     8
280
     0
  0
ATTDEF
  5
113
330
10C
100
AcDbEntity
  8
AM_6
100
AcDbText
 10
8.0625
 20
-3.1875
 30
0.0
 40
0.5
  1
$BORE.C
100
AcDbAttributeDefinition
  3

  2
NBSYN
 70
     8
280
     0
  0
ATTDEF
  5
114
330
10C
100
AcDbEntity
  8
AM_6
100
AcDbText
 10
8.0625
 20
-3.6875
 30
0.0
 40
0.5
  1
3-15/16C
100
AcDbAttributeDefinition
  3

  2
LINA
 70
     8
280
     0
  0
ATTDEF
  5
115
330
10C
100
AcDbEntity
  8
AM_6
100
AcDbText
 10
8.0625
 20
-4.1875
 30
0.0
 40
0.5
  1
3-15/16
100
AcDbAttributeDefinition
  3

  2
BORE
 70
     8
280
     0
  0
ATTDEF
  5
116
330
10C
100
AcDbEntity
  8
AM_6
100
AcDbText
 10
8.0625
 20
-4.6875
 30
0.0
 40
0.5
  1
6.12500
100
AcDbAttributeDefinition
  3

  2
L
 70
     8
280
     0
  0
ATTDEF
  5
117
330
10C
100
AcDbEntity
  8
AM_6
100
AcDbText
 10
8.0625
 20
-5.1875
 30
0.0
 40
0.5
  1
6.25
100
AcDbAttributeDefinition
  3

  2
A
 70
     8
280
     0
  0
ATTDEF
  5
118
330
10C
100
AcDbEntity
  8
AM_6
100
AcDbText
 10
8.0625
 20
-5.6875
 30
0.0
 40
0.5
  1
3.12
100
AcDbAttributeDefinition
  3

  2
B
 70
     8
280
     0
  0
ATTDEF
  5
119
330
10C
100
AcDbEntity
  8
AM_6
100
AcDbText
 10
8.0625
 20
-6.1875
 30
0.0
 40
0.5
  1
4.50
100
AcDbAttributeDefinition
  3

  2
C
 70
     8
280
     0
  0
ATTDEF
  5
11A
330
10C
100
AcDbEntity
  8
AM_6
100
AcDbText
 10
8.0625
 20
-6.6875
 30
0.0
 40
0.5
  1
6.38
100
AcDbAttributeDefinition
  3

  2
D
 70
     8
280
     0
  0
ATTDEF
  5
11B
330
10C
100
AcDbEntity
  8
AM_6
100
AcDbText
 10
8.0625
 20
-7.1875
 30
0.0
 40
0.5
  1
0.66
100
AcDbAttributeDefinition
  3

  2
E
 70
     8
280
     0
  0
ATTDEF
  5
11C
330
10C
100
AcDbEntity
  8
AM_6
100
AcDbText
 10
8.0625
 20
-7.6875
 30
0.0
 40
0.5
  1
0.50
100
AcDbAttributeDefinition
  3

  2
F
 70
     8
280
     0
  0
ATTDEF
  5
11D
330
10C
100
AcDbEntity
  8
AM_6
100
AcDbText
 10
8.0625
 20
-8.1875
 30
0.0
 40
0.5
  1
5/8-11
100
AcDbAttributeDefinition
  3

  2
CS
 70
     8
280
     0
  0
ATTDEF
  5
11E
330
10C
100
AcDbEntity
  8
AM_6
100
AcDbText
 10
8.0625
 20
-8.6875
 30
0.0
 40
0.5
  1
0.6250
100
AcDbAttributeDefinition
  3

  2
NDM
 70
     8
280
     0
  0
ATTDEF
  5
11F
330
10C
100
AcDbEntity
  8
AM_6
100
AcDbText
 10
8.0625
 20
-9.1875
 30
0.0
 40
0.5
  1
0.5270
100
AcDbAttributeDefinition
  3

  2
KDM
 70
     8
280
     0
  0
ATTDEF
  5
120
330
10C
100
AcDbEntity
  8
AM_6
100
AcDbText
 10
8.0625
 20
-9.6875
 30
0.0
 40
0.5
  1
baldor
100
AcDbAttributeDefinition
  3

  2
COMPANY
 70
     8
280
     0
  0
LINE
  5
121
330
10C
100
AcDbEntity
  8
AM_9
100
AcDbLine
 10
2.09790860523088
 20
-1.95457886592045
 30
0.0
 11
2.090072594686856
 21
-1.944805115083507
 31
0.0
  0
LINE
  5
122
330
10C
100
AcDbEntity
  8
AM_9
100
AcDbLine
 10
2.090202939865654
 20
-2.430032307123468
 30
0.0
 11
2.09790860523088
 21
-2.42042113407955
 31
0.0
  0
LWPOLYLINE
  5
123
330
10C
100
AcDbEntity
  8
AM_9
100
AcDbPolyline
 90
       26
 70
     0
 43
0.0
 10
2.089974291498123
 20
-1.944682503833253
 10
2.088480180615775
 20
-1.94285931398409
 10
2.070707186623837
 20
-1.926608572602769
 10
2.05123581950574
 20
-1.918025839022781
 10
2.029775768239221
 20
-1.917482978911711
 10
2.007561980939881
 20
-1.925301822298493
 10
1.985100534938405
 20
-1.941595114298603
 10
1.963415148688139
 20
-1.965881185166673
 10
1.943777574578607
 20
-1.997088846538541
 10
1.926706528307501
 20
-2.034750357517014
 10
1.913787830998972
 20
-2.075637637236525
 10
1.904772698179147
 20
-2.120295473323702
 10
1.900490200621654
 20
-2.163944316209666
 10
1.90033771366868
 20
-2.208320447616849
 10
1.904123335254845
 20
-2.250020023580483
 10
1.911465068447467
 20
-2.289992995204234
 10
1.92216707421251
 20
-2.327578911131668
 10
1.935604930807597
 20
-2.361491935643685
 10
1.952187588474347
 20
-2.392542125346482
 10
1.970504617805664
 20
-2.418090758007776
 10
1.99121768772588
 20
-2.438688683155973
 10
2.012406576528719
 20
-2.452106347972983
 10
2.034328586901401
 20
-2.458095235730551
 10
2.055378710883308
 20
-2.455848926536561
 10
2.075283835930662
 20
-2.445062895888697
 10
2.089978241654083
 20
-2.430312569970029
  0
LWPOLYLINE
  5
124
330
10C
100
AcDbEntity
  8
AM_9
100
AcDbPolyline
 90
       13
 70
     0
 43
0.0
 10
2.089978241654083
 20
-2.430312569970029
 10
2.093248015323251
 20
-2.426036016522357
 10
2.108741995161096
 20
-2.399339356576487
 10
2.12170536158314
 20
-2.365545015133619
 10
2.131542920164772
 20
-2.327096931006785
 10
2.138717048774656
 20
-2.283892751805567
 10
2.142873560255341
 20
-2.24046272900591
 10
2.144565813751814
 20
-2.1953368690661
 10
2.143858278703618
 20
-2.15268222178112
 10
2.140961602448765
 20
-2.111021681249181
 10
2.13594331690787
 20
-2.071872715778862
 10
2.12887022227915
 20
-2.035780229800552
 10
2.113541727828296
 20
-1.986582972374702
  0
LINE
  5
125
330
10C
100
AcDbEntity
  8
AM_9
100
AcDbLine
 10
2.046020039494805
 20
-2.4508
 30
0.0
 11
2.730977254677537
 21
-2.4508
 31
0.0
  0
LINE
  5
126
330
10C
100
AcDbEntity
  8
AM_9
100
AcDbLine
 10
2.730977254677537
 20
-1.9242
 30
0.0
 11
2.046020039494805
 21
-1.9242
 31
0.0
  0
ELLIPSE
  5
127
330
10C
100
AcDbEntity
  8
AM_9
100
AcDbEllipse
 10
2.730977254677537
 20
-2.1875
 30
0.0
 11
-4.836742533232473E-17
 21
-0.2633000000000001
 31
0.0
210
0.0
220
0.0
230
1.0
 40
0.4226182617406978
 41
3.497922218562547
 42
5.931849348075512
  0
LINE
  5
128
330
10C
100
AcDbEntity
  8
AM_9
100
AcDbLine
 10
2.679088688941463
 20
-2.42042113407955
 30
0.0
 11
2.711216936690378
 21
-2.460494266518732
 31
0.0
  0
LINE
  5
129
330
10C
100
AcDbEntity
  8
AM_9
100
AcDbLine
 10
2.711482959722113
 20
-1.914173926522299
 30
0.0
 11
2.679088688941463
 21
-1.95457886592045
 31
0.0
  0
LWPOLYLINE
  5
12A
330
10C
100
AcDbEntity
  8
AM_9
100
AcDbPolyline
 90
       39
 70
     0
 43
0.0
 10
-0.2014674474065457
 20
-1.993235211364562
 10
-0.2297357356806127
 20
-2.022939735924683
 10
-0.253753357905469
 20
-2.057340353049987
 10
-0.2734317043856317
 20
-2.098635796202668
 10
-0.2858097120107878
 20
-2.144274836284429
 10
-0.2895404355017268
 20
-2.187035921085054
 10
-0.2857395366228401
 20
-2.23112715521264
 10
-0.2752385706158127
 20
-2.27136390285018
 10
-0.2578801168263556
 20
-2.310380977350692
 10
-0.2344921550702033
 20
-2.346090902897186
 10
-0.2050387686865354
 20
-2.378467199008946
 10
-0.1695631338298023
 20
-2.406830235923442
 10
-0.1290229167026697
 20
-2.429828153422485
 10
-0.0837394506217024
 20
-2.446701068495301
 10
-0.0350231494639953
 20
-2.456334159892084
 10
0.0151041759514513
 20
-2.457962607440459
 10
0.0662201632149338
 20
-2.45111806861081
 10
0.114513957174331
 20
-2.436146827757242
 10
0.1608653651617119
 20
-2.412500172924426
 10
0.2004862293331461
 20
-2.382651131989308
 10
0.2352610533937061
 20
-2.345093089846569
 10
0.2605702976775573
 20
-2.30532770580223
 10
0.2788768325671597
 20
-2.260143841859465
 10
0.2877851052778556
 20
-2.217201320489271
 10
0.2890600055978148
 20
-2.17193962131652
 10
0.2830497067018699
 20
-2.130620692678949
 10
0.2699287906576919
 20
-2.089748441284869
 10
0.2507191399295246
 20
-2.052307228378662
 10
0.2251762956592333
 20
-2.017521789540426
 10
0.1935578944982599
 20
-1.986319443424516
 10
0.1564955422752521
 20
-1.95981363970213
 10
0.1140352191890709
 20
-1.938660028593252
 10
0.0675112616376613
 20
-1.924169989647122
 10
0.0182919817445277
 20
-1.917210563360627
 10
-0.0328014473202238
 20
-1.918419465138447
 10
-0.082472520845974
 20
-1.92794217554158
 10
-0.1311922493566842
 20
-1.946196355065427
 10
-0.1676812724784255
 20
-1.966905345489852
 10
-0.2014674474065458
 20
-1.993235211364562
  0
LWPOLYLINE
  5
12B
330
10C
100
AcDbEntity
  8
AM_9
100
AcDbPolyline
 90
        3
 70
     0
 43
0.0
 10
2.113541727828296
 20
-1.986582972374702
 10
2.101812553264939
 20
-1.962263396888957
 10
2.089974291498123
 20
-1.944682503833253
  0
LINE
  5
12C
330
10C
100
AcDbEntity
  8
AM_9
100
AcDbLine
 10
2.25
 20
-2.6875
 30
0.0
 11
2.25
 21
-1.6875
 31
0.0
  0
LINE
  5
12D
330
10C
100
AcDbEntity
  8
AM_9
100
AcDbLine
 10
-2.25
 20
-1.6875
 30
0.0
 11
-2.25
 21
-2.6875
 31
0.0
  0
LINE
  5
12E
330
10C
100
AcDbEntity
  8
AM_9
100
AcDbLine
 10
-3.0625
 20
-1.6875
 30
0.0
 11
3.0625
 21
-1.6875
 31
0.0
  0
LINE
  5
12F
330
10C
100
AcDbEntity
  8
AM_9
100
AcDbLine
 10
3.0625
 20
-1.8125
 30
0.0
 11
3.0625
 21
-1.6875
 31
0.0
  0
LINE
  5
130
330
10C
100
AcDbEntity
  8
AM_9
100
AcDbLine
 10
-3.0625
 20
-1.6875
 30
0.0
 11
-3.0625
 21
-1.8125
 31
0.0
  0
ELLIPSE
  5
131
330
10C
100
AcDbEntity
  8
AM_9
100
AcDbEllipse
 10
2.046020039494805
 20
-2.1875
 30
0.0
 11
-4.836742533232481E-17
 21
-0.2633000000000005
 31
0.0
210
0.0
220
0.0
230
1.0
 40
0.4226182617406988
 41
0.0
 42
6.283185307179586
  0
LINE
  5
132
330
10C
100
AcDbEntity
  8
AM_7
100
AcDbLine
 10
-0.276465
 20
-2.1875
 30
0.0
 11
0.276465
 21
-2.1875
 31
0.0
  0
ELLIPSE
  5
133
330
10C
100
AcDbEntity
  8
AM_4
100
AcDbEllipse
 10
2.730977254677537
 20
-2.1875
 30
0.0
 11
-4.836742533232473E-17
 21
-0.2633000000000001
 31
0.0
210
0.0
220
0.0
230
1.0
 40
0.4226182617406995
 41
5.93184934807551
 42
9.781107525742136
  0
LWPOLYLINE
  5
134
330
10C
100
AcDbEntity
  8
AM_4
100
AcDbPolyline
 90
       15
 70
     0
 43
0.0
 10
2.711557552030851
 20
-2.460919107576594
 10
2.703351842624054
 20
-2.449897751366645
 10
2.685215264999866
 20
-2.41920269498981
 10
2.669296046081508
 20
-2.382824030547974
 10
2.655600960374694
 20
-2.339737509533978
 10
2.645343980801555
 20
-2.292766433147623
 10
2.63873825916536
 20
-2.240998866304246
 10
2.636471376714816
 20
-2.187791056265331
 10
2.638795717702245
 20
-2.133345484767137
 10
2.645659383518402
 20
-2.080426403221255
 10
2.656884021242903
 20
-2.030553092116228
 10
2.671971153752767
 20
-1.985248950221814
 10
2.68994386879635
 20
-1.946874815552092
 10
2.710372096438276
 20
-1.915575900607327
 10
2.711568360112273
 20
-1.914067408440393
  0
LWPOLYLINE
  5
135
330
10C
100
AcDbEntity
  8
AM_4
100
AcDbPolyline
 90
        8
 70
     0
 43
0.0
 10
2.711568360112273
 20
-1.914067408440393
 10
2.731501565906844
 20
-1.893461778577955
 10
2.753398758708792
 20
-1.879716726338115
 10
2.774267919857352
 20
-1.875050753690212
 10
2.794488876738895
 20
-1.878671210940322
 10
2.813069225880485
 20
-1.890220709455908
 10
2.830062464527642
 20
-1.909163868003402
 10
2.851476262408382
 20
-1.949169224162556
  0
LINE
  5
136
330
10C
100
AcDbEntity
  8
AM_4
100
AcDbLine
 10
-2.895833333333333
 20
-2.6875
 30
0.0
 11
2.89583333330278
 21
-2.6875
 31
0.0
  0
ARC
  5
137
330
10C
100
AcDbEntity
  8
AM_4
100
AcDbCircle
 10
2.895833333333332
 20
-2.520833333333332
 30
0.0
 40
0.1666666666666683
100
AcDbArc
 50
270.0
 51
0.0
  0
ARC
  5
138
330
10C
100
AcDbEntity
  8
AM_4
100
AcDbCircle
 10
-2.895833333333332
 20
-2.520833333333333
 30
0.0
 40
0.1666666666666679
100
AcDbArc
 50
180.0
 51
270.0
  0
LINE
  5
139
330
10C
100
AcDbEntity
  8
AM_4
100
AcDbLine
 10
-3.0625
 20
-2.520833333333333
 30
0.0
 11
3.0625
 21
-2.520833333333333
 31
0.0
  0
LWPOLYLINE
  5
13A
330
10C
100
AcDbEntity
  8
AM_4
100
AcDbPolyline
 90
       19
 70
     0
 43
0.0
 10
2.851476262408382
 20
-1.949169224162556
 10
2.862876742720252
 20
-1.981824124323393
 10
2.872209106237893
 20
-2.018749300311386
 10
2.880285057531378
 20
-2.065228121440682
 10
2.88558753068628
 20
-2.114892895672698
 10
2.888130667044118
 20
-2.168265715781386
 10
2.887710385238223
 20
-2.222164745061728
 10
2.884218588028089
 20
-2.275947471209891
 10
2.877660450021674
 20
-2.327207014395128
 10
2.8680767810671
 20
-2.374075755604574
 10
2.855505356882059
 20
-2.415477054622231
 10
2.840514360675947
 20
-2.448980688049366
 10
2.823008008823077
 20
-2.474834954168392
 10
2.804259027686237
 20
-2.491301648034093
 10
2.783960550102642
 20
-2.499293940430575
 10
2.763548581360399
 20
-2.498566908349553
 10
2.742818790930428
 20
-2.489784698360943
 10
2.722611445178584
 20
-2.473354155132226
 10
2.711557552030851
 20
-2.460919107576594
  0
LINE
  5
13B
330
10C
100
AcDbEntity
  8
AM_4
100
AcDbLine
 10
3.0625
 20
-2.520833333333333
 30
0.0
 11
3.0625
 21
-1.8125
 31
0.0
  0
LINE
  5
13C
330
10C
100
AcDbEntity
  8
AM_4
100
AcDbLine
 10
-3.0625
 20
-1.8125
 30
0.0
 11
-3.0625
 21
-2.520833333333333
 31
0.0
  0
LWPOLYLINE
  5
13D
330
10C
100
AcDbEntity
  8
AM_4
100
AcDbPolyline
 90
       39
 70
     0
 43
0.0
 10
-0.2152669300916546
 20
-1.971538501657308
 10
-0.1827839775859505
 20
-1.940793999030464
 10
-0.1452129032040744
 20
-1.914684302563256
 10
-0.1000616613426287
 20
-1.893179345382352
 10
-0.0503002394656771
 20
-1.879493321100946
 10
-0.0025715090655811
 20
-1.875011660087832
 10
0.0466695786577158
 20
-1.878864188673969
 10
0.0921986140294068
 20
-1.890363685547852
 10
0.136408148374674
 20
-1.909725504573121
 10
0.1764285997321451
 20
-1.935753700854286
 10
0.2126775468805943
 20
-1.968735021022639
 10
0.2436412729902322
 20
-2.007715298746451
 10
0.2686017383178647
 20
-2.052324193208893
 10
0.2863766212330985
 20
-2.101257032163891
 10
0.296233403906352
 20
-2.153844420951939
 10
0.2973612251787392
 20
-2.207443905495578
 10
0.2893632207596263
 20
-2.261996661741504
 10
0.2727021832085631
 20
-2.313334228741049
 10
0.2467971695725122
 20
-2.362489448102392
 10
0.2143371044188261
 20
-2.404476268288857
 10
0.1738032310932085
 20
-2.441248219438782
 10
0.1305707167946742
 20
-2.468346642915295
 10
0.081700968048898
 20
-2.488001483050373
 10
0.034140056526476
 20
-2.497938087309889
 10
-0.0159338545228538
 20
-2.49955200994823
 10
-0.0625616349299918
 20
-2.493021316926254
 10
-0.1087312997398201
 20
-2.478413603985693
 10
-0.1508745916019466
 20
-2.456911869708006
 10
-0.190005650202073
 20
-2.428127237334802
 10
-0.2243175895594376
 20
-2.393082360535034
 10
-0.2533214887906873
 20
-2.351923960297643
 10
-0.2757840757970138
 20
-2.305726532860237
 10
-0.2908893146975848
 20
-2.25515697279029
 10
-0.2976324043934339
 20
-2.202353742653766
 10
-0.2955337886424056
 20
-2.147660247710521
 10
-0.284533133775164
 20
-2.094798454948958
 10
-0.2641924765284836
 20
-2.043092874092776
 10
-0.2424518266804284
 20
-2.005956407984777
 10
-0.2152669301616809
 20
-1.971538501613284
  0
CIRCLE
  5
13E
330
10C
100
AcDbEntity
  8
AM_4
100
AcDbCircle
 10
0.0
 20
-2.1875
 30
0.0
 40
0.2633
  0
CIRCLE
  5
13F
330
10C
100
AcDbEntity
  8
AM_5
100
AcDbCircle
 10
0.0000000000000001
 20
-2.1875
 30
0.0
 40
0.3124999999999999
  0
ENDBLK
  5
10F
330
10C
100
AcDbEntity
  8
0
100
AcDbBlockEnd
  0
BLOCK
  5
142
330
140
100
AcDbEntity
  8
0
100
AcDbBlockBegin
  2
5_3_15_16I_0_in_023143_4
 70
     2
 10
0.0
 20
0.0
 30
0.0
  3
5_3_15_16I_0_in_023143_4
  1

  0
ATTDEF
  5
144
330
140
100
AcDbEntity
  8
AM_6
100
AcDbText
 10
8.19
 20
3.5625
 30
0.0
 40
0.5
  1
E-Type Insert -Inch
100
AcDbAttributeDefinition
  3

  2
NN
 70
     8
280
     0
  0
ATTDEF
  5
145
330
140
100
AcDbEntity
  8
AM_6
100
AcDbText
 10
8.19
 20
3.0625
 30
0.0
 40
0.5
  1
E-Type Bearings
100
AcDbAttributeDefinition
  3

  2
NT
 70
     8
280
     0
  0
ATTDEF
  5
146
330
140
100
AcDbEntity
  8
AM_6
100
AcDbText
 10
8.19
 20
2.5625
 30
0.0
 40
0.5
  1
3-15/16I
100
AcDbAttributeDefinition
  3

  2
NB
 70
     8
280
     0
  0
ATTDEF
  5
147
330
140
100
AcDbEntity
  8
AM_6
100
AcDbText
 10
8.19
 20
2.0625
 30
0.0
 40
0.5
  1
$BORE.I
100
AcDbAttributeDefinition
  3

  2
NBSYN
 70
     8
280
     0
  0
ATTDEF
  5
148
330
140
100
AcDbEntity
  8
AM_6
100
AcDbText
 10
8.19
 20
1.5625
 30
0.0
 40
0.5
  1
3-15/16I
100
AcDbAttributeDefinition
  3

  2
LINA
 70
     8
280
     0
  0
ATTDEF
  5
149
330
140
100
AcDbEntity
  8
AM_6
100
AcDbText
 10
8.19
 20
1.0625
 30
0.0
 40
0.5
  1
3-15/16
100
AcDbAttributeDefinition
  3

  2
BORE
 70
     8
280
     0
  0
ATTDEF
  5
14A
330
140
100
AcDbEntity
  8
AM_6
100
AcDbText
 10
8.19
 20
0.5625
 30
0.0
 40
0.5
  1
6.25
100
AcDbAttributeDefinition
  3

  2
A
 70
     8
280
     0
  0
ATTDEF
  5
14B
330
140
100
AcDbEntity
  8
AM_6
100
AcDbText
 10
8.19
 20
0.0625
 30
0.0
 40
0.5
  1
3.12
100
AcDbAttributeDefinition
  3

  2
B
 70
     8
280
     0
  0
ATTDEF
  5
14C
330
140
100
AcDbEntity
  8
AM_6
100
AcDbText
 10
8.19
 20
-0.4375
 30
0.0
 40
0.5
  1
4.50
100
AcDbAttributeDefinition
  3

  2
C
 70
     8
280
     0
  0
ATTDEF
  5
14D
330
140
100
AcDbEntity
  8
AM_6
100
AcDbText
 10
8.19
 20
-0.9375
 30
0.0
 40
0.5
  1
6.38
100
AcDbAttributeDefinition
  3

  2
D
 70
     8
280
     0
  0
ATTDEF
  5
14E
330
140
100
AcDbEntity
  8
AM_6
100
AcDbText
 10
8.19
 20
-1.4375
 30
0.0
 40
0.5
  1
0.66
100
AcDbAttributeDefinition
  3

  2
E
 70
     8
280
     0
  0
ATTDEF
  5
14F
330
140
100
AcDbEntity
  8
AM_6
100
AcDbText
 10
8.19
 20
-1.9375
 30
0.0
 40
0.5
  1
0.50
100
AcDbAttributeDefinition
  3

  2
F
 70
     8
280
     0
  0
ATTDEF
  5
150
330
140
100
AcDbEntity
  8
AM_6
100
AcDbText
 10
8.19
 20
-2.4375
 30
0.0
 40
0.5
  1
baldor
100
AcDbAttributeDefinition
  3

  2
COMPANY
 70
     8
280
     0
  0
LINE
  5
151
330
140
100
AcDbEntity
  8
AM_9
100
AcDbLine
 10
2.039047566147771
 20
3.3925
 30
0.0
 11
1.784250547255242
 21
3.3925
 31
0.0
  0
LINE
  5
152
330
140
100
AcDbEntity
  8
AM_9
100
AcDbLine
 10
1.784125865163847
 20
2.7325
 30
0.0
 11
2.039170777895249
 21
2.7325
 31
0.0
  0
LWPOLYLINE
  5
153
330
140
100
AcDbEntity
  8
AM_9
100
AcDbPolyline
 90
        9
 70
     0
 43
0.0
 10
1.891798822840288
 20
3.187204272029302
 10
1.884964355752125
 20
3.234503868682407
 10
1.875360662700118
 20
3.278446747866935
 10
1.862691368900238
 20
3.317494020120581
 10
1.847481842991392
 20
3.348730323847795
 10
1.829058502630537
 20
3.372598461516363
 10
1.808805981813702
 20
3.387006986309721
 10
1.785862173958416
 20
3.392479038394185
 10
1.784301994950286
 20
3.392499999381406
  0
LWPOLYLINE
  5
154
330
140
100
AcDbEntity
  8
AM_9
100
AcDbPolyline
 90
        7
 70
     0
 43
0.0
 10
1.891742806685971
 20
2.937307204711356
 10
1.894746336576238
 20
2.967880452555975
 10
1.89788633926064
 20
3.023363381715791
 10
1.898418554856063
 20
3.07773088535326
 10
1.896438970547202
 20
3.133240320311199
 10
1.892061676862793
 20
3.184879212185562
 10
1.891798822840288
 20
3.187204272029302
  0
LWPOLYLINE
  5
155
330
140
100
AcDbEntity
  8
AM_9
100
AcDbPolyline
 90
        9
 70
     0
 43
0.0
 10
1.784282218704358
 20
2.732500001071148
 10
1.799207056063455
 20
2.734468884608024
 10
1.820115872399585
 20
2.744752690649287
 10
1.83935426699404
 20
2.764210374747981
 10
1.855624193035854
 20
2.791354809681275
 10
1.869604705225741
 20
2.826867910331735
 10
1.880607346618944
 20
2.868379219369559
 10
1.889120458567551
 20
2.916710447890908
 10
1.891742806685971
 20
2.937307204711356
  0
LWPOLYLINE
  5
156
330
140
100
AcDbEntity
  8
AM_9
100
AcDbPolyline
 90
       10
 70
     0
 43
0.0
 10
1.784301994950286
 20
3.392499999381406
 10
1.762424109866271
 20
3.388633895755807
 10
1.737587238445396
 20
3.375497818446588
 10
1.71360493756089
 20
3.354215203039832
 10
1.690006752340035
 20
3.324198055650593
 10
1.668784399066291
 20
3.287451939230084
 10
1.64996808991248
 20
3.243225872719703
 10
1.635374200105957
 20
3.194835758440679
 10
1.625043471100621
 20
3.141121342220627
 10
1.619584964076881
 20
3.0625
  0
LWPOLYLINE
  5
157
330
140
100
AcDbEntity
  8
AM_9
100
AcDbPolyline
 90
       11
 70
     0
 43
0.0
 10
2.156455789917584
 20
3.044047573904734
 10
2.154304044894745
 20
2.990563307342161
 10
2.149456732858206
 20
2.938104226687895
 10
2.141914682961401
 20
2.889112749819562
 10
2.131532319041113
 20
2.844688754082995
 10
2.118381845544203
 20
2.806345228979192
 10
2.102341515557486
 20
2.775011746803393
 10
2.083706083454755
 20
2.751809699709473
 10
2.062798808726757
 20
2.737574294062983
 10
2.040046614745505
 20
2.732506200298957
 10
2.039197933045964
 20
2.732500000248493
  0
LWPOLYLINE
  5
158
330
140
100
AcDbEntity
  8
AM_9
100
AcDbPolyline
 90
       11
 70
     0
 43
0.0
 10
2.039180653255053
 20
3.392499998805263
 10
2.054354107032967
 20
3.390474039456843
 10
2.075778946236114
 20
3.379816269347093
 10
2.095117138549552
 20
3.360414660889279
 10
2.112044154861157
 20
3.332597285822628
 10
2.126328153443735
 20
3.297310786466519
 10
2.137933803765895
 20
3.255008931055774
 10
2.14673361499658
 20
3.207249495644122
 10
2.152725783694558
 20
3.155258232267907
 10
2.155967670132255
 20
3.100596912303112
 10
2.156484999501742
 20
3.079045342934234
  0
LWPOLYLINE
  5
159
330
140
100
AcDbEntity
  8
AM_9
100
AcDbPolyline
 90
       10
 70
     0
 43
0.0
 10
2.039197933045964
 20
2.732500000248493
 10
2.016243976027023
 20
2.736808630939521
 10
1.991935160115818
 20
2.750130468604249
 10
1.967947453817253
 20
2.772184465591985
 10
1.945145832673893
 20
2.802230272438295
 10
1.924266722335784
 20
2.839902875115725
 10
1.90637663957952
 20
2.88382672826898
 10
1.89226920045603
 20
2.9331228820272
 10
1.882649144469624
 20
2.986134936451603
 10
1.877676611179536
 20
3.0625
  0
LINE
  5
15A
330
140
100
AcDbEntity
  8
AM_9
100
AcDbLine
 10
2.039047566147771
 20
-1.8575
 30
0.0
 11
1.784250547255242
 21
-1.8575
 31
0.0
  0
LINE
  5
15B
330
140
100
AcDbEntity
  8
AM_9
100
AcDbLine
 10
1.784125865163847
 20
-2.5175
 30
0.0
 11
2.039170777895249
 21
-2.5175
 31
0.0
  0
LWPOLYLINE
  5
15C
330
140
100
AcDbEntity
  8
AM_9
100
AcDbPolyline
 90
        9
 70
     0
 43
0.0
 10
1.891798822840288
 20
-2.062795727970698
 10
1.884964355752125
 20
-2.015496131317593
 10
1.875360662700118
 20
-1.971553252133066
 10
1.862691368900239
 20
-1.932505979879419
 10
1.847481842991392
 20
-1.901269676152205
 10
1.829058502630537
 20
-1.877401538483637
 10
1.808805981813702
 20
-1.862993013690279
 10
1.785862173958416
 20
-1.857520961605815
 10
1.784301994950286
 20
-1.857500000618594
  0
LWPOLYLINE
  5
15D
330
140
100
AcDbEntity
  8
AM_9
100
AcDbPolyline
 90
        7
 70
     0
 43
0.0
 10
1.891742806685971
 20
-2.312692795288643
 10
1.894746336576238
 20
-2.282119547444025
 10
1.89788633926064
 20
-2.22663661828421
 10
1.898418554856063
 20
-2.17226911464674
 10
1.896438970547202
 20
-2.116759679688801
 10
1.892061676862793
 20
-2.065120787814438
 10
1.891798822840288
 20
-2.062795727970698
  0
LWPOLYLINE
  5
15E
330
140
100
AcDbEntity
  8
AM_9
100
AcDbPolyline
 90
        9
 70
     0
 43
0.0
 10
1.784282218704358
 20
-2.517499998928852
 10
1.799207056063455
 20
-2.515531115391976
 10
1.820115872399585
 20
-2.505247309350713
 10
1.83935426699404
 20
-2.485789625252019
 10
1.855624193035854
 20
-2.458645190318725
 10
1.869604705225741
 20
-2.423132089668265
 10
1.880607346618944
 20
-2.381620780630441
 10
1.889120458567551
 20
-2.333289552109092
 10
1.891742806685971
 20
-2.312692795288643
  0
LWPOLYLINE
  5
15F
330
140
100
AcDbEntity
  8
AM_9
100
AcDbPolyline
 90
       10
 70
     0
 43
0.0
 10
1.784301994950286
 20
-1.857500000618594
 10
1.762424109866271
 20
-1.861366104244193
 10
1.737587238445396
 20
-1.874502181553411
 10
1.71360493756089
 20
-1.895784796960168
 10
1.690006752340035
 20
-1.925801944349406
 10
1.668784399066291
 20
-1.962548060769915
 10
1.64996808991248
 20
-2.006774127280297
 10
1.635374200105957
 20
-2.055164241559321
 10
1.625043471100621
 20
-2.108878657779373
 10
1.619584964076881
 20
-2.1875
  0
LWPOLYLINE
  5
160
330
140
100
AcDbEntity
  8
AM_9
100
AcDbPolyline
 90
       11
 70
     0
 43
0.0
 10
2.155979233514015
 20
-2.225251232391303
 10
2.154304044894745
 20
-2.259436692657839
 10
2.149456732858206
 20
-2.311895773312105
 10
2.141914682961401
 20
-2.360887250180438
 10
2.131532319041113
 20
-2.405311245917006
 10
2.118381845544203
 20
-2.443654771020809
 10
2.102341515557486
 20
-2.474988253196607
 10
2.083706083454755
 20
-2.498190300290527
 10
2.062798808726757
 20
-2.512425705937017
 10
2.040046614745505
 20
-2.517493799701043
 10
2.039197933045964
 20
-2.517499999751507
  0
LWPOLYLINE
  5
161
330
140
100
AcDbEntity
  8
AM_9
100
AcDbPolyline
 90
       10
 70
     0
 43
0.0
 10
2.039180653255053
 20
-1.857500001194736
 10
2.054354107032967
 20
-1.859525960543156
 10
2.075778946236114
 20
-1.870183730652907
 10
2.095117138549552
 20
-1.889585339110721
 10
2.112044154861158
 20
-1.917402714177372
 10
2.126328153443735
 20
-1.952689213533481
 10
2.137933803765895
 20
-1.994991068944225
 10
2.14673361499658
 20
-2.042750504355877
 10
2.152725783694558
 20
-2.094741767732093
 10
2.155686399380189
 20
-2.141808760793839
  0
LWPOLYLINE
  5
162
330
140
100
AcDbEntity
  8
AM_9
100
AcDbPolyline
 90
       10
 70
     0
 43
0.0
 10
2.039197933045964
 20
-2.517499999751507
 10
2.016243976027023
 20
-2.513191369060479
 10
1.991935160115818
 20
-2.499869531395752
 10
1.967947453817253
 20
-2.477815534408016
 10
1.945145832673893
 20
-2.447769727561705
 10
1.924266722335784
 20
-2.410097124884275
 10
1.906376639579521
 20
-2.36617327173102
 10
1.89226920045603
 20
-2.316877117972799
 10
1.882649144469623
 20
-2.263865063548396
 10
1.877676611179536
 20
-2.1875
  0
LWPOLYLINE
  5
163
330
140
100
AcDbEntity
  8
AM_9
100
AcDbPolyline
 90
       11
 70
     0
 43
0.0
 10
1.619584964076881
 20
3.0625
 10
1.622162668942793
 20
3.008320415197573
 10
1.630057211331448
 20
2.954140830395146
 10
1.642419594751424
 20
2.90452810805087
 10
1.659324207819381
 20
2.858011141892519
 10
1.679247820188735
 20
2.818066873728532
 10
1.702272310825656
 20
2.78397418670843
 10
1.726305013036321
 20
2.758438901119034
 10
1.751626746005861
 20
2.740970654594451
 10
1.77564592752785
 20
2.733121198468465
 10
1.784282218704358
 20
2.732500001071148
  0
LWPOLYLINE
  5
164
330
140
100
AcDbEntity
  8
AM_9
100
AcDbPolyline
 90
       11
 70
     0
 43
0.0
 10
1.619584964076881
 20
-2.1875
 10
1.622162668942793
 20
-2.241679584802427
 10
1.630057211331448
 20
-2.295859169604854
 10
1.642419594751424
 20
-2.34547189194913
 10
1.659324207819381
 20
-2.391988858107481
 10
1.679247820188736
 20
-2.431933126271469
 10
1.702272310825657
 20
-2.46602581329157
 10
1.726305013036322
 20
-2.491561098880966
 10
1.751626746005861
 20
-2.509029345405549
 10
1.77564592752785
 20
-2.516878801531536
 10
1.784282218704358
 20
-2.517499998928852
  0
LINE
  5
165
330
140
100
AcDbEntity
  8
AM_9
100
AcDbLine
 10
1.96875
 20
-2.6875
 30
0.0
 11
1.96875
 21
3.562499999999999
 31
0.0
  0
LINE
  5
166
330
140
100
AcDbEntity
  8
AM_9
100
AcDbLine
 10
-1.96875
 20
3.562499999999999
 30
0.0
 11
-1.96875
 21
-2.6875
 31
0.0
  0
LWPOLYLINE
  5
167
330
140
100
AcDbEntity
  8
AM_9
100
AcDbPolyline
 90
       38
 70
     0
 43
0.0
 10
-0.33
 20
3.0625
 10
-0.3255049089045431
 20
3.116782172755381
 10
-0.3116308439224522
 20
3.171064345510763
 10
-0.2895666932252117
 20
3.220775488230541
 10
-0.2586975059833158
 20
3.267379477737553
 10
-0.2213073632188003
 20
3.307291852366745
 10
-0.1764997378573137
 20
3.34133300116073
 10
-0.1277643244134054
 20
3.366763499958812
 10
-0.0738544741392975
 20
3.38412947105265
 10
-0.019751623930624
 20
3.391908368673449
 10
0.0365106757313632
 20
3.390474039456843
 10
0.0897488170158788
 20
3.38006125368856
 10
0.141939616834856
 20
3.360414660889279
 10
0.1889263935206991
 20
3.33306758459073
 10
0.2318704262276131
 20
3.297310786466519
 10
0.2675507947621388
 20
3.255674978250673
 10
0.2965595783493972
 20
3.207249495644122
 10
0.3164621419989997
 20
3.156050588888606
 10
0.3277935711281859
 20
3.100596912303112
 10
0.3295939238549731
 20
3.046134018273193
 10
0.3220638325696499
 20
2.99056330734216
 10
0.3059429904575711
 20
2.938811332007016
 10
0.2807790260594017
 20
2.889112749819562
 10
0.2484037635600513
 20
2.845254585205574
 10
0.2080498336535682
 20
2.806345228979192
 10
0.1626707200052015
 20
2.775379403641973
 10
0.11122741256265
 20
2.751809699709473
 10
0.0582579230021332
 20
2.73768310633916
 10
0.0020229085169298
 20
2.732506200298957
 10
-0.0521694781490269
 20
2.736649811186708
 10
-0.1064202793437348
 20
2.750130468604249
 10
-0.1561649211386646
 20
2.771789633129889
 10
-0.2028784584793467
 20
2.802230272438296
 10
-0.2430678463639254
 20
2.839300488208413
 10
-0.2774452413881581
 20
2.883826728268981
 10
-0.3032560016853083
 20
2.932362390363737
 10
-0.3210426405779293
 20
2.986134936451604
 10
-0.33
 20
3.0625
  0
LWPOLYLINE
  5
168
330
140
100
AcDbEntity
  8
AM_9
100
AcDbPolyline
 90
       11
 70
     0
 43
0.0
 10
1.877676611179536
 20
3.0625
 10
1.880271746402542
 20
3.117562261214315
 10
1.887838041368641
 20
3.171064345510763
 10
1.900077138646098
 20
3.221443696294787
 10
1.916338697914036
 20
3.267379477737553
 10
1.936083854450058
 20
3.307796235998819
 10
1.958316728253737
 20
3.34133300116073
 10
1.98226147057352
 20
3.367046066386122
 10
2.006881432904629
 20
3.38412947105265
 10
2.031105990582734
 20
3.391921562493003
 10
2.039180653255053
 20
3.392499998805263
  0
LINE
  5
169
330
140
100
AcDbEntity
  8
AM_9
100
AcDbLine
 10
2.250000000000001
 20
1.9975
 30
0.0
 11
2.250000000000001
 21
3.5625
 31
0.0
  0
LINE
  5
16A
330
140
100
AcDbEntity
  8
AM_9
100
AcDbLine
 10
-2.250000000000001
 20
3.5625
 30
0.0
 11
-2.250000000000001
 21
1.9975
 31
0.0
  0
LWPOLYLINE
  5
16B
330
140
100
AcDbEntity
  8
AM_9
100
AcDbPolyline
 90
       38
 70
     0
 43
0.0
 10
-0.33
 20
-2.1875
 10
-0.3255049089045431
 20
-2.133217827244619
 10
-0.3116308439224522
 20
-2.078935654489237
 10
-0.2895666932252117
 20
-2.029224511769459
 10
-0.2586975059833158
 20
-1.982620522262447
 10
-0.2213073632188004
 20
-1.942708147633255
 10
-0.1764997378573135
 20
-1.90866699883927
 10
-0.1277643244134053
 20
-1.883236500041187
 10
-0.0738544741392972
 20
-1.865870528947349
 10
-0.0197516239306239
 20
-1.85809163132655
 10
0.036510675731363
 20
-1.859525960543156
 10
0.0897488170158786
 20
-1.869938746311439
 10
0.1419396168348559
 20
-1.88958533911072
 10
0.1889263935206991
 20
-1.91693241540927
 10
0.2318704262276132
 20
-1.952689213533481
 10
0.2675507947621385
 20
-1.994325021749327
 10
0.296559578349397
 20
-2.042750504355877
 10
0.3164621419989996
 20
-2.093949411111394
 10
0.3277935711281859
 20
-2.149403087696888
 10
0.3295939238549731
 20
-2.203865981726807
 10
0.32206383256965
 20
-2.259436692657839
 10
0.3059429904575711
 20
-2.311188667992984
 10
0.2807790260594019
 20
-2.360887250180438
 10
0.2484037635600509
 20
-2.404745414794426
 10
0.2080498336535681
 20
-2.443654771020809
 10
0.1626707200052017
 20
-2.474620596358027
 10
0.1112274125626503
 20
-2.498190300290527
 10
0.0582579230021332
 20
-2.51231689366084
 10
0.0020229085169298
 20
-2.517493799701043
 10
-0.0521694781490269
 20
-2.513350188813293
 10
-0.1064202793437348
 20
-2.499869531395751
 10
-0.1561649211386647
 20
-2.478210366870111
 10
-0.2028784584793467
 20
-2.447769727561705
 10
-0.2430678463639253
 20
-2.410699511791588
 10
-0.2774452413881578
 20
-2.36617327173102
 10
-0.3032560016853083
 20
-2.317637609636263
 10
-0.3210426405779293
 20
-2.263865063548396
 10
-0.33
 20
-2.1875
  0
LWPOLYLINE
  5
16C
330
140
100
AcDbEntity
  8
AM_9
100
AcDbPolyline
 90
       11
 70
     0
 43
0.0
 10
1.877676611179536
 20
-2.1875
 10
1.880271746402542
 20
-2.132437738785685
 10
1.887838041368641
 20
-2.078935654489237
 10
1.900077138646098
 20
-2.028556303705213
 10
1.916338697914036
 20
-1.982620522262448
 10
1.936083854450058
 20
-1.942203764001181
 10
1.958316728253737
 20
-1.90866699883927
 10
1.98226147057352
 20
-1.882953933613878
 10
2.006881432904629
 20
-1.865870528947349
 10
2.031105990582734
 20
-1.858078437506997
 10
2.039180653255053
 20
-1.857500001194736
  0
LINE
  5
16D
330
140
100
AcDbEntity
  8
AM_9
100
AcDbLine
 10
2.250000000000001
 20
-2.6875
 30
0.0
 11
2.250000000000001
 21
-1.1225
 31
0.0
  0
LINE
  5
16E
330
140
100
AcDbEntity
  8
AM_9
100
AcDbLine
 10
-2.250000000000001
 20
-1.1225
 30
0.0
 11
-2.250000000000001
 21
-2.6875
 31
0.0
  0
LINE
  5
16F
330
140
100
AcDbEntity
  8
AM_9
100
AcDbLine
 10
-3.19
 20
-1.1225
 30
0.0
 11
3.19
 21
-1.1225
 31
0.0
  0
LINE
  5
170
330
140
100
AcDbEntity
  8
AM_9
100
AcDbLine
 10
-3.19
 20
1.9975
 30
0.0
 11
3.19
 21
1.9975
 31
0.0
  0
LINE
  5
171
330
140
100
AcDbEntity
  8
AM_9
100
AcDbLine
 10
3.19
 20
-1.1225
 30
0.0
 11
3.19
 21
1.9975
 31
0.0
  0
LINE
  5
172
330
140
100
AcDbEntity
  8
AM_9
100
AcDbLine
 10
-3.19
 20
1.9975
 30
0.0
 11
-3.19
 21
-1.1225
 31
0.0
  0
ENDBLK
  5
143
330
140
100
AcDbEntity
  8
0
100
AcDbBlockEnd
  0
BLOCK
  5
175
330
173
100
AcDbEntity
  8
0
100
AcDbBlockBegin
  2
6_023143H_0_in_023143_4
 70
     2
 10
0.0
 20
0.0
 30
0.0
  3
6_023143H_0_in_023143_4
  1

  0
ATTDEF
  5
177
330
173
100
AcDbEntity
  8
AM_6
100
AcDbText
 10
10.4375
 20
4.95
 30
0.0
 40
0.5
  1
FC-E-Housing
100
AcDbAttributeDefinition
  3

  2
NN
 70
     8
280
     0
  0
ATTDEF
  5
178
330
173
100
AcDbEntity
  8
AM_6
100
AcDbText
 10
10.4375
 20
4.45
 30
0.0
 40
0.5
  1
Type E Piloted Flange -Inch
100
AcDbAttributeDefinition
  3

  2
NT
 70
     8
280
     0
  0
ATTDEF
  5
179
330
173
100
AcDbEntity
  8
AM_6
100
AcDbText
 10
10.4375
 20
3.95
 30
0.0
 40
0.5
  1
023143H
100
AcDbAttributeDefinition
  3

  2
NB
 70
     8
280
     0
  0
ATTDEF
  5
17A
330
173
100
AcDbEntity
  8
AM_6
100
AcDbText
 10
10.4375
 20
3.45
 30
0.0
 40
0.5
  1
$PN.H
100
AcDbAttributeDefinition
  3

  2
NBSYN
 70
     8
280
     0
  0
ATTDEF
  5
17B
330
173
100
AcDbEntity
  8
AM_6
100
AcDbText
 10
10.4375
 20
2.95
 30
0.0
 40
0.5
  1
023143
100
AcDbAttributeDefinition
  3

  2
LINA
 70
     8
280
     0
  0
ATTDEF
  5
17C
330
173
100
AcDbEntity
  8
AM_6
100
AcDbText
 10
10.4375
 20
2.45
 30
0.0
 40
0.5
  1
3-15/16
100
AcDbAttributeDefinition
  3

  2
SS
 70
     8
280
     0
  0
ATTDEF
  5
17D
330
173
100
AcDbEntity
  8
AM_6
100
AcDbText
 10
10.4375
 20
1.95
 30
0.0
 40
0.5
  1
023143
100
AcDbAttributeDefinition
  3

  2
PN
 70
     8
280
     0
  0
ATTDEF
  5
17E
330
173
100
AcDbEntity
  8
AM_6
100
AcDbText
 10
10.4375
 20
1.45
 30
0.0
 40
0.5
  1
FC-E-315R
100
AcDbAttributeDefinition
  3

  2
DESCRIPTION
 70
     8
280
     0
  0
ATTDEF
  5
17F
330
173
100
AcDbEntity
  8
AM_6
100
AcDbText
 10
10.4375
 20
0.9500000000000002
 30
0.0
 40
0.5
  1
6-1/4
100
AcDbAttributeDefinition
  3

  2
A
 70
     8
280
     0
  0
ATTDEF
  5
180
330
173
100
AcDbEntity
  8
AM_6
100
AcDbText
 10
10.4375
 20
0.4500000000000002
 30
0.0
 40
0.5
  1
10-7/8
100
AcDbAttributeDefinition
  3

  2
B
 70
     8
280
     0
  0
ATTDEF
  5
181
330
173
100
AcDbEntity
  8
AM_6
100
AcDbText
 10
10.4375
 20
-0.0499999999999998
 30
0.0
 40
0.5
  1
4-1/2
100
AcDbAttributeDefinition
  3

  2
C
 70
     8
280
     0
  0
ATTDEF
  5
182
330
173
100
AcDbEntity
  8
AM_6
100
AcDbText
 10
10.4375
 20
-0.5499999999999998
 30
0.0
 40
0.5
  1
9-3/8
100
AcDbAttributeDefinition
  3

  2
D
 70
     8
280
     0
  0
ATTDEF
  5
183
330
173
100
AcDbEntity
  8
AM_6
100
AcDbText
 10
10.4375
 20
-1.05
 30
0.0
 40
0.5
  1
1-1/2
100
AcDbAttributeDefinition
  3

  2
E
 70
     8
280
     0
  0
ATTDEF
  5
184
330
173
100
AcDbEntity
  8
AM_6
100
AcDbText
 10
10.4375
 20
-1.55
 30
0.0
 40
0.5
  1
3/4
100
AcDbAttributeDefinition
  3

  2
F
 70
     8
280
     0
  0
ATTDEF
  5
185
330
173
100
AcDbEntity
  8
AM_6
100
AcDbText
 10
10.4375
 20
-2.05
 30
0.0
 40
0.5
  1
2-11/16
100
AcDbAttributeDefinition
  3

  2
G
 70
     8
280
     0
  0
ATTDEF
  5
186
330
173
100
AcDbEntity
  8
AM_6
100
AcDbText
 10
10.4375
 20
-2.55
 30
0.0
 40
0.5
  1
1
100
AcDbAttributeDefinition
  3

  2
H
 70
     8
280
     0
  0
ATTDEF
  5
187
330
173
100
AcDbEntity
  8
AM_6
100
AcDbText
 10
10.4375
 20
-3.05
 30
0.0
 40
0.5
  1
8-1/8
100
AcDbAttributeDefinition
  3

  2
K
 70
     8
280
     0
  0
ATTDEF
  5
188
330
173
100
AcDbEntity
  8
AM_6
100
AcDbText
 10
10.4375
 20
-3.55
 30
0.0
 40
0.5
  1
6-1/8
100
AcDbAttributeDefinition
  3

  2
L
 70
     8
280
     0
  0
ATTDEF
  5
189
330
173
100
AcDbEntity
  8
AM_6
100
AcDbText
 10
10.4375
 20
-4.05
 30
0.0
 40
0.5
  1
1-13/16
100
AcDbAttributeDefinition
  3

  2
M
 70
     8
280
     0
  0
ATTDEF
  5
18A
330
173
100
AcDbEntity
  8
AM_6
100
AcDbText
 10
10.4375
 20
-4.55
 30
0.0
 40
0.5
  1
baldor
100
AcDbAttributeDefinition
  3

  2
COMPANY
 70
     8
280
     0
  0
LINE
  5
18B
330
173
100
AcDbEntity
  8
AM_9
100
AcDbLine
 10
-0.5
 20
-1.0
 30
0.0
 11
0.5
 21
-1.0
 31
0.0
  0
LINE
  5
18C
330
173
100
AcDbEntity
  8
AM_9
100
AcDbLine
 10
3.534375
 20
-1.0
 30
0.0
 11
3.534375
 21
-0.875
 31
0.0
  0
LINE
  5
18D
330
173
100
AcDbEntity
  8
AM_9
100
AcDbLine
 10
-3.534375
 20
-0.875
 30
0.0
 11
-3.534375
 21
-1.0
 31
0.0
  0
LINE
  5
18E
330
173
100
AcDbEntity
  8
AM_9
100
AcDbLine
 10
3.232368066920927
 20
-0.8749999999999998
 30
0.0
 11
3.232368066920927
 21
-0.9999999999999999
 31
0.0
  0
LINE
  5
18F
330
173
100
AcDbEntity
  8
AM_9
100
AcDbLine
 10
3.223182619266618
 20
-0.8749999999999998
 30
0.0
 11
3.223182619266618
 21
-0.9999999999999999
 31
0.0
  0
LINE
  5
190
330
173
100
AcDbEntity
  8
AM_9
100
AcDbLine
 10
3.205573147677814
 20
-0.8749999999999998
 30
0.0
 11
3.205573147677814
 21
-0.9999999999999999
 31
0.0
  0
LINE
  5
191
330
173
100
AcDbEntity
  8
AM_9
100
AcDbLine
 10
-3.232368066920926
 20
-0.8749999999999998
 30
0.0
 11
-3.232368066920926
 21
-0.9999999999999999
 31
0.0
  0
LINE
  5
192
330
173
100
AcDbEntity
  8
AM_9
100
AcDbLine
 10
-3.223182619266617
 20
-0.8749999999999998
 30
0.0
 11
-3.223182619266617
 21
-0.9999999999999999
 31
0.0
  0
LINE
  5
193
330
173
100
AcDbEntity
  8
AM_9
100
AcDbLine
 10
-3.205573147677814
 20
-0.9999999999999999
 30
0.0
 11
-3.205573147677814
 21
-0.8749999999999998
 31
0.0
  0
LINE
  5
194
330
173
100
AcDbEntity
  8
AM_9
100
AcDbLine
 10
3.709834467954154
 20
-0.8749999999999998
 30
0.0
 11
3.975365954271294
 21
-0.8749999999999997
 31
0.0
  0
LINE
  5
195
330
173
100
AcDbEntity
  8
AM_9
100
AcDbLine
 10
-3.975365954271296
 20
-0.8749999999999998
 30
0.0
 11
-3.709834467954152
 21
-0.8749999999999998
 31
0.0
  0
LINE
  5
196
330
173
100
AcDbEntity
  8
AM_9
100
AcDbLine
 10
3.19
 20
-1.8125
 30
0.0
 11
3.19
 21
2.687500000000001
 31
0.0
  0
LINE
  5
197
330
173
100
AcDbEntity
  8
AM_9
100
AcDbLine
 10
-3.19
 20
2.687500000000001
 30
0.0
 11
-3.19
 21
-1.8125
 31
0.0
  0
LINE
  5
198
330
173
100
AcDbEntity
  8
AM_9
100
AcDbLine
 10
3.689563036811942
 20
-0.9999999999999999
 30
0.0
 11
3.689563036811942
 21
0.0000000000000002
 31
0.0
  0
LINE
  5
199
330
173
100
AcDbEntity
  8
AM_9
100
AcDbLine
 10
2.939563036811941
 20
0.0000000000000002
 30
0.0
 11
2.939563036811941
 21
-0.9999999999999999
 31
0.0
  0
LINE
  5
19A
330
173
100
AcDbEntity
  8
AM_9
100
AcDbLine
 10
-2.939563036811941
 20
-0.9999999999999999
 30
0.0
 11
-2.939563036811941
 21
0.0000000000000002
 31
0.0
  0
LINE
  5
19B
330
173
100
AcDbEntity
  8
AM_9
100
AcDbLine
 10
-3.689563036811942
 20
0.0000000000000002
 30
0.0
 11
-3.689563036811942
 21
-0.9999999999999999
 31
0.0
  0
LINE
  5
19C
330
173
100
AcDbEntity
  8
AM_9
100
AcDbLine
 10
-3.98140259772596
 20
-0.8749999999999998
 30
0.0
 11
-3.98140259772596
 21
-0.9999999999999999
 31
0.0
  0
LINE
  5
19D
330
173
100
AcDbEntity
  8
AM_9
100
AcDbLine
 10
3.98140259772596
 20
-0.8749999999999998
 30
0.0
 11
3.98140259772596
 21
-0.9999999999999999
 31
0.0
  0
LINE
  5
19E
330
173
100
AcDbEntity
  8
AM_7
100
AcDbLine
 10
0.0
 20
4.95
 30
0.0
 11
0.0
 21
-4.8625
 31
0.0
  0
LINE
  5
19F
330
173
100
AcDbEntity
  8
AM_7
100
AcDbLine
 10
3.314563036811941
 20
0.0550000024999998
 30
0.0
 11
3.314563036811941
 21
-1.1550000525
 31
0.0
  0
LINE
  5
1A0
330
173
100
AcDbEntity
  8
AM_7
100
AcDbLine
 10
-3.314563036811941
 20
0.0550000025000002
 30
0.0
 11
-3.314563036811941
 21
-1.1550000525
 31
0.0
  0
LINE
  5
1A1
330
173
100
AcDbEntity
  8
AM_4
100
AcDbLine
 10
-1.45013807738525
 20
-0.8749999999999998
 30
0.0
 11
-1.45013807738525
 21
-0.9999999999999999
 31
0.0
  0
LINE
  5
1A2
330
173
100
AcDbEntity
  8
AM_4
100
AcDbLine
 10
1.450138089634348
 20
-0.8749999999999998
 30
0.0
 11
1.450138089634348
 21
-0.9999999999999999
 31
0.0
  0
LINE
  5
1A3
330
173
100
AcDbEntity
  8
AM_4
100
AcDbLine
 10
3.58875
 20
-1.8125
 30
0.0
 11
-3.58875
 21
-1.8125
 31
0.0
  0
LINE
  5
1A4
330
173
100
AcDbEntity
  8
AM_4
100
AcDbLine
 10
3.58875
 20
-1.8125
 30
0.0
 11
3.58875
 21
-1.0
 31
0.0
  0
LINE
  5
1A5
330
173
100
AcDbEntity
  8
AM_4
100
AcDbLine
 10
-3.58875
 20
-1.0
 30
0.0
 11
-3.58875
 21
-1.8125
 31
0.0
  0
LINE
  5
1A6
330
173
100
AcDbEntity
  8
AM_4
100
AcDbLine
 10
-0.5
 20
-0.9999999999999997
 30
0.0
 11
-4.084563036811945
 21
-0.9999999999999999
 31
0.0
  0
LINE
  5
1A7
330
173
100
AcDbEntity
  8
AM_4
100
AcDbLine
 10
-4.084563036811945
 20
-0.8749999999999998
 30
0.0
 11
-4.084563036811945
 21
-0.9999999999999999
 31
0.0
  0
LINE
  5
1A8
330
173
100
AcDbEntity
  8
AM_4
100
AcDbLine
 10
4.084563036811944
 20
-0.9999999999999999
 30
0.0
 11
4.084563036811944
 21
-0.8749999999999998
 31
0.0
  0
LINE
  5
1A9
330
173
100
AcDbEntity
  8
AM_4
100
AcDbLine
 10
4.084563036811944
 20
-0.9999999999999999
 30
0.0
 11
0.5
 21
-0.9999999999999997
 31
0.0
  0
LINE
  5
1AA
330
173
100
AcDbEntity
  8
AM_4
100
AcDbLine
 10
-3.663849094661221
 20
2.6875
 30
0.0
 11
3.663849094661042
 21
2.6875
 31
0.0
  0
ARC
  5
1AB
330
173
100
AcDbEntity
  8
AM_4
100
AcDbCircle
 10
3.663849094661219
 20
2.587499999999996
 30
0.0
 40
0.1000000000000036
100
AcDbArc
 50
5.000000000001451
 51
90.0
  0
ARC
  5
1AC
330
173
100
AcDbEntity
  8
AM_4
100
AcDbCircle
 10
-3.663849094661219
 20
2.587499999999996
 30
0.0
 40
0.1000000000000041
100
AcDbArc
 50
90.0
 51
174.9999999999986
  0
LINE
  5
1AD
330
173
100
AcDbEntity
  8
AM_4
100
AcDbLine
 10
-3.763468564470397
 20
2.596215574274765
 30
0.0
 11
3.763468564470397
 21
2.596215574274765
 31
0.0
  0
LINE
  5
1AE
330
173
100
AcDbEntity
  8
AM_4
100
AcDbLine
 10
-3.763468564470397
 20
2.596215574274765
 30
0.0
 11
-3.859375
 21
1.5
 31
0.0
  0
LINE
  5
1AF
330
173
100
AcDbEntity
  8
AM_4
100
AcDbLine
 10
3.859375
 20
1.5
 30
0.0
 11
3.763468564470397
 21
2.596215574274765
 31
0.0
  0
LINE
  5
1B0
330
173
100
AcDbEntity
  8
AM_4
100
AcDbLine
 10
1.632197172834107
 20
-0.8749999999999998
 30
0.0
 11
1.632197172834107
 21
-0.9999999999999999
 31
0.0
  0
LINE
  5
1B1
330
173
100
AcDbEntity
  8
AM_4
100
AcDbLine
 10
-1.632197172834106
 20
-0.8749999999999998
 30
0.0
 11
-1.632197172834106
 21
-0.9999999999999999
 31
0.0
  0
LINE
  5
1B2
330
173
100
AcDbEntity
  8
AM_4
100
AcDbLine
 10
-4.0625
 20
1.5
 30
0.0
 11
4.0625
 21
1.5
 31
0.0
  0
LINE
  5
1B3
330
173
100
AcDbEntity
  8
AM_4
100
AcDbLine
 10
4.0625
 20
0.0
 30
0.0
 11
4.0625
 21
1.5
 31
0.0
  0
LINE
  5
1B4
330
173
100
AcDbEntity
  8
AM_4
100
AcDbLine
 10
-4.0625
 20
1.5
 30
0.0
 11
-4.0625
 21
0.0
 31
0.0
  0
LINE
  5
1B5
330
173
100
AcDbEntity
  8
AM_4
100
AcDbLine
 10
2.929563036811942
 20
-0.8749999999999997
 30
0.0
 11
2.929563036811942
 21
-0.9999999999999997
 31
0.0
  0
LINE
  5
1B6
330
173
100
AcDbEntity
  8
AM_4
100
AcDbLine
 10
-2.929563036811941
 20
-0.8749999999999997
 30
0.0
 11
-2.929563036811941
 21
-0.9999999999999997
 31
0.0
  0
LINE
  5
1B7
330
173
100
AcDbEntity
  8
AM_4
100
AcDbLine
 10
0.5
 20
-0.8749999999999997
 30
0.0
 11
0.5
 21
-1.787908818818947
 31
0.0
  0
LINE
  5
1B8
330
173
100
AcDbEntity
  8
AM_4
100
AcDbLine
 10
-0.5
 20
-0.8749999999999997
 30
0.0
 11
-0.5
 21
-1.787908818818946
 31
0.0
  0
LWPOLYLINE
  5
1B9
330
173
100
AcDbEntity
  8
AM_4
100
AcDbPolyline
 90
        5
 70
     0
 43
0.0
 10
-0.5000000000000095
 20
-1.787908818818946
 10
-0.1883677815377227
 20
-1.763474033927281
 10
0.1246980294816425
 20
-1.761213967815353
 10
0.4368148132019236
 20
-1.781145820950941
 10
0.5000000000000173
 20
-1.787908818818947
  0
LINE
  5
1BA
330
173
100
AcDbEntity
  8
AM_4
100
AcDbLine
 10
3.709834467954155
 20
-0.8749999999999997
 30
0.0
 11
-3.709834467954152
 21
-0.8749999999999997
 31
0.0
  0
LINE
  5
1BB
330
173
100
AcDbEntity
  8
AM_4
100
AcDbLine
 10
-3.709834467954152
 20
-0.8749999999999997
 30
0.0
 11
-3.709834467954152
 21
-0.9999999999999997
 31
0.0
  0
LINE
  5
1BC
330
173
100
AcDbEntity
  8
AM_4
100
AcDbLine
 10
3.709834467954155
 20
-0.9999999999999997
 30
0.0
 11
3.709834467954155
 21
-0.8749999999999997
 31
0.0
  0
LINE
  5
1BD
330
173
100
AcDbEntity
  8
AM_4
100
AcDbLine
 10
3.975365954271294
 20
-0.8749999999999997
 30
0.0
 11
3.975365954271294
 21
-0.9999999999999997
 31
0.0
  0
LINE
  5
1BE
330
173
100
AcDbEntity
  8
AM_4
100
AcDbLine
 10
-3.975365954271296
 20
-0.8749999999999997
 30
0.0
 11
-5.4375
 21
-0.875
 31
0.0
  0
LINE
  5
1BF
330
173
100
AcDbEntity
  8
AM_4
100
AcDbLine
 10
-3.975365954271296
 20
-0.9999999999999997
 30
0.0
 11
-3.975365954271296
 21
-0.8749999999999997
 31
0.0
  0
LINE
  5
1C0
330
173
100
AcDbEntity
  8
AM_4
100
AcDbLine
 10
5.4375
 20
-0.875
 30
0.0
 11
5.4375
 21
-0.2500000000000001
 31
0.0
  0
LINE
  5
1C1
330
173
100
AcDbEntity
  8
AM_4
100
AcDbLine
 10
-5.4375
 20
-0.2500000000000001
 30
0.0
 11
-5.4375
 21
-0.875
 31
0.0
  0
LINE
  5
1C2
330
173
100
AcDbEntity
  8
AM_4
100
AcDbLine
 10
5.4375
 20
-0.875
 30
0.0
 11
3.975365954271294
 21
-0.8749999999999997
 31
0.0
  0
LINE
  5
1C3
330
173
100
AcDbEntity
  8
AM_4
100
AcDbLine
 10
-5.1875
 20
0.0
 30
0.0
 11
5.1875
 21
0.0
 31
0.0
  0
LINE
  5
1C4
330
173
100
AcDbEntity
  8
AM_4
100
AcDbLine
 10
-5.4375
 20
-0.2500000000000001
 30
0.0
 11
5.4375
 21
-0.2500000000000001
 31
0.0
  0
LINE
  5
1C5
330
173
100
AcDbEntity
  8
AM_4
100
AcDbLine
 10
-5.1875
 20
0.0
 30
0.0
 11
-5.4375
 21
-0.2500000000000001
 31
0.0
  0
LINE
  5
1C6
330
173
100
AcDbEntity
  8
AM_4
100
AcDbLine
 10
5.4375
 20
-0.2500000000000001
 30
0.0
 11
5.1875
 21
0.0
 31
0.0
  0
ENDBLK
  5
176
330
173
100
AcDbEntity
  8
0
100
AcDbBlockEnd
  0
ENDSEC
  0
SECTION
  2
ENTITIES
  0
INSERT
  5
6F
330
1F
100
AcDbEntity
  8
0
100
AcDbBlockReference
  2
1_023143_4
 10
0.0
 20
0.0
 30
0.0
  0
POINT
  5
1C8
330
1F
100
AcDbEntity
  8
ConnectionPoints
100
AcDbPoint
 10
0.0
 20
3.5625
 30
-0.0000000000000002
  0
POINT
  5
1C9
330
1F
100
AcDbEntity
  8
ConnectionPoints
100
AcDbPoint
 10
0.0
 20
-2.6875
 30
0.0000000000000002
  0
POINT
  5
1CA
330
1F
100
AcDbEntity
  8
ConnectionPoints
100
AcDbPoint
 10
0.0
 20
-2.6875
 30
0.0000000000000002
  0
POINT
  5
1CB
330
1F
100
AcDbEntity
  8
ConnectionPoints
100
AcDbPoint
 10
0.0
 20
3.5625
 30
-0.0000000000000002
  0
POINT
  5
1CC
330
1F
100
AcDbEntity
  8
ConnectionPoints
100
AcDbPoint
 10
0.0
 20
0.4375
 30
0.0
  0
POINT
  5
1CD
330
1F
100
AcDbEntity
  8
ConnectionPoints
100
AcDbPoint
 10
0.0
 20
2.640625
 30
-0.0000000000000002
  0
POINT
  5
1CE
330
1F
100
AcDbEntity
  8
ConnectionPoints
100
AcDbPoint
 10
0.0
 20
-1.343749999976378
 30
4.100063606520944
  0
POINT
  5
1CF
330
1F
100
AcDbEntity
  8
ConnectionPoints
100
AcDbPoint
 10
0.0
 20
0.4375
 30
0.0
  0
ENDSEC
  0
SECTION
  2
OBJECTS
  0
DICTIONARY
  5
C
330
0
100
AcDbDictionary
281
     1
  3
ACAD_DETAILVIEWSTYLE
350
1D7
  3
ACAD_GROUP
350
D
  3
ACAD_LAYOUT
350
1A
  3
ACAD_MATERIAL
350
43
  3
ACAD_MLEADERSTYLE
350
6B
  3
ACAD_MLINESTYLE
350
17
  3
ACAD_PLOTSETTINGS
350
19
  3
ACAD_PLOTSTYLENAME
350
E
  3
ACAD_SCALELIST
350
47
  3
ACAD_SECTIONVIEWSTYLE
350
1D8
  3
ACAD_TABLESTYLE
350
69
  3
ACAD_VISUALSTYLE
350
2A
  3
ACDB_RECOMPOSE_DATA
350
1D4
  3
AcDbVariableDictionary
350
1D0
  0
SUN
  5
6D
330
29
100
AcDbSun
 90
        1
290
     0
 63
     7
421
 16777215
 40
1.0
291
     1
 91
  2455826
 92
 54000000
292
     0
 70
     2
 71
   256
280
     1
  0
DICTIONARY
  5
1D7
102
{ACAD_REACTORS
330
C
102
}
330
C
100
AcDbDictionary
281
     1
  0
DICTIONARY
  5
D
102
{ACAD_REACTORS
330
C
102
}
330
C
100
AcDbDictionary
281
     1
  0
DICTIONARY
  5
1A
102
{ACAD_REACTORS
330
C
102
}
330
C
100
AcDbDictionary
281
     1
  3
Layout1
350
1E
  3
Layout2
350
26
  3
Model
350
22
  0
DICTIONARY
  5
43
102
{ACAD_REACTORS
330
C
102
}
330
C
100
AcDbDictionary
281
     1
  3
ByBlock
350
45
  3
ByLayer
350
44
  3
Global
350
46
  0
DICTIONARY
  5
6B
102
{ACAD_REACTORS
330
C
102
}
330
C
100
AcDbDictionary
281
     1
  3
Standard
350
6C
  0
DICTIONARY
  5
17
102
{ACAD_REACTORS
330
C
102
}
330
C
100
AcDbDictionary
281
     1
  3
Standard
350
18
  0
DICTIONARY
  5
19
102
{ACAD_REACTORS
330
C
102
}
330
C
100
AcDbDictionary
281
     1
  0
ACDBDICTIONARYWDFLT
  5
E
102
{ACAD_REACTORS
330
C
102
}
330
C
100
AcDbDictionary
281
     1
  3
Normal
350
F
100
AcDbDictionaryWithDefault
340
F
  0
DICTIONARY
  5
47
102
{ACAD_REACTORS
330
C
102
}
330
C
100
AcDbDictionary
281
     1
  3
A0
350
48
  3
A1
350
49
  3
A2
350
4A
  3
A3
350
4B
  3
A4
350
4C
  3
A5
350
4D
  3
A6
350
4E
  3
A7
350
4F
  3
A8
350
50
  3
A9
350
51
  3
B0
350
52
  3
B1
350
53
  3
B2
350
54
  3
B3
350
55
  3
B4
350
56
  3
B5
350
57
  3
B6
350
58
  3
B7
350
59
  3
B8
350
5A
  3
B9
350
5B
  3
C0
350
5C
  3
C1
350
5D
  3
C2
350
5E
  3
C3
350
5F
  3
C4
350
60
  3
C5
350
61
  3
C6
350
62
  3
C7
350
63
  3
C8
350
64
  3
C9
350
65
  3
D0
350
66
  3
D1
350
67
  3
D2
350
68
  0
DICTIONARY
  5
1D8
102
{ACAD_REACTORS
330
C
102
}
330
C
100
AcDbDictionary
281
     1
  0
DICTIONARY
  5
69
102
{ACAD_REACTORS
330
C
102
}
330
C
100
AcDbDictionary
281
     1
  3
Standard
350
6A
  0
DICTIONARY
  5
2A
102
{ACAD_REACTORS
330
C
102
}
330
C
100
AcDbDictionary
281
     1
  3
2dWireframe
350
2F
  3
Basic
350
32
  3
Brighten
350
36
  3
ColorChange
350
3A
  3
Conceptual
350
34
  3
Dim
350
35
  3
EdgeColorOff
350
3D
  3
Facepattern
350
39
  3
Flat
350
2B
  3
FlatWithEdges
350
2C
  3
Gouraud
350
2D
  3
GouraudWithEdges
350
2E
  3
Hidden
350
31
  3
JitterOff
350
3B
  3
Linepattern
350
38
  3
OverhangOff
350
3C
  3
Realistic
350
33
  3
Shaded
350
42
  3
Shaded with edges
350
41
  3
Shades of Gray
350
3E
  3
Sketchy
350
3F
  3
Thicken
350
37
  3
Wireframe
350
30
  3
X-Ray
350
40
  0
XRECORD
  5
1D4
102
{ACAD_REACTORS
330
C
102
}
330
C
100
AcDbXrecord
280
     1
 90
        1
330
6A
  0
DICTIONARY
  5
1D0
102
{ACAD_REACTORS
330
C
102
}
330
C
100
AcDbDictionary
281
     1
  3
CANNOSCALE
350
1D1
  3
CMLEADERSTYLE
350
1D6
  3
CTABLESTYLE
350
1D5
  0
LAYOUT
  5
1E
102
{ACAD_REACTORS
330
1A
102
}
330
1A
100
AcDbPlotSettings
  1

  2
none_device
  4

  6

 40
0.0
 41
0.0
 42
0.0
 43
0.0
 44
0.0
 45
0.0
 46
0.0
 47
0.0
 48
0.0
 49
0.0
140
0.0
141
0.0
142
1.0
143
1.0
 70
   688
 72
     0
 73
     0
 74
     5
  7

 75
    16
 76
     0
 77
     2
 78
   300
147
1.0
148
0.0
149
0.0
100
AcDbLayout
  1
Layout1
 70
     1
 71
     1
 10
0.0
 20
0.0
 11
12.0
 21
9.0
 12
0.0
 22
0.0
 32
0.0
 14
1.000000000000000E+20
 24
1.000000000000000E+20
 34
1.000000000000000E+20
 15
-1.000000000000000E+20
 25
-1.000000000000000E+20
 35
-1.000000000000000E+20
146
0.0
 13
0.0
 23
0.0
 33
0.0
 16
1.0
 26
0.0
 36
0.0
 17
0.0
 27
1.0
 37
0.0
 76
     0
330
1B
  0
LAYOUT
  5
26
102
{ACAD_REACTORS
330
1A
102
}
330
1A
100
AcDbPlotSettings
  1

  2
none_device
  4

  6

 40
0.0
 41
0.0
 42
0.0
 43
0.0
 44
0.0
 45
0.0
 46
0.0
 47
0.0
 48
0.0
 49
0.0
140
0.0
141
0.0
142
1.0
143
1.0
 70
   688
 72
     0
 73
     0
 74
     5
  7

 75
    16
 76
     0
 77
     2
 78
   300
147
1.0
148
0.0
149
0.0
100
AcDbLayout
  1
Layout2
 70
     1
 71
     2
 10
0.0
 20
0.0
 11
0.0
 21
0.0
 12
0.0
 22
0.0
 32
0.0
 14
0.0
 24
0.0
 34
0.0
 15
0.0
 25
0.0
 35
0.0
146
0.0
 13
0.0
 23
0.0
 33
0.0
 16
1.0
 26
0.0
 36
0.0
 17
0.0
 27
1.0
 37
0.0
 76
     0
330
23
  0
LAYOUT
  5
22
102
{ACAD_REACTORS
330
1A
102
}
330
1A
100
AcDbPlotSettings
  1

  2
none_device
  4
Letter_(8.50_x_11.00_Inches)
  6

 40
6.35
 41
6.35
 42
6.35000508
 43
6.35000508
 44
215.9
 45
279.4
 46
0.0
 47
0.0
 48
0.0
 49
0.0
140
0.0
141
0.0
142
1.0
143
1.0
 70
  1712
 72
     0
 73
     0
 74
     0
  7

 75
     0
 76
     0
 77
     2
 78
   300
147
1.0
148
0.0
149
0.0
100
AcDbLayout
  1
Model
 70
     1
 71
     0
 10
0.0
 20
0.0
 11
12.0
 21
9.0
 12
0.0
 22
0.0
 32
0.0
 14
1.000000000000000E+20
 24
1.000000000000000E+20
 34
1.000000000000000E+20
 15
-1.000000000000000E+20
 25
-1.000000000000000E+20
 35
-1.000000000000000E+20
146
0.0
 13
0.0
 23
0.0
 33
0.0
 16
1.0
 26
0.0
 36
0.0
 17
0.0
 27
1.0
 37
0.0
 76
     0
330
1F
331
29
  0
MATERIAL
  5
45
102
{ACAD_REACTORS
330
43
102
}
330
43
100
AcDbMaterial
  1
ByBlock
 72
     1
 94
      127
  0
MATERIAL
  5
44
102
{ACAD_REACTORS
330
43
102
}
330
43
100
AcDbMaterial
  1
ByLayer
 72
     1
 94
      127
  0
MATERIAL
  5
46
102
{ACAD_REACTORS
330
43
102
}
330
43
100
AcDbMaterial
  1
Global
 72
     1
 94
      127
  0
MLEADERSTYLE
  5
6C
102
{ACAD_REACTORS
330
6B
102
}
330
6B
100
AcDbMLeaderStyle
179
     2
170
     2
171
     1
172
     0
 90
        2
 40
0.0
 41
0.0
173
     1
 91
-1056964608
340
14
 92
       -2
290
     1
 42
0.09
291
     1
 43
0.36
  3
Standard
341
0
 44
0.18
300

342
11
174
     1
178
     6
175
     1
176
     0
 93
-1056964608
 45
0.18
292
     0
297
     0
 46
0.18
343
0
 94
-1056964608
 47
1.0
 49
1.0
140
1.0
293
     1
141
0.0
294
     1
177
     0
142
1.0
295
     0
296
     0
143
0.125
271
     0
272
     9
273
     9
298
     0
  0
MLINESTYLE
  5
18
102
{ACAD_REACTORS
330
17
102
}
330
17
100
AcDbMlineStyle
  2
Standard
 70
     0
  3

 62
   256
 51
90.0
 52
90.0
 71
     2
 49
0.5
 62
   256
  6
BYLAYER
 49
-0.5
 62
   256
  6
BYLAYER
  0
ACDBPLACEHOLDER
  5
F
102
{ACAD_REACTORS
330
E
102
}
330
E
  0
SCALE
  5
48
102
{ACAD_REACTORS
330
47
102
}
330
47
100
AcDbScale
 70
     0
300
1:1
140
1.0
141
1.0
290
     1
  0
SCALE
  5
49
102
{ACAD_REACTORS
330
47
102
}
330
47
100
AcDbScale
 70
     0
300
1:2
140
1.0
141
2.0
290
     0
  0
SCALE
  5
4A
102
{ACAD_REACTORS
330
47
102
}
330
47
100
AcDbScale
 70
     0
300
1:4
140
1.0
141
4.0
290
     0
  0
SCALE
  5
4B
102
{ACAD_REACTORS
330
47
102
}
330
47
100
AcDbScale
 70
     0
300
1:5
140
1.0
141
5.0
290
     0
  0
SCALE
  5
4C
102
{ACAD_REACTORS
330
47
102
}
330
47
100
AcDbScale
 70
     0
300
1:8
140
1.0
141
8.0
290
     0
  0
SCALE
  5
4D
102
{ACAD_REACTORS
330
47
102
}
330
47
100
AcDbScale
 70
     0
300
1:10
140
1.0
141
10.0
290
     0
  0
SCALE
  5
4E
102
{ACAD_REACTORS
330
47
102
}
330
47
100
AcDbScale
 70
     0
300
1:16
140
1.0
141
16.0
290
     0
  0
SCALE
  5
4F
102
{ACAD_REACTORS
330
47
102
}
330
47
100
AcDbScale
 70
     0
300
1:20
140
1.0
141
20.0
290
     0
  0
SCALE
  5
50
102
{ACAD_REACTORS
330
47
102
}
330
47
100
AcDbScale
 70
     0
300
1:30
140
1.0
141
30.0
290
     0
  0
SCALE
  5
51
102
{ACAD_REACTORS
330
47
102
}
330
47
100
AcDbScale
 70
     0
300
1:40
140
1.0
141
40.0
290
     0
  0
SCALE
  5
52
102
{ACAD_REACTORS
330
47
102
}
330
47
100
AcDbScale
 70
     0
300
1:50
140
1.0
141
50.0
290
     0
  0
SCALE
  5
53
102
{ACAD_REACTORS
330
47
102
}
330
47
100
AcDbScale
 70
     0
300
1:100
140
1.0
141
100.0
290
     0
  0
SCALE
  5
54
102
{ACAD_REACTORS
330
47
102
}
330
47
100
AcDbScale
 70
     0
300
2:1
140
2.0
141
1.0
290
     0
  0
SCALE
  5
55
102
{ACAD_REACTORS
330
47
102
}
330
47
100
AcDbScale
 70
     0
300
4:1
140
4.0
141
1.0
290
     0
  0
SCALE
  5
56
102
{ACAD_REACTORS
330
47
102
}
330
47
100
AcDbScale
 70
     0
300
8:1
140
8.0
141
1.0
290
     0
  0
SCALE
  5
57
102
{ACAD_REACTORS
330
47
102
}
330
47
100
AcDbScale
 70
     0
300
10:1
140
10.0
141
1.0
290
     0
  0
SCALE
  5
58
102
{ACAD_REACTORS
330
47
102
}
330
47
100
AcDbScale
 70
     0
300
100:1
140
100.0
141
1.0
290
     0
  0
SCALE
  5
59
102
{ACAD_REACTORS
330
47
102
}
330
47
100
AcDbScale
 70
     0
300
1/128" = 1'-0"
140
0.0078125
141
12.0
290
     0
  0
SCALE
  5
5A
102
{ACAD_REACTORS
330
47
102
}
330
47
100
AcDbScale
 70
     0
300
1/64" = 1'-0"
140
0.015625
141
12.0
290
     0
  0
SCALE
  5
5B
102
{ACAD_REACTORS
330
47
102
}
330
47
100
AcDbScale
 70
     0
300
1/32" = 1'-0"
140
0.03125
141
12.0
290
     0
  0
SCALE
  5
5C
102
{ACAD_REACTORS
330
47
102
}
330
47
100
AcDbScale
 70
     0
300
1/16" = 1'-0"
140
0.0625
141
12.0
290
     0
  0
SCALE
  5
5D
102
{ACAD_REACTORS
330
47
102
}
330
47
100
AcDbScale
 70
     0
300
3/32" = 1'-0"
140
0.09375
141
12.0
290
     0
  0
SCALE
  5
5E
102
{ACAD_REACTORS
330
47
102
}
330
47
100
AcDbScale
 70
     0
300
1/8" = 1'-0"
140
0.125
141
12.0
290
     0
  0
SCALE
  5
5F
102
{ACAD_REACTORS
330
47
102
}
330
47
100
AcDbScale
 70
     0
300
3/16" = 1'-0"
140
0.1875
141
12.0
290
     0
  0
SCALE
  5
60
102
{ACAD_REACTORS
330
47
102
}
330
47
100
AcDbScale
 70
     0
300
1/4" = 1'-0"
140
0.25
141
12.0
290
     0
  0
SCALE
  5
61
102
{ACAD_REACTORS
330
47
102
}
330
47
100
AcDbScale
 70
     0
300
3/8" = 1'-0"
140
0.375
141
12.0
290
     0
  0
SCALE
  5
62
102
{ACAD_REACTORS
330
47
102
}
330
47
100
AcDbScale
 70
     0
300
1/2" = 1'-0"
140
0.5
141
12.0
290
     0
  0
SCALE
  5
63
102
{ACAD_REACTORS
330
47
102
}
330
47
100
AcDbScale
 70
     0
300
3/4" = 1'-0"
140
0.75
141
12.0
290
     0
  0
SCALE
  5
64
102
{ACAD_REACTORS
330
47
102
}
330
47
100
AcDbScale
 70
     0
300
1" = 1'-0"
140
1.0
141
12.0
290
     0
  0
SCALE
  5
65
102
{ACAD_REACTORS
330
47
102
}
330
47
100
AcDbScale
 70
     0
300
1-1/2" = 1'-0"
140
1.5
141
12.0
290
     0
  0
SCALE
  5
66
102
{ACAD_REACTORS
330
47
102
}
330
47
100
AcDbScale
 70
     0
300
3" = 1'-0"
140
3.0
141
12.0
290
     0
  0
SCALE
  5
67
102
{ACAD_REACTORS
330
47
102
}
330
47
100
AcDbScale
 70
     0
300
6" = 1'-0"
140
6.0
141
12.0
290
     0
  0
SCALE
  5
68
102
{ACAD_REACTORS
330
47
102
}
330
47
100
AcDbScale
 70
     0
300
1'-0" = 1'-0"
140
12.0
141
12.0
290
     0
  0
TABLESTYLE
  5
6A
102
{ACAD_REACTORS
330
69
102
}
102
{ACAD_XDICTIONARY
360
1D2
102
}
330
69
100
AcDbTableStyle
  3
Standard
 70
     0
 71
     0
 40
0.06
 41
0.06
280
     0
281
     0
  7
Standard
140
0.18
170
     2
 62
     0
 63
   257
283
     0
 90
        4
 91
        0
  1

274
    -2
284
     1
 64
     0
275
    -2
285
     1
 65
     0
276
    -2
286
     1
 66
     0
277
    -2
287
     1
 67
     0
278
    -2
288
     1
 68
     0
279
    -2
289
     1
 69
     0
  7
Standard
140
0.25
170
     5
 62
     0
 63
   257
283
     0
 90
        4
 91
        0
  1

274
    -2
284
     1
 64
     0
275
    -2
285
     1
 65
     0
276
    -2
286
     1
 66
     0
277
    -2
287
     1
 67
     0
278
    -2
288
     1
 68
     0
279
    -2
289
     1
 69
     0
  7
Standard
140
0.18
170
     5
 62
     0
 63
   257
283
     0
 90
        4
 91
        0
  1

274
    -2
284
     1
 64
     0
275
    -2
285
     1
 65
     0
276
    -2
286
     1
 66
     0
277
    -2
287
     1
 67
     0
278
    -2
288
     1
 68
     0
279
    -2
289
     1
 69
     0
  0
VISUALSTYLE
  5
2F
102
{ACAD_REACTORS
330
2A
102
}
330
2A
100
AcDbVisualStyle
  2
2dWireframe
 70
     4
177
     3
291
     0
 70
    58
 90
        0
176
     1
 90
        2
176
     1
 90
        0
176
     1
 90
        0
176
     1
 40
0.6
176
     1
 40
30.0
176
     1
 62
     7
420
 16777215
176
     1
 90
        1
176
     1
 90
        4
176
     1
 62
     7
176
     1
 62
   257
176
     1
 90
        1
176
     1
 90
        1
176
     1
 40
1.0
176
     1
 90
        0
176
     1
 62
   257
176
     1
 40
1.0
176
     1
 90
        1
176
     1
 90
        6
176
     1
 90
        2
176
     1
 62
     7
176
     1
 90
        5
176
     1
 90
        0
176
     1
 90
        0
176
     1
290
     0
176
     1
 90
        1
176
     1
 40
0.0
176
     1
 90
        0
176
     1
290
     1
176
     1
290
     1
176
     1
290
     0
176
     1
290
     0
176
     1
290
     0
176
     1
290
     0
176
     1
290
     0
176
     1
290
     0
176
     1
290
     0
176
     1
 90
       50
176
     1
 40
0.0
176
     1
 40
1.0
176
     1
 90
        0
176
     1
 62
    18
420
        0
176
     1
 90
       50
176
     1
 90
        3
176
     1
 62
     5
420
      255
176
     1
290
     0
176
     1
 90
       50
176
     1
 90
       50
176
     1
 90
       50
176
     1
290
     0
176
     1
 90
       50
176
     1
 62
   256
176
     0
 40
1.0
176
     0
 90
        2
176
     1
  1
strokes_ogs.tif
176
     1
290
     0
176
     1
 40
1.0
176
     1
 40
1.0
176
     1
  0
VISUALSTYLE
  5
32
102
{ACAD_REACTORS
330
2A
102
}
330
2A
100
AcDbVisualStyle
  2
Basic
 70
     7
177
     3
291
     1
 70
    58
 90
        1
176
     1
 90
        0
176
     1
 90
        1
176
     1
 90
        0
176
     1
 40
0.6
176
     1
 40
30.0
176
     1
 62
     7
420
 16777215
176
     1
 90
        0
176
     1
 90
        4
176
     1
 62
     7
176
     1
 62
   257
176
     1
 90
        1
176
     1
 90
        1
176
     1
 40
1.0
176
     1
 90
        8
176
     1
 62
     7
176
     1
 40
1.0
176
     1
 90
        1
176
     1
 90
        6
176
     1
 90
        2
176
     1
 62
     7
176
     1
 90
        5
176
     1
 90
        0
176
     1
 90
        0
176
     1
290
     0
176
     1
 90
        1
176
     1
 40
0.0
176
     1
 90
        0
176
     1
290
     0
176
     1
290
     1
176
     1
290
     1
176
     1
290
     0
176
     1
290
     0
176
     1
290
     0
176
     1
290
     0
176
     1
290
     0
176
     1
290
     0
176
     1
 90
       50
176
     1
 40
0.0
176
     1
 40
1.0
176
     1
 90
        0
176
     1
 62
    18
420
        0
176
     1
 90
       50
176
     1
 90
        3
176
     1
 62
     5
420
      255
176
     1
290
     0
176
     1
 90
       50
176
     1
 90
       50
176
     1
 90
       50
176
     1
290
     0
176
     1
 90
       50
176
     1
 62
   256
176
     0
 40
1.0
176
     0
 90
        2
176
     1
  1
strokes_ogs.tif
176
     1
290
     0
176
     1
 40
1.0
176
     1
 40
1.0
176
     1
  0
VISUALSTYLE
  5
36
102
{ACAD_REACTORS
330
2A
102
}
330
2A
100
AcDbVisualStyle
  2
Brighten
 70
    12
177
     3
291
     1
 70
    58
 90
        2
176
     1
 90
        2
176
     1
 90
        0
176
     1
 90
        0
176
     1
 40
0.6
176
     1
 40
30.0
176
     1
 62
     7
420
 16777215
176
     1
 90
        1
176
     1
 90
        4
176
     1
 62
     7
176
     1
 62
   257
176
     1
 90
        1
176
     1
 90
        1
176
     1
 40
1.0
176
     1
 90
        8
176
     1
 62
     7
176
     1
 40
1.0
176
     1
 90
        1
176
     1
 90
        6
176
     1
 90
        2
176
     1
 62
     7
176
     1
 90
        5
176
     1
 90
        0
176
     1
 90
        0
176
     1
290
     0
176
     1
 90
        1
176
     1
 40
50.0
176
     1
 90
        0
176
     1
290
     0
176
     1
290
     1
176
     1
290
     1
176
     1
290
     0
176
     1
290
     0
176
     1
290
     0
176
     1
290
     0
176
     1
290
     0
176
     1
290
     0
176
     1
 90
       50
176
     1
 40
0.0
176
     1
 40
1.0
176
     1
 90
        0
176
     1
 62
    18
420
        0
176
     1
 90
       50
176
     1
 90
        3
176
     1
 62
     5
420
      255
176
     1
290
     0
176
     1
 90
       50
176
     1
 90
       50
176
     1
 90
       50
176
     1
290
     0
176
     1
 90
       50
176
     1
 62
   256
176
     0
 40
1.0
176
     0
 90
        2
176
     1
  1
strokes_ogs.tif
176
     1
290
     0
176
     1
 40
1.0
176
     1
 40
1.0
176
     1
  0
VISUALSTYLE
  5
3A
102
{ACAD_REACTORS
330
2A
102
}
330
2A
100
AcDbVisualStyle
  2
ColorChange
 70
    16
177
     3
291
     1
 70
    58
 90
        2
176
     1
 90
        2
176
     1
 90
        3
176
     1
 90
        0
176
     1
 40
0.6
176
     1
 40
30.0
176
     1
 62
     8
420
  8421504
176
     1
 90
        1
176
     1
 90
        4
176
     1
 62
     7
176
     1
 62
   257
176
     1
 90
        1
176
     1
 90
        1
176
     1
 40
1.0
176
     1
 90
        8
176
     1
 62
     8
420
  8421504
176
     1
 40
1.0
176
     1
 90
        1
176
     1
 90
        6
176
     1
 90
        2
176
     1
 62
     7
176
     1
 90
        5
176
     1
 90
        0
176
     1
 90
        0
176
     1
290
     0
176
     1
 90
        1
176
     1
 40
0.0
176
     1
 90
        0
176
     1
290
     0
176
     1
290
     1
176
     1
290
     1
176
     1
290
     0
176
     1
290
     0
176
     1
290
     0
176
     1
290
     0
176
     1
290
     0
176
     1
290
     0
176
     1
 90
       50
176
     1
 40
0.0
176
     1
 40
1.0
176
     1
 90
        0
176
     1
 62
    18
420
        0
176
     1
 90
       50
176
     1
 90
        3
176
     1
 62
     5
420
      255
176
     1
290
     0
176
     1
 90
       50
176
     1
 90
       50
176
     1
 90
       50
176
     1
290
     0
176
     1
 90
       50
176
     1
 62
   256
176
     0
 40
1.0
176
     0
 90
        2
176
     1
  1
strokes_ogs.tif
176
     1
290
     0
176
     1
 40
1.0
176
     1
 40
1.0
176
     1
  0
VISUALSTYLE
  5
34
102
{ACAD_REACTORS
330
2A
102
}
330
2A
100
AcDbVisualStyle
  2
Conceptual
 70
     9
177
     3
291
     0
 70
    58
 90
        3
176
     1
 90
        2
176
     1
 90
        0
176
     1
 90
        0
176
     1
 40
0.6
176
     1
 40
30.0
176
     1
 62
     7
420
 16777215
176
     1
 90
        2
176
     1
 90
        2
176
     1
 62
     7
176
     1
 62
   257
176
     1
 90
        1
176
     1
 90
        1
176
     1
 40
179.0
176
     1
 90
        8
176
     1
 62
     7
176
     1
 40
1.0
176
     1
 90
        1
176
     1
 90
        6
176
     1
 90
        2
176
     1
 62
     7
176
     1
 90
        3
176
     1
 90
        0
176
     1
 90
        0
176
     1
290
     0
176
     1
 90
        1
176
     1
 40
0.0
176
     1
 90
        0
176
     1
290
     0
176
     1
290
     1
176
     1
290
     1
176
     1
290
     0
176
     1
290
     0
176
     1
290
     0
176
     1
290
     0
176
     1
290
     0
176
     1
290
     0
176
     1
 90
       50
176
     1
 40
0.0
176
     1
 40
1.0
176
     1
 90
        0
176
     1
 62
    18
420
        0
176
     1
 90
       50
176
     1
 90
        3
176
     1
 62
     5
420
      255
176
     1
290
     0
176
     1
 90
       50
176
     1
 90
       50
176
     1
 90
       50
176
     1
290
     0
176
     1
 90
       50
176
     1
 62
   256
176
     0
 40
1.0
176
     0
 90
        2
176
     1
  1
strokes_ogs.tif
176
     1
290
     0
176
     1
 40
1.0
176
     1
 40
1.0
176
     1
  0
VISUALSTYLE
  5
35
102
{ACAD_REACTORS
330
2A
102
}
330
2A
100
AcDbVisualStyle
  2
Dim
 70
    11
177
     3
291
     1
 70
    58
 90
        2
176
     1
 90
        2
176
     1
 90
        0
176
     1
 90
        0
176
     1
 40
0.6
176
     1
 40
30.0
176
     1
 62
     7
420
 16777215
176
     1
 90
        1
176
     1
 90
        4
176
     1
 62
     7
176
     1
 62
   257
176
     1
 90
        1
176
     1
 90
        1
176
     1
 40
1.0
176
     1
 90
        8
176
     1
 62
     7
176
     1
 40
1.0
176
     1
 90
        1
176
     1
 90
        6
176
     1
 90
        2
176
     1
 62
     7
176
     1
 90
        5
176
     1
 90
        0
176
     1
 90
        0
176
     1
290
     0
176
     1
 90
        1
176
     1
 40
-50.0
176
     1
 90
        0
176
     1
290
     0
176
     1
290
     1
176
     1
290
     1
176
     1
290
     0
176
     1
290
     0
176
     1
290
     0
176
     1
290
     0
176
     1
290
     0
176
     1
290
     0
176
     1
 90
       50
176
     1
 40
0.0
176
     1
 40
1.0
176
     1
 90
        0
176
     1
 62
    18
420
        0
176
     1
 90
       50
176
     1
 90
        3
176
     1
 62
     5
420
      255
176
     1
290
     0
176
     1
 90
       50
176
     1
 90
       50
176
     1
 90
       50
176
     1
290
     0
176
     1
 90
       50
176
     1
 62
   256
176
     0
 40
1.0
176
     0
 90
        2
176
     1
  1
strokes_ogs.tif
176
     1
290
     0
176
     1
 40
1.0
176
     1
 40
1.0
176
     1
  0
VISUALSTYLE
  5
3D
102
{ACAD_REACTORS
330
2A
102
}
330
2A
100
AcDbVisualStyle
  2
EdgeColorOff
 70
    22
177
     3
291
     1
 70
    58
 90
        2
176
     0
 90
        2
176
     0
 90
        0
176
     0
 90
        0
176
     0
 40
0.6
176
     0
 40
30.0
176
     0
 62
     7
420
 16777215
176
     0
 90
        1
176
     0
 90
        4
176
     0
 62
     7
176
     0
 62
   257
176
     0
 90
        1
176
     0
 90
        1
176
     0
 40
1.0
176
     0
 90
        8
176
     2
 62
     7
176
     0
 40
1.0
176
     0
 90
        1
176
     0
 90
        6
176
     0
 90
        2
176
     0
 62
     7
176
     0
 90
        5
176
     0
 90
        0
176
     0
 90
        0
176
     0
290
     0
176
     0
 90
        1
176
     0
 40
0.0
176
     0
 90
        0
176
     0
290
     0
176
     0
290
     1
176
     0
290
     1
176
     0
290
     0
176
     0
290
     0
176
     0
290
     0
176
     0
290
     0
176
     0
290
     0
176
     0
290
     0
176
     0
 90
       50
176
     0
 40
0.0
176
     0
 40
1.0
176
     0
 90
        0
176
     0
 62
    18
420
        0
176
     0
 90
       50
176
     0
 90
        3
176
     0
 62
     5
420
      255
176
     0
290
     0
176
     0
 90
       50
176
     0
 90
       50
176
     0
 90
       50
176
     0
290
     0
176
     0
 90
       50
176
     0
 62
   256
176
     0
 40
1.0
176
     0
 90
        2
176
     0
  1
strokes_ogs.tif
176
     0
290
     0
176
     0
 40
1.0
176
     0
 40
1.0
176
     0
  0
VISUALSTYLE
  5
39
102
{ACAD_REACTORS
330
2A
102
}
330
2A
100
AcDbVisualStyle
  2
Facepattern
 70
    15
177
     3
291
     1
 70
    58
 90
        2
176
     1
 90
        2
176
     1
 90
        0
176
     1
 90
        0
176
     1
 40
0.6
176
     1
 40
30.0
176
     1
 62
     7
420
 16777215
176
     1
 90
        1
176
     1
 90
        4
176
     1
 62
     7
176
     1
 62
   257
176
     1
 90
        1
176
     1
 90
        1
176
     1
 40
1.0
176
     1
 90
        8
176
     1
 62
     7
176
     1
 40
1.0
176
     1
 90
        1
176
     1
 90
        6
176
     1
 90
        2
176
     1
 62
     7
176
     1
 90
        5
176
     1
 90
        0
176
     1
 90
        0
176
     1
290
     0
176
     1
 90
        1
176
     1
 40
0.0
176
     1
 90
        0
176
     1
290
     0
176
     1
290
     1
176
     1
290
     1
176
     1
290
     0
176
     1
290
     0
176
     1
290
     0
176
     1
290
     0
176
     1
290
     0
176
     1
290
     0
176
     1
 90
       50
176
     1
 40
0.0
176
     1
 40
1.0
176
     1
 90
        0
176
     1
 62
    18
420
        0
176
     1
 90
       50
176
     1
 90
        3
176
     1
 62
     5
420
      255
176
     1
290
     0
176
     1
 90
       50
176
     1
 90
       50
176
     1
 90
       50
176
     1
290
     0
176
     1
 90
       50
176
     1
 62
   256
176
     0
 40
1.0
176
     0
 90
        2
176
     1
  1
strokes_ogs.tif
176
     1
290
     0
176
     1
 40
1.0
176
     1
 40
1.0
176
     1
  0
VISUALSTYLE
  5
2B
102
{ACAD_REACTORS
330
2A
102
}
330
2A
100
AcDbVisualStyle
  2
Flat
 70
     0
177
     3
291
     1
 70
    58
 90
        2
176
     1
 90
        1
176
     1
 90
        1
176
     1
 90
        2
176
     1
 40
0.6
176
     1
 40
30.0
176
     1
 62
     7
420
 16777215
176
     1
 90
        0
176
     1
 90
        0
176
     1
 62
     7
176
     1
 62
   257
176
     1
 90
        1
176
     1
 90
        1
176
     1
 40
1.0
176
     1
 90
        8
176
     1
 62
     7
176
     1
 40
1.0
176
     1
 90
        1
176
     1
 90
        6
176
     1
 90
        2
176
     1
 62
     7
176
     1
 90
        5
176
     1
 90
        0
176
     1
 90
        0
176
     1
290
     0
176
     1
 90
       13
176
     1
 40
0.0
176
     1
 90
        0
176
     1
290
     0
176
     1
290
     1
176
     1
290
     1
176
     1
290
     0
176
     1
290
     0
176
     1
290
     0
176
     1
290
     0
176
     1
290
     0
176
     1
290
     0
176
     1
 90
       50
176
     1
 40
0.0
176
     1
 40
1.0
176
     1
 90
        0
176
     1
 62
    18
420
        0
176
     1
 90
       50
176
     1
 90
        3
176
     1
 62
     5
420
      255
176
     1
290
     0
176
     1
 90
       50
176
     1
 90
       50
176
     1
 90
       50
176
     1
290
     0
176
     1
 90
       50
176
     1
 62
   256
176
     0
 40
1.0
176
     0
 90
        2
176
     1
  1
strokes_ogs.tif
176
     1
290
     0
176
     1
 40
1.0
176
     1
 40
1.0
176
     1
  0
VISUALSTYLE
  5
2C
102
{ACAD_REACTORS
330
2A
102
}
330
2A
100
AcDbVisualStyle
  2
FlatWithEdges
 70
     1
177
     3
291
     1
 70
    58
 90
        2
176
     1
 90
        1
176
     1
 90
        1
176
     1
 90
        2
176
     1
 40
0.6
176
     1
 40
30.0
176
     1
 62
     7
420
 16777215
176
     1
 90
        1
176
     1
 90
        0
176
     1
 62
     7
176
     1
 62
   257
176
     1
 90
        1
176
     1
 90
        1
176
     1
 40
1.0
176
     1
 90
        0
176
     1
 62
   257
176
     1
 40
1.0
176
     1
 90
        1
176
     1
 90
        6
176
     1
 90
        2
176
     1
 62
     7
176
     1
 90
        5
176
     1
 90
        0
176
     1
 90
        0
176
     1
290
     0
176
     1
 90
       13
176
     1
 40
0.0
176
     1
 90
        0
176
     1
290
     0
176
     1
290
     1
176
     1
290
     1
176
     1
290
     0
176
     1
290
     0
176
     1
290
     0
176
     1
290
     0
176
     1
290
     0
176
     1
290
     0
176
     1
 90
       50
176
     1
 40
0.0
176
     1
 40
1.0
176
     1
 90
        0
176
     1
 62
    18
420
        0
176
     1
 90
       50
176
     1
 90
        3
176
     1
 62
     5
420
      255
176
     1
290
     0
176
     1
 90
       50
176
     1
 90
       50
176
     1
 90
       50
176
     1
290
     0
176
     1
 90
       50
176
     1
 62
   256
176
     0
 40
1.0
176
     0
 90
        2
176
     1
  1
strokes_ogs.tif
176
     1
290
     0
176
     1
 40
1.0
176
     1
 40
1.0
176
     1
  0
VISUALSTYLE
  5
2D
102
{ACAD_REACTORS
330
2A
102
}
330
2A
100
AcDbVisualStyle
  2
Gouraud
 70
     2
177
     3
291
     1
 70
    58
 90
        2
176
     1
 90
        2
176
     1
 90
        1
176
     1
 90
        2
176
     1
 40
0.6
176
     1
 40
30.0
176
     1
 62
     7
420
 16777215
176
     1
 90
        0
176
     1
 90
        0
176
     1
 62
     7
176
     1
 62
   257
176
     1
 90
        1
176
     1
 90
        1
176
     1
 40
1.0
176
     1
 90
        0
176
     1
 62
     7
176
     1
 40
1.0
176
     1
 90
        1
176
     1
 90
        6
176
     1
 90
        2
176
     1
 62
     7
176
     1
 90
        5
176
     1
 90
        0
176
     1
 90
        0
176
     1
290
     0
176
     1
 90
       13
176
     1
 40
0.0
176
     1
 90
        0
176
     1
290
     0
176
     1
290
     1
176
     1
290
     1
176
     1
290
     0
176
     1
290
     0
176
     1
290
     0
176
     1
290
     0
176
     1
290
     0
176
     1
290
     0
176
     1
 90
       50
176
     1
 40
0.0
176
     1
 40
1.0
176
     1
 90
        0
176
     1
 62
    18
420
        0
176
     1
 90
       50
176
     1
 90
        3
176
     1
 62
     5
420
      255
176
     1
290
     0
176
     1
 90
       50
176
     1
 90
       50
176
     1
 90
       50
176
     1
290
     0
176
     1
 90
       50
176
     1
 62
   256
176
     0
 40
1.0
176
     0
 90
        2
176
     1
  1
strokes_ogs.tif
176
     1
290
     0
176
     1
 40
1.0
176
     1
 40
1.0
176
     1
  0
VISUALSTYLE
  5
2E
102
{ACAD_REACTORS
330
2A
102
}
330
2A
100
AcDbVisualStyle
  2
GouraudWithEdges
 70
     3
177
     3
291
     1
 70
    58
 90
        2
176
     1
 90
        2
176
     1
 90
        1
176
     1
 90
        2
176
     1
 40
0.6
176
     1
 40
30.0
176
     1
 62
     7
420
 16777215
176
     1
 90
        1
176
     1
 90
        0
176
     1
 62
     7
176
     1
 62
   257
176
     1
 90
        1
176
     1
 90
        1
176
     1
 40
1.0
176
     1
 90
        0
176
     1
 62
   257
176
     1
 40
1.0
176
     1
 90
        1
176
     1
 90
        6
176
     1
 90
        2
176
     1
 62
     7
176
     1
 90
        5
176
     1
 90
        0
176
     1
 90
        0
176
     1
290
     0
176
     1
 90
       13
176
     1
 40
0.0
176
     1
 90
        0
176
     1
290
     0
176
     1
290
     1
176
     1
290
     1
176
     1
290
     0
176
     1
290
     0
176
     1
290
     0
176
     1
290
     0
176
     1
290
     0
176
     1
290
     0
176
     1
 90
       50
176
     1
 40
0.0
176
     1
 40
1.0
176
     1
 90
        0
176
     1
 62
    18
420
        0
176
     1
 90
       50
176
     1
 90
        3
176
     1
 62
     5
420
      255
176
     1
290
     0
176
     1
 90
       50
176
     1
 90
       50
176
     1
 90
       50
176
     1
290
     0
176
     1
 90
       50
176
     1
 62
   256
176
     0
 40
1.0
176
     0
 90
        2
176
     1
  1
strokes_ogs.tif
176
     1
290
     0
176
     1
 40
1.0
176
     1
 40
1.0
176
     1
  0
VISUALSTYLE
  5
31
102
{ACAD_REACTORS
330
2A
102
}
330
2A
100
AcDbVisualStyle
  2
Hidden
 70
     6
177
     3
291
     0
 70
    58
 90
        1
176
     1
 90
        2
176
     1
 90
        2
176
     1
 90
        0
176
     1
 40
0.6
176
     1
 40
30.0
176
     1
 62
     7
420
 16777215
176
     1
 90
        2
176
     1
 90
        2
176
     1
 62
     7
176
     1
 62
   257
176
     1
 90
        2
176
     1
 90
        1
176
     1
 40
40.0
176
     1
 90
        0
176
     1
 62
   257
176
     1
 40
1.0
176
     1
 90
        1
176
     1
 90
        6
176
     1
 90
        2
176
     1
 62
     7
176
     1
 90
        3
176
     1
 90
        0
176
     1
 90
        0
176
     1
290
     0
176
     1
 90
        1
176
     1
 40
0.0
176
     1
 90
        0
176
     1
290
     0
176
     1
290
     1
176
     1
290
     1
176
     1
290
     0
176
     1
290
     0
176
     1
290
     0
176
     1
290
     0
176
     1
290
     0
176
     1
290
     0
176
     1
 90
       50
176
     1
 40
0.0
176
     1
 40
1.0
176
     1
 90
        0
176
     1
 62
    18
420
        0
176
     1
 90
       50
176
     1
 90
        3
176
     1
 62
     5
420
      255
176
     1
290
     0
176
     1
 90
       50
176
     1
 90
       50
176
     1
 90
       50
176
     1
290
     0
176
     1
 90
       50
176
     1
 62
   256
176
     0
 40
1.0
176
     0
 90
        2
176
     1
  1
strokes_ogs.tif
176
     1
290
     0
176
     1
 40
1.0
176
     1
 40
1.0
176
     1
  0
VISUALSTYLE
  5
3B
102
{ACAD_REACTORS
330
2A
102
}
330
2A
100
AcDbVisualStyle
  2
JitterOff
 70
    20
177
     3
291
     1
 70
    58
 90
        2
176
     0
 90
        2
176
     0
 90
        0
176
     0
 90
        0
176
     0
 40
0.6
176
     0
 40
30.0
176
     0
 62
     7
420
 16777215
176
     0
 90
        1
176
     0
 90
        4
176
     0
 62
     7
176
     0
 62
   257
176
     0
 90
        1
176
     0
 90
        1
176
     0
 40
1.0
176
     0
 90
       10
176
     2
 62
     7
176
     0
 40
1.0
176
     0
 90
        1
176
     0
 90
        6
176
     0
 90
        2
176
     0
 62
     7
176
     0
 90
        5
176
     0
 90
        0
176
     0
 90
        0
176
     0
290
     0
176
     0
 90
        1
176
     0
 40
0.0
176
     0
 90
        0
176
     0
290
     0
176
     0
290
     1
176
     0
290
     1
176
     0
290
     0
176
     0
290
     0
176
     0
290
     0
176
     0
290
     0
176
     0
290
     0
176
     0
290
     0
176
     0
 90
       50
176
     0
 40
0.0
176
     0
 40
1.0
176
     0
 90
        0
176
     0
 62
    18
420
        0
176
     0
 90
       50
176
     0
 90
        3
176
     0
 62
     5
420
      255
176
     0
290
     0
176
     0
 90
       50
176
     0
 90
       50
176
     0
 90
       50
176
     0
290
     0
176
     0
 90
       50
176
     0
 62
   256
176
     0
 40
1.0
176
     0
 90
        2
176
     0
  1
strokes_ogs.tif
176
     0
290
     0
176
     0
 40
1.0
176
     0
 40
1.0
176
     0
  0
VISUALSTYLE
  5
38
102
{ACAD_REACTORS
330
2A
102
}
330
2A
100
AcDbVisualStyle
  2
Linepattern
 70
    14
177
     3
291
     1
 70
    58
 90
        2
176
     1
 90
        2
176
     1
 90
        0
176
     1
 90
        0
176
     1
 40
0.6
176
     1
 40
30.0
176
     1
 62
     7
420
 16777215
176
     1
 90
        1
176
     1
 90
        4
176
     1
 62
     7
176
     1
 62
   257
176
     1
 90
        7
176
     1
 90
        7
176
     1
 40
1.0
176
     1
 90
        8
176
     1
 62
     7
176
     1
 40
1.0
176
     1
 90
        1
176
     1
 90
        6
176
     1
 90
        2
176
     1
 62
     7
176
     1
 90
        5
176
     1
 90
        0
176
     1
 90
        0
176
     1
290
     0
176
     1
 90
        1
176
     1
 40
0.0
176
     1
 90
        0
176
     1
290
     0
176
     1
290
     1
176
     1
290
     1
176
     1
290
     0
176
     1
290
     0
176
     1
290
     0
176
     1
290
     0
176
     1
290
     0
176
     1
290
     0
176
     1
 90
       50
176
     1
 40
0.0
176
     1
 40
1.0
176
     1
 90
        0
176
     1
 62
    18
420
        0
176
     1
 90
       50
176
     1
 90
        3
176
     1
 62
     5
420
      255
176
     1
290
     0
176
     1
 90
       50
176
     1
 90
       50
176
     1
 90
       50
176
     1
290
     0
176
     1
 90
       50
176
     1
 62
   256
176
     0
 40
1.0
176
     0
 90
        2
176
     1
  1
strokes_ogs.tif
176
     1
290
     0
176
     1
 40
1.0
176
     1
 40
1.0
176
     1
  0
VISUALSTYLE
  5
3C
102
{ACAD_REACTORS
330
2A
102
}
330
2A
100
AcDbVisualStyle
  2
OverhangOff
 70
    21
177
     3
291
     1
 70
    58
 90
        2
176
     0
 90
        2
176
     0
 90
        0
176
     0
 90
        0
176
     0
 40
0.6
176
     0
 40
30.0
176
     0
 62
     7
420
 16777215
176
     0
 90
        1
176
     0
 90
        4
176
     0
 62
     7
176
     0
 62
   257
176
     0
 90
        1
176
     0
 90
        1
176
     0
 40
1.0
176
     0
 90
        9
176
     2
 62
     7
176
     0
 40
1.0
176
     0
 90
        1
176
     0
 90
        6
176
     0
 90
        2
176
     0
 62
     7
176
     0
 90
        5
176
     0
 90
        0
176
     0
 90
        0
176
     0
290
     0
176
     0
 90
        1
176
     0
 40
0.0
176
     0
 90
        0
176
     0
290
     0
176
     0
290
     1
176
     0
290
     1
176
     0
290
     0
176
     0
290
     0
176
     0
290
     0
176
     0
290
     0
176
     0
290
     0
176
     0
290
     0
176
     0
 90
       50
176
     0
 40
0.0
176
     0
 40
1.0
176
     0
 90
        0
176
     0
 62
    18
420
        0
176
     0
 90
       50
176
     0
 90
        3
176
     0
 62
     5
420
      255
176
     0
290
     0
176
     0
 90
       50
176
     0
 90
       50
176
     0
 90
       50
176
     0
290
     0
176
     0
 90
       50
176
     0
 62
   256
176
     0
 40
1.0
176
     0
 90
        2
176
     0
  1
strokes_ogs.tif
176
     0
290
     0
176
     0
 40
1.0
176
     0
 40
1.0
176
     0
  0
VISUALSTYLE
  5
33
102
{ACAD_REACTORS
330
2A
102
}
330
2A
100
AcDbVisualStyle
  2
Realistic
 70
     8
177
     3
291
     0
 70
    58
 90
        2
176
     1
 90
        3
176
     1
 90
        0
176
     1
 90
        2
176
     1
 40
0.6
176
     1
 40
30.0
176
     1
 62
     7
420
 16777215
176
     1
 90
        0
176
     1
 90
        0
176
     1
 62
     7
176
     1
 62
   257
176
     1
 90
        1
176
     1
 90
        1
176
     1
 40
1.0
176
     1
 90
        8
176
     1
 62
   257
176
     1
 40
1.0
176
     1
 90
        1
176
     1
 90
        6
176
     1
 90
        2
176
     1
 62
     7
176
     1
 90
        3
176
     1
 90
        0
176
     1
 90
        0
176
     1
290
     0
176
     1
 90
       13
176
     1
 40
0.0
176
     1
 90
        0
176
     1
290
     0
176
     1
290
     1
176
     1
290
     1
176
     1
290
     0
176
     1
290
     0
176
     1
290
     0
176
     1
290
     0
176
     1
290
     0
176
     1
290
     0
176
     1
 90
       50
176
     1
 40
0.0
176
     1
 40
1.0
176
     1
 90
        0
176
     1
 62
    18
420
        0
176
     1
 90
       50
176
     1
 90
        3
176
     1
 62
     5
420
      255
176
     1
290
     0
176
     1
 90
       50
176
     1
 90
       50
176
     1
 90
       50
176
     1
290
     0
176
     1
 90
       50
176
     1
 62
   256
176
     0
 40
1.0
176
     0
 90
        2
176
     1
  1
strokes_ogs.tif
176
     1
290
     0
176
     1
 40
1.0
176
     1
 40
1.0
176
     1
  0
VISUALSTYLE
  5
42
102
{ACAD_REACTORS
330
2A
102
}
330
2A
100
AcDbVisualStyle
  2
Shaded
 70
    27
177
     3
291
     0
 70
    58
 90
        2
176
     1
 90
        2
176
     1
 90
        1
176
     1
 90
        2
176
     1
 40
0.6
176
     1
 40
30.0
176
     1
 62
     7
420
 16777215
176
     1
 90
        0
176
     1
 90
        4
176
     1
 62
     7
176
     1
 62
   257
176
     1
 90
        1
176
     1
 90
        1
176
     1
 40
1.0
176
     1
 90
        8
176
     1
 62
   257
176
     1
 40
1.0
176
     1
 90
        1
176
     1
 90
        6
176
     1
 90
        2
176
     1
 62
     8
420
  7895160
176
     1
 90
        3
176
     1
 90
        0
176
     1
 90
        0
176
     1
290
     0
176
     1
 90
        5
176
     1
 40
0.0
176
     1
 90
        0
176
     1
290
     0
176
     1
290
     1
176
     1
290
     1
176
     1
290
     0
176
     1
290
     0
176
     1
290
     0
176
     1
290
     0
176
     1
290
     0
176
     1
290
     0
176
     1
 90
       50
176
     1
 40
0.0
176
     1
 40
1.0
176
     1
 90
        0
176
     1
 62
    18
420
        0
176
     1
 90
       50
176
     1
 90
        3
176
     1
 62
     5
420
      255
176
     1
290
     0
176
     1
 90
       50
176
     1
 90
       50
176
     1
 90
       50
176
     1
290
     0
176
     1
 90
       50
176
     1
 62
   256
176
     0
 40
1.0
176
     0
 90
        2
176
     1
  1
strokes_ogs.tif
176
     1
290
     0
176
     1
 40
1.0
176
     1
 40
1.0
176
     1
  0
VISUALSTYLE
  5
41
102
{ACAD_REACTORS
330
2A
102
}
330
2A
100
AcDbVisualStyle
  2
Shaded with edges
 70
    26
177
     3
291
     0
 70
    58
 90
        2
176
     1
 90
        2
176
     1
 90
        1
176
     1
 90
        2
176
     1
 40
0.6
176
     1
 40
30.0
176
     1
 62
     7
420
 16777215
176
     1
 90
        1
176
     1
 90
       10
176
     1
 62
     7
176
     1
 62
   257
176
     1
 90
        2
176
     1
 90
        1
176
     1
 40
1.0
176
     1
 90
        8
176
     1
 62
   257
176
     1
 40
1.0
176
     1
 90
        1
176
     1
 90
        6
176
     1
 90
        2
176
     1
 62
     7
176
     1
 90
        3
176
     1
 90
        0
176
     1
 90
        0
176
     1
290
     0
176
     1
 90
        5
176
     1
 40
0.0
176
     1
 90
        0
176
     1
290
     0
176
     1
290
     1
176
     1
290
     1
176
     1
290
     0
176
     1
290
     0
176
     1
290
     0
176
     1
290
     0
176
     1
290
     0
176
     1
290
     0
176
     1
 90
       50
176
     1
 40
0.0
176
     1
 40
1.0
176
     1
 90
        0
176
     1
 62
    18
420
        0
176
     1
 90
       50
176
     1
 90
        3
176
     1
 62
     5
420
      255
176
     1
290
     0
176
     1
 90
       50
176
     1
 90
       50
176
     1
 90
       50
176
     1
290
     0
176
     1
 90
       50
176
     1
 62
   256
176
     0
 40
1.0
176
     0
 90
        2
176
     1
  1
strokes_ogs.tif
176
     1
290
     0
176
     1
 40
1.0
176
     1
 40
1.0
176
     1
  0
VISUALSTYLE
  5
3E
102
{ACAD_REACTORS
330
2A
102
}
330
2A
100
AcDbVisualStyle
  2
Shades of Gray
 70
    23
177
     3
291
     0
 70
    58
 90
        2
176
     1
 90
        2
176
     1
 90
        3
176
     1
 90
        0
176
     1
 40
0.6
176
     1
 40
30.0
176
     1
 62
     7
420
 16777215
176
     1
 90
        2
176
     1
 90
        2
176
     1
 62
     7
176
     1
 62
     7
176
     1
 90
        1
176
     1
 90
        1
176
     1
 40
40.0
176
     1
 90
        8
176
     1
 62
     7
176
     1
 40
1.0
176
     1
 90
        1
176
     1
 90
        6
176
     1
 90
        2
176
     1
 62
     7
176
     1
 90
        3
176
     1
 90
        0
176
     1
 90
        0
176
     1
290
     0
176
     1
 90
        1
176
     1
 40
0.0
176
     1
 90
        0
176
     1
290
     0
176
     1
290
     1
176
     1
290
     1
176
     1
290
     0
176
     1
290
     0
176
     1
290
     0
176
     1
290
     0
176
     1
290
     0
176
     1
290
     0
176
     1
 90
       50
176
     1
 40
0.0
176
     1
 40
1.0
176
     1
 90
        0
176
     1
 62
    18
420
        0
176
     1
 90
       50
176
     1
 90
        3
176
     1
 62
     5
420
      255
176
     1
290
     0
176
     1
 90
       50
176
     1
 90
       50
176
     1
 90
       50
176
     1
290
     0
176
     1
 90
       50
176
     1
 62
   256
176
     0
 40
1.0
176
     0
 90
        2
176
     1
  1
strokes_ogs.tif
176
     1
290
     0
176
     1
 40
1.0
176
     1
 40
1.0
176
     1
  0
VISUALSTYLE
  5
3F
102
{ACAD_REACTORS
330
2A
102
}
330
2A
100
AcDbVisualStyle
  2
Sketchy
 70
    24
177
     3
291
     0
 70
    58
 90
        1
176
     1
 90
        2
176
     1
 90
        2
176
     1
 90
        0
176
     1
 40
0.6
176
     1
 40
30.0
176
     1
 62
     7
420
 16777215
176
     1
 90
        2
176
     1
 90
        2
176
     1
 62
     7
176
     1
 62
     7
176
     1
 90
        1
176
     1
 90
        1
176
     1
 40
40.0
176
     1
 90
       11
176
     1
 62
     7
176
     1
 40
1.0
176
     1
 90
        1
176
     1
 90
        6
176
     1
 90
        2
176
     1
 62
     7
176
     1
 90
        6
176
     1
 90
        0
176
     1
 90
        0
176
     1
290
     0
176
     1
 90
        1
176
     1
 40
0.0
176
     1
 90
        0
176
     1
290
     0
176
     1
290
     1
176
     1
290
     1
176
     1
290
     0
176
     1
290
     0
176
     1
290
     0
176
     1
290
     0
176
     1
290
     0
176
     1
290
     0
176
     1
 90
       50
176
     1
 40
0.0
176
     1
 40
1.0
176
     1
 90
        0
176
     1
 62
    18
420
        0
176
     1
 90
       50
176
     1
 90
        3
176
     1
 62
     5
420
      255
176
     1
290
     0
176
     1
 90
       50
176
     1
 90
       50
176
     1
 90
       50
176
     1
290
     0
176
     1
 90
       50
176
     1
 62
   256
176
     0
 40
1.0
176
     0
 90
        2
176
     1
  1
strokes_ogs.tif
176
     1
290
     0
176
     1
 40
1.0
176
     1
 40
1.0
176
     1
  0
VISUALSTYLE
  5
37
102
{ACAD_REACTORS
330
2A
102
}
330
2A
100
AcDbVisualStyle
  2
Thicken
 70
    13
177
     3
291
     1
 70
    58
 90
        2
176
     1
 90
        2
176
     1
 90
        0
176
     1
 90
        0
176
     1
 40
0.6
176
     1
 40
30.0
176
     1
 62
     7
420
 16777215
176
     1
 90
        1
176
     1
 90
        4
176
     1
 62
     7
176
     1
 62
   257
176
     1
 90
        1
176
     1
 90
        1
176
     1
 40
1.0
176
     1
 90
       12
176
     1
 62
     7
176
     1
 40
1.0
176
     1
 90
        1
176
     1
 90
        6
176
     1
 90
        2
176
     1
 62
     7
176
     1
 90
        5
176
     1
 90
        0
176
     1
 90
        0
176
     1
290
     0
176
     1
 90
        1
176
     1
 40
0.0
176
     1
 90
        0
176
     1
290
     0
176
     1
290
     1
176
     1
290
     1
176
     1
290
     0
176
     1
290
     0
176
     1
290
     0
176
     1
290
     0
176
     1
290
     0
176
     1
290
     0
176
     1
 90
       50
176
     1
 40
0.0
176
     1
 40
1.0
176
     1
 90
        0
176
     1
 62
    18
420
        0
176
     1
 90
       50
176
     1
 90
        3
176
     1
 62
     5
420
      255
176
     1
290
     0
176
     1
 90
       50
176
     1
 90
       50
176
     1
 90
       50
176
     1
290
     0
176
     1
 90
       50
176
     1
 62
   256
176
     0
 40
1.0
176
     0
 90
        2
176
     1
  1
strokes_ogs.tif
176
     1
290
     0
176
     1
 40
1.0
176
     1
 40
1.0
176
     1
  0
VISUALSTYLE
  5
30
102
{ACAD_REACTORS
330
2A
102
}
330
2A
100
AcDbVisualStyle
  2
Wireframe
 70
     5
177
     3
291
     0
 70
    58
 90
        0
176
     1
 90
        2
176
     1
 90
        0
176
     1
 90
        0
176
     1
 40
0.6
176
     1
 40
30.0
176
     1
 62
     7
420
 16777215
176
     1
 90
        1
176
     1
 90
        4
176
     1
 62
     7
176
     1
 62
   257
176
     1
 90
        1
176
     1
 90
        1
176
     1
 40
1.0
176
     1
 90
        0
176
     1
 62
   257
176
     1
 40
1.0
176
     1
 90
        1
176
     1
 90
        6
176
     1
 90
        2
176
     1
 62
     7
176
     1
 90
        3
176
     1
 90
        0
176
     1
 90
        0
176
     1
290
     0
176
     1
 90
        1
176
     1
 40
0.0
176
     1
 90
        0
176
     1
290
     0
176
     1
290
     1
176
     1
290
     1
176
     1
290
     0
176
     1
290
     0
176
     1
290
     0
176
     1
290
     0
176
     1
290
     0
176
     1
290
     0
176
     1
 90
       50
176
     1
 40
0.0
176
     1
 40
1.0
176
     1
 90
        0
176
     1
 62
    18
420
        0
176
     1
 90
       50
176
     1
 90
        3
176
     1
 62
     5
420
      255
176
     1
290
     0
176
     1
 90
       50
176
     1
 90
       50
176
     1
 90
       50
176
     1
290
     0
176
     1
 90
       50
176
     1
 62
   256
176
     0
 40
1.0
176
     0
 90
        2
176
     1
  1
strokes_ogs.tif
176
     1
290
     0
176
     1
 40
1.0
176
     1
 40
1.0
176
     1
  0
VISUALSTYLE
  5
40
102
{ACAD_REACTORS
330
2A
102
}
330
2A
100
AcDbVisualStyle
  2
X-Ray
 70
    25
177
     3
291
     0
 70
    58
 90
        2
176
     1
 90
        2
176
     1
 90
        1
176
     1
 90
        1
176
     1
 40
0.5
176
     1
 40
30.0
176
     1
 62
     7
420
 16777215
176
     1
 90
        1
176
     1
 90
        0
176
     1
 62
     7
176
     1
 62
   257
176
     1
 90
        1
176
     1
 90
        1
176
     1
 40
1.0
176
     1
 90
        8
176
     1
 62
     7
176
     1
 40
1.0
176
     1
 90
        1
176
     1
 90
        6
176
     1
 90
        2
176
     1
 62
     7
176
     1
 90
        3
176
     1
 90
        0
176
     1
 90
        0
176
     1
290
     0
176
     1
 90
       13
176
     1
 40
0.0
176
     1
 90
        0
176
     1
290
     0
176
     1
290
     1
176
     1
290
     1
176
     1
290
     0
176
     1
290
     0
176
     1
290
     0
176
     1
290
     0
176
     1
290
     0
176
     1
290
     0
176
     1
 90
       50
176
     1
 40
0.0
176
     1
 40
1.0
176
     1
 90
        0
176
     1
 62
    18
420
        0
176
     1
 90
       50
176
     1
 90
        3
176
     1
 62
     5
420
      255
176
     1
290
     0
176
     1
 90
       50
176
     1
 90
       50
176
     1
 90
       50
176
     1
290
     0
176
     1
 90
       50
176
     1
 62
   256
176
     0
 40
1.0
176
     0
 90
        2
176
     1
  1
strokes_ogs.tif
176
     1
290
     0
176
     1
 40
1.0
176
     1
 40
1.0
176
     1
  0
DICTIONARYVAR
  5
1D1
102
{ACAD_REACTORS
330
1D0
102
}
330
1D0
100
DictionaryVariables
280
     0
  1
1:1
  0
DICTIONARYVAR
  5
1D6
102
{ACAD_REACTORS
330
1D0
102
}
330
1D0
100
DictionaryVariables
280
     0
  1
Standard
  0
DICTIONARYVAR
  5
1D5
102
{ACAD_REACTORS
330
1D0
102
}
330
1D0
100
DictionaryVariables
280
     0
  1
Standard
  0
DICTIONARY
  5
1D2
330
6A
100
AcDbDictionary
280
     1
281
     1
  3
ACAD_ROUNDTRIP_2008_TABLESTYLE_CELLSTYLEMAP
360
1D3
  0
CELLSTYLEMAP
  5
1D3
102
{ACAD_REACTORS
330
1D2
102
}
330
1D2
100
AcDbCellStyleMap
 90
        3
300
CELLSTYLE
  1
TABLEFORMAT_BEGIN
 90
        5
170
     1
 91
        0
 92
    32768
 62
   257
 93
        1
300
CONTENTFORMAT
  1
CONTENTFORMAT_BEGIN
 90
        0
 91
        0
 92
        4
 93
        0
300

 40
0.0
140
1.0
 94
        5
 62
     0
340
11
144
0.25
309
CONTENTFORMAT_END
171
     1
301
MARGIN
  1
CELLMARGIN_BEGIN
 40
0.06
 40
0.06
 40
0.06
 40
0.06
 40
0.06
 40
0.06
309
CELLMARGIN_END
 94
        6
 95
        1
302
GRIDFORMAT
  1
GRIDFORMAT_BEGIN
 90
        0
 91
        1
 62
     0
 92
       -2
340
14
 93
        0
 40
0.045
309
GRIDFORMAT_END
 95
        2
302
GRIDFORMAT
  1
GRIDFORMAT_BEGIN
 90
        0
 91
        1
 62
     0
 92
       -2
340
14
 93
        0
 40
0.045
309
GRIDFORMAT_END
 95
        4
302
GRIDFORMAT
  1
GRIDFORMAT_BEGIN
 90
        0
 91
        1
 62
     0
 92
       -2
340
14
 93
        0
 40
0.045
309
GRIDFORMAT_END
 95
        8
302
GRIDFORMAT
  1
GRIDFORMAT_BEGIN
 90
        0
 91
        1
 62
     0
 92
       -2
340
14
 93
        0
 40
0.045
309
GRIDFORMAT_END
 95
       16
302
GRIDFORMAT
  1
GRIDFORMAT_BEGIN
 90
        0
 91
        1
 62
     0
 92
       -2
340
14
 93
        0
 40
0.045
309
GRIDFORMAT_END
 95
       32
302
GRIDFORMAT
  1
GRIDFORMAT_BEGIN
 90
        0
 91
        1
 62
     0
 92
       -2
340
14
 93
        0
 40
0.045
309
GRIDFORMAT_END
309
TABLEFORMAT_END
  1
CELLSTYLE_BEGIN
 90
        1
 91
        1
300
_TITLE
309
CELLSTYLE_END
300
CELLSTYLE
  1
TABLEFORMAT_BEGIN
 90
        5
170
     1
 91
        0
 92
        0
 62
   257
 93
        1
300
CONTENTFORMAT
  1
CONTENTFORMAT_BEGIN
 90
        0
 91
        0
 92
        4
 93
        0
300

 40
0.0
140
1.0
 94
        5
 62
     0
340
11
144
0.18
309
CONTENTFORMAT_END
171
     1
301
MARGIN
  1
CELLMARGIN_BEGIN
 40
0.06
 40
0.06
 40
0.06
 40
0.06
 40
0.06
 40
0.06
309
CELLMARGIN_END
 94
        6
 95
        1
302
GRIDFORMAT
  1
GRIDFORMAT_BEGIN
 90
        0
 91
        1
 62
     0
 92
       -2
340
14
 93
        0
 40
0.045
309
GRIDFORMAT_END
 95
        2
302
GRIDFORMAT
  1
GRIDFORMAT_BEGIN
 90
        0
 91
        1
 62
     0
 92
       -2
340
14
 93
        0
 40
0.045
309
GRIDFORMAT_END
 95
        4
302
GRIDFORMAT
  1
GRIDFORMAT_BEGIN
 90
        0
 91
        1
 62
     0
 92
       -2
340
14
 93
        0
 40
0.045
309
GRIDFORMAT_END
 95
        8
302
GRIDFORMAT
  1
GRIDFORMAT_BEGIN
 90
        0
 91
        1
 62
     0
 92
       -2
340
14
 93
        0
 40
0.045
309
GRIDFORMAT_END
 95
       16
302
GRIDFORMAT
  1
GRIDFORMAT_BEGIN
 90
        0
 91
        1
 62
     0
 92
       -2
340
14
 93
        0
 40
0.045
309
GRIDFORMAT_END
 95
       32
302
GRIDFORMAT
  1
GRIDFORMAT_BEGIN
 90
        0
 91
        1
 62
     0
 92
       -2
340
14
 93
        0
 40
0.045
309
GRIDFORMAT_END
309
TABLEFORMAT_END
  1
CELLSTYLE_BEGIN
 90
        2
 91
        1
300
_HEADER
309
CELLSTYLE_END
300
CELLSTYLE
  1
TABLEFORMAT_BEGIN
 90
        5
170
     1
 91
        0
 92
        0
 62
   257
 93
        1
300
CONTENTFORMAT
  1
CONTENTFORMAT_BEGIN
 90
        0
 91
        0
 92
        4
 93
        0
300

 40
0.0
140
1.0
 94
        2
 62
     0
340
11
144
0.18
309
CONTENTFORMAT_END
171
     1
301
MARGIN
  1
CELLMARGIN_BEGIN
 40
0.06
 40
0.06
 40
0.06
 40
0.06
 40
0.06
 40
0.06
309
CELLMARGIN_END
 94
        6
 95
        1
302
GRIDFORMAT
  1
GRIDFORMAT_BEGIN
 90
        0
 91
        1
 62
     0
 92
       -2
340
14
 93
        0
 40
0.045
309
GRIDFORMAT_END
 95
        2
302
GRIDFORMAT
  1
GRIDFORMAT_BEGIN
 90
        0
 91
        1
 62
     0
 92
       -2
340
14
 93
        0
 40
0.045
309
GRIDFORMAT_END
 95
        4
302
GRIDFORMAT
  1
GRIDFORMAT_BEGIN
 90
        0
 91
        1
 62
     0
 92
       -2
340
14
 93
        0
 40
0.045
309
GRIDFORMAT_END
 95
        8
302
GRIDFORMAT
  1
GRIDFORMAT_BEGIN
 90
        0
 91
        1
 62
     0
 92
       -2
340
14
 93
        0
 40
0.045
309
GRIDFORMAT_END
 95
       16
302
GRIDFORMAT
  1
GRIDFORMAT_BEGIN
 90
        0
 91
        1
 62
     0
 92
       -2
340
14
 93
        0
 40
0.045
309
GRIDFORMAT_END
 95
       32
302
GRIDFORMAT
  1
GRIDFORMAT_BEGIN
 90
        0
 91
        1
 62
     0
 92
       -2
340
14
 93
        0
 40
0.045
309
GRIDFORMAT_END
309
TABLEFORMAT_END
  1
CELLSTYLE_BEGIN
 90
        3
 91
        2
300
_DATA
309
CELLSTYLE_END
  0
ENDSEC
  0
EOF