0
SECTION
  2
HEADER
  9
$ACADVER
  1
AC1027
  9
$ACADMAINTVER
 70
     8
  9
$DWGCODEPAGE
  3
ANSI_1252
  9
$REQUIREDVERSIONS
160
                 0
  9
$COMMENTS
  1
File was created by Cadenas
  9
$CUSTOMPROPERTYTAG
  1
NN
  9
$CUSTOMPROPERTY
  1
Flange Cartridge Expansion Inch Bore
  9
$CUSTOMPROPERTYTAG
  1
NT
  9
$CUSTOMPROPERTY
  1
Type E Piloted Flange Bearing -Inch
  9
$CUSTOMPROPERTYTAG
  1
NB
  9
$CUSTOMPROPERTY
  1
023137
  9
$CUSTOMPROPERTYTAG
  1
NBSYN
  9
$CUSTOMPROPERTY
  1
$PN.
  9
$CUSTOMPROPERTYTAG
  1
LINA
  9
$CUSTOMPROPERTY
  1
023137
  9
$CUSTOMPROPERTYTAG
  1
SS
  9
$CUSTOMPROPERTY
  1
2-15/16
  9
$CUSTOMPROPERTYTAG
  1
PN
  9
$CUSTOMPROPERTY
  1
023137
  9
$CUSTOMPROPERTYTAG
  1
DESCRIPTION
  9
$CUSTOMPROPERTY
  1
FC-E-215R
  9
$CUSTOMPROPERTYTAG
  1
A
  9
$CUSTOMPROPERTY
  1
4-1/2
  9
$CUSTOMPROPERTYTAG
  1
B
  9
$CUSTOMPROPERTY
  1
8-3/4
  9
$CUSTOMPROPERTYTAG
  1
C
  9
$CUSTOMPROPERTY
  1
3-11/16
  9
$CUSTOMPROPERTYTAG
  1
D
  9
$CUSTOMPROPERTY
  1
7-1/2
  9
$CUSTOMPROPERTYTAG
  1
E
  9
$CUSTOMPROPERTY
  1
1-1/2
  9
$CUSTOMPROPERTYTAG
  1
F
  9
$CUSTOMPROPERTY
  1
5/8
  9
$CUSTOMPROPERTYTAG
  1
G
  9
$CUSTOMPROPERTY
  1
2
  9
$CUSTOMPROPERTYTAG
  1
H
  9
$CUSTOMPROPERTY
  1
3/4
  9
$CUSTOMPROPERTYTAG
  1
K
  9
$CUSTOMPROPERTY
  1
6-3/8
  9
$CUSTOMPROPERTYTAG
  1
L
  9
$CUSTOMPROPERTY
  1
4-23/32
  9
$CUSTOMPROPERTYTAG
  1
M
  9
$CUSTOMPROPERTY
  1
1-1/4
  9
$CUSTOMPROPERTYTAG
  1
COMPANY
  9
$CUSTOMPROPERTY
  1
baldor
  9
$INSBASE
 10
0.0
 20
0.0
 30
0.0
  9
$EXTMIN
 10
1.000000000000000E+20
 20
1.000000000000000E+20
 30
1.000000000000000E+20
  9
$EXTMAX
 10
-1.000000000000000E+20
 20
-1.000000000000000E+20
 30
-1.000000000000000E+20
  9
$LIMMIN
 10
0.0
 20
0.0
  9
$LIMMAX
 10
12.0
 20
9.0
  9
$ORTHOMODE
 70
     0
  9
$REGENMODE
 70
     1
  9
$FILLMODE
 70
     1
  9
$QTEXTMODE
 70
     0
  9
$MIRRTEXT
 70
     1
  9
$LTSCALE
 40
1.0
  9
$ATTMODE
 70
     1
  9
$TEXTSIZE
 40
0.2
  9
$TRACEWID
 40
0.05
  9
$TEXTSTYLE
  7
Standard
  9
$CLAYER
  8
0
  9
$CELTYPE
  6
ByLayer
  9
$CECOLOR
 62
   256
  9
$CELTSCALE
 40
1.0
  9
$DISPSILH
 70
     0
  9
$DIMSCALE
 40
1.0
  9
$DIMASZ
 40
0.18
  9
$DIMEXO
 40
0.0625
  9
$DIMDLI
 40
0.38
  9
$DIMRND
 40
0.0
  9
$DIMDLE
 40
0.0
  9
$DIMEXE
 40
0.18
  9
$DIMTP
 40
0.0
  9
$DIMTM
 40
0.0
  9
$DIMTXT
 40
0.18
  9
$DIMCEN
 40
0.09
  9
$DIMTSZ
 40
0.0
  9
$DIMTOL
 70
     0
  9
$DIMLIM
 70
     0
  9
$DIMTIH
 70
     1
  9
$DIMTOH
 70
     1
  9
$DIMSE1
 70
     0
  9
$DIMSE2
 70
     0
  9
$DIMTAD
 70
     0
  9
$DIMZIN
 70
     0
  9
$DIMBLK
  1

  9
$DIMASO
 70
     1
  9
$DIMSHO
 70
     1
  9
$DIMPOST
  1

  9
$DIMAPOST
  1

  9
$DIMALT
 70
     0
  9
$DIMALTD
 70
     2
  9
$DIMALTF
 40
25.4
  9
$DIMLFAC
 40
1.0
  9
$DIMTOFL
 70
     0
  9
$DIMTVP
 40
0.0
  9
$DIMTIX
 70
     0
  9
$DIMSOXD
 70
     0
  9
$DIMSAH
 70
     0
  9
$DIMBLK1
  1

  9
$DIMBLK2
  1

  9
$DIMSTYLE
  2
Standard
  9
$DIMCLRD
 70
     0
  9
$DIMCLRE
 70
     0
  9
$DIMCLRT
 70
     0
  9
$DIMTFAC
 40
1.0
  9
$DIMGAP
 40
0.09
  9
$DIMJUST
 70
     0
  9
$DIMSD1
 70
     0
  9
$DIMSD2
 70
     0
  9
$DIMTOLJ
 70
     1
  9
$DIMTZIN
 70
     0
  9
$DIMALTZ
 70
     0
  9
$DIMALTTZ
 70
     0
  9
$DIMUPT
 70
     0
  9
$DIMDEC
 70
     4
  9
$DIMTDEC
 70
     4
  9
$DIMALTU
 70
     2
  9
$DIMALTTD
 70
     2
  9
$DIMTXSTY
  7
Standard
  9
$DIMAUNIT
 70
     0
  9
$DIMADEC
 70
     0
  9
$DIMALTRND
 40
0.0
  9
$DIMAZIN
 70
     0
  9
$DIMDSEP
 70
    46
  9
$DIMATFIT
 70
     3
  9
$DIMFRAC
 70
     0
  9
$DIMLDRBLK
  1

  9
$DIMLUNIT
 70
     2
  9
$DIMLWD
 70
    -2
  9
$DIMLWE
 70
    -2
  9
$DIMTMOVE
 70
     0
  9
$DIMFXL
 40
1.0
  9
$DIMFXLON
 70
     0
  9
$DIMJOGANG
 40
0.7853981633974483
  9
$DIMTFILL
 70
     0
  9
$DIMTFILLCLR
 70
     0
  9
$DIMARCSYM
 70
     0
  9
$DIMLTYPE
  6

  9
$DIMLTEX1
  6

  9
$DIMLTEX2
  6

  9
$DIMTXTDIRECTION
 70
     0
  9
$LUNITS
 70
     2
  9
$LUPREC
 70
     4
  9
$SKETCHINC
 40
0.1
  9
$FILLETRAD
 40
0.5
  9
$AUNITS
 70
     0
  9
$AUPREC
 70
     0
  9
$MENU
  1
.
  9
$ELEVATION
 40
0.0
  9
$PELEVATION
 40
0.0
  9
$THICKNESS
 40
0.0
  9
$LIMCHECK
 70
     0
  9
$CHAMFERA
 40
0.0
  9
$CHAMFERB
 40
0.0
  9
$CHAMFERC
 40
0.0
  9
$CHAMFERD
 40
0.0
  9
$SKPOLY
 70
     0
  9
$TDCREATE
 40
2458169.017207303
  9
$TDUCREATE
 40
2458168.975540637
  9
$TDUPDATE
 40
2458169.017207488
  9
$TDUUPDATE
 40
2458168.975540822
  9
$TDINDWG
 40
0.0000000116
  9
$TDUSRTIMER
 40
0.0000000116
  9
$USRTIMER
 70
     1
  9
$ANGBASE
 50
0.0
  9
$ANGDIR
 70
     0
  9
$PDMODE
 70
     0
  9
$PDSIZE
 40
0.0
  9
$PLINEWID
 40
0.0
  9
$SPLFRAME
 70
     0
  9
$SPLINETYPE
 70
     6
  9
$SPLINESEGS
 70
     8
  9
$HANDSEED
  5
1E2
  9
$SURFTAB1
 70
     6
  9
$SURFTAB2
 70
     6
  9
$SURFTYPE
 70
     6
  9
$SURFU
 70
     6
  9
$SURFV
 70
     6
  9
$UCSBASE
  2

  9
$UCSNAME
  2

  9
$UCSORG
 10
0.0
 20
0.0
 30
0.0
  9
$UCSXDIR
 10
1.0
 20
0.0
 30
0.0
  9
$UCSYDIR
 10
0.0
 20
1.0
 30
0.0
  9
$UCSORTHOREF
  2

  9
$UCSORTHOVIEW
 70
     0
  9
$UCSORGTOP
 10
0.0
 20
0.0
 30
0.0
  9
$UCSORGBOTTOM
 10
0.0
 20
0.0
 30
0.0
  9
$UCSORGLEFT
 10
0.0
 20
0.0
 30
0.0
  9
$UCSORGRIGHT
 10
0.0
 20
0.0
 30
0.0
  9
$UCSORGFRONT
 10
0.0
 20
0.0
 30
0.0
  9
$UCSORGBACK
 10
0.0
 20
0.0
 30
0.0
  9
$PUCSBASE
  2

  9
$PUCSNAME
  2

  9
$PUCSORG
 10
0.0
 20
0.0
 30
0.0
  9
$PUCSXDIR
 10
1.0
 20
0.0
 30
0.0
  9
$PUCSYDIR
 10
0.0
 20
1.0
 30
0.0
  9
$PUCSORTHOREF
  2

  9
$PUCSORTHOVIEW
 70
     0
  9
$PUCSORGTOP
 10
0.0
 20
0.0
 30
0.0
  9
$PUCSORGBOTTOM
 10
0.0
 20
0.0
 30
0.0
  9
$PUCSORGLEFT
 10
0.0
 20
0.0
 30
0.0
  9
$PUCSORGRIGHT
 10
0.0
 20
0.0
 30
0.0
  9
$PUCSORGFRONT
 10
0.0
 20
0.0
 30
0.0
  9
$PUCSORGBACK
 10
0.0
 20
0.0
 30
0.0
  9
$USERI1
 70
     0
  9
$USERI2
 70
     0
  9
$USERI3
 70
     0
  9
$USERI4
 70
     0
  9
$USERI5
 70
     0
  9
$USERR1
 40
0.0
  9
$USERR2
 40
0.0
  9
$USERR3
 40
0.0
  9
$USERR4
 40
0.0
  9
$USERR5
 40
0.0
  9
$WORLDVIEW
 70
     1
  9
$SHADEDGE
 70
     3
  9
$SHADEDIF
 70
    70
  9
$TILEMODE
 70
     1
  9
$MAXACTVP
 70
    64
  9
$PINSBASE
 10
0.0
 20
0.0
 30
0.0
  9
$PLIMCHECK
 70
     0
  9
$PEXTMIN
 10
1.000000000000000E+20
 20
1.000000000000000E+20
 30
1.000000000000000E+20
  9
$PEXTMAX
 10
-1.000000000000000E+20
 20
-1.000000000000000E+20
 30
-1.000000000000000E+20
  9
$PLIMMIN
 10
0.0
 20
0.0
  9
$PLIMMAX
 10
12.0
 20
9.0
  9
$UNITMODE
 70
     0
  9
$VISRETAIN
 70
     1
  9
$PLINEGEN
 70
     0
  9
$PSLTSCALE
 70
     1
  9
$TREEDEPTH
 70
  3020
  9
$CMLSTYLE
  2
Standard
  9
$CMLJUST
 70
     0
  9
$CMLSCALE
 40
1.0
  9
$PROXYGRAPHICS
 70
     1
  9
$MEASUREMENT
 70
     0
  9
$CELWEIGHT
370
    -1
  9
$ENDCAPS
280
     0
  9
$JOINSTYLE
280
     0
  9
$LWDISPLAY
290
     0
  9
$INSUNITS
 70
     1
  9
$HYPERLINKBASE
  1

  9
$STYLESHEET
  1

  9
$XEDIT
290
     1
  9
$CEPSNTYPE
380
     0
  9
$PSTYLEMODE
290
     1
  9
$FINGERPRINTGUID
  2
{BA90CBEC-2775-4C4F-8665-4E64ADCE6CB7}
  9
$VERSIONGUID
  2
{FAEB1C32-E019-11D5-929B-00C0DF256EC4}
  9
$EXTNAMES
290
     1
  9
$PSVPSCALE
 40
0.0
  9
$OLESTARTUP
290
     0
  9
$SORTENTS
280
   127
  9
$INDEXCTL
280
     0
  9
$HIDETEXT
280
     1
  9
$XCLIPFRAME
280
     2
  9
$HALOGAP
280
     0
  9
$OBSCOLOR
 70
   257
  9
$OBSLTYPE
280
     0
  9
$INTERSECTIONDISPLAY
280
     0
  9
$INTERSECTIONCOLOR
 70
   257
  9
$DIMASSOC
280
     2
  9
$PROJECTNAME
  1

  9
$CAMERADISPLAY
290
     0
  9
$LENSLENGTH
 40
50.0
  9
$CAMERAHEIGHT
 40
0.0
  9
$STEPSPERSEC
 40
2.0
  9
$STEPSIZE
 40
6.0
  9
$3DDWFPREC
 40
2.0
  9
$PSOLWIDTH
 40
0.25
  9
$PSOLHEIGHT
 40
4.0
  9
$LOFTANG1
 40
1.570796326794897
  9
$LOFTANG2
 40
1.570796326794897
  9
$LOFTMAG1
 40
0.0
  9
$LOFTMAG2
 40
0.0
  9
$LOFTPARAM
 70
     7
  9
$LOFTNORMALS
280
     1
  9
$LATITUDE
 40
37.795
  9
$LONGITUDE
 40
-122.394
  9
$NORTHDIRECTION
 40
0.0
  9
$TIMEZONE
 70
 -8000
  9
$LIGHTGLYPHDISPLAY
280
     1
  9
$TILEMODELIGHTSYNCH
280
     1
  9
$CMATERIAL
347
44
  9
$SOLIDHIST
280
     0
  9
$SHOWHIST
280
     1
  9
$DWFFRAME
280
     2
  9
$DGNFRAME
280
     2
  9
$REALWORLDSCALE
290
     1
  9
$INTERFERECOLOR
 62
   256
  9
$CSHADOW
280
     0
  9
$SHADOWPLANELOCATION
 40
0.0
  0
ENDSEC
  0
SECTION
  2
CLASSES
  0
CLASS
  1
ACDBDICTIONARYWDFLT
  2
AcDbDictionaryWithDefault
  3
ObjectDBX Classes
 90
        0
 91
        4
280
     0
281
     0
  0
CLASS
  1
VISUALSTYLE
  2
AcDbVisualStyle
  3
ObjectDBX Classes
 90
     4095
 91
        4
280
     0
281
     0
  0
CLASS
  1
MATERIAL
  2
AcDbMaterial
  3
ObjectDBX Classes
 90
     1153
 91
        4
280
     0
281
     0
  0
CLASS
  1
SCALE
  2
AcDbScale
  3
ObjectDBX Classes
 90
     1153
 91
        4
280
     0
281
     0
  0
CLASS
  1
TABLESTYLE
  2
AcDbTableStyle
  3
ObjectDBX Classes
 90
     4095
 91
        4
280
     0
281
     0
  0
CLASS
  1
MLEADERSTYLE
  2
AcDbMLeaderStyle
  3
ACDB_MLEADERSTYLE_CLASS
 90
     4095
 91
        4
280
     0
281
     0
  0
CLASS
  1
SUN
  2
AcDbSun
  3
SCENEOE
 90
     1153
 91
        4
280
     0
281
     0
  0
CLASS
  1
DICTIONARYVAR
  2
AcDbDictionaryVar
  3
ObjectDBX Classes
 90
        0
 91
        4
280
     0
281
     0
  0
CLASS
  1
CELLSTYLEMAP
  2
AcDbCellStyleMap
  3
ObjectDBX Classes
 90
     1152
 91
        4
280
     0
281
     0
  0
ENDSEC
  0
SECTION
  2
TABLES
  0
TABLE
  2
VPORT
  5
8
330
0
100
AcDbSymbolTable
 70
     1
  0
VPORT
  5
29
330
8
100
AcDbSymbolTableRecord
100
AcDbViewportTableRecord
  2
*Active
 70
     0
 10
0.0
 20
0.0
 11
1.0
 21
1.0
 12
0.1531249999999993
 22
0.0
 13
0.0
 23
0.0
 14
0.5
 24
0.5
 15
0.5
 25
0.5
 16
0.0
 26
0.0
 36
1.0
 17
0.0
 27
0.0
 37
0.0
 40
8.925
 41
0.892142857142857
 42
50.0
 43
0.0
 44
0.0
 50
0.0
 51
0.0
 71
     0
 72
   100
 73
     1
 74
     3
 75
     0
 76
     0
 77
     0
 78
     0
281
     0
 65
     1
110
0.0
120
0.0
130
0.0
111
1.0
121
0.0
131
0.0
112
0.0
122
1.0
132
0.0
 79
     0
146
0.0
348
2F
 60
     3
 61
     5
292
     1
282
     1
141
0.0
142
0.0
 63
   250
361
6D
  0
ENDTAB
  0
TABLE
  2
LTYPE
  5
5
330
0
100
AcDbSymbolTable
 70
     3
  0
LTYPE
  5
14
330
5
100
AcDbSymbolTableRecord
100
AcDbLinetypeTableRecord
  2
ByBlock
 70
     0
  3

 72
    65
 73
     0
 40
0.0
  0
LTYPE
  5
15
330
5
100
AcDbSymbolTableRecord
100
AcDbLinetypeTableRecord
  2
ByLayer
 70
     0
  3

 72
    65
 73
     0
 40
0.0
  0
LTYPE
  5
16
330
5
100
AcDbSymbolTableRecord
100
AcDbLinetypeTableRecord
  2
Continuous
 70
     0
  3
Solid line
 72
    65
 73
     0
 40
0.0
  0
LTYPE
  5
9C
330
5
100
AcDbSymbolTableRecord
100
AcDbLinetypeTableRecord
  2
Dashed
 70
     0
  3

 72
    65
 73
     2
 40
2.0
 49
1.0
 74
     0
 49
-1.0
 74
     0
  0
LTYPE
  5
CB
330
5
100
AcDbSymbolTableRecord
100
AcDbLinetypeTableRecord
  2
Center
 70
     0
  3

 72
    65
 73
     4
 40
1.5
 49
0.45
 74
     0
 49
-0.5
 74
     0
 49
0.05
 74
     0
 49
-0.5
 74
     0
  0
ENDTAB
  0
TABLE
  2
LAYER
  5
2
330
0
100
AcDbSymbolTable
 70
     7
  0
LAYER
  5
10
330
2
100
AcDbSymbolTableRecord
100
AcDbLayerTableRecord
  2
0
 70
     0
 62
     7
  6
Continuous
370
    -3
390
F
347
46
348
0
  0
LAYER
  5
72
330
2
100
AcDbSymbolTableRecord
100
AcDbLayerTableRecord
  2
AM_6
 70
     0
 62
    -2
  6
Continuous
370
    35
390
F
347
46
348
0
  0
LAYER
  5
9D
330
2
100
AcDbSymbolTableRecord
100
AcDbLayerTableRecord
  2
AM_9
 70
     0
 62
     6
  6
Dashed
370
    25
390
F
347
46
348
0
  0
LAYER
  5
C5
330
2
100
AcDbSymbolTableRecord
100
AcDbLayerTableRecord
  2
AM_5
 70
     0
 62
     3
  6
Continuous
370
    25
390
F
347
46
348
0
  0
LAYER
  5
CC
330
2
100
AcDbSymbolTableRecord
100
AcDbLayerTableRecord
  2
AM_7
 70
     0
 62
     7
  6
Center
370
    25
390
F
347
46
348
0
  0
LAYER
  5
CE
330
2
100
AcDbSymbolTableRecord
100
AcDbLayerTableRecord
  2
AM_4
 70
     0
 62
     7
  6
Continuous
370
    50
390
F
347
46
348
0
  0
LAYER
  5
1D0
330
2
100
AcDbSymbolTableRecord
100
AcDbLayerTableRecord
  2
ConnectionPoints
 70
     0
 62
     7
  6
Continuous
370
    50
390
F
347
46
348
0
  0
ENDTAB
  0
TABLE
  2
STYLE
  5
3
330
0
100
AcDbSymbolTable
 70
     1
  0
STYLE
  5
11
330
3
100
AcDbSymbolTableRecord
100
AcDbTextStyleTableRecord
  2
Standard
 70
     0
 40
0.0
 41
1.0
 50
0.0
 71
     0
 42
0.2
  3
txt
  4

  0
ENDTAB
  0
TABLE
  2
VIEW
  5
6
330
0
100
AcDbSymbolTable
 70
     0
  0
ENDTAB
  0
TABLE
  2
UCS
  5
7
330
0
100
AcDbSymbolTable
 70
     0
  0
ENDTAB
  0
TABLE
  2
APPID
  5
9
330
0
100
AcDbSymbolTable
 70
     1
  0
APPID
  5
12
330
9
100
AcDbSymbolTableRecord
100
AcDbRegAppTableRecord
  2
ACAD
 70
     0
  0
ENDTAB
  0
TABLE
  2
DIMSTYLE
  5
A
330
0
100
AcDbSymbolTable
 70
     1
100
AcDbDimStyleTable
  0
DIMSTYLE
105
27
330
A
100
AcDbSymbolTableRecord
100
AcDbDimStyleTableRecord
  2
Standard
 70
     0
178
     0
340
11
  0
ENDTAB
  0
TABLE
  2
BLOCK_RECORD
  5
1
330
0
100
AcDbSymbolTable
 70
     7
  0
BLOCK_RECORD
  5
1F
330
1
100
AcDbSymbolTableRecord
100
AcDbBlockTableRecord
  2
*Model_Space
340
22
 70
     0
280
     1
281
     0
  0
BLOCK_RECORD
  5
1B
330
1
100
AcDbSymbolTableRecord
100
AcDbBlockTableRecord
  2
*Paper_Space
340
1E
 70
     0
280
     1
281
     0
  0
BLOCK_RECORD
  5
23
330
1
100
AcDbSymbolTableRecord
100
AcDbBlockTableRecord
  2
*Paper_Space0
340
26
 70
     0
280
     1
281
     0
  0
BLOCK_RECORD
  5
6E
330
1
100
AcDbSymbolTableRecord
100
AcDbBlockTableRecord
  2
1_023137_2
340
0
102
{BLKREFS
331
6F
102
}
 70
     0
280
     1
281
     0
  0
BLOCK_RECORD
  5
87
330
1
100
AcDbSymbolTableRecord
100
AcDbBlockTableRecord
  2
2_2_15_16D_0_in_023137_2
340
0
102
{BLKREFS
331
88
102
}
 70
     0
280
     1
281
     0
  0
BLOCK_RECORD
  5
AC
330
1
100
AcDbSymbolTableRecord
100
AcDbBlockTableRecord
  2
3_405015E_Inch_0_in_023137_2
340
0
102
{BLKREFS
331
AD
102
}
 70
     0
280
     1
281
     0
  0
BLOCK_RECORD
  5
F4
330
1
100
AcDbSymbolTableRecord
100
AcDbBlockTableRecord
  2
4_2_15_16C_0_in_023137_2
340
0
102
{BLKREFS
331
F5
102
}
 70
     0
280
     1
281
     0
  0
BLOCK_RECORD
  5
12D
330
1
100
AcDbSymbolTableRecord
100
AcDbBlockTableRecord
  2
5_2_15_16I_0_in_023137_2
340
0
102
{BLKREFS
331
12E
102
}
 70
     0
280
     1
281
     0
  0
BLOCK_RECORD
  5
17F
330
1
100
AcDbSymbolTableRecord
100
AcDbBlockTableRecord
  2
6_023137H_0_in_023137_2
340
0
102
{BLKREFS
331
180
102
}
 70
     0
280
     1
281
     0
  0
ENDTAB
  0
ENDSEC
  0
SECTION
  2
BLOCKS
  0
BLOCK
  5
20
330
1F
100
AcDbEntity
  8
0
100
AcDbBlockBegin
  2
*Model_Space
 70
     0
 10
0.0
 20
0.0
 30
0.0
  3
*Model_Space
  1

  0
ENDBLK
  5
21
330
1F
100
AcDbEntity
  8
0
100
AcDbBlockEnd
  0
BLOCK
  5
1C
330
1B
100
AcDbEntity
 67
     1
  8
0
100
AcDbBlockBegin
  2
*Paper_Space
 70
     0
 10
0.0
 20
0.0
 30
0.0
  3
*Paper_Space
  1

  0
ENDBLK
  5
1D
330
1B
100
AcDbEntity
 67
     1
  8
0
100
AcDbBlockEnd
  0
BLOCK
  5
24
330
23
100
AcDbEntity
  8
0
100
AcDbBlockBegin
  2
*Paper_Space0
 70
     0
 10
0.0
 20
0.0
 30
0.0
  3
*Paper_Space0
  1

  0
ENDBLK
  5
25
330
23
100
AcDbEntity
  8
0
100
AcDbBlockEnd
  0
BLOCK
  5
70
330
6E
100
AcDbEntity
  8
0
100
AcDbBlockBegin
  2
1_023137_2
 70
     2
 10
0.0
 20
0.0
 30
0.0
  3
1_023137_2
  1

  0
ATTDEF
  5
73
330
6E
100
AcDbEntity
  8
AM_6
100
AcDbText
 10
9.05625
 20
4.375
 30
0.0
 40
0.5
  1
Flange Cartridge Expansion Inch Bore
100
AcDbAttributeDefinition
  3

  2
NN
 70
     8
280
     0
  0
ATTDEF
  5
74
330
6E
100
AcDbEntity
  8
AM_6
100
AcDbText
 10
9.05625
 20
3.875
 30
0.0
 40
0.5
  1
Type E Piloted Flange Bearing -Inch
100
AcDbAttributeDefinition
  3

  2
NT
 70
     8
280
     0
  0
ATTDEF
  5
75
330
6E
100
AcDbEntity
  8
AM_6
100
AcDbText
 10
9.05625
 20
3.375
 30
0.0
 40
0.5
  1
023137
100
AcDbAttributeDefinition
  3

  2
NB
 70
     8
280
     0
  0
ATTDEF
  5
76
330
6E
100
AcDbEntity
  8
AM_6
100
AcDbText
 10
9.05625
 20
2.875
 30
0.0
 40
0.5
  1
$PN.
100
AcDbAttributeDefinition
  3

  2
NBSYN
 70
     8
280
     0
  0
ATTDEF
  5
77
330
6E
100
AcDbEntity
  8
AM_6
100
AcDbText
 10
9.05625
 20
2.375
 30
0.0
 40
0.5
  1
023137
100
AcDbAttributeDefinition
  3

  2
LINA
 70
     8
280
     0
  0
ATTDEF
  5
78
330
6E
100
AcDbEntity
  8
AM_6
100
AcDbText
 10
9.05625
 20
1.875
 30
0.0
 40
0.5
  1
2-15/16
100
AcDbAttributeDefinition
  3

  2
SS
 70
     8
280
     0
  0
ATTDEF
  5
79
330
6E
100
AcDbEntity
  8
AM_6
100
AcDbText
 10
9.05625
 20
1.375
 30
0.0
 40
0.5
  1
023137
100
AcDbAttributeDefinition
  3

  2
PN
 70
     8
280
     0
  0
ATTDEF
  5
7A
330
6E
100
AcDbEntity
  8
AM_6
100
AcDbText
 10
9.05625
 20
0.875
 30
0.0
 40
0.5
  1
FC-E-215R
100
AcDbAttributeDefinition
  3

  2
DESCRIPTION
 70
     8
280
     0
  0
ATTDEF
  5
7B
330
6E
100
AcDbEntity
  8
AM_6
100
AcDbText
 10
9.05625
 20
0.375
 30
0.0
 40
0.5
  1
4-1/2
100
AcDbAttributeDefinition
  3

  2
A
 70
     8
280
     0
  0
ATTDEF
  5
7C
330
6E
100
AcDbEntity
  8
AM_6
100
AcDbText
 10
9.05625
 20
-0.125
 30
0.0
 40
0.5
  1
8-3/4
100
AcDbAttributeDefinition
  3

  2
B
 70
     8
280
     0
  0
ATTDEF
  5
7D
330
6E
100
AcDbEntity
  8
AM_6
100
AcDbText
 10
9.05625
 20
-0.625
 30
0.0
 40
0.5
  1
3-11/16
100
AcDbAttributeDefinition
  3

  2
C
 70
     8
280
     0
  0
ATTDEF
  5
7E
330
6E
100
AcDbEntity
  8
AM_6
100
AcDbText
 10
9.05625
 20
-1.125
 30
0.0
 40
0.5
  1
7-1/2
100
AcDbAttributeDefinition
  3

  2
D
 70
     8
280
     0
  0
ATTDEF
  5
7F
330
6E
100
AcDbEntity
  8
AM_6
100
AcDbText
 10
9.05625
 20
-1.625
 30
0.0
 40
0.5
  1
1-1/2
100
AcDbAttributeDefinition
  3

  2
E
 70
     8
280
     0
  0
ATTDEF
  5
80
330
6E
100
AcDbEntity
  8
AM_6
100
AcDbText
 10
9.05625
 20
-2.125
 30
0.0
 40
0.5
  1
5/8
100
AcDbAttributeDefinition
  3

  2
F
 70
     8
280
     0
  0
ATTDEF
  5
81
330
6E
100
AcDbEntity
  8
AM_6
100
AcDbText
 10
9.05625
 20
-2.625
 30
0.0
 40
0.5
  1
2
100
AcDbAttributeDefinition
  3

  2
G
 70
     8
280
     0
  0
ATTDEF
  5
82
330
6E
100
AcDbEntity
  8
AM_6
100
AcDbText
 10
9.05625
 20
-3.125
 30
0.0
 40
0.5
  1
3/4
100
AcDbAttributeDefinition
  3

  2
H
 70
     8
280
     0
  0
ATTDEF
  5
83
330
6E
100
AcDbEntity
  8
AM_6
100
AcDbText
 10
9.05625
 20
-3.625
 30
0.0
 40
0.5
  1
6-3/8
100
AcDbAttributeDefinition
  3

  2
K
 70
     8
280
     0
  0
ATTDEF
  5
84
330
6E
100
AcDbEntity
  8
AM_6
100
AcDbText
 10
9.05625
 20
-4.125
 30
0.0
 40
0.5
  1
4-23/32
100
AcDbAttributeDefinition
  3

  2
L
 70
     8
280
     0
  0
ATTDEF
  5
85
330
6E
100
AcDbEntity
  8
AM_6
100
AcDbText
 10
9.05625
 20
-4.625
 30
0.0
 40
0.5
  1
1-1/4
100
AcDbAttributeDefinition
  3

  2
M
 70
     8
280
     0
  0
ATTDEF
  5
86
330
6E
100
AcDbEntity
  8
AM_6
100
AcDbText
 10
9.05625
 20
-5.125
 30
0.0
 40
0.5
  1
baldor
100
AcDbAttributeDefinition
  3

  2
COMPANY
 70
     8
280
     0
  0
INSERT
  5
88
330
6E
100
AcDbEntity
  8
0
100
AcDbBlockReference
  2
2_2_15_16D_0_in_023137_2
 10
0.0
 20
0.0
 30
0.0
  0
INSERT
  5
AD
330
6E
100
AcDbEntity
  8
0
100
AcDbBlockReference
  2
3_405015E_Inch_0_in_023137_2
 10
0.0
 20
0.0
 30
0.0
  0
INSERT
  5
F5
330
6E
100
AcDbEntity
  8
0
100
AcDbBlockReference
  2
4_2_15_16C_0_in_023137_2
 10
0.0
 20
0.0
 30
0.0
  0
INSERT
  5
12E
330
6E
100
AcDbEntity
  8
0
100
AcDbBlockReference
  2
5_2_15_16I_0_in_023137_2
 10
0.0
 20
0.0
 30
0.0
  0
INSERT
  5
180
330
6E
100
AcDbEntity
  8
0
100
AcDbBlockReference
  2
6_023137H_0_in_023137_2
 10
0.0
 20
0.0
 30
0.0
  0
ENDBLK
  5
71
330
6E
100
AcDbEntity
  8
0
100
AcDbBlockEnd
  0
BLOCK
  5
89
330
87
100
AcDbEntity
  8
0
100
AcDbBlockBegin
  2
2_2_15_16D_0_in_023137_2
 70
     2
 10
0.0
 20
0.0
 30
0.0
  3
2_2_15_16D_0_in_023137_2
  1

  0
ATTDEF
  5
8B
330
87
100
AcDbEntity
  8
AM_6
100
AcDbText
 10
7.390625
 20
2.39
 30
0.0
 40
0.5
  1
E-Type Disc -Inch
100
AcDbAttributeDefinition
  3

  2
NN
 70
     8
280
     0
  0
ATTDEF
  5
8C
330
87
100
AcDbEntity
  8
AM_6
100
AcDbText
 10
7.390625
 20
1.89
 30
0.0
 40
0.5
  1
E-Type Bearings
100
AcDbAttributeDefinition
  3

  2
NT
 70
     8
280
     0
  0
ATTDEF
  5
8D
330
87
100
AcDbEntity
  8
AM_6
100
AcDbText
 10
7.390625
 20
1.39
 30
0.0
 40
0.5
  1
2-15/16D
100
AcDbAttributeDefinition
  3

  2
NB
 70
     8
280
     0
  0
ATTDEF
  5
8E
330
87
100
AcDbEntity
  8
AM_6
100
AcDbText
 10
7.390625
 20
0.8900000000000001
 30
0.0
 40
0.5
  1
$BORE.D
100
AcDbAttributeDefinition
  3

  2
NBSYN
 70
     8
280
     0
  0
ATTDEF
  5
8F
330
87
100
AcDbEntity
  8
AM_6
100
AcDbText
 10
7.390625
 20
0.3900000000000001
 30
0.0
 40
0.5
  1
2-15/16D
100
AcDbAttributeDefinition
  3

  2
LINA
 70
     8
280
     0
  0
ATTDEF
  5
90
330
87
100
AcDbEntity
  8
AM_6
100
AcDbText
 10
7.390625
 20
-0.1099999999999999
 30
0.0
 40
0.5
  1
2-15/16
100
AcDbAttributeDefinition
  3

  2
BORE
 70
     8
280
     0
  0
ATTDEF
  5
91
330
87
100
AcDbEntity
  8
AM_6
100
AcDbText
 10
7.390625
 20
-0.6099999999999999
 30
0.0
 40
0.5
  1
2.937500
100
AcDbAttributeDefinition
  3

  2
BORE1
 70
     8
280
     0
  0
ATTDEF
  5
92
330
87
100
AcDbEntity
  8
AM_6
100
AcDbText
 10
7.390625
 20
-1.11
 30
0.0
 40
0.5
  1
4.50
100
AcDbAttributeDefinition
  3

  2
A
 70
     8
280
     0
  0
ATTDEF
  5
93
330
87
100
AcDbEntity
  8
AM_6
100
AcDbText
 10
7.390625
 20
-1.61
 30
0.0
 40
0.5
  1
1.94
100
AcDbAttributeDefinition
  3

  2
B
 70
     8
280
     0
  0
ATTDEF
  5
94
330
87
100
AcDbEntity
  8
AM_6
100
AcDbText
 10
7.390625
 20
-2.11
 30
0.0
 40
0.5
  1
3.47
100
AcDbAttributeDefinition
  3

  2
C
 70
     8
280
     0
  0
ATTDEF
  5
95
330
87
100
AcDbEntity
  8
AM_6
100
AcDbText
 10
7.390625
 20
-2.61
 30
0.0
 40
0.5
  1
4.78
100
AcDbAttributeDefinition
  3

  2
D
 70
     8
280
     0
  0
ATTDEF
  5
96
330
87
100
AcDbEntity
  8
AM_6
100
AcDbText
 10
7.390625
 20
-3.11
 30
0.0
 40
0.5
  1
0.54
100
AcDbAttributeDefinition
  3

  2
E
 70
     8
280
     0
  0
ATTDEF
  5
97
330
87
100
AcDbEntity
  8
AM_6
100
AcDbText
 10
7.390625
 20
-3.61
 30
0.0
 40
0.5
  1
0.44
100
AcDbAttributeDefinition
  3

  2
F
 70
     8
280
     0
  0
ATTDEF
  5
98
330
87
100
AcDbEntity
  8
AM_6
100
AcDbText
 10
7.390625
 20
-4.109999999999999
 30
0.0
 40
0.5
  1
1/2-13
100
AcDbAttributeDefinition
  3

  2
CS
 70
     8
280
     0
  0
ATTDEF
  5
99
330
87
100
AcDbEntity
  8
AM_6
100
AcDbText
 10
7.390625
 20
-4.609999999999999
 30
0.0
 40
0.5
  1
0.5000
100
AcDbAttributeDefinition
  3

  2
NDM
 70
     8
280
     0
  0
ATTDEF
  5
9A
330
87
100
AcDbEntity
  8
AM_6
100
AcDbText
 10
7.390625
 20
-5.109999999999999
 30
0.0
 40
0.5
  1
0.4170
100
AcDbAttributeDefinition
  3

  2
KDM
 70
     8
280
     0
  0
ATTDEF
  5
9B
330
87
100
AcDbEntity
  8
AM_6
100
AcDbText
 10
7.390625
 20
-5.609999999999999
 30
0.0
 40
0.5
  1
baldor
100
AcDbAttributeDefinition
  3

  2
COMPANY
 70
     8
280
     0
  0
LINE
  5
9E
330
87
100
AcDbEntity
  8
AM_9
100
AcDbLine
 10
2.34375
 20
-1.735
 30
0.0
 11
2.390625
 21
-1.735
 31
0.0
  0
LINE
  5
9F
330
87
100
AcDbEntity
  8
AM_9
100
AcDbLine
 10
2.390625
 20
1.735
 30
0.0
 11
2.34375
 21
1.735
 31
0.0
  0
LINE
  5
A0
330
87
100
AcDbEntity
  8
AM_9
100
AcDbLine
 10
1.950625
 20
-2.343125
 30
0.0
 11
2.3203125
 21
-2.343125
 31
0.0
  0
LINE
  5
A1
330
87
100
AcDbEntity
  8
AM_9
100
AcDbLine
 10
2.3203125
 20
2.343125
 30
0.0
 11
1.950625
 21
2.343125
 31
0.0
  0
ARC
  5
A2
330
87
100
AcDbEntity
  8
AM_9
100
AcDbCircle
 10
2.3203125
 20
-2.3196875
 30
0.0
 40
0.0234375000000004
100
AcDbArc
 50
270.0
 51
0.0
  0
ARC
  5
A3
330
87
100
AcDbEntity
  8
AM_9
100
AcDbCircle
 10
2.3203125
 20
2.3196875
 30
0.0
 40
0.0234375000000004
100
AcDbArc
 50
0.0
 51
90.0
  0
LINE
  5
A4
330
87
100
AcDbEntity
  8
AM_9
100
AcDbLine
 10
2.3203125
 20
2.343125
 30
0.0
 11
2.3203125
 21
-2.343125
 31
0.0
  0
LINE
  5
A5
330
87
100
AcDbEntity
  8
AM_9
100
AcDbLine
 10
1.950625
 20
-2.39
 30
0.0
 11
2.343749999999999
 21
-2.39
 31
0.0
  0
LINE
  5
A6
330
87
100
AcDbEntity
  8
AM_9
100
AcDbLine
 10
2.343749999999999
 20
2.39
 30
0.0
 11
1.950625
 21
2.39
 31
0.0
  0
LINE
  5
A7
330
87
100
AcDbEntity
  8
AM_9
100
AcDbLine
 10
1.950625
 20
2.39
 30
0.0
 11
1.950625
 21
-2.39
 31
0.0
  0
LINE
  5
A8
330
87
100
AcDbEntity
  8
AM_9
100
AcDbLine
 10
2.390625
 20
2.343125
 30
0.0
 11
2.390625
 21
-2.343125
 31
0.0
  0
ARC
  5
A9
330
87
100
AcDbEntity
  8
AM_9
100
AcDbCircle
 10
2.343749999999999
 20
-2.343124999999999
 30
0.0
 40
0.0468750000000013
100
AcDbArc
 50
270.0
 51
0.0
  0
ARC
  5
AA
330
87
100
AcDbEntity
  8
AM_9
100
AcDbCircle
 10
2.343749999999999
 20
2.343124999999999
 30
0.0
 40
0.0468750000000013
100
AcDbArc
 50
0.0
 51
90.0
  0
LINE
  5
AB
330
87
100
AcDbEntity
  8
AM_9
100
AcDbLine
 10
2.343749999999999
 20
2.39
 30
0.0
 11
2.343749999999999
 21
-2.39
 31
0.0
  0
ENDBLK
  5
8A
330
87
100
AcDbEntity
  8
0
100
AcDbBlockEnd
  0
BLOCK
  5
AE
330
AC
100
AcDbEntity
  8
0
100
AcDbBlockBegin
  2
3_405015E_Inch_0_in_023137_2
 70
     2
 10
0.0
 20
0.0
 30
0.0
  3
3_405015E_Inch_0_in_023137_2
  1

  0
ATTDEF
  5
B0
330
AC
100
AcDbEntity
  8
AM_6
100
AcDbText
 10
4.348740916050874
 20
3.537926420723127
 30
0.0
 40
0.5
  1
405015E -Inch
100
AcDbAttributeDefinition
  3

  2
NN
 70
     8
280
     0
  0
ATTDEF
  5
B1
330
AC
100
AcDbEntity
  8
AM_6
100
AcDbText
 10
4.348740916050874
 20
3.037926420723127
 30
0.0
 40
0.5
  1
Grease Fitting
100
AcDbAttributeDefinition
  3

  2
NT
 70
     8
280
     0
  0
ATTDEF
  5
B2
330
AC
100
AcDbEntity
  8
AM_6
100
AcDbText
 10
4.348740916050874
 20
2.537926420723127
 30
0.0
 40
0.5
  1
405015E-Inch
100
AcDbAttributeDefinition
  3

  2
NB
 70
     8
280
     0
  0
ATTDEF
  5
B3
330
AC
100
AcDbEntity
  8
AM_6
100
AcDbText
 10
4.348740916050874
 20
2.037926420723127
 30
0.0
 40
0.5
  1
$MN.-Inch
100
AcDbAttributeDefinition
  3

  2
NBSYN
 70
     8
280
     0
  0
ATTDEF
  5
B4
330
AC
100
AcDbEntity
  8
AM_6
100
AcDbText
 10
4.348740916050874
 20
1.537926420723127
 30
0.0
 40
0.5
  1
405015E
100
AcDbAttributeDefinition
  3

  2
LINA
 70
     8
280
     0
  0
ATTDEF
  5
B5
330
AC
100
AcDbEntity
  8
AM_6
100
AcDbText
 10
4.348740916050874
 20
1.037926420723127
 30
0.0
 40
0.5
  1
405015E
100
AcDbAttributeDefinition
  3

  2
MN
 70
     8
280
     0
  0
ATTDEF
  5
B6
330
AC
100
AcDbEntity
  8
AM_6
100
AcDbText
 10
4.348740916050874
 20
0.5379264207231267
 30
0.0
 40
0.5
  1
1/8 x 27PTF
100
AcDbAttributeDefinition
  3

  2
T
 70
     8
280
     0
  0
ATTDEF
  5
B7
330
AC
100
AcDbEntity
  8
AM_6
100
AcDbText
 10
4.348740916050874
 20
0.0379264207231267
 30
0.0
 40
0.5
  1
baldor
100
AcDbAttributeDefinition
  3

  2
COMPANY
 70
     8
280
     0
  0
LINE
  5
B8
330
AC
100
AcDbEntity
  8
AM_9
100
AcDbLine
 10
-0.9531249999822836
 20
3.200157137043207
 30
0.0
 11
-0.7984453915977264
 21
3.354836745427765
 31
0.0
  0
LINE
  5
B9
330
AC
100
AcDbEntity
  8
AM_9
100
AcDbLine
 10
-0.7984453915977264
 20
3.354836745427765
 30
0.0
 11
-0.7809281341389047
 21
3.385177525355708
 31
0.0
  0
LINE
  5
BA
330
AC
100
AcDbEntity
  8
AM_9
100
AcDbLine
 10
-0.7929378934146264
 20
3.39718728463143
 30
0.0
 11
-0.7809281341389047
 21
3.385177525355708
 31
0.0
  0
LWPOLYLINE
  5
BB
330
AC
100
AcDbEntity
  8
AM_9
100
AcDbPolyline
 90
        4
 70
     0
 43
0.0
 10
-0.7809281341389047
 20
3.385177525355708
 10
-0.7984493941940854
 20
3.358247396761846
 10
-0.8083742217162215
 20
3.345777036961866
 10
-0.8191685296738286
 20
3.334113607351662
  0
LINE
  5
BC
330
AC
100
AcDbEntity
  8
AM_9
100
AcDbLine
 10
-0.6512590839491263
 20
3.127256459047494
 30
0.0
 11
-0.6512590839491263
 21
3.179178962530402
 31
0.0
  0
LINE
  5
BD
330
AC
100
AcDbEntity
  8
AM_9
100
AcDbLine
 10
-0.9321468254694789
 20
2.89829122101005
 30
0.0
 11
-0.8802243219865707
 21
2.89829122101005
 31
0.0
  0
LINE
  5
BE
330
AC
100
AcDbEntity
  8
AM_9
100
AcDbLine
 10
-0.8802243219865707
 20
2.89829122101005
 30
0.0
 11
-0.6512590839491263
 21
3.127256459047494
 31
0.0
  0
LWPOLYLINE
  5
BF
330
AC
100
AcDbEntity
  8
AM_9
100
AcDbPolyline
 90
        4
 70
     0
 43
0.0
 10
-0.8191685296738286
 20
3.334113607351662
 10
-0.8307610754274153
 20
3.323380074720506
 10
-0.8431869838416306
 20
3.313479904749979
 10
-0.8702324476778748
 20
3.295873211816739
  0
LINE
  5
C0
330
AC
100
AcDbEntity
  8
AM_9
100
AcDbLine
 10
-0.6512590839491263
 20
3.179178962530402
 30
0.0
 11
-0.8076364382138536
 21
3.345645698811637
 31
0.0
  0
LINE
  5
C1
330
AC
100
AcDbEntity
  8
AM_9
100
AcDbLine
 10
-1.083188783803718
 20
3.040178677657051
 30
0.0
 11
-0.9321468254694789
 21
2.89829122101005
 31
0.0
  0
LINE
  5
C2
330
AC
100
AcDbEntity
  8
AM_9
100
AcDbLine
 10
-0.9321468254694789
 20
2.89829122101005
 30
0.0
 11
-0.6512590839491263
 21
3.179178962530402
 31
0.0
  0
LINE
  5
C3
330
AC
100
AcDbEntity
  8
AM_9
100
AcDbLine
 10
-0.8730314466984549
 20
3.298672210837319
 30
0.0
 11
-0.8702324476778748
 21
3.295873211816739
 31
0.0
  0
LWPOLYLINE
  5
C4
330
AC
100
AcDbEntity
  8
AM_9
100
AcDbPolyline
 90
        4
 70
     0
 43
0.0
 10
-0.8702324476778748
 20
3.295873211816739
 10
-0.9099794020575769
 20
3.246717388898354
 10
-0.9311018232407711
 20
3.223049435437317
 10
-0.9531249999822836
 20
3.200157137043207
  0
LINE
  5
C6
330
AC
100
AcDbEntity
  8
AM_5
100
AcDbLine
 10
-0.8476215041542977
 20
3.2135530276489
 30
0.0
 11
-0.7085003934584874
 21
3.070015149538134
 31
0.0
  0
LINE
  5
C7
330
AC
100
AcDbEntity
  8
AM_5
100
AcDbLine
 10
-0.8803807190980679
 20
3.272901417927422
 30
0.0
 11
-0.8476215041542977
 21
3.2135530276489
 31
0.0
  0
LINE
  5
C8
330
AC
100
AcDbEntity
  8
AM_5
100
AcDbLine
 10
-0.9790958516283463
 20
3.082078680174851
 30
0.0
 11
-0.8350465431139278
 21
3.22612798868927
 31
0.0
  0
LINE
  5
C9
330
AC
100
AcDbEntity
  8
AM_5
100
AcDbLine
 10
-0.9665208905879765
 20
3.094653641215221
 30
0.0
 11
-0.8229830124772095
 21
2.955532530519411
 31
0.0
  0
LINE
  5
CA
330
AC
100
AcDbEntity
  8
AM_5
100
AcDbLine
 10
-1.016480189594844
 20
3.122230251245003
 30
0.0
 11
-0.9665208905879765
 21
3.094653641215221
 31
0.0
  0
LINE
  5
CD
330
AC
100
AcDbEntity
  8
AM_7
100
AcDbLine
 10
-1.240917459925208
 20
3.487949596986132
 30
0.0
 11
-0.743114285969879
 21
2.990146423030803
 31
0.0
  0
LINE
  5
CF
330
AC
100
AcDbEntity
  8
AM_4
100
AcDbLine
 10
-1.138145388294785
 20
3.027960271199828
 30
0.0
 11
-1.107804608366841
 21
3.04547752865865
 31
0.0
  0
LINE
  5
D0
330
AC
100
AcDbEntity
  8
AM_4
100
AcDbLine
 10
-1.107804608366841
 20
3.04547752865865
 30
0.0
 11
-0.9531249999822836
 21
3.200157137043207
 31
0.0
  0
LINE
  5
D1
330
AC
100
AcDbEntity
  8
AM_4
100
AcDbLine
 10
-1.178515286485496
 20
3.116188206777304
 30
0.0
 11
-1.196032543944317
 21
3.085847426849361
 31
0.0
  0
LINE
  5
D2
330
AC
100
AcDbEntity
  8
AM_4
100
AcDbLine
 10
-1.178515286485496
 20
3.116188206777304
 30
0.0
 11
-0.869156069716381
 21
3.425547423546419
 31
0.0
  0
LINE
  5
D3
330
AC
100
AcDbEntity
  8
AM_4
100
AcDbLine
 10
-0.8388152897884372
 20
3.44306468100524
 30
0.0
 11
-0.869156069716381
 21
3.425547423546419
 31
0.0
  0
LINE
  5
D4
330
AC
100
AcDbEntity
  8
AM_4
100
AcDbLine
 10
-1.023835678100938
 20
3.419360239211036
 30
0.0
 11
-1.045048881536535
 21
3.440573442646634
 31
0.0
  0
LINE
  5
D5
330
AC
100
AcDbEntity
  8
AM_4
100
AcDbLine
 10
-1.19354130558571
 20
3.292081018597458
 30
0.0
 11
-1.172328102150114
 21
3.270867815161862
 31
0.0
  0
LINE
  5
D6
330
AC
100
AcDbEntity
  8
AM_4
100
AcDbLine
 10
-1.172328102150114
 20
3.270867815161862
 30
0.0
 11
-1.023835678100938
 21
3.419360239211036
 31
0.0
  0
LINE
  5
D7
330
AC
100
AcDbEntity
  8
AM_4
100
AcDbLine
 10
-1.172328102150114
 20
3.270867815161862
 30
0.0
 11
-1.159298395649768
 21
3.238293548910997
 31
0.0
  0
LINE
  5
D8
330
AC
100
AcDbEntity
  8
AM_4
100
AcDbLine
 10
-0.9912614118500737
 20
3.406330532710691
 30
0.0
 11
-1.023835678100938
 21
3.419360239211036
 31
0.0
  0
LINE
  5
D9
330
AC
100
AcDbEntity
  8
AM_4
100
AcDbLine
 10
-1.19354130558571
 20
3.292081018597458
 30
0.0
 11
-1.045048881536535
 21
3.440573442646634
 31
0.0
  0
LINE
  5
DA
330
AC
100
AcDbEntity
  8
AM_4
100
AcDbLine
 10
-1.045048881536535
 20
3.440573442646634
 30
0.0
 11
-1.066262084972131
 21
3.504213052953423
 31
0.0
  0
LINE
  5
DB
330
AC
100
AcDbEntity
  8
AM_4
100
AcDbLine
 10
-1.257180915892499
 20
3.313294222033055
 30
0.0
 11
-1.19354130558571
 21
3.292081018597458
 31
0.0
  0
LINE
  5
DC
330
AC
100
AcDbEntity
  8
AM_4
100
AcDbLine
 10
-1.290894283662203
 20
3.392717939253198
 30
0.0
 11
-1.145685802192275
 21
3.537926420723127
 31
0.0
  0
LINE
  5
DD
330
AC
100
AcDbEntity
  8
AM_4
100
AcDbLine
 10
-1.257180915892499
 20
3.313294222033055
 30
0.0
 11
-1.066262084972131
 21
3.504213052953423
 31
0.0
  0
LINE
  5
DE
330
AC
100
AcDbEntity
  8
AM_4
100
AcDbLine
 10
-1.290894283662203
 20
3.392717939253198
 30
0.0
 11
-1.257180915892499
 21
3.313294222033055
 31
0.0
  0
LINE
  5
DF
330
AC
100
AcDbEntity
  8
AM_4
100
AcDbLine
 10
-1.066262084972131
 20
3.504213052953423
 30
0.0
 11
-1.145685802192275
 21
3.537926420723127
 31
0.0
  0
LINE
  5
E0
330
AC
100
AcDbEntity
  8
AM_4
100
AcDbLine
 10
-0.8388152897884371
 20
3.44306468100524
 30
0.0
 11
-0.7929378934146264
 21
3.39718728463143
 31
0.0
  0
LWPOLYLINE
  5
E1
330
AC
100
AcDbEntity
  8
AM_4
100
AcDbPolyline
 90
        4
 70
     0
 43
0.0
 10
-0.8898792077924833
 20
3.404824285470317
 10
-0.8782866620388966
 20
3.415557818101473
 10
-0.8658607536246812
 20
3.425457988072
 10
-0.8388152897884371
 20
3.44306468100524
  0
LWPOLYLINE
  5
E2
330
AC
100
AcDbEntity
  8
AM_4
100
AcDbPolyline
 90
        4
 70
     0
 43
0.0
 10
-1.196032543944317
 20
3.085847426849361
 10
-1.188139335482072
 20
3.09881085564347
 10
-1.173946280280728
 20
3.118740787343105
 10
-1.157792148409394
 20
3.136911344853407
  0
LINE
  5
E3
330
AC
100
AcDbEntity
  8
AM_4
100
AcDbLine
 10
-1.196032543944317
 20
3.085847426849361
 30
0.0
 11
-1.138145388294785
 21
3.027960271199828
 31
0.0
  0
LWPOLYLINE
  5
E4
330
AC
100
AcDbEntity
  8
AM_4
100
AcDbPolyline
 90
        4
 70
     0
 43
0.0
 10
-1.087081470290739
 20
3.066200666734752
 10
-1.105195756157224
 20
3.05009111445993
 10
-1.125181959500676
 20
3.035853479662074
 10
-1.138145388294785
 20
3.027960271199828
  0
LINE
  5
E5
330
AC
100
AcDbEntity
  8
AM_4
100
AcDbLine
 10
-1.159298395649768
 20
3.238293548910997
 30
0.0
 11
-0.9912614118500737
 21
3.406330532710691
 31
0.0
  0
LINE
  5
E6
330
AC
100
AcDbEntity
  8
AM_4
100
AcDbLine
 10
-1.159298395649768
 20
3.238293548910997
 30
0.0
 11
-1.158788599570339
 21
3.161820738507219
 31
0.0
  0
LINE
  5
E7
330
AC
100
AcDbEntity
  8
AM_4
100
AcDbLine
 10
-0.9147886014462963
 20
3.405820736631262
 30
0.0
 11
-0.9912614118500737
 21
3.406330532710691
 31
0.0
  0
LWPOLYLINE
  5
E8
330
AC
100
AcDbEntity
  8
AM_4
100
AcDbPolyline
 90
        4
 70
     0
 43
0.0
 10
-0.9281196033274072
 20
3.353760367466271
 10
-0.9105983432722266
 20
3.380690496060133
 10
-0.9006735157500905
 20
3.393160855860113
 10
-0.8898792077924833
 20
3.404824285470317
  0
LWPOLYLINE
  5
E9
330
AC
100
AcDbEntity
  8
AM_4
100
AcDbPolyline
 90
        4
 70
     0
 43
0.0
 10
-1.048841074755815
 20
3.117264584738798
 10
-1.066362334810995
 20
3.090334456144936
 10
-1.076287162333132
 20
3.077864096344956
 10
-1.087081470290739
 20
3.066200666734752
  0
LWPOLYLINE
  5
EA
330
AC
100
AcDbEntity
  8
AM_4
100
AcDbPolyline
 90
        4
 70
     0
 43
0.0
 10
-1.157792148409394
 20
3.136911344853407
 10
-1.146199602655807
 20
3.147644877484562
 10
-1.133773694241591
 20
3.157545047455089
 10
-1.106728230405347
 20
3.175151740388331
  0
LINE
  5
EB
330
AC
100
AcDbEntity
  8
AM_4
100
AcDbLine
 10
-1.098613561750714
 20
3.054668575274777
 30
0.0
 11
-1.083188783803718
 21
3.040178677657051
 31
0.0
  0
LINE
  5
EC
330
AC
100
AcDbEntity
  8
AM_4
100
AcDbLine
 10
-1.158788599570339
 20
3.161820738507219
 30
0.0
 11
-0.9147886014462963
 21
3.405820736631262
 31
0.0
  0
LINE
  5
ED
330
AC
100
AcDbEntity
  8
AM_4
100
AcDbLine
 10
-1.158788599570339
 20
3.161820738507219
 30
0.0
 11
-1.174979752579563
 21
3.119723740683237
 31
0.0
  0
LINE
  5
EE
330
AC
100
AcDbEntity
  8
AM_4
100
AcDbLine
 10
-0.8726916036223138
 20
3.422011889640487
 30
0.0
 11
-0.9147886014462963
 21
3.405820736631262
 31
0.0
  0
LINE
  5
EF
330
AC
100
AcDbEntity
  8
AM_4
100
AcDbLine
 10
-0.9281196033274072
 20
3.353760367466271
 30
0.0
 11
-0.8730314466984549
 21
3.298672210837319
 31
0.0
  0
LWPOLYLINE
  5
F0
330
AC
100
AcDbEntity
  8
AM_4
100
AcDbPolyline
 90
        4
 70
     0
 43
0.0
 10
-1.023835678100938
 20
3.270867815161862
 10
-1.00108009315498
 20
3.292764386985389
 10
-0.9774911455483938
 20
3.313827596148287
 10
-0.9281196033274072
 20
3.353760367466271
  0
LWPOLYLINE
  5
F1
330
AC
100
AcDbEntity
  8
AM_4
100
AcDbPolyline
 90
        4
 70
     0
 43
0.0
 10
-1.106728230405347
 20
3.175151740388331
 10
-1.066981276025645
 20
3.224307563306714
 10
-1.045858854842451
 20
3.247975516767752
 10
-1.023835678100938
 20
3.270867815161862
  0
LINE
  5
F2
330
AC
100
AcDbEntity
  8
AM_4
100
AcDbLine
 10
-1.106728230405347
 20
3.175151740388331
 30
0.0
 11
-1.048841074755815
 21
3.117264584738798
 31
0.0
  0
LWPOLYLINE
  5
F3
330
AC
100
AcDbEntity
  8
AM_4
100
AcDbPolyline
 90
        4
 70
     0
 43
0.0
 10
-0.9531249999822836
 20
3.200157137043207
 10
-0.9758805849282415
 20
3.17826056521968
 10
-0.9994695325348282
 20
3.157197356056781
 10
-1.048841074755815
 20
3.117264584738798
  0
ENDBLK
  5
AF
330
AC
100
AcDbEntity
  8
0
100
AcDbBlockEnd
  0
BLOCK
  5
F6
330
F4
100
AcDbEntity
  8
0
100
AcDbBlockBegin
  2
4_2_15_16C_0_in_023137_2
 70
     2
 10
0.0
 20
0.0
 30
0.0
  3
4_2_15_16C_0_in_023137_2
  1

  0
ATTDEF
  5
F8
330
F4
100
AcDbEntity
  8
AM_6
100
AcDbText
 10
3.88
 20
2.359375
 30
0.0
 40
0.5
  1
E-Type Collar -Inch
100
AcDbAttributeDefinition
  3

  2
NN
 70
     8
280
     0
  0
ATTDEF
  5
F9
330
F4
100
AcDbEntity
  8
AM_6
100
AcDbText
 10
3.88
 20
1.859375
 30
0.0
 40
0.5
  1
E-Type Bearings
100
AcDbAttributeDefinition
  3

  2
NT
 70
     8
280
     0
  0
ATTDEF
  5
FA
330
F4
100
AcDbEntity
  8
AM_6
100
AcDbText
 10
3.88
 20
1.359375
 30
0.0
 40
0.5
  1
2-15/16C
100
AcDbAttributeDefinition
  3

  2
NB
 70
     8
280
     0
  0
ATTDEF
  5
FB
330
F4
100
AcDbEntity
  8
AM_6
100
AcDbText
 10
3.88
 20
0.859375
 30
0.0
 40
0.5
  1
$BORE.C
100
AcDbAttributeDefinition
  3

  2
NBSYN
 70
     8
280
     0
  0
ATTDEF
  5
FC
330
F4
100
AcDbEntity
  8
AM_6
100
AcDbText
 10
3.88
 20
0.359375
 30
0.0
 40
0.5
  1
2-15/16C
100
AcDbAttributeDefinition
  3

  2
LINA
 70
     8
280
     0
  0
ATTDEF
  5
FD
330
F4
100
AcDbEntity
  8
AM_6
100
AcDbText
 10
3.88
 20
-0.140625
 30
0.0
 40
0.5
  1
2-15/16
100
AcDbAttributeDefinition
  3

  2
BORE
 70
     8
280
     0
  0
ATTDEF
  5
FE
330
F4
100
AcDbEntity
  8
AM_6
100
AcDbText
 10
3.88
 20
-0.640625
 30
0.0
 40
0.5
  1
4.71875
100
AcDbAttributeDefinition
  3

  2
L
 70
     8
280
     0
  0
ATTDEF
  5
FF
330
F4
100
AcDbEntity
  8
AM_6
100
AcDbText
 10
3.88
 20
-1.140625
 30
0.0
 40
0.5
  1
4.50
100
AcDbAttributeDefinition
  3

  2
A
 70
     8
280
     0
  0
ATTDEF
  5
100
330
F4
100
AcDbEntity
  8
AM_6
100
AcDbText
 10
3.88
 20
-1.640625
 30
0.0
 40
0.5
  1
1.94
100
AcDbAttributeDefinition
  3

  2
B
 70
     8
280
     0
  0
ATTDEF
  5
101
330
F4
100
AcDbEntity
  8
AM_6
100
AcDbText
 10
3.88
 20
-2.140625
 30
0.0
 40
0.5
  1
3.47
100
AcDbAttributeDefinition
  3

  2
C
 70
     8
280
     0
  0
ATTDEF
  5
102
330
F4
100
AcDbEntity
  8
AM_6
100
AcDbText
 10
3.88
 20
-2.640625
 30
0.0
 40
0.5
  1
4.78
100
AcDbAttributeDefinition
  3

  2
D
 70
     8
280
     0
  0
ATTDEF
  5
103
330
F4
100
AcDbEntity
  8
AM_6
100
AcDbText
 10
3.88
 20
-3.140625
 30
0.0
 40
0.5
  1
0.54
100
AcDbAttributeDefinition
  3

  2
E
 70
     8
280
     0
  0
ATTDEF
  5
104
330
F4
100
AcDbEntity
  8
AM_6
100
AcDbText
 10
3.88
 20
-3.640625
 30
0.0
 40
0.5
  1
0.44
100
AcDbAttributeDefinition
  3

  2
F
 70
     8
280
     0
  0
ATTDEF
  5
105
330
F4
100
AcDbEntity
  8
AM_6
100
AcDbText
 10
3.88
 20
-4.140625
 30
0.0
 40
0.5
  1
1/2-13
100
AcDbAttributeDefinition
  3

  2
CS
 70
     8
280
     0
  0
ATTDEF
  5
106
330
F4
100
AcDbEntity
  8
AM_6
100
AcDbText
 10
3.88
 20
-4.640625
 30
0.0
 40
0.5
  1
0.5000
100
AcDbAttributeDefinition
  3

  2
NDM
 70
     8
280
     0
  0
ATTDEF
  5
107
330
F4
100
AcDbEntity
  8
AM_6
100
AcDbText
 10
3.88
 20
-5.140625
 30
0.0
 40
0.5
  1
0.4170
100
AcDbAttributeDefinition
  3

  2
KDM
 70
     8
280
     0
  0
ATTDEF
  5
108
330
F4
100
AcDbEntity
  8
AM_6
100
AcDbText
 10
3.88
 20
-5.640625
 30
0.0
 40
0.5
  1
baldor
100
AcDbAttributeDefinition
  3

  2
COMPANY
 70
     8
280
     0
  0
LINE
  5
109
330
F4
100
AcDbEntity
  8
AM_9
100
AcDbLine
 10
-1.35165
 20
1.743316666666667
 30
0.0
 11
-1.35165
 21
2.317725
 31
0.0
  0
LINE
  5
10A
330
F4
100
AcDbEntity
  8
AM_9
100
AcDbLine
 10
-1.76835
 20
2.317725
 30
0.0
 11
-1.76835
 21
1.743316666666667
 31
0.0
  0
LINE
  5
10B
330
F4
100
AcDbEntity
  8
AM_9
100
AcDbLine
 10
-1.76835
 20
1.743316666666667
 30
0.0
 11
-1.35165
 21
1.743316666666667
 31
0.0
  0
LINE
  5
10C
330
F4
100
AcDbEntity
  8
AM_9
100
AcDbLine
 10
-1.76835
 20
1.743316666666667
 30
0.0
 11
-1.776383499926558
 21
1.735283166740109
 31
0.0
  0
LINE
  5
10D
330
F4
100
AcDbEntity
  8
AM_9
100
AcDbLine
 10
-1.34367834970831
 20
1.735345016374976
 30
0.0
 11
-1.35165
 21
1.743316666666667
 31
0.0
  0
LINE
  5
10E
330
F4
100
AcDbEntity
  8
AM_9
100
AcDbLine
 10
-1.76835
 20
2.317725
 30
0.0
 11
-1.35165
 21
2.317725
 31
0.0
  0
LINE
  5
10F
330
F4
100
AcDbEntity
  8
AM_9
100
AcDbLine
 10
-1.35165
 20
2.317725
 30
0.0
 11
-1.31
 21
2.359375
 31
0.0
  0
LINE
  5
110
330
F4
100
AcDbEntity
  8
AM_9
100
AcDbLine
 10
-1.81
 20
2.359375
 30
0.0
 11
-1.76835
 21
2.317725
 31
0.0
  0
LWPOLYLINE
  5
111
330
F4
100
AcDbEntity
  8
AM_9
100
AcDbPolyline
 90
       38
 70
     0
 43
0.0
 10
-1.399555668756485
 20
0.5890254700626292
 10
-1.380059625999035
 20
0.6141961062210209
 10
-1.364490675361804
 20
0.6415065184640424
 10
-1.351404494522102
 20
0.6760599527747658
 10
-1.344461797028246
 20
0.7117782647958293
 10
-1.343960288434045
 20
0.7488859425485209
 10
-1.35017042818074
 20
0.7851620103667684
 10
-1.363187605814695
 20
0.8198680908671213
 10
-1.382629757231117
 20
0.85175045400154
 10
-1.407641421991179
 20
0.879352269910662
 10
-1.43785489446845
 20
0.9024724552481161
 10
-1.470626323758072
 20
0.9194273976470249
 10
-1.506437628082112
 20
0.9310007182481714
 10
-1.541318106206522
 20
0.9364023306210565
 10
-1.576778266969307
 20
0.9365686464404278
 10
-1.610006309297697
 20
0.9317852251762043
 10
-1.64185500592187
 20
0.9224310735818785
 10
-1.671822817727664
 20
0.9085724076092766
 10
-1.698868925596456
 20
0.8907712261375355
 10
-1.723714244414009
 20
0.8680718266968884
 10
-1.744175428933712
 20
0.8420767489012024
 10
-1.760743085542843
 20
0.811286905893542
 10
-1.77156688754621
 20
0.778219582931986
 10
-1.776455950329134
 20
0.7420183810332149
 10
-1.774738766420171
 20
0.7051854586134623
 10
-1.766166359535574
 20
0.6681214688356935
 10
-1.750972840272981
 20
0.632567701221001
 10
-1.72960814663297
 20
0.5999750677882284
 10
-1.70252598454245
 20
0.5711544343957886
 10
-1.671709367588373
 20
0.5482001815905637
 10
-1.637052376945246
 20
0.5307967420929403
 10
-1.602306650676082
 20
0.520478917735267
 10
-1.566196659427123
 20
0.5162103991709229
 10
-1.532182542507812
 20
0.5180049648621396
 10
-1.498963263442655
 20
0.5252208835120284
 10
-1.467762826461814
 20
0.5374759647080078
 10
-1.438992724445749
 20
0.5542453298024038
 10
-1.399555668756485
 20
0.589025470062629
  0
LINE
  5
112
330
F4
100
AcDbEntity
  8
AM_9
100
AcDbLine
 10
-2.0
 20
-1.735
 30
0.0
 11
-1.12
 21
-1.735
 31
0.0
  0
LINE
  5
113
330
F4
100
AcDbEntity
  8
AM_9
100
AcDbLine
 10
-1.12
 20
1.735
 30
0.0
 11
-1.344138124101324
 21
1.735
 31
0.0
  0
LINE
  5
114
330
F4
100
AcDbEntity
  8
AM_9
100
AcDbLine
 10
-1.776005839839122
 20
1.735
 30
0.0
 11
-2.0
 21
1.735
 31
0.0
  0
LWPOLYLINE
  5
115
330
F4
100
AcDbEntity
  8
AM_9
100
AcDbPolyline
 90
       21
 70
     0
 43
0.0
 10
-1.776666666666196
 20
1.734999999999933
 10
-1.776411114352762
 20
1.734963553231908
 10
-1.771067220647529
 20
1.73421087214332
 10
-1.759189965200795
 20
1.732602866727684
 10
-1.740340734915682
 20
1.730235875674304
 10
-1.716484769650646
 20
1.72756835787447
 10
-1.686410334238764
 20
1.724733588278365
 10
-1.654571293770885
 20
1.722381168611359
 10
-1.6183464517832
 20
1.720523846078998
 10
-1.584026229611861
 20
1.719574172208164
 10
-1.547831398016388
 20
1.719429892626525
 10
-1.514888599907362
 20
1.720064026576171
 10
-1.482295213212401
 20
1.721407489605135
 10
-1.452422082354891
 20
1.723261129001908
 10
-1.424654236130354
 20
1.725513960970386
 10
-1.39965509630899
 20
1.727974975329969
 10
-1.378388550425192
 20
1.730388278227267
 10
-1.361321425731918
 20
1.732535648310732
 10
-1.349573200158219
 20
1.734121883030203
 10
-1.343831299756221
 20
1.7349290183679
 10
-1.34333333333354
 20
1.734999999999971
  0
ELLIPSE
  5
116
330
F4
100
AcDbEntity
  8
AM_9
100
AcDbEllipse
 10
-1.56
 20
0.7367574593302563
 30
0.0
 11
0.2083500000000002
 21
3.104656934738163E-9
 31
0.0
210
0.0
220
0.0
230
1.0
 40
0.9063077870366506
 41
2.443456527349711
 42
3.141592638688632
  0
LINE
  5
117
330
F4
100
AcDbEntity
  8
AM_9
100
AcDbLine
 10
-1.35165
 20
0.7367574593302569
 30
0.0
 11
-1.35165
 21
0.9795129106929624
 31
0.0
  0
LINE
  5
118
330
F4
100
AcDbEntity
  8
AM_9
100
AcDbLine
 10
-1.76835
 20
0.9795129106929624
 30
0.0
 11
-1.76835
 21
0.7367574593302569
 31
0.0
  0
ELLIPSE
  5
119
330
F4
100
AcDbEntity
  8
AM_9
100
AcDbEllipse
 10
-1.56
 20
0.736757459330257
 30
0.0
 11
0.2083500000000002
 21
3.104656934738163E-9
 31
0.0
210
0.0
220
0.0
230
1.0
 40
0.90630778703665
 41
3.141592638688632
 42
6.283187037607677
  0
ELLIPSE
  5
11A
330
F4
100
AcDbEntity
  8
AM_9
100
AcDbEllipse
 10
-1.560000000000002
 20
0.7367574593302554
 30
0.0
 11
0.208350000000002
 21
0.0
 31
0.0
210
0.0
220
0.0
230
1.0
 40
0.9063077870366508
 41
0.0
 42
0.6981361110118027
  0
LINE
  5
11B
330
F4
100
AcDbEntity
  8
AM_9
100
AcDbLine
 10
-1.25
 20
-2.359375
 30
0.0
 11
-1.12
 21
-2.359375
 31
0.0
  0
LINE
  5
11C
330
F4
100
AcDbEntity
  8
AM_9
100
AcDbLine
 10
-1.12
 20
2.359375
 30
0.0
 11
-1.25
 21
2.359375
 31
0.0
  0
LINE
  5
11D
330
F4
100
AcDbEntity
  8
AM_9
100
AcDbLine
 10
-1.12
 20
2.359375
 30
0.0
 11
-1.12
 21
-2.359375
 31
0.0
  0
LINE
  5
11E
330
F4
100
AcDbEntity
  8
AM_5
100
AcDbLine
 10
-1.81
 20
2.359375
 30
0.0
 11
-1.81
 21
1.735
 31
0.0
  0
LINE
  5
11F
330
F4
100
AcDbEntity
  8
AM_5
100
AcDbLine
 10
-1.31
 20
2.359375
 30
0.0
 11
-1.31
 21
1.735
 31
0.0
  0
ELLIPSE
  5
120
330
F4
100
AcDbEntity
  8
AM_4
100
AcDbEllipse
 10
-1.560000000000001
 20
0.7367574593302588
 30
0.0
 11
0.2083499999999987
 21
0.0
 31
0.0
210
0.0
220
0.0
230
1.0
 40
0.9063077870366465
 41
1.570796326794897
 42
2.443456542577994
  0
ELLIPSE
  5
121
330
F4
100
AcDbEntity
  8
AM_4
100
AcDbEllipse
 10
-1.56
 20
0.9795129106929625
 30
0.0
 11
0.20835
 21
0.0
 31
0.0
210
0.0
220
0.0
230
1.0
 40
0.9063077870366504
 41
3.141592653589793
 42
6.283185307179586
  0
ELLIPSE
  5
122
330
F4
100
AcDbEntity
  8
AM_4
100
AcDbEllipse
 10
-1.56
 20
0.9795129106929625
 30
0.0
 11
0.20835
 21
0.0
 31
0.0
210
0.0
220
0.0
230
1.0
 40
0.9063077870366492
 41
0.0
 42
3.141592653589793
  0
ELLIPSE
  5
123
330
F4
100
AcDbEntity
  8
AM_4
100
AcDbEllipse
 10
-1.559999999999999
 20
0.7367574593302588
 30
0.0
 11
0.2083499999999987
 21
0.0
 31
0.0
210
0.0
220
0.0
230
1.0
 40
0.9063077870366465
 41
0.6981361110117987
 42
1.570796326794897
  0
LINE
  5
124
330
F4
100
AcDbEntity
  8
AM_4
100
AcDbLine
 10
-2.0
 20
2.212708333333333
 30
0.0
 11
-2.0
 21
-2.212708333333333
 31
0.0
  0
ARC
  5
125
330
F4
100
AcDbEntity
  8
AM_4
100
AcDbCircle
 10
-1.853333333333333
 20
-2.212708333333333
 30
0.0
 40
0.1466666666666665
100
AcDbArc
 50
179.9999991462263
 51
270.0
  0
ARC
  5
126
330
F4
100
AcDbEntity
  8
AM_4
100
AcDbCircle
 10
-1.853333333333333
 20
2.212708333333333
 30
0.0
 40
0.1466666666666669
100
AcDbArc
 50
90.0
 51
179.9999991462263
  0
LWPOLYLINE
  5
127
330
F4
100
AcDbEntity
  8
AM_4
100
AcDbPolyline
 90
       38
 70
     0
 43
0.0
 10
-1.369285365243439
 20
0.8556327230851023
 10
-1.395402722853204
 20
0.8319978546552359
 10
-1.424930600228178
 20
0.8120887096414533
 10
-1.462108774653523
 20
0.7944148519389849
 10
-1.501831614328399
 20
0.7825650159382259
 10
-1.54456404648549
 20
0.7768118464194397
 10
-1.587718466308976
 20
0.777752811058333
 10
-1.630797789163622
 20
0.7856384364243614
 10
-1.67185689160515
 20
0.8002116877431518
 10
-1.709393492189768
 20
0.8210175879704965
 10
-1.74254717544095
 20
0.8474712925964307
 10
-1.769343903191148
 20
0.8778414006266254
 10
-1.790007460099333
 20
0.9119003483436747
 10
-1.803122732471662
 20
0.9467604126244724
 10
-1.809458491903518
 20
0.9829201152517155
 10
-1.808826544248452
 20
1.017684204968099
 10
-1.801773801286873
 20
1.051604492999284
 10
-1.788633429695194
 20
1.083405041817086
 10
-1.769904014414031
 20
1.112683192664022
 10
-1.745387412921692
 20
1.139418418871424
 10
-1.71634609979954
 20
1.162249125616388
 10
-1.68190128760042
 20
1.181473742283764
 10
-1.644355779474501
 20
1.195611589965185
 10
-1.602922522691473
 20
1.204626370398941
 10
-1.560335157342085
 20
1.207702717556654
 10
-1.516728038421501
 20
1.204574167944354
 10
-1.474340608412546
 20
1.195222351923879
 10
-1.434388346186649
 20
1.179716108074031
 10
-1.398096106934724
 20
1.158432437544275
 10
-1.367376195886266
 20
1.132409697208659
 10
-1.342328862213462
 20
1.101882776657778
 10
-1.324673442383181
 20
1.069193830356992
 10
-1.313719650834173
 20
1.033993748365556
 10
-1.310038125304694
 20
0.9991012288579005
 10
-1.31296951277289
 20
0.9638860810333546
 10
-1.322215035880981
 20
0.9301675331894284
 10
-1.337344822729625
 20
0.8980713951308601
 10
-1.369285365177164
 20
0.8556327229866553
  0
LINE
  5
128
330
F4
100
AcDbEntity
  8
AM_4
100
AcDbLine
 10
-1.853333333333333
 20
-2.359375
 30
0.0
 11
-1.25
 21
-2.359375
 31
0.0
  0
LINE
  5
129
330
F4
100
AcDbEntity
  8
AM_4
100
AcDbLine
 10
-1.25
 20
2.359375
 30
0.0
 11
-1.31
 21
2.359375
 31
0.0
  0
LINE
  5
12A
330
F4
100
AcDbEntity
  8
AM_4
100
AcDbLine
 10
-1.81
 20
2.359375
 30
0.0
 11
-1.853333333333333
 21
2.359375
 31
0.0
  0
LINE
  5
12B
330
F4
100
AcDbEntity
  8
AM_4
100
AcDbLine
 10
-1.853333333333333
 20
2.359375
 30
0.0
 11
-1.853333333333333
 21
-2.359375
 31
0.0
  0
LWPOLYLINE
  5
12C
330
F4
100
AcDbEntity
  8
AM_4
100
AcDbPolyline
 90
       20
 70
     0
 43
0.0
 10
-1.310000000000038
 20
2.359374999999996
 10
-1.31304783600187
 20
2.359084739458873
 10
-1.322179289720224
 20
2.358236048300077
 10
-1.337572465257049
 20
2.35687660944692
 10
-1.358288276301587
 20
2.355188665856818
 10
-1.384542345156681
 20
2.353283729386875
 10
-1.415630273573559
 20
2.351368178351641
 10
-1.45121427526173
 20
2.349630216729071
 10
-1.490324688946399
 20
2.348282025785208
 10
-1.532369947754167
 20
2.347491113295463
 10
-1.575285198617749
 20
2.347388660866131
 10
-1.618982517114074
 20
2.348016128508163
 10
-1.660139280342119
 20
2.349281417176336
 10
-1.699567829201778
 20
2.351105280705856
 10
-1.73325880122131
 20
2.353136104588019
 10
-1.762785918076061
 20
2.355272190414748
 10
-1.784535294416357
 20
2.35705746351865
 10
-1.800329177094185
 20
2.358466058397719
 10
-1.808318007781718
 20
2.359214383260974
 10
-1.80999999999988
 20
2.359374999999988
  0
ENDBLK
  5
F7
330
F4
100
AcDbEntity
  8
0
100
AcDbBlockEnd
  0
BLOCK
  5
12F
330
12D
100
AcDbEntity
  8
0
100
AcDbBlockBegin
  2
5_2_15_16I_0_in_023137_2
 70
     2
 10
0.0
 20
0.0
 30
0.0
  3
5_2_15_16I_0_in_023137_2
  1

  0
ATTDEF
  5
131
330
12D
100
AcDbEntity
  8
AM_6
100
AcDbText
 10
7.5
 20
2.392260416666667
 30
0.0
 40
0.5
  1
E-Type Insert -Inch
100
AcDbAttributeDefinition
  3

  2
NN
 70
     8
280
     0
  0
ATTDEF
  5
132
330
12D
100
AcDbEntity
  8
AM_6
100
AcDbText
 10
7.5
 20
1.892260416666667
 30
0.0
 40
0.5
  1
E-Type Bearings
100
AcDbAttributeDefinition
  3

  2
NT
 70
     8
280
     0
  0
ATTDEF
  5
133
330
12D
100
AcDbEntity
  8
AM_6
100
AcDbText
 10
7.5
 20
1.392260416666667
 30
0.0
 40
0.5
  1
2-15/16I
100
AcDbAttributeDefinition
  3

  2
NB
 70
     8
280
     0
  0
ATTDEF
  5
134
330
12D
100
AcDbEntity
  8
AM_6
100
AcDbText
 10
7.5
 20
0.8922604166666668
 30
0.0
 40
0.5
  1
$BORE.I
100
AcDbAttributeDefinition
  3

  2
NBSYN
 70
     8
280
     0
  0
ATTDEF
  5
135
330
12D
100
AcDbEntity
  8
AM_6
100
AcDbText
 10
7.5
 20
0.3922604166666668
 30
0.0
 40
0.5
  1
2-15/16I
100
AcDbAttributeDefinition
  3

  2
LINA
 70
     8
280
     0
  0
ATTDEF
  5
136
330
12D
100
AcDbEntity
  8
AM_6
100
AcDbText
 10
7.5
 20
-0.1077395833333332
 30
0.0
 40
0.5
  1
2-15/16
100
AcDbAttributeDefinition
  3

  2
BORE
 70
     8
280
     0
  0
ATTDEF
  5
137
330
12D
100
AcDbEntity
  8
AM_6
100
AcDbText
 10
7.5
 20
-0.6077395833333332
 30
0.0
 40
0.5
  1
4.50
100
AcDbAttributeDefinition
  3

  2
A
 70
     8
280
     0
  0
ATTDEF
  5
138
330
12D
100
AcDbEntity
  8
AM_6
100
AcDbText
 10
7.5
 20
-1.107739583333333
 30
0.0
 40
0.5
  1
1.94
100
AcDbAttributeDefinition
  3

  2
B
 70
     8
280
     0
  0
ATTDEF
  5
139
330
12D
100
AcDbEntity
  8
AM_6
100
AcDbText
 10
7.5
 20
-1.607739583333333
 30
0.0
 40
0.5
  1
3.47
100
AcDbAttributeDefinition
  3

  2
C
 70
     8
280
     0
  0
ATTDEF
  5
13A
330
12D
100
AcDbEntity
  8
AM_6
100
AcDbText
 10
7.5
 20
-2.107739583333333
 30
0.0
 40
0.5
  1
4.78
100
AcDbAttributeDefinition
  3

  2
D
 70
     8
280
     0
  0
ATTDEF
  5
13B
330
12D
100
AcDbEntity
  8
AM_6
100
AcDbText
 10
7.5
 20
-2.607739583333333
 30
0.0
 40
0.5
  1
0.54
100
AcDbAttributeDefinition
  3

  2
E
 70
     8
280
     0
  0
ATTDEF
  5
13C
330
12D
100
AcDbEntity
  8
AM_6
100
AcDbText
 10
7.5
 20
-3.107739583333333
 30
0.0
 40
0.5
  1
0.44
100
AcDbAttributeDefinition
  3

  2
F
 70
     8
280
     0
  0
ATTDEF
  5
13D
330
12D
100
AcDbEntity
  8
AM_6
100
AcDbText
 10
7.5
 20
-3.607739583333333
 30
0.0
 40
0.5
  1
baldor
100
AcDbAttributeDefinition
  3

  2
COMPANY
 70
     8
280
     0
  0
LINE
  5
13E
330
12D
100
AcDbEntity
  8
AM_9
100
AcDbLine
 10
-1.83
 20
1.735000000000001
 30
0.0
 11
-1.83
 21
1.46875
 31
0.0
  0
LINE
  5
13F
330
12D
100
AcDbEntity
  8
AM_9
100
AcDbLine
 10
-1.29
 20
1.46875
 30
0.0
 11
-1.29
 21
1.735000000000001
 31
0.0
  0
LINE
  5
140
330
12D
100
AcDbEntity
  8
AM_9
100
AcDbLine
 10
1.79
 20
1.735
 30
0.0
 11
1.79
 21
1.46875
 31
0.0
  0
LINE
  5
141
330
12D
100
AcDbEntity
  8
AM_9
100
AcDbLine
 10
2.330000000000001
 20
1.46875
 30
0.0
 11
2.33
 21
1.735
 31
0.0
  0
LINE
  5
142
330
12D
100
AcDbEntity
  8
AM_9
100
AcDbLine
 10
-2.0
 20
-1.46875
 30
0.0
 11
2.5
 21
-1.46875
 31
0.0
  0
LINE
  5
143
330
12D
100
AcDbEntity
  8
AM_9
100
AcDbLine
 10
2.5
 20
1.46875
 30
0.0
 11
2.33
 21
1.46875
 31
0.0
  0
LINE
  5
144
330
12D
100
AcDbEntity
  8
AM_9
100
AcDbLine
 10
1.79
 20
1.46875
 30
0.0
 11
-1.29
 21
1.46875
 31
0.0
  0
LINE
  5
145
330
12D
100
AcDbEntity
  8
AM_9
100
AcDbLine
 10
-1.83
 20
1.46875
 30
0.0
 11
-2.0
 21
1.46875
 31
0.0
  0
LWPOLYLINE
  5
146
330
12D
100
AcDbEntity
  8
AM_9
100
AcDbPolyline
 90
       21
 70
     0
 43
0.0
 10
1.790000000000899
 20
1.468749999999835
 10
1.791571172234286
 20
1.46846198387145
 10
1.799894821091187
 20
1.466963280588572
 10
1.815682606252527
 20
1.464246410747712
 10
1.837748849731258
 20
1.460726578212288
 10
1.866632860483893
 20
1.456611620558014
 10
1.900507104018587
 20
1.452502855889976
 10
1.939981793199859
 20
1.448699738546094
 10
1.981828389985771
 20
1.44583448676265
 10
2.027245332013574
 20
1.444091212761473
 10
2.071662007908809
 20
1.44376679728011
 10
2.11703734867071
 20
1.444845950834684
 10
2.159205815178388
 20
1.447124167535464
 10
2.199753617367224
 20
1.450468074818341
 10
2.235763223779808
 20
1.454379342995998
 10
2.267804968285833
 20
1.458598459941692
 10
2.293552369096493
 20
1.462488725293492
 10
2.313291555927731
 20
1.465770505503604
 10
2.325280517295214
 20
1.467889749046711
 10
2.329966692613922
 20
1.468743877475205
 10
2.329999999999089
 20
1.468749999999833
  0
LINE
  5
147
330
12D
100
AcDbEntity
  8
AM_9
100
AcDbLine
 10
2.067008940140818
 20
1.443736709979315
 30
0.0
 11
2.06
 21
1.443719696651673
 31
0.0
  0
LINE
  5
148
330
12D
100
AcDbEntity
  8
AM_9
100
AcDbLine
 10
2.329999999999089
 20
1.468749999999833
 30
0.0
 11
2.309161314578549
 21
1.465062429790113
 31
0.0
  0
LWPOLYLINE
  5
149
330
12D
100
AcDbEntity
  8
AM_9
100
AcDbPolyline
 90
       21
 70
     0
 43
0.0
 10
-1.829999999999101
 20
1.468749999999835
 10
-1.828428827765714
 20
1.46846198387145
 10
-1.820105178908813
 20
1.466963280588572
 10
-1.804317393747473
 20
1.464246410747712
 10
-1.782251150268743
 20
1.460726578212288
 10
-1.753367139516107
 20
1.456611620558014
 10
-1.719492895981414
 20
1.452502855889976
 10
-1.680018206800141
 20
1.448699738546094
 10
-1.63817161001423
 20
1.44583448676265
 10
-1.592754667986426
 20
1.444091212761473
 10
-1.548337992091191
 20
1.44376679728011
 10
-1.50296265132929
 20
1.444845950834684
 10
-1.460794184821612
 20
1.447124167535464
 10
-1.420246382632776
 20
1.450468074818341
 10
-1.384236776220192
 20
1.454379342995998
 10
-1.352195031714167
 20
1.458598459941692
 10
-1.326447630903507
 20
1.462488725293492
 10
-1.30670844407227
 20
1.465770505503604
 10
-1.294719482704786
 20
1.467889749046711
 10
-1.290033307386077
 20
1.468743877475205
 10
-1.290000000000912
 20
1.468749999999833
  0
LINE
  5
14A
330
12D
100
AcDbEntity
  8
AM_9
100
AcDbLine
 10
-1.552991059859182
 20
1.443736709979315
 30
0.0
 11
-1.56
 21
1.443719696651673
 31
0.0
  0
LINE
  5
14B
330
12D
100
AcDbEntity
  8
AM_9
100
AcDbLine
 10
-1.290000000000912
 20
1.468749999999833
 30
0.0
 11
-1.310838685421451
 21
1.465062429790113
 31
0.0
  0
LWPOLYLINE
  5
14C
330
12D
100
AcDbEntity
  8
AM_9
100
AcDbPolyline
 90
        4
 70
     0
 43
0.0
 10
1.797580153297386
 20
0.6777157102165215
 10
1.797001963355146
 20
0.6755500854848517
 10
1.790529647551703
 20
0.6359992588781278
 10
1.790000000795543
 20
0.6207393565795334
  0
LWPOLYLINE
  5
14D
330
12D
100
AcDbEntity
  8
AM_9
100
AcDbPolyline
 90
        7
 70
     0
 43
0.0
 10
1.950248222485316
 20
0.8354772741172197
 10
1.930965620936412
 20
0.827524420901277
 10
1.892968102920861
 20
0.8064699022870238
 10
1.860264153931264
 20
0.7806066863761535
 10
1.83233391800072
 20
0.7492314867968826
 10
1.811366911657267
 20
0.7145304328268821
 10
1.797580153297386
 20
0.6777157102165215
  0
LWPOLYLINE
  5
14E
330
12D
100
AcDbEntity
  8
AM_9
100
AcDbPolyline
 90
        4
 70
     0
 43
0.0
 10
2.06
 20
0.8548454111396356
 10
2.015743999489902
 20
0.8518224301524164
 10
1.971487998979805
 20
0.8424685757147893
 10
1.950248222485316
 20
0.8354772741172197
  0
LINE
  5
14F
330
12D
100
AcDbEntity
  8
AM_9
100
AcDbLine
 10
1.79
 20
0.733231005674801
 30
0.0
 11
1.79
 21
0.6206498696221466
 31
0.0
  0
LINE
  5
150
330
12D
100
AcDbEntity
  8
AM_9
100
AcDbLine
 10
2.33
 20
0.6206963085489487
 30
0.0
 11
2.33
 21
0.7331837551069111
 31
0.0
  0
LWPOLYLINE
  5
151
330
12D
100
AcDbEntity
  8
AM_9
100
AcDbPolyline
 90
       21
 70
     0
 43
0.0
 10
1.790000000795543
 20
0.6207393565795334
 10
1.791571172234286
 20
0.5942384652990501
 10
1.799894821091187
 20
0.5543266602890735
 10
1.815682606252527
 20
0.5146549001252677
 10
1.837748849731258
 20
0.4783822910042209
 10
1.866632860483893
 20
0.4448071962208214
 10
1.900507104018587
 20
0.416408021693074
 10
1.939981793199859
 20
0.3930485434822679
 10
1.981828389985771
 20
0.3768134399344055
 10
2.027245332013574
 20
0.3674035359155821
 10
2.071662007908809
 20
0.3656874776556234
 10
2.11703734867071
 20
0.3714375963189231
 10
2.159205815178388
 20
0.3839945893020683
 10
2.199753617367224
 20
0.4036216489379055
 10
2.235763223779808
 20
0.4288933275494775
 10
2.267804968285833
 20
0.460195145270786
 10
2.293552369096493
 20
0.4952930133785908
 10
2.313291555927731
 20
0.5347160913211636
 10
2.325280517295214
 20
0.5748043660216929
 10
2.329966692613922
 20
0.6168744615420734
 10
2.329999999192213
 20
0.6207016431600074
  0
LWPOLYLINE
  5
152
330
12D
100
AcDbEntity
  8
AM_9
100
AcDbPolyline
 90
       10
 70
     0
 43
0.0
 10
2.32281976299039
 20
0.6762276122259999
 10
2.316523380846527
 20
0.6960428836190908
 10
2.299374771366885
 20
0.7316689537200969
 10
2.275113218906887
 20
0.7647653412907126
 10
2.245280272999292
 20
0.7931411348950417
 10
2.209312625699886
 20
0.8172771728725324
 10
2.169825944241546
 20
0.8354497333277936
 10
2.125921522030644
 20
0.8480755618015013
 10
2.093481311854057
 20
0.8531207494939239
 10
2.06
 20
0.8548454111396356
  0
LWPOLYLINE
  5
153
330
12D
100
AcDbEntity
  8
AM_9
100
AcDbPolyline
 90
        3
 70
     0
 43
0.0
 10
2.329999999192213
 20
0.6207016431600074
 10
2.327030128095985
 20
0.6566856791621793
 10
2.32281976299039
 20
0.6762276122259999
  0
LWPOLYLINE
  5
154
330
12D
100
AcDbEntity
  8
AM_9
100
AcDbPolyline
 90
        9
 70
     0
 43
0.0
 10
1.950370033643282
 20
0.5021663929849789
 10
1.918603240050793
 20
0.5183059791630641
 10
1.882227649049556
 20
0.5440508430748552
 10
1.850808406601096
 20
0.5749774044417181
 10
1.825079103600344
 20
0.6105139554012956
 10
1.805996897166227
 20
0.6492435274687914
 10
1.794253418495136
 20
0.6898451008822204
 10
1.790009176900261
 20
0.7312245649614673
 10
1.790000000337887
 20
0.7332304419296061
  0
LWPOLYLINE
  5
155
330
12D
100
AcDbEntity
  8
AM_9
100
AcDbPolyline
 90
       14
 70
     0
 43
0.0
 10
2.329999999060577
 20
0.7332630968872687
 10
2.328361689251916
 20
0.7062192301036738
 10
2.319686191475499
 20
0.6656760509708041
 10
2.303874925706518
 20
0.6265951842282542
 10
2.281185563952597
 20
0.590019755107444
 10
2.252394707038779
 20
0.5571759590203642
 10
2.217826430692859
 20
0.5288625129938059
 10
2.178781192761772
 20
0.506295908375424
 10
2.136251049515455
 20
0.4903139345042478
 10
2.091520148649331
 20
0.481402205714283
 10
2.046338706378366
 20
0.4799717700862892
 10
2.001545868557394
 20
0.4858312307011138
 10
1.958664073453575
 20
0.498788371175763
 10
1.950370033643282
 20
0.5021663929849789
  0
LWPOLYLINE
  5
156
330
12D
100
AcDbEntity
  8
AM_9
100
AcDbPolyline
 90
        5
 70
     0
 43
0.0
 10
1.950512295030707
 20
0.9494669273282005
 10
1.953406783534719
 20
0.9505108006401444
 10
1.996760450401828
 20
0.9626988618758441
 10
2.028153786116405
 20
0.9674242732439081
 10
2.06
 20
0.9690127339343693
  0
LWPOLYLINE
  5
157
330
12D
100
AcDbEntity
  8
AM_9
100
AcDbPolyline
 90
        8
 70
     0
 43
0.0
 10
1.790000000337887
 20
0.7332304419296061
 10
1.79342719455302
 20
0.7717267926801303
 10
1.804212070566499
 20
0.8106767367509481
 10
1.822126624235077
 20
0.8469703838685858
 10
1.846569579887676
 20
0.8797811018221683
 10
1.877281807824553
 20
0.9085405041072084
 10
1.913121540818258
 20
0.9322922846077885
 10
1.950512295030707
 20
0.9494669273282005
  0
LWPOLYLINE
  5
158
330
12D
100
AcDbEntity
  8
AM_9
100
AcDbPolyline
 90
        4
 70
     0
 43
0.0
 10
-1.822419846702615
 20
0.6777157102165217
 10
-1.822998036644854
 20
0.6755500854848517
 10
-1.829470352448297
 20
0.6359992588781278
 10
-1.829999999204457
 20
0.6207393565795335
  0
LWPOLYLINE
  5
159
330
12D
100
AcDbEntity
  8
AM_9
100
AcDbPolyline
 90
        4
 70
     0
 43
0.0
 10
-1.762823636890642
 20
0.777656635717
 10
-1.78766608199928
 20
0.7492314867968826
 10
-1.808633088342733
 20
0.7145304328268821
 10
-1.822419846702615
 20
0.6777157102165217
  0
LWPOLYLINE
  5
15A
330
12D
100
AcDbEntity
  8
AM_9
100
AcDbPolyline
 90
        5
 70
     0
 43
0.0
 10
-1.683794969881767
 20
0.8298475559551662
 10
-1.689034379063588
 20
0.827524420901277
 10
-1.727031897079139
 20
0.8064699022870238
 10
-1.759735846068736
 20
0.7806066863761535
 10
-1.762823636890642
 20
0.777656635717
  0
LINE
  5
15B
330
12D
100
AcDbEntity
  8
AM_9
100
AcDbLine
 10
-1.83
 20
0.7332310056748012
 30
0.0
 11
-1.83
 21
0.6206498696221466
 31
0.0
  0
LINE
  5
15C
330
12D
100
AcDbEntity
  8
AM_9
100
AcDbLine
 10
-1.29
 20
0.6206963085489487
 30
0.0
 11
-1.29
 21
0.7331837551069114
 31
0.0
  0
LWPOLYLINE
  5
15D
330
12D
100
AcDbEntity
  8
AM_9
100
AcDbPolyline
 90
       21
 70
     0
 43
0.0
 10
-1.829999999204457
 20
0.6207393565795335
 10
-1.828428827765714
 20
0.5942384652990501
 10
-1.820105178908813
 20
0.5543266602890735
 10
-1.804317393747473
 20
0.5146549001252677
 10
-1.782251150268743
 20
0.4783822910042209
 10
-1.753367139516107
 20
0.4448071962208214
 10
-1.719492895981414
 20
0.416408021693074
 10
-1.680018206800141
 20
0.3930485434822679
 10
-1.638171610014229
 20
0.3768134399344055
 10
-1.592754667986426
 20
0.3674035359155821
 10
-1.548337992091191
 20
0.3656874776556234
 10
-1.50296265132929
 20
0.3714375963189231
 10
-1.460794184821612
 20
0.3839945893020683
 10
-1.420246382632776
 20
0.4036216489379055
 10
-1.384236776220192
 20
0.4288933275494775
 10
-1.352195031714167
 20
0.460195145270786
 10
-1.326447630903507
 20
0.4952930133785908
 10
-1.30670844407227
 20
0.5347160913211636
 10
-1.294719482704786
 20
0.5748043660216929
 10
-1.290033307386077
 20
0.6168744615420734
 10
-1.290000000807787
 20
0.6207016431600076
  0
LWPOLYLINE
  5
15E
330
12D
100
AcDbEntity
  8
AM_9
100
AcDbPolyline
 90
        4
 70
     0
 43
0.0
 10
-1.357221284000357
 20
0.7777003155110798
 10
-1.374719727000709
 20
0.7931411348950417
 10
-1.410687374300114
 20
0.8172771728725324
 10
-1.436259444126768
 20
0.8298710279256495
  0
LWPOLYLINE
  5
15F
330
12D
100
AcDbEntity
  8
AM_9
100
AcDbPolyline
 90
        5
 70
     0
 43
0.0
 10
-1.29718023700961
 20
0.676227612226
 10
-1.303476619153473
 20
0.6960428836190908
 10
-1.320625228633115
 20
0.7316689537200969
 10
-1.344886781093114
 20
0.7647653412907126
 10
-1.357221284000357
 20
0.7777003155110798
  0
LWPOLYLINE
  5
160
330
12D
100
AcDbEntity
  8
AM_9
100
AcDbPolyline
 90
        3
 70
     0
 43
0.0
 10
-1.290000000807787
 20
0.6207016431600076
 10
-1.292969871904015
 20
0.6566856791621793
 10
-1.29718023700961
 20
0.676227612226
  0
LWPOLYLINE
  5
161
330
12D
100
AcDbEntity
  8
AM_9
100
AcDbPolyline
 90
       21
 70
     0
 43
0.0
 10
-1.290000000939423
 20
0.733263096887269
 10
-1.291638310748085
 20
0.7062192301036742
 10
-1.300313808524501
 20
0.6656760509708044
 10
-1.316125074293483
 20
0.6265951842282544
 10
-1.338814436047402
 20
0.5900197551074442
 10
-1.367605292961221
 20
0.5571759590203644
 10
-1.402173569307141
 20
0.5288625129938062
 10
-1.441218807238228
 20
0.5062959083754243
 10
-1.483748950484546
 20
0.490313934504248
 10
-1.528479851350669
 20
0.4814022057142832
 10
-1.573661293621634
 20
0.4799717700862896
 10
-1.618454131442606
 20
0.4858312307011141
 10
-1.661335926546425
 20
0.4987883711757633
 10
-1.701396759949207
 20
0.5183059791630643
 10
-1.737772350950445
 20
0.5440508430748555
 10
-1.769191593398904
 20
0.5749774044417187
 10
-1.794920896399657
 20
0.6105139554012962
 10
-1.814003102833773
 20
0.6492435274687917
 10
-1.825746581504864
 20
0.6898451008822204
 10
-1.829990823099739
 20
0.7312245649614674
 10
-1.829999999662113
 20
0.7332304419296062
  0
LWPOLYLINE
  5
162
330
12D
100
AcDbEntity
  8
AM_9
100
AcDbPolyline
 90
        7
 70
     0
 43
0.0
 10
-1.749001458101795
 20
0.9034522520492178
 10
-1.742718192175447
 20
0.9085405041072088
 10
-1.706878459181742
 20
0.9322922846077888
 10
-1.666593216465281
 20
0.9505108006401448
 10
-1.623239549598172
 20
0.9626988618758444
 10
-1.591846213883596
 20
0.9674242732439081
 10
-1.56
 20
0.9690127339343694
  0
LWPOLYLINE
  5
163
330
12D
100
AcDbEntity
  8
AM_9
100
AcDbPolyline
 90
        6
 70
     0
 43
0.0
 10
-1.829999999662113
 20
0.7332304419296062
 10
-1.82657280544698
 20
0.7717267926801307
 10
-1.815787929433501
 20
0.8106767367509483
 10
-1.797873375764923
 20
0.8469703838685863
 10
-1.773430420112324
 20
0.8797811018221688
 10
-1.749001458101795
 20
0.9034522520492178
  0
LWPOLYLINE
  5
164
330
12D
100
AcDbEntity
  8
AM_9
100
AcDbPolyline
 90
       11
 70
     0
 43
0.0
 10
2.06
 20
0.9690127339343693
 10
2.105016402455498
 20
0.9658156537625587
 10
2.148756420371638
 20
0.95638393892102
 10
2.189941422842958
 20
0.9408645784788014
 10
2.227497412273244
 20
0.9196851739790676
 10
2.260576240282542
 20
0.8930299250944533
 10
2.288032979761295
 20
0.8617190865714432
 10
2.309107090367962
 20
0.8262393862674882
 10
2.323117799535108
 20
0.7876929872279017
 10
2.329517223934403
 20
0.7474031802326289
 10
2.329999999060577
 20
0.7332630968872687
  0
LINE
  5
165
330
12D
100
AcDbEntity
  8
AM_9
100
AcDbLine
 10
1.220000000000001
 20
-1.735
 30
0.0
 11
2.4375
 21
-1.735
 31
0.0
  0
LINE
  5
166
330
12D
100
AcDbEntity
  8
AM_9
100
AcDbLine
 10
2.4375
 20
1.735
 30
0.0
 11
2.33
 21
1.735
 31
0.0
  0
LINE
  5
167
330
12D
100
AcDbEntity
  8
AM_9
100
AcDbLine
 10
1.79
 20
1.735
 30
0.0
 11
1.220000000000001
 21
1.735
 31
0.0
  0
LWPOLYLINE
  5
168
330
12D
100
AcDbEntity
  8
AM_9
100
AcDbPolyline
 90
        9
 70
     0
 43
0.0
 10
1.950361159069765
 20
1.717365911924575
 10
1.918603240050793
 20
1.719685449064489
 10
1.882690256922136
 20
1.72301008267228
 10
1.850808406601096
 20
1.726582208511594
 10
1.825381628933681
 20
1.729847039492745
 10
1.805996897166227
 20
1.732582631867579
 10
1.79434406020292
 20
1.73432928775059
 10
1.790009176900261
 20
1.734998571918166
 10
1.790000000000178
 20
1.734999999999972
  0
LWPOLYLINE
  5
169
330
12D
100
AcDbEntity
  8
AM_9
100
AcDbPolyline
 90
       14
 70
     0
 43
0.0
 10
2.329999999999459
 20
1.734999999999916
 10
2.328361689251916
 20
1.734745801625743
 10
2.319885648311371
 20
1.733454801890785
 10
2.303874925706517
 20
1.731126794717348
 10
2.281568274721003
 20
1.728125429580516
 10
2.252394707038779
 20
1.724627705708261
 10
2.218370695918303
 20
1.721164221486621
 10
2.178781192761772
 20
1.717973798331601
 10
2.136901003930175
 20
1.715587002866794
 10
2.091520148649331
 20
1.714152420227232
 10
2.046991927009088
 20
1.713911960972015
 10
2.001545868557394
 20
1.714859144502169
 10
1.959241141557393
 20
1.716821874148468
 10
1.950361159069765
 20
1.717365911924575
  0
LINE
  5
16A
330
12D
100
AcDbEntity
  8
AM_9
100
AcDbLine
 10
2.051883376016407
 20
1.713881816107777
 30
0.0
 11
2.06
 21
1.713862596592854
 31
0.0
  0
LINE
  5
16B
330
12D
100
AcDbEntity
  8
AM_9
100
AcDbLine
 10
1.790000000000178
 20
1.734999999999972
 30
0.0
 11
1.797063184176616
 21
1.733914867897308
 31
0.0
  0
LWPOLYLINE
  5
16C
330
12D
100
AcDbEntity
  8
AM_9
100
AcDbPolyline
 90
        7
 70
     0
 43
0.0
 10
-1.370737573459217
 20
0.9032321980658051
 10
-1.359423759717458
 20
0.8930299250944533
 10
-1.331967020238704
 20
0.8617190865714432
 10
-1.310892909632038
 20
0.8262393862674884
 10
-1.296882200464892
 20
0.7876929872279023
 10
-1.290482776065597
 20
0.7474031802326294
 10
-1.290000000939423
 20
0.733263096887269
  0
LWPOLYLINE
  5
16D
330
12D
100
AcDbEntity
  8
AM_9
100
AcDbPolyline
 90
        6
 70
     0
 43
0.0
 10
-1.56
 20
0.9690127339343694
 10
-1.514983597544502
 20
0.9658156537625591
 10
-1.471243579628362
 20
0.9563839389210202
 10
-1.430058577157042
 20
0.9408645784788018
 10
-1.392502587726756
 20
0.9196851739790678
 10
-1.370737573459217
 20
0.9032321980658051
  0
LINE
  5
16E
330
12D
100
AcDbEntity
  8
AM_9
100
AcDbLine
 10
-2.0
 20
-1.735000000000001
 30
0.0
 11
-0.72
 21
-1.735000000000001
 31
0.0
  0
LINE
  5
16F
330
12D
100
AcDbEntity
  8
AM_9
100
AcDbLine
 10
-0.72
 20
1.735000000000001
 30
0.0
 11
-1.29
 21
1.735000000000001
 31
0.0
  0
LINE
  5
170
330
12D
100
AcDbEntity
  8
AM_9
100
AcDbLine
 10
-1.83
 20
1.735000000000001
 30
0.0
 11
-2.0
 21
1.735000000000001
 31
0.0
  0
LWPOLYLINE
  5
171
330
12D
100
AcDbEntity
  8
AM_9
100
AcDbPolyline
 90
       21
 70
     0
 43
0.0
 10
-1.290000000000541
 20
1.734999999999917
 10
-1.291638310748085
 20
1.734745801625744
 10
-1.300114351688629
 20
1.733454801890786
 10
-1.316125074293483
 20
1.731126794717349
 10
-1.338431725278997
 20
1.728125429580517
 10
-1.367605292961221
 20
1.724627705708261
 10
-1.401629304081697
 20
1.721164221486622
 10
-1.441218807238228
 20
1.717973798331602
 10
-1.483098996069825
 20
1.715587002866795
 10
-1.528479851350669
 20
1.714152420227232
 10
-1.573008072990912
 20
1.713911960972015
 10
-1.618454131442606
 20
1.714859144502169
 10
-1.660758858442607
 20
1.716821874148469
 10
-1.701396759949207
 20
1.71968544906449
 10
-1.737309743077864
 20
1.723010082672281
 10
-1.769191593398904
 20
1.726582208511594
 10
-1.794618371066319
 20
1.729847039492745
 10
-1.814003102833773
 20
1.732582631867579
 10
-1.82565593979708
 20
1.734329287750591
 10
-1.829990823099739
 20
1.734998571918167
 10
-1.829999999999822
 20
1.734999999999973
  0
LINE
  5
172
330
12D
100
AcDbEntity
  8
AM_9
100
AcDbLine
 10
-1.568116623983595
 20
1.713881816107778
 30
0.0
 11
-1.56
 21
1.713862596592855
 31
0.0
  0
LINE
  5
173
330
12D
100
AcDbEntity
  8
AM_9
100
AcDbLine
 10
-1.829999999999822
 20
1.734999999999973
 30
0.0
 11
-1.809551906087759
 21
1.731935666770574
 31
0.0
  0
LINE
  5
174
330
12D
100
AcDbEntity
  8
AM_9
100
AcDbLine
 10
-0.72
 20
-2.39
 30
0.0
 11
1.220000000000001
 21
-2.39
 31
0.0
  0
LINE
  5
175
330
12D
100
AcDbEntity
  8
AM_9
100
AcDbLine
 10
1.220000000000001
 20
2.39
 30
0.0
 11
-0.72
 21
2.39
 31
0.0
  0
LINE
  5
176
330
12D
100
AcDbEntity
  8
AM_9
100
AcDbLine
 10
-0.72
 20
2.39
 30
0.0
 11
-0.72
 21
-2.39
 31
0.0
  0
LINE
  5
177
330
12D
100
AcDbEntity
  8
AM_9
100
AcDbLine
 10
1.220000000000001
 20
2.39
 30
0.0
 11
1.220000000000001
 21
-2.39
 31
0.0
  0
LINE
  5
178
330
12D
100
AcDbEntity
  8
AM_7
100
AcDbLine
 10
2.06
 20
-0.088974358974359
 30
0.0
 11
2.06
 21
1.868461538461539
 31
0.0
  0
LINE
  5
179
330
12D
100
AcDbEntity
  8
AM_7
100
AcDbLine
 10
-1.56
 20
-0.088974358974359
 30
0.0
 11
-1.56
 21
2.392260416666667
 31
0.0
  0
LWPOLYLINE
  5
17A
330
12D
100
AcDbEntity
  8
AM_4
100
AcDbPolyline
 90
        4
 70
     0
 43
0.0
 10
-1.56
 20
0.8548454111396356
 10
-1.604256000510098
 20
0.8518224301524164
 10
-1.648512001020195
 20
0.8424685757147893
 10
-1.683794969881767
 20
0.8298475559551662
  0
LWPOLYLINE
  5
17B
330
12D
100
AcDbEntity
  8
AM_4
100
AcDbPolyline
 90
        5
 70
     0
 43
0.0
 10
-1.436259444126768
 20
0.8298710279256495
 10
-1.450174055758454
 20
0.8354497333277936
 10
-1.494078477969357
 20
0.8480755618015013
 10
-1.526518688145943
 20
0.8531207494939239
 10
-1.56
 20
0.8548454111396356
  0
LINE
  5
17C
330
12D
100
AcDbEntity
  8
AM_4
100
AcDbLine
 10
2.4375
 20
-1.735
 30
0.0
 11
2.5
 21
-1.735
 31
0.0
  0
LINE
  5
17D
330
12D
100
AcDbEntity
  8
AM_4
100
AcDbLine
 10
2.5
 20
1.735
 30
0.0
 11
2.4375
 21
1.735
 31
0.0
  0
LINE
  5
17E
330
12D
100
AcDbEntity
  8
AM_4
100
AcDbLine
 10
2.5
 20
1.735
 30
0.0
 11
2.5
 21
-1.735
 31
0.0
  0
ENDBLK
  5
130
330
12D
100
AcDbEntity
  8
0
100
AcDbBlockEnd
  0
BLOCK
  5
181
330
17F
100
AcDbEntity
  8
0
100
AcDbBlockBegin
  2
6_023137H_0_in_023137_2
 70
     2
 10
0.0
 20
0.0
 30
0.0
  3
6_023137H_0_in_023137_2
  1

  0
ATTDEF
  5
183
330
17F
100
AcDbEntity
  8
AM_6
100
AcDbText
 10
9.05625
 20
4.375
 30
0.0
 40
0.5
  1
FC-E-Housing
100
AcDbAttributeDefinition
  3

  2
NN
 70
     8
280
     0
  0
ATTDEF
  5
184
330
17F
100
AcDbEntity
  8
AM_6
100
AcDbText
 10
9.05625
 20
3.875
 30
0.0
 40
0.5
  1
Type E Piloted Flange -Inch
100
AcDbAttributeDefinition
  3

  2
NT
 70
     8
280
     0
  0
ATTDEF
  5
185
330
17F
100
AcDbEntity
  8
AM_6
100
AcDbText
 10
9.05625
 20
3.375
 30
0.0
 40
0.5
  1
023137H
100
AcDbAttributeDefinition
  3

  2
NB
 70
     8
280
     0
  0
ATTDEF
  5
186
330
17F
100
AcDbEntity
  8
AM_6
100
AcDbText
 10
9.05625
 20
2.875
 30
0.0
 40
0.5
  1
$PN.H
100
AcDbAttributeDefinition
  3

  2
NBSYN
 70
     8
280
     0
  0
ATTDEF
  5
187
330
17F
100
AcDbEntity
  8
AM_6
100
AcDbText
 10
9.05625
 20
2.375
 30
0.0
 40
0.5
  1
023137
100
AcDbAttributeDefinition
  3

  2
LINA
 70
     8
280
     0
  0
ATTDEF
  5
188
330
17F
100
AcDbEntity
  8
AM_6
100
AcDbText
 10
9.05625
 20
1.875
 30
0.0
 40
0.5
  1
2-15/16
100
AcDbAttributeDefinition
  3

  2
SS
 70
     8
280
     0
  0
ATTDEF
  5
189
330
17F
100
AcDbEntity
  8
AM_6
100
AcDbText
 10
9.05625
 20
1.375
 30
0.0
 40
0.5
  1
023137
100
AcDbAttributeDefinition
  3

  2
PN
 70
     8
280
     0
  0
ATTDEF
  5
18A
330
17F
100
AcDbEntity
  8
AM_6
100
AcDbText
 10
9.05625
 20
0.875
 30
0.0
 40
0.5
  1
FC-E-215R
100
AcDbAttributeDefinition
  3

  2
DESCRIPTION
 70
     8
280
     0
  0
ATTDEF
  5
18B
330
17F
100
AcDbEntity
  8
AM_6
100
AcDbText
 10
9.05625
 20
0.375
 30
0.0
 40
0.5
  1
4-1/2
100
AcDbAttributeDefinition
  3

  2
A
 70
     8
280
     0
  0
ATTDEF
  5
18C
330
17F
100
AcDbEntity
  8
AM_6
100
AcDbText
 10
9.05625
 20
-0.125
 30
0.0
 40
0.5
  1
8-3/4
100
AcDbAttributeDefinition
  3

  2
B
 70
     8
280
     0
  0
ATTDEF
  5
18D
330
17F
100
AcDbEntity
  8
AM_6
100
AcDbText
 10
9.05625
 20
-0.625
 30
0.0
 40
0.5
  1
3-11/16
100
AcDbAttributeDefinition
  3

  2
C
 70
     8
280
     0
  0
ATTDEF
  5
18E
330
17F
100
AcDbEntity
  8
AM_6
100
AcDbText
 10
9.05625
 20
-1.125
 30
0.0
 40
0.5
  1
7-1/2
100
AcDbAttributeDefinition
  3

  2
D
 70
     8
280
     0
  0
ATTDEF
  5
18F
330
17F
100
AcDbEntity
  8
AM_6
100
AcDbText
 10
9.05625
 20
-1.625
 30
0.0
 40
0.5
  1
1-1/2
100
AcDbAttributeDefinition
  3

  2
E
 70
     8
280
     0
  0
ATTDEF
  5
190
330
17F
100
AcDbEntity
  8
AM_6
100
AcDbText
 10
9.05625
 20
-2.125
 30
0.0
 40
0.5
  1
5/8
100
AcDbAttributeDefinition
  3

  2
F
 70
     8
280
     0
  0
ATTDEF
  5
191
330
17F
100
AcDbEntity
  8
AM_6
100
AcDbText
 10
9.05625
 20
-2.625
 30
0.0
 40
0.5
  1
2
100
AcDbAttributeDefinition
  3

  2
G
 70
     8
280
     0
  0
ATTDEF
  5
192
330
17F
100
AcDbEntity
  8
AM_6
100
AcDbText
 10
9.05625
 20
-3.125
 30
0.0
 40
0.5
  1
3/4
100
AcDbAttributeDefinition
  3

  2
H
 70
     8
280
     0
  0
ATTDEF
  5
193
330
17F
100
AcDbEntity
  8
AM_6
100
AcDbText
 10
9.05625
 20
-3.625
 30
0.0
 40
0.5
  1
6-3/8
100
AcDbAttributeDefinition
  3

  2
K
 70
     8
280
     0
  0
ATTDEF
  5
194
330
17F
100
AcDbEntity
  8
AM_6
100
AcDbText
 10
9.05625
 20
-4.125
 30
0.0
 40
0.5
  1
4-23/32
100
AcDbAttributeDefinition
  3

  2
L
 70
     8
280
     0
  0
ATTDEF
  5
195
330
17F
100
AcDbEntity
  8
AM_6
100
AcDbText
 10
9.05625
 20
-4.625
 30
0.0
 40
0.5
  1
1-1/4
100
AcDbAttributeDefinition
  3

  2
M
 70
     8
280
     0
  0
ATTDEF
  5
196
330
17F
100
AcDbEntity
  8
AM_6
100
AcDbText
 10
9.05625
 20
-5.125
 30
0.0
 40
0.5
  1
baldor
100
AcDbAttributeDefinition
  3

  2
COMPANY
 70
     8
280
     0
  0
LINE
  5
197
330
17F
100
AcDbEntity
  8
AM_9
100
AcDbLine
 10
-0.7499999999999999
 20
2.799448885495143
 30
0.0
 11
-0.6562499999999999
 21
2.799448885495143
 31
0.0
  0
LINE
  5
198
330
17F
100
AcDbEntity
  8
AM_9
100
AcDbLine
 10
-0.7499999999999999
 20
-2.84375
 30
0.0
 11
-0.6562499999999999
 21
-2.84375
 31
0.0
  0
LINE
  5
199
330
17F
100
AcDbEntity
  8
AM_9
100
AcDbLine
 10
-0.6562499999999998
 20
-2.607978303678327
 30
0.0
 11
-0.7499999999999998
 21
-2.607978303678327
 31
0.0
  0
LINE
  5
19A
330
17F
100
AcDbEntity
  8
AM_9
100
AcDbLine
 10
-0.6562499999999998
 20
-2.600702217081266
 30
0.0
 11
-0.7499999999999998
 21
-2.600702217081266
 31
0.0
  0
LINE
  5
19B
330
17F
100
AcDbEntity
  8
AM_9
100
AcDbLine
 10
-0.6562499999999998
 20
-2.587882114245993
 30
0.0
 11
-0.7499999999999998
 21
-2.587882114245993
 31
0.0
  0
LINE
  5
19C
330
17F
100
AcDbEntity
  8
AM_9
100
AcDbLine
 10
-0.6562499999999998
 20
2.607978303678327
 30
0.0
 11
-0.7499999999999998
 21
2.607978303678327
 31
0.0
  0
LINE
  5
19D
330
17F
100
AcDbEntity
  8
AM_9
100
AcDbLine
 10
-0.6562499999999998
 20
2.600702217081266
 30
0.0
 11
-0.7499999999999998
 21
2.600702217081266
 31
0.0
  0
LINE
  5
19E
330
17F
100
AcDbEntity
  8
AM_9
100
AcDbLine
 10
-0.7499999999999998
 20
2.587882114245992
 30
0.0
 11
-0.6562499999999998
 21
2.587882114245992
 31
0.0
  0
LINE
  5
19F
330
17F
100
AcDbEntity
  8
AM_9
100
AcDbLine
 10
-0.6562499999999998
 20
-2.969497260535385
 30
0.0
 11
-0.6562499999999998
 21
-3.212897604915669
 31
0.0
  0
LINE
  5
1A0
330
17F
100
AcDbEntity
  8
AM_9
100
AcDbLine
 10
-0.6562499999999998
 20
3.212897604915669
 30
0.0
 11
-0.6562499999999998
 21
2.969497260535385
 31
0.0
  0
LINE
  5
1A1
330
17F
100
AcDbEntity
  8
AM_9
100
AcDbLine
 10
-1.25
 20
-2.39
 30
0.0
 11
2.4375
 21
-2.39
 31
0.0
  0
LINE
  5
1A2
330
17F
100
AcDbEntity
  8
AM_9
100
AcDbLine
 10
2.4375
 20
2.39
 30
0.0
 11
-1.25
 21
2.39
 31
0.0
  0
LINE
  5
1A3
330
17F
100
AcDbEntity
  8
AM_9
100
AcDbLine
 10
-0.7499999999999998
 20
2.339150429449553
 30
0.0
 11
0.0000000000000002
 21
2.339150429449553
 31
0.0
  0
LINE
  5
1A4
330
17F
100
AcDbEntity
  8
AM_9
100
AcDbLine
 10
0.0000000000000002
 20
2.964150429449553
 30
0.0
 11
-0.7499999999999998
 21
2.964150429449553
 31
0.0
  0
LINE
  5
1A5
330
17F
100
AcDbEntity
  8
AM_9
100
AcDbLine
 10
-0.7499999999999998
 20
-2.964150429449553
 30
0.0
 11
0.0000000000000002
 21
-2.964150429449553
 31
0.0
  0
LINE
  5
1A6
330
17F
100
AcDbEntity
  8
AM_9
100
AcDbLine
 10
0.0000000000000002
 20
-2.339150429449553
 30
0.0
 11
-0.7499999999999998
 21
-2.339150429449553
 31
0.0
  0
LINE
  5
1A7
330
17F
100
AcDbEntity
  8
AM_9
100
AcDbLine
 10
-0.6562499999999998
 20
3.210236814890516
 30
0.0
 11
-0.7499999999999998
 21
3.210236814890516
 31
0.0
  0
LINE
  5
1A8
330
17F
100
AcDbEntity
  8
AM_9
100
AcDbLine
 10
-0.6562499999999998
 20
-3.210236814890516
 30
0.0
 11
-0.7499999999999998
 21
-3.210236814890516
 31
0.0
  0
LINE
  5
1A9
330
17F
100
AcDbEntity
  8
AM_7
100
AcDbLine
 10
4.05625
 20
0.0
 30
0.0
 11
-3.749999999999999
 21
0.0
 31
0.0
  0
LINE
  5
1AA
330
17F
100
AcDbEntity
  8
AM_7
100
AcDbLine
 10
0.0412500018750002
 20
-2.651650429449553
 30
0.0
 11
-0.8662500393749997
 21
-2.651650429449553
 31
0.0
  0
LINE
  5
1AB
330
17F
100
AcDbEntity
  8
AM_7
100
AcDbLine
 10
0.0412500018749998
 20
2.651650429449553
 30
0.0
 11
-0.8662500393750001
 21
2.651650429449553
 31
0.0
  0
LINE
  5
1AC
330
17F
100
AcDbEntity
  8
AM_4
100
AcDbLine
 10
-0.6562499999999999
 20
3.565313399086417
 30
0.0
 11
-1.242780799787195
 21
2.843880491511554
 31
0.0
  0
LINE
  5
1AD
330
17F
100
AcDbEntity
  8
AM_4
100
AcDbLine
 10
-0.6562499999999998
 20
-1.150331274272149
 30
0.0
 11
-0.7499999999999998
 21
-1.150331274272149
 31
0.0
  0
LINE
  5
1AE
330
17F
100
AcDbEntity
  8
AM_4
100
AcDbLine
 10
-0.6562499999999998
 20
1.150331274272149
 30
0.0
 11
-0.7499999999999998
 21
1.150331274272149
 31
0.0
  0
LINE
  5
1AF
330
17F
100
AcDbEntity
  8
AM_4
100
AcDbLine
 10
-1.25
 20
-2.8875
 30
0.0
 11
-1.25
 21
2.8875
 31
0.0
  0
LINE
  5
1B0
330
17F
100
AcDbEntity
  8
AM_4
100
AcDbLine
 10
-0.7499999999999999
 20
2.843880491511555
 30
0.0
 11
-1.242780799787195
 21
2.843880491511554
 31
0.0
  0
LINE
  5
1B1
330
17F
100
AcDbEntity
  8
AM_4
100
AcDbLine
 10
-1.25
 20
-2.8875
 30
0.0
 11
-0.7499999999999999
 21
-2.8875
 31
0.0
  0
LINE
  5
1B2
330
17F
100
AcDbEntity
  8
AM_4
100
AcDbLine
 10
-1.20731778592766
 20
2.8875
 30
0.0
 11
-1.25
 21
2.8875
 31
0.0
  0
LINE
  5
1B3
330
17F
100
AcDbEntity
  8
AM_4
100
AcDbLine
 10
2.4375
 20
2.877379539893138
 30
0.0
 11
2.4375
 21
-2.877379539893138
 31
0.0
  0
ARC
  5
1B4
330
17F
100
AcDbEntity
  8
AM_4
100
AcDbCircle
 10
2.362499999999999
 20
-2.877379539893138
 30
0.0
 40
0.075000000000001
100
AcDbArc
 50
275.0000000000006
 51
0.0
  0
ARC
  5
1B5
330
17F
100
AcDbEntity
  8
AM_4
100
AcDbCircle
 10
2.362499999999999
 20
2.877379539893138
 30
0.0
 40
0.0750000000000011
100
AcDbArc
 50
0.0
 51
84.99999999999946
  0
LINE
  5
1B6
330
17F
100
AcDbEntity
  8
AM_4
100
AcDbLine
 10
-0.6562499999999998
 20
3.296650429449552
 30
0.0
 11
-0.7499999999999998
 21
3.296650429449552
 31
0.0
  0
LINE
  5
1B7
330
17F
100
AcDbEntity
  8
AM_4
100
AcDbLine
 10
-0.7499999999999998
 20
-3.296650429449552
 30
0.0
 11
-0.6562499999999998
 21
-3.296650429449552
 31
0.0
  0
LINE
  5
1B8
330
17F
100
AcDbEntity
  8
AM_4
100
AcDbLine
 10
-0.7499999999999998
 20
-3.296650429449552
 30
0.0
 11
-0.7499999999999998
 21
3.296650429449552
 31
0.0
  0
LINE
  5
1B9
330
17F
100
AcDbEntity
  8
AM_4
100
AcDbLine
 10
2.369036680706074
 20
2.95209414225002
 30
0.0
 11
1.5
 21
3.028125
 31
0.0
  0
LINE
  5
1BA
330
17F
100
AcDbEntity
  8
AM_4
100
AcDbLine
 10
1.5
 20
-3.028125
 30
0.0
 11
2.369036680706074
 21
-2.95209414225002
 31
0.0
  0
LINE
  5
1BB
330
17F
100
AcDbEntity
  8
AM_4
100
AcDbLine
 10
2.369036680706074
 20
2.95209414225002
 30
0.0
 11
2.369036680706074
 21
-2.95209414225002
 31
0.0
  0
LINE
  5
1BC
330
17F
100
AcDbEntity
  8
AM_4
100
AcDbLine
 10
0.0
 20
-3.1875
 30
0.0
 11
1.5
 21
-3.1875
 31
0.0
  0
LINE
  5
1BD
330
17F
100
AcDbEntity
  8
AM_4
100
AcDbLine
 10
1.5
 20
3.1875
 30
0.0
 11
0.0
 21
3.1875
 31
0.0
  0
LINE
  5
1BE
330
17F
100
AcDbEntity
  8
AM_4
100
AcDbLine
 10
1.5
 20
3.1875
 30
0.0
 11
1.5
 21
-3.1875
 31
0.0
  0
LINE
  5
1BF
330
17F
100
AcDbEntity
  8
AM_4
100
AcDbLine
 10
-0.6562499999999998
 20
-1.286008088739252
 30
0.0
 11
-0.7499999999999998
 21
-1.286008088739252
 31
0.0
  0
LINE
  5
1C0
330
17F
100
AcDbEntity
  8
AM_4
100
AcDbLine
 10
-0.6562499999999998
 20
1.286008088739251
 30
0.0
 11
-0.7499999999999998
 21
1.286008088739251
 31
0.0
  0
LINE
  5
1C1
330
17F
100
AcDbEntity
  8
AM_4
100
AcDbLine
 10
-0.6562499999999998
 20
2.329150429449554
 30
0.0
 11
-0.7499999999999998
 21
2.329150429449554
 31
0.0
  0
LINE
  5
1C2
330
17F
100
AcDbEntity
  8
AM_4
100
AcDbLine
 10
-0.6562499999999998
 20
-2.329150429449553
 30
0.0
 11
-0.7499999999999998
 21
-2.329150429449553
 31
0.0
  0
LINE
  5
1C3
330
17F
100
AcDbEntity
  8
AM_4
100
AcDbLine
 10
-0.6562499999999998
 20
-2.969497260535385
 30
0.0
 11
-0.6562499999999998
 21
2.969497260535385
 31
0.0
  0
LINE
  5
1C4
330
17F
100
AcDbEntity
  8
AM_4
100
AcDbLine
 10
-0.6562499999999998
 20
3.212897604915669
 30
0.0
 11
-0.6562499999999999
 21
4.375
 31
0.0
  0
LINE
  5
1C5
330
17F
100
AcDbEntity
  8
AM_4
100
AcDbLine
 10
-0.7499999999999998
 20
3.212897604915669
 30
0.0
 11
-0.6562499999999998
 21
3.212897604915669
 31
0.0
  0
LINE
  5
1C6
330
17F
100
AcDbEntity
  8
AM_4
100
AcDbLine
 10
-0.6562499999999998
 20
2.969497260535385
 30
0.0
 11
-0.7499999999999998
 21
2.969497260535385
 31
0.0
  0
LINE
  5
1C7
330
17F
100
AcDbEntity
  8
AM_4
100
AcDbLine
 10
-0.7499999999999998
 20
-2.969497260535385
 30
0.0
 11
-0.6562499999999998
 21
-2.969497260535385
 31
0.0
  0
LINE
  5
1C8
330
17F
100
AcDbEntity
  8
AM_4
100
AcDbLine
 10
-0.6562499999999998
 20
-3.212897604915669
 30
0.0
 11
-0.7499999999999998
 21
-3.212897604915669
 31
0.0
  0
LINE
  5
1C9
330
17F
100
AcDbEntity
  8
AM_4
100
AcDbLine
 10
-0.6562499999999999
 20
-4.375
 30
0.0
 11
-0.1875
 21
-4.375
 31
0.0
  0
LINE
  5
1CA
330
17F
100
AcDbEntity
  8
AM_4
100
AcDbLine
 10
-0.1875
 20
4.375
 30
0.0
 11
-0.6562499999999999
 21
4.375
 31
0.0
  0
LINE
  5
1CB
330
17F
100
AcDbEntity
  8
AM_4
100
AcDbLine
 10
-0.6562499999999999
 20
-4.375
 30
0.0
 11
-0.6562499999999998
 21
-3.212897604915669
 31
0.0
  0
LINE
  5
1CC
330
17F
100
AcDbEntity
  8
AM_4
100
AcDbLine
 10
0.0
 20
4.1875
 30
0.0
 11
-0.1875
 21
4.375
 31
0.0
  0
LINE
  5
1CD
330
17F
100
AcDbEntity
  8
AM_4
100
AcDbLine
 10
-0.1875
 20
-4.375
 30
0.0
 11
0.0
 21
-4.1875
 31
0.0
  0
LINE
  5
1CE
330
17F
100
AcDbEntity
  8
AM_4
100
AcDbLine
 10
0.0
 20
4.1875
 30
0.0
 11
0.0
 21
-4.1875
 31
0.0
  0
LINE
  5
1CF
330
17F
100
AcDbEntity
  8
AM_4
100
AcDbLine
 10
-0.1875
 20
4.375
 30
0.0
 11
-0.1875
 21
-4.375
 31
0.0
  0
ENDBLK
  5
182
330
17F
100
AcDbEntity
  8
0
100
AcDbBlockEnd
  0
ENDSEC
  0
SECTION
  2
ENTITIES
  0
INSERT
  5
6F
330
1F
100
AcDbEntity
  8
0
100
AcDbBlockReference
  2
1_023137_2
 10
0.0
 20
0.0
 30
0.0
  0
POINT
  5
1D1
330
1F
100
AcDbEntity
  8
ConnectionPoints
100
AcDbPoint
 10
-0.9531249999822837
 20
3.200157137043207
 30
0.0000000000000001
  0
POINT
  5
1D2
330
1F
100
AcDbEntity
  8
ConnectionPoints
100
AcDbPoint
 10
-2.0
 20
0.0000000000000001
 30
0.0000000000000001
  0
POINT
  5
1D3
330
1F
100
AcDbEntity
  8
ConnectionPoints
100
AcDbPoint
 10
-2.0
 20
0.0
 30
0.0000000000000001
  0
POINT
  5
1D4
330
1F
100
AcDbEntity
  8
ConnectionPoints
100
AcDbPoint
 10
2.5
 20
0.0
 30
-0.0000000000000002
  0
POINT
  5
1D5
330
1F
100
AcDbEntity
  8
ConnectionPoints
100
AcDbPoint
 10
0.25
 20
0.0
 30
0.0
  0
POINT
  5
1D6
330
1F
100
AcDbEntity
  8
ConnectionPoints
100
AcDbPoint
 10
2.390625
 20
0.0
 30
-0.0000000000000001
  0
POINT
  5
1D7
330
1F
100
AcDbEntity
  8
ConnectionPoints
100
AcDbPoint
 10
-0.9531249999822837
 20
3.200157137043207
 30
0.0000000000000001
  0
POINT
  5
1D8
330
1F
100
AcDbEntity
  8
ConnectionPoints
100
AcDbPoint
 10
0.25
 20
0.0
 30
0.0
  0
ENDSEC
  0
SECTION
  2
OBJECTS
  0
DICTIONARY
  5
C
330
0
100
AcDbDictionary
281
     1
  3
ACAD_DETAILVIEWSTYLE
350
1E0
  3
ACAD_GROUP
350
D
  3
ACAD_LAYOUT
350
1A
  3
ACAD_MATERIAL
350
43
  3
ACAD_MLEADERSTYLE
350
6B
  3
ACAD_MLINESTYLE
350
17
  3
ACAD_PLOTSETTINGS
350
19
  3
ACAD_PLOTSTYLENAME
350
E
  3
ACAD_SCALELIST
350
47
  3
ACAD_SECTIONVIEWSTYLE
350
1E1
  3
ACAD_TABLESTYLE
350
69
  3
ACAD_VISUALSTYLE
350
2A
  3
ACDB_RECOMPOSE_DATA
350
1DD
  3
AcDbVariableDictionary
350
1D9
  0
SUN
  5
6D
330
29
100
AcDbSun
 90
        1
290
     0
 63
     7
421
 16777215
 40
1.0
291
     1
 91
  2455826
 92
 54000000
292
     0
 70
     2
 71
   256
280
     1
  0
DICTIONARY
  5
1E0
102
{ACAD_REACTORS
330
C
102
}
330
C
100
AcDbDictionary
281
     1
  0
DICTIONARY
  5
D
102
{ACAD_REACTORS
330
C
102
}
330
C
100
AcDbDictionary
281
     1
  0
DICTIONARY
  5
1A
102
{ACAD_REACTORS
330
C
102
}
330
C
100
AcDbDictionary
281
     1
  3
Layout1
350
1E
  3
Layout2
350
26
  3
Model
350
22
  0
DICTIONARY
  5
43
102
{ACAD_REACTORS
330
C
102
}
330
C
100
AcDbDictionary
281
     1
  3
ByBlock
350
45
  3
ByLayer
350
44
  3
Global
350
46
  0
DICTIONARY
  5
6B
102
{ACAD_REACTORS
330
C
102
}
330
C
100
AcDbDictionary
281
     1
  3
Standard
350
6C
  0
DICTIONARY
  5
17
102
{ACAD_REACTORS
330
C
102
}
330
C
100
AcDbDictionary
281
     1
  3
Standard
350
18
  0
DICTIONARY
  5
19
102
{ACAD_REACTORS
330
C
102
}
330
C
100
AcDbDictionary
281
     1
  0
ACDBDICTIONARYWDFLT
  5
E
102
{ACAD_REACTORS
330
C
102
}
330
C
100
AcDbDictionary
281
     1
  3
Normal
350
F
100
AcDbDictionaryWithDefault
340
F
  0
DICTIONARY
  5
47
102
{ACAD_REACTORS
330
C
102
}
330
C
100
AcDbDictionary
281
     1
  3
A0
350
48
  3
A1
350
49
  3
A2
350
4A
  3
A3
350
4B
  3
A4
350
4C
  3
A5
350
4D
  3
A6
350
4E
  3
A7
350
4F
  3
A8
350
50
  3
A9
350
51
  3
B0
350
52
  3
B1
350
53
  3
B2
350
54
  3
B3
350
55
  3
B4
350
56
  3
B5
350
57
  3
B6
350
58
  3
B7
350
59
  3
B8
350
5A
  3
B9
350
5B
  3
C0
350
5C
  3
C1
350
5D
  3
C2
350
5E
  3
C3
350
5F
  3
C4
350
60
  3
C5
350
61
  3
C6
350
62
  3
C7
350
63
  3
C8
350
64
  3
C9
350
65
  3
D0
350
66
  3
D1
350
67
  3
D2
350
68
  0
DICTIONARY
  5
1E1
102
{ACAD_REACTORS
330
C
102
}
330
C
100
AcDbDictionary
281
     1
  0
DICTIONARY
  5
69
102
{ACAD_REACTORS
330
C
102
}
330
C
100
AcDbDictionary
281
     1
  3
Standard
350
6A
  0
DICTIONARY
  5
2A
102
{ACAD_REACTORS
330
C
102
}
330
C
100
AcDbDictionary
281
     1
  3
2dWireframe
350
2F
  3
Basic
350
32
  3
Brighten
350
36
  3
ColorChange
350
3A
  3
Conceptual
350
34
  3
Dim
350
35
  3
EdgeColorOff
350
3D
  3
Facepattern
350
39
  3
Flat
350
2B
  3
FlatWithEdges
350
2C
  3
Gouraud
350
2D
  3
GouraudWithEdges
350
2E
  3
Hidden
350
31
  3
JitterOff
350
3B
  3
Linepattern
350
38
  3
OverhangOff
350
3C
  3
Realistic
350
33
  3
Shaded
350
42
  3
Shaded with edges
350
41
  3
Shades of Gray
350
3E
  3
Sketchy
350
3F
  3
Thicken
350
37
  3
Wireframe
350
30
  3
X-Ray
350
40
  0
XRECORD
  5
1DD
102
{ACAD_REACTORS
330
C
102
}
330
C
100
AcDbXrecord
280
     1
 90
        1
330
6A
  0
DICTIONARY
  5
1D9
102
{ACAD_REACTORS
330
C
102
}
330
C
100
AcDbDictionary
281
     1
  3
CANNOSCALE
350
1DA
  3
CMLEADERSTYLE
350
1DF
  3
CTABLESTYLE
350
1DE
  0
LAYOUT
  5
1E
102
{ACAD_REACTORS
330
1A
102
}
330
1A
100
AcDbPlotSettings
  1

  2
none_device
  4

  6

 40
0.0
 41
0.0
 42
0.0
 43
0.0
 44
0.0
 45
0.0
 46
0.0
 47
0.0
 48
0.0
 49
0.0
140
0.0
141
0.0
142
1.0
143
1.0
 70
   688
 72
     0
 73
     0
 74
     5
  7

 75
    16
 76
     0
 77
     2
 78
   300
147
1.0
148
0.0
149
0.0
100
AcDbLayout
  1
Layout1
 70
     1
 71
     1
 10
0.0
 20
0.0
 11
12.0
 21
9.0
 12
0.0
 22
0.0
 32
0.0
 14
1.000000000000000E+20
 24
1.000000000000000E+20
 34
1.000000000000000E+20
 15
-1.000000000000000E+20
 25
-1.000000000000000E+20
 35
-1.000000000000000E+20
146
0.0
 13
0.0
 23
0.0
 33
0.0
 16
1.0
 26
0.0
 36
0.0
 17
0.0
 27
1.0
 37
0.0
 76
     0
330
1B
  0
LAYOUT
  5
26
102
{ACAD_REACTORS
330
1A
102
}
330
1A
100
AcDbPlotSettings
  1

  2
none_device
  4

  6

 40
0.0
 41
0.0
 42
0.0
 43
0.0
 44
0.0
 45
0.0
 46
0.0
 47
0.0
 48
0.0
 49
0.0
140
0.0
141
0.0
142
1.0
143
1.0
 70
   688
 72
     0
 73
     0
 74
     5
  7

 75
    16
 76
     0
 77
     2
 78
   300
147
1.0
148
0.0
149
0.0
100
AcDbLayout
  1
Layout2
 70
     1
 71
     2
 10
0.0
 20
0.0
 11
0.0
 21
0.0
 12
0.0
 22
0.0
 32
0.0
 14
0.0
 24
0.0
 34
0.0
 15
0.0
 25
0.0
 35
0.0
146
0.0
 13
0.0
 23
0.0
 33
0.0
 16
1.0
 26
0.0
 36
0.0
 17
0.0
 27
1.0
 37
0.0
 76
     0
330
23
  0
LAYOUT
  5
22
102
{ACAD_REACTORS
330
1A
102
}
330
1A
100
AcDbPlotSettings
  1

  2
none_device
  4
Letter_(8.50_x_11.00_Inches)
  6

 40
6.35
 41
6.35
 42
6.35000508
 43
6.35000508
 44
215.9
 45
279.4
 46
0.0
 47
0.0
 48
0.0
 49
0.0
140
0.0
141
0.0
142
1.0
143
1.0
 70
  1712
 72
     0
 73
     0
 74
     0
  7

 75
     0
 76
     0
 77
     2
 78
   300
147
1.0
148
0.0
149
0.0
100
AcDbLayout
  1
Model
 70
     1
 71
     0
 10
0.0
 20
0.0
 11
12.0
 21
9.0
 12
0.0
 22
0.0
 32
0.0
 14
1.000000000000000E+20
 24
1.000000000000000E+20
 34
1.000000000000000E+20
 15
-1.000000000000000E+20
 25
-1.000000000000000E+20
 35
-1.000000000000000E+20
146
0.0
 13
0.0
 23
0.0
 33
0.0
 16
1.0
 26
0.0
 36
0.0
 17
0.0
 27
1.0
 37
0.0
 76
     0
330
1F
331
29
  0
MATERIAL
  5
45
102
{ACAD_REACTORS
330
43
102
}
330
43
100
AcDbMaterial
  1
ByBlock
 72
     1
 94
      127
  0
MATERIAL
  5
44
102
{ACAD_REACTORS
330
43
102
}
330
43
100
AcDbMaterial
  1
ByLayer
 72
     1
 94
      127
  0
MATERIAL
  5
46
102
{ACAD_REACTORS
330
43
102
}
330
43
100
AcDbMaterial
  1
Global
 72
     1
 94
      127
  0
MLEADERSTYLE
  5
6C
102
{ACAD_REACTORS
330
6B
102
}
330
6B
100
AcDbMLeaderStyle
179
     2
170
     2
171
     1
172
     0
 90
        2
 40
0.0
 41
0.0
173
     1
 91
-1056964608
340
14
 92
       -2
290
     1
 42
0.09
291
     1
 43
0.36
  3
Standard
341
0
 44
0.18
300

342
11
174
     1
178
     6
175
     1
176
     0
 93
-1056964608
 45
0.18
292
     0
297
     0
 46
0.18
343
0
 94
-1056964608
 47
1.0
 49
1.0
140
1.0
293
     1
141
0.0
294
     1
177
     0
142
1.0
295
     0
296
     0
143
0.125
271
     0
272
     9
273
     9
298
     0
  0
MLINESTYLE
  5
18
102
{ACAD_REACTORS
330
17
102
}
330
17
100
AcDbMlineStyle
  2
Standard
 70
     0
  3

 62
   256
 51
90.0
 52
90.0
 71
     2
 49
0.5
 62
   256
  6
BYLAYER
 49
-0.5
 62
   256
  6
BYLAYER
  0
ACDBPLACEHOLDER
  5
F
102
{ACAD_REACTORS
330
E
102
}
330
E
  0
SCALE
  5
48
102
{ACAD_REACTORS
330
47
102
}
330
47
100
AcDbScale
 70
     0
300
1:1
140
1.0
141
1.0
290
     1
  0
SCALE
  5
49
102
{ACAD_REACTORS
330
47
102
}
330
47
100
AcDbScale
 70
     0
300
1:2
140
1.0
141
2.0
290
     0
  0
SCALE
  5
4A
102
{ACAD_REACTORS
330
47
102
}
330
47
100
AcDbScale
 70
     0
300
1:4
140
1.0
141
4.0
290
     0
  0
SCALE
  5
4B
102
{ACAD_REACTORS
330
47
102
}
330
47
100
AcDbScale
 70
     0
300
1:5
140
1.0
141
5.0
290
     0
  0
SCALE
  5
4C
102
{ACAD_REACTORS
330
47
102
}
330
47
100
AcDbScale
 70
     0
300
1:8
140
1.0
141
8.0
290
     0
  0
SCALE
  5
4D
102
{ACAD_REACTORS
330
47
102
}
330
47
100
AcDbScale
 70
     0
300
1:10
140
1.0
141
10.0
290
     0
  0
SCALE
  5
4E
102
{ACAD_REACTORS
330
47
102
}
330
47
100
AcDbScale
 70
     0
300
1:16
140
1.0
141
16.0
290
     0
  0
SCALE
  5
4F
102
{ACAD_REACTORS
330
47
102
}
330
47
100
AcDbScale
 70
     0
300
1:20
140
1.0
141
20.0
290
     0
  0
SCALE
  5
50
102
{ACAD_REACTORS
330
47
102
}
330
47
100
AcDbScale
 70
     0
300
1:30
140
1.0
141
30.0
290
     0
  0
SCALE
  5
51
102
{ACAD_REACTORS
330
47
102
}
330
47
100
AcDbScale
 70
     0
300
1:40
140
1.0
141
40.0
290
     0
  0
SCALE
  5
52
102
{ACAD_REACTORS
330
47
102
}
330
47
100
AcDbScale
 70
     0
300
1:50
140
1.0
141
50.0
290
     0
  0
SCALE
  5
53
102
{ACAD_REACTORS
330
47
102
}
330
47
100
AcDbScale
 70
     0
300
1:100
140
1.0
141
100.0
290
     0
  0
SCALE
  5
54
102
{ACAD_REACTORS
330
47
102
}
330
47
100
AcDbScale
 70
     0
300
2:1
140
2.0
141
1.0
290
     0
  0
SCALE
  5
55
102
{ACAD_REACTORS
330
47
102
}
330
47
100
AcDbScale
 70
     0
300
4:1
140
4.0
141
1.0
290
     0
  0
SCALE
  5
56
102
{ACAD_REACTORS
330
47
102
}
330
47
100
AcDbScale
 70
     0
300
8:1
140
8.0
141
1.0
290
     0
  0
SCALE
  5
57
102
{ACAD_REACTORS
330
47
102
}
330
47
100
AcDbScale
 70
     0
300
10:1
140
10.0
141
1.0
290
     0
  0
SCALE
  5
58
102
{ACAD_REACTORS
330
47
102
}
330
47
100
AcDbScale
 70
     0
300
100:1
140
100.0
141
1.0
290
     0
  0
SCALE
  5
59
102
{ACAD_REACTORS
330
47
102
}
330
47
100
AcDbScale
 70
     0
300
1/128" = 1'-0"
140
0.0078125
141
12.0
290
     0
  0
SCALE
  5
5A
102
{ACAD_REACTORS
330
47
102
}
330
47
100
AcDbScale
 70
     0
300
1/64" = 1'-0"
140
0.015625
141
12.0
290
     0
  0
SCALE
  5
5B
102
{ACAD_REACTORS
330
47
102
}
330
47
100
AcDbScale
 70
     0
300
1/32" = 1'-0"
140
0.03125
141
12.0
290
     0
  0
SCALE
  5
5C
102
{ACAD_REACTORS
330
47
102
}
330
47
100
AcDbScale
 70
     0
300
1/16" = 1'-0"
140
0.0625
141
12.0
290
     0
  0
SCALE
  5
5D
102
{ACAD_REACTORS
330
47
102
}
330
47
100
AcDbScale
 70
     0
300
3/32" = 1'-0"
140
0.09375
141
12.0
290
     0
  0
SCALE
  5
5E
102
{ACAD_REACTORS
330
47
102
}
330
47
100
AcDbScale
 70
     0
300
1/8" = 1'-0"
140
0.125
141
12.0
290
     0
  0
SCALE
  5
5F
102
{ACAD_REACTORS
330
47
102
}
330
47
100
AcDbScale
 70
     0
300
3/16" = 1'-0"
140
0.1875
141
12.0
290
     0
  0
SCALE
  5
60
102
{ACAD_REACTORS
330
47
102
}
330
47
100
AcDbScale
 70
     0
300
1/4" = 1'-0"
140
0.25
141
12.0
290
     0
  0
SCALE
  5
61
102
{ACAD_REACTORS
330
47
102
}
330
47
100
AcDbScale
 70
     0
300
3/8" = 1'-0"
140
0.375
141
12.0
290
     0
  0
SCALE
  5
62
102
{ACAD_REACTORS
330
47
102
}
330
47
100
AcDbScale
 70
     0
300
1/2" = 1'-0"
140
0.5
141
12.0
290
     0
  0
SCALE
  5
63
102
{ACAD_REACTORS
330
47
102
}
330
47
100
AcDbScale
 70
     0
300
3/4" = 1'-0"
140
0.75
141
12.0
290
     0
  0
SCALE
  5
64
102
{ACAD_REACTORS
330
47
102
}
330
47
100
AcDbScale
 70
     0
300
1" = 1'-0"
140
1.0
141
12.0
290
     0
  0
SCALE
  5
65
102
{ACAD_REACTORS
330
47
102
}
330
47
100
AcDbScale
 70
     0
300
1-1/2" = 1'-0"
140
1.5
141
12.0
290
     0
  0
SCALE
  5
66
102
{ACAD_REACTORS
330
47
102
}
330
47
100
AcDbScale
 70
     0
300
3" = 1'-0"
140
3.0
141
12.0
290
     0
  0
SCALE
  5
67
102
{ACAD_REACTORS
330
47
102
}
330
47
100
AcDbScale
 70
     0
300
6" = 1'-0"
140
6.0
141
12.0
290
     0
  0
SCALE
  5
68
102
{ACAD_REACTORS
330
47
102
}
330
47
100
AcDbScale
 70
     0
300
1'-0" = 1'-0"
140
12.0
141
12.0
290
     0
  0
TABLESTYLE
  5
6A
102
{ACAD_REACTORS
330
69
102
}
102
{ACAD_XDICTIONARY
360
1DB
102
}
330
69
100
AcDbTableStyle
  3
Standard
 70
     0
 71
     0
 40
0.06
 41
0.06
280
     0
281
     0
  7
Standard
140
0.18
170
     2
 62
     0
 63
   257
283
     0
 90
        4
 91
        0
  1

274
    -2
284
     1
 64
     0
275
    -2
285
     1
 65
     0
276
    -2
286
     1
 66
     0
277
    -2
287
     1
 67
     0
278
    -2
288
     1
 68
     0
279
    -2
289
     1
 69
     0
  7
Standard
140
0.25
170
     5
 62
     0
 63
   257
283
     0
 90
        4
 91
        0
  1

274
    -2
284
     1
 64
     0
275
    -2
285
     1
 65
     0
276
    -2
286
     1
 66
     0
277
    -2
287
     1
 67
     0
278
    -2
288
     1
 68
     0
279
    -2
289
     1
 69
     0
  7
Standard
140
0.18
170
     5
 62
     0
 63
   257
283
     0
 90
        4
 91
        0
  1

274
    -2
284
     1
 64
     0
275
    -2
285
     1
 65
     0
276
    -2
286
     1
 66
     0
277
    -2
287
     1
 67
     0
278
    -2
288
     1
 68
     0
279
    -2
289
     1
 69
     0
  0
VISUALSTYLE
  5
2F
102
{ACAD_REACTORS
330
2A
102
}
330
2A
100
AcDbVisualStyle
  2
2dWireframe
 70
     4
177
     3
291
     0
 70
    58
 90
        0
176
     1
 90
        2
176
     1
 90
        0
176
     1
 90
        0
176
     1
 40
0.6
176
     1
 40
30.0
176
     1
 62
     7
420
 16777215
176
     1
 90
        1
176
     1
 90
        4
176
     1
 62
     7
176
     1
 62
   257
176
     1
 90
        1
176
     1
 90
        1
176
     1
 40
1.0
176
     1
 90
        0
176
     1
 62
   257
176
     1
 40
1.0
176
     1
 90
        1
176
     1
 90
        6
176
     1
 90
        2
176
     1
 62
     7
176
     1
 90
        5
176
     1
 90
        0
176
     1
 90
        0
176
     1
290
     0
176
     1
 90
        1
176
     1
 40
0.0
176
     1
 90
        0
176
     1
290
     1
176
     1
290
     1
176
     1
290
     0
176
     1
290
     0
176
     1
290
     0
176
     1
290
     0
176
     1
290
     0
176
     1
290
     0
176
     1
290
     0
176
     1
 90
       50
176
     1
 40
0.0
176
     1
 40
1.0
176
     1
 90
        0
176
     1
 62
    18
420
        0
176
     1
 90
       50
176
     1
 90
        3
176
     1
 62
     5
420
      255
176
     1
290
     0
176
     1
 90
       50
176
     1
 90
       50
176
     1
 90
       50
176
     1
290
     0
176
     1
 90
       50
176
     1
 62
   256
176
     0
 40
1.0
176
     0
 90
        2
176
     1
  1
strokes_ogs.tif
176
     1
290
     0
176
     1
 40
1.0
176
     1
 40
1.0
176
     1
  0
VISUALSTYLE
  5
32
102
{ACAD_REACTORS
330
2A
102
}
330
2A
100
AcDbVisualStyle
  2
Basic
 70
     7
177
     3
291
     1
 70
    58
 90
        1
176
     1
 90
        0
176
     1
 90
        1
176
     1
 90
        0
176
     1
 40
0.6
176
     1
 40
30.0
176
     1
 62
     7
420
 16777215
176
     1
 90
        0
176
     1
 90
        4
176
     1
 62
     7
176
     1
 62
   257
176
     1
 90
        1
176
     1
 90
        1
176
     1
 40
1.0
176
     1
 90
        8
176
     1
 62
     7
176
     1
 40
1.0
176
     1
 90
        1
176
     1
 90
        6
176
     1
 90
        2
176
     1
 62
     7
176
     1
 90
        5
176
     1
 90
        0
176
     1
 90
        0
176
     1
290
     0
176
     1
 90
        1
176
     1
 40
0.0
176
     1
 90
        0
176
     1
290
     0
176
     1
290
     1
176
     1
290
     1
176
     1
290
     0
176
     1
290
     0
176
     1
290
     0
176
     1
290
     0
176
     1
290
     0
176
     1
290
     0
176
     1
 90
       50
176
     1
 40
0.0
176
     1
 40
1.0
176
     1
 90
        0
176
     1
 62
    18
420
        0
176
     1
 90
       50
176
     1
 90
        3
176
     1
 62
     5
420
      255
176
     1
290
     0
176
     1
 90
       50
176
     1
 90
       50
176
     1
 90
       50
176
     1
290
     0
176
     1
 90
       50
176
     1
 62
   256
176
     0
 40
1.0
176
     0
 90
        2
176
     1
  1
strokes_ogs.tif
176
     1
290
     0
176
     1
 40
1.0
176
     1
 40
1.0
176
     1
  0
VISUALSTYLE
  5
36
102
{ACAD_REACTORS
330
2A
102
}
330
2A
100
AcDbVisualStyle
  2
Brighten
 70
    12
177
     3
291
     1
 70
    58
 90
        2
176
     1
 90
        2
176
     1
 90
        0
176
     1
 90
        0
176
     1
 40
0.6
176
     1
 40
30.0
176
     1
 62
     7
420
 16777215
176
     1
 90
        1
176
     1
 90
        4
176
     1
 62
     7
176
     1
 62
   257
176
     1
 90
        1
176
     1
 90
        1
176
     1
 40
1.0
176
     1
 90
        8
176
     1
 62
     7
176
     1
 40
1.0
176
     1
 90
        1
176
     1
 90
        6
176
     1
 90
        2
176
     1
 62
     7
176
     1
 90
        5
176
     1
 90
        0
176
     1
 90
        0
176
     1
290
     0
176
     1
 90
        1
176
     1
 40
50.0
176
     1
 90
        0
176
     1
290
     0
176
     1
290
     1
176
     1
290
     1
176
     1
290
     0
176
     1
290
     0
176
     1
290
     0
176
     1
290
     0
176
     1
290
     0
176
     1
290
     0
176
     1
 90
       50
176
     1
 40
0.0
176
     1
 40
1.0
176
     1
 90
        0
176
     1
 62
    18
420
        0
176
     1
 90
       50
176
     1
 90
        3
176
     1
 62
     5
420
      255
176
     1
290
     0
176
     1
 90
       50
176
     1
 90
       50
176
     1
 90
       50
176
     1
290
     0
176
     1
 90
       50
176
     1
 62
   256
176
     0
 40
1.0
176
     0
 90
        2
176
     1
  1
strokes_ogs.tif
176
     1
290
     0
176
     1
 40
1.0
176
     1
 40
1.0
176
     1
  0
VISUALSTYLE
  5
3A
102
{ACAD_REACTORS
330
2A
102
}
330
2A
100
AcDbVisualStyle
  2
ColorChange
 70
    16
177
     3
291
     1
 70
    58
 90
        2
176
     1
 90
        2
176
     1
 90
        3
176
     1
 90
        0
176
     1
 40
0.6
176
     1
 40
30.0
176
     1
 62
     8
420
  8421504
176
     1
 90
        1
176
     1
 90
        4
176
     1
 62
     7
176
     1
 62
   257
176
     1
 90
        1
176
     1
 90
        1
176
     1
 40
1.0
176
     1
 90
        8
176
     1
 62
     8
420
  8421504
176
     1
 40
1.0
176
     1
 90
        1
176
     1
 90
        6
176
     1
 90
        2
176
     1
 62
     7
176
     1
 90
        5
176
     1
 90
        0
176
     1
 90
        0
176
     1
290
     0
176
     1
 90
        1
176
     1
 40
0.0
176
     1
 90
        0
176
     1
290
     0
176
     1
290
     1
176
     1
290
     1
176
     1
290
     0
176
     1
290
     0
176
     1
290
     0
176
     1
290
     0
176
     1
290
     0
176
     1
290
     0
176
     1
 90
       50
176
     1
 40
0.0
176
     1
 40
1.0
176
     1
 90
        0
176
     1
 62
    18
420
        0
176
     1
 90
       50
176
     1
 90
        3
176
     1
 62
     5
420
      255
176
     1
290
     0
176
     1
 90
       50
176
     1
 90
       50
176
     1
 90
       50
176
     1
290
     0
176
     1
 90
       50
176
     1
 62
   256
176
     0
 40
1.0
176
     0
 90
        2
176
     1
  1
strokes_ogs.tif
176
     1
290
     0
176
     1
 40
1.0
176
     1
 40
1.0
176
     1
  0
VISUALSTYLE
  5
34
102
{ACAD_REACTORS
330
2A
102
}
330
2A
100
AcDbVisualStyle
  2
Conceptual
 70
     9
177
     3
291
     0
 70
    58
 90
        3
176
     1
 90
        2
176
     1
 90
        0
176
     1
 90
        0
176
     1
 40
0.6
176
     1
 40
30.0
176
     1
 62
     7
420
 16777215
176
     1
 90
        2
176
     1
 90
        2
176
     1
 62
     7
176
     1
 62
   257
176
     1
 90
        1
176
     1
 90
        1
176
     1
 40
179.0
176
     1
 90
        8
176
     1
 62
     7
176
     1
 40
1.0
176
     1
 90
        1
176
     1
 90
        6
176
     1
 90
        2
176
     1
 62
     7
176
     1
 90
        3
176
     1
 90
        0
176
     1
 90
        0
176
     1
290
     0
176
     1
 90
        1
176
     1
 40
0.0
176
     1
 90
        0
176
     1
290
     0
176
     1
290
     1
176
     1
290
     1
176
     1
290
     0
176
     1
290
     0
176
     1
290
     0
176
     1
290
     0
176
     1
290
     0
176
     1
290
     0
176
     1
 90
       50
176
     1
 40
0.0
176
     1
 40
1.0
176
     1
 90
        0
176
     1
 62
    18
420
        0
176
     1
 90
       50
176
     1
 90
        3
176
     1
 62
     5
420
      255
176
     1
290
     0
176
     1
 90
       50
176
     1
 90
       50
176
     1
 90
       50
176
     1
290
     0
176
     1
 90
       50
176
     1
 62
   256
176
     0
 40
1.0
176
     0
 90
        2
176
     1
  1
strokes_ogs.tif
176
     1
290
     0
176
     1
 40
1.0
176
     1
 40
1.0
176
     1
  0
VISUALSTYLE
  5
35
102
{ACAD_REACTORS
330
2A
102
}
330
2A
100
AcDbVisualStyle
  2
Dim
 70
    11
177
     3
291
     1
 70
    58
 90
        2
176
     1
 90
        2
176
     1
 90
        0
176
     1
 90
        0
176
     1
 40
0.6
176
     1
 40
30.0
176
     1
 62
     7
420
 16777215
176
     1
 90
        1
176
     1
 90
        4
176
     1
 62
     7
176
     1
 62
   257
176
     1
 90
        1
176
     1
 90
        1
176
     1
 40
1.0
176
     1
 90
        8
176
     1
 62
     7
176
     1
 40
1.0
176
     1
 90
        1
176
     1
 90
        6
176
     1
 90
        2
176
     1
 62
     7
176
     1
 90
        5
176
     1
 90
        0
176
     1
 90
        0
176
     1
290
     0
176
     1
 90
        1
176
     1
 40
-50.0
176
     1
 90
        0
176
     1
290
     0
176
     1
290
     1
176
     1
290
     1
176
     1
290
     0
176
     1
290
     0
176
     1
290
     0
176
     1
290
     0
176
     1
290
     0
176
     1
290
     0
176
     1
 90
       50
176
     1
 40
0.0
176
     1
 40
1.0
176
     1
 90
        0
176
     1
 62
    18
420
        0
176
     1
 90
       50
176
     1
 90
        3
176
     1
 62
     5
420
      255
176
     1
290
     0
176
     1
 90
       50
176
     1
 90
       50
176
     1
 90
       50
176
     1
290
     0
176
     1
 90
       50
176
     1
 62
   256
176
     0
 40
1.0
176
     0
 90
        2
176
     1
  1
strokes_ogs.tif
176
     1
290
     0
176
     1
 40
1.0
176
     1
 40
1.0
176
     1
  0
VISUALSTYLE
  5
3D
102
{ACAD_REACTORS
330
2A
102
}
330
2A
100
AcDbVisualStyle
  2
EdgeColorOff
 70
    22
177
     3
291
     1
 70
    58
 90
        2
176
     0
 90
        2
176
     0
 90
        0
176
     0
 90
        0
176
     0
 40
0.6
176
     0
 40
30.0
176
     0
 62
     7
420
 16777215
176
     0
 90
        1
176
     0
 90
        4
176
     0
 62
     7
176
     0
 62
   257
176
     0
 90
        1
176
     0
 90
        1
176
     0
 40
1.0
176
     0
 90
        8
176
     2
 62
     7
176
     0
 40
1.0
176
     0
 90
        1
176
     0
 90
        6
176
     0
 90
        2
176
     0
 62
     7
176
     0
 90
        5
176
     0
 90
        0
176
     0
 90
        0
176
     0
290
     0
176
     0
 90
        1
176
     0
 40
0.0
176
     0
 90
        0
176
     0
290
     0
176
     0
290
     1
176
     0
290
     1
176
     0
290
     0
176
     0
290
     0
176
     0
290
     0
176
     0
290
     0
176
     0
290
     0
176
     0
290
     0
176
     0
 90
       50
176
     0
 40
0.0
176
     0
 40
1.0
176
     0
 90
        0
176
     0
 62
    18
420
        0
176
     0
 90
       50
176
     0
 90
        3
176
     0
 62
     5
420
      255
176
     0
290
     0
176
     0
 90
       50
176
     0
 90
       50
176
     0
 90
       50
176
     0
290
     0
176
     0
 90
       50
176
     0
 62
   256
176
     0
 40
1.0
176
     0
 90
        2
176
     0
  1
strokes_ogs.tif
176
     0
290
     0
176
     0
 40
1.0
176
     0
 40
1.0
176
     0
  0
VISUALSTYLE
  5
39
102
{ACAD_REACTORS
330
2A
102
}
330
2A
100
AcDbVisualStyle
  2
Facepattern
 70
    15
177
     3
291
     1
 70
    58
 90
        2
176
     1
 90
        2
176
     1
 90
        0
176
     1
 90
        0
176
     1
 40
0.6
176
     1
 40
30.0
176
     1
 62
     7
420
 16777215
176
     1
 90
        1
176
     1
 90
        4
176
     1
 62
     7
176
     1
 62
   257
176
     1
 90
        1
176
     1
 90
        1
176
     1
 40
1.0
176
     1
 90
        8
176
     1
 62
     7
176
     1
 40
1.0
176
     1
 90
        1
176
     1
 90
        6
176
     1
 90
        2
176
     1
 62
     7
176
     1
 90
        5
176
     1
 90
        0
176
     1
 90
        0
176
     1
290
     0
176
     1
 90
        1
176
     1
 40
0.0
176
     1
 90
        0
176
     1
290
     0
176
     1
290
     1
176
     1
290
     1
176
     1
290
     0
176
     1
290
     0
176
     1
290
     0
176
     1
290
     0
176
     1
290
     0
176
     1
290
     0
176
     1
 90
       50
176
     1
 40
0.0
176
     1
 40
1.0
176
     1
 90
        0
176
     1
 62
    18
420
        0
176
     1
 90
       50
176
     1
 90
        3
176
     1
 62
     5
420
      255
176
     1
290
     0
176
     1
 90
       50
176
     1
 90
       50
176
     1
 90
       50
176
     1
290
     0
176
     1
 90
       50
176
     1
 62
   256
176
     0
 40
1.0
176
     0
 90
        2
176
     1
  1
strokes_ogs.tif
176
     1
290
     0
176
     1
 40
1.0
176
     1
 40
1.0
176
     1
  0
VISUALSTYLE
  5
2B
102
{ACAD_REACTORS
330
2A
102
}
330
2A
100
AcDbVisualStyle
  2
Flat
 70
     0
177
     3
291
     1
 70
    58
 90
        2
176
     1
 90
        1
176
     1
 90
        1
176
     1
 90
        2
176
     1
 40
0.6
176
     1
 40
30.0
176
     1
 62
     7
420
 16777215
176
     1
 90
        0
176
     1
 90
        0
176
     1
 62
     7
176
     1
 62
   257
176
     1
 90
        1
176
     1
 90
        1
176
     1
 40
1.0
176
     1
 90
        8
176
     1
 62
     7
176
     1
 40
1.0
176
     1
 90
        1
176
     1
 90
        6
176
     1
 90
        2
176
     1
 62
     7
176
     1
 90
        5
176
     1
 90
        0
176
     1
 90
        0
176
     1
290
     0
176
     1
 90
       13
176
     1
 40
0.0
176
     1
 90
        0
176
     1
290
     0
176
     1
290
     1
176
     1
290
     1
176
     1
290
     0
176
     1
290
     0
176
     1
290
     0
176
     1
290
     0
176
     1
290
     0
176
     1
290
     0
176
     1
 90
       50
176
     1
 40
0.0
176
     1
 40
1.0
176
     1
 90
        0
176
     1
 62
    18
420
        0
176
     1
 90
       50
176
     1
 90
        3
176
     1
 62
     5
420
      255
176
     1
290
     0
176
     1
 90
       50
176
     1
 90
       50
176
     1
 90
       50
176
     1
290
     0
176
     1
 90
       50
176
     1
 62
   256
176
     0
 40
1.0
176
     0
 90
        2
176
     1
  1
strokes_ogs.tif
176
     1
290
     0
176
     1
 40
1.0
176
     1
 40
1.0
176
     1
  0
VISUALSTYLE
  5
2C
102
{ACAD_REACTORS
330
2A
102
}
330
2A
100
AcDbVisualStyle
  2
FlatWithEdges
 70
     1
177
     3
291
     1
 70
    58
 90
        2
176
     1
 90
        1
176
     1
 90
        1
176
     1
 90
        2
176
     1
 40
0.6
176
     1
 40
30.0
176
     1
 62
     7
420
 16777215
176
     1
 90
        1
176
     1
 90
        0
176
     1
 62
     7
176
     1
 62
   257
176
     1
 90
        1
176
     1
 90
        1
176
     1
 40
1.0
176
     1
 90
        0
176
     1
 62
   257
176
     1
 40
1.0
176
     1
 90
        1
176
     1
 90
        6
176
     1
 90
        2
176
     1
 62
     7
176
     1
 90
        5
176
     1
 90
        0
176
     1
 90
        0
176
     1
290
     0
176
     1
 90
       13
176
     1
 40
0.0
176
     1
 90
        0
176
     1
290
     0
176
     1
290
     1
176
     1
290
     1
176
     1
290
     0
176
     1
290
     0
176
     1
290
     0
176
     1
290
     0
176
     1
290
     0
176
     1
290
     0
176
     1
 90
       50
176
     1
 40
0.0
176
     1
 40
1.0
176
     1
 90
        0
176
     1
 62
    18
420
        0
176
     1
 90
       50
176
     1
 90
        3
176
     1
 62
     5
420
      255
176
     1
290
     0
176
     1
 90
       50
176
     1
 90
       50
176
     1
 90
       50
176
     1
290
     0
176
     1
 90
       50
176
     1
 62
   256
176
     0
 40
1.0
176
     0
 90
        2
176
     1
  1
strokes_ogs.tif
176
     1
290
     0
176
     1
 40
1.0
176
     1
 40
1.0
176
     1
  0
VISUALSTYLE
  5
2D
102
{ACAD_REACTORS
330
2A
102
}
330
2A
100
AcDbVisualStyle
  2
Gouraud
 70
     2
177
     3
291
     1
 70
    58
 90
        2
176
     1
 90
        2
176
     1
 90
        1
176
     1
 90
        2
176
     1
 40
0.6
176
     1
 40
30.0
176
     1
 62
     7
420
 16777215
176
     1
 90
        0
176
     1
 90
        0
176
     1
 62
     7
176
     1
 62
   257
176
     1
 90
        1
176
     1
 90
        1
176
     1
 40
1.0
176
     1
 90
        0
176
     1
 62
     7
176
     1
 40
1.0
176
     1
 90
        1
176
     1
 90
        6
176
     1
 90
        2
176
     1
 62
     7
176
     1
 90
        5
176
     1
 90
        0
176
     1
 90
        0
176
     1
290
     0
176
     1
 90
       13
176
     1
 40
0.0
176
     1
 90
        0
176
     1
290
     0
176
     1
290
     1
176
     1
290
     1
176
     1
290
     0
176
     1
290
     0
176
     1
290
     0
176
     1
290
     0
176
     1
290
     0
176
     1
290
     0
176
     1
 90
       50
176
     1
 40
0.0
176
     1
 40
1.0
176
     1
 90
        0
176
     1
 62
    18
420
        0
176
     1
 90
       50
176
     1
 90
        3
176
     1
 62
     5
420
      255
176
     1
290
     0
176
     1
 90
       50
176
     1
 90
       50
176
     1
 90
       50
176
     1
290
     0
176
     1
 90
       50
176
     1
 62
   256
176
     0
 40
1.0
176
     0
 90
        2
176
     1
  1
strokes_ogs.tif
176
     1
290
     0
176
     1
 40
1.0
176
     1
 40
1.0
176
     1
  0
VISUALSTYLE
  5
2E
102
{ACAD_REACTORS
330
2A
102
}
330
2A
100
AcDbVisualStyle
  2
GouraudWithEdges
 70
     3
177
     3
291
     1
 70
    58
 90
        2
176
     1
 90
        2
176
     1
 90
        1
176
     1
 90
        2
176
     1
 40
0.6
176
     1
 40
30.0
176
     1
 62
     7
420
 16777215
176
     1
 90
        1
176
     1
 90
        0
176
     1
 62
     7
176
     1
 62
   257
176
     1
 90
        1
176
     1
 90
        1
176
     1
 40
1.0
176
     1
 90
        0
176
     1
 62
   257
176
     1
 40
1.0
176
     1
 90
        1
176
     1
 90
        6
176
     1
 90
        2
176
     1
 62
     7
176
     1
 90
        5
176
     1
 90
        0
176
     1
 90
        0
176
     1
290
     0
176
     1
 90
       13
176
     1
 40
0.0
176
     1
 90
        0
176
     1
290
     0
176
     1
290
     1
176
     1
290
     1
176
     1
290
     0
176
     1
290
     0
176
     1
290
     0
176
     1
290
     0
176
     1
290
     0
176
     1
290
     0
176
     1
 90
       50
176
     1
 40
0.0
176
     1
 40
1.0
176
     1
 90
        0
176
     1
 62
    18
420
        0
176
     1
 90
       50
176
     1
 90
        3
176
     1
 62
     5
420
      255
176
     1
290
     0
176
     1
 90
       50
176
     1
 90
       50
176
     1
 90
       50
176
     1
290
     0
176
     1
 90
       50
176
     1
 62
   256
176
     0
 40
1.0
176
     0
 90
        2
176
     1
  1
strokes_ogs.tif
176
     1
290
     0
176
     1
 40
1.0
176
     1
 40
1.0
176
     1
  0
VISUALSTYLE
  5
31
102
{ACAD_REACTORS
330
2A
102
}
330
2A
100
AcDbVisualStyle
  2
Hidden
 70
     6
177
     3
291
     0
 70
    58
 90
        1
176
     1
 90
        2
176
     1
 90
        2
176
     1
 90
        0
176
     1
 40
0.6
176
     1
 40
30.0
176
     1
 62
     7
420
 16777215
176
     1
 90
        2
176
     1
 90
        2
176
     1
 62
     7
176
     1
 62
   257
176
     1
 90
        2
176
     1
 90
        1
176
     1
 40
40.0
176
     1
 90
        0
176
     1
 62
   257
176
     1
 40
1.0
176
     1
 90
        1
176
     1
 90
        6
176
     1
 90
        2
176
     1
 62
     7
176
     1
 90
        3
176
     1
 90
        0
176
     1
 90
        0
176
     1
290
     0
176
     1
 90
        1
176
     1
 40
0.0
176
     1
 90
        0
176
     1
290
     0
176
     1
290
     1
176
     1
290
     1
176
     1
290
     0
176
     1
290
     0
176
     1
290
     0
176
     1
290
     0
176
     1
290
     0
176
     1
290
     0
176
     1
 90
       50
176
     1
 40
0.0
176
     1
 40
1.0
176
     1
 90
        0
176
     1
 62
    18
420
        0
176
     1
 90
       50
176
     1
 90
        3
176
     1
 62
     5
420
      255
176
     1
290
     0
176
     1
 90
       50
176
     1
 90
       50
176
     1
 90
       50
176
     1
290
     0
176
     1
 90
       50
176
     1
 62
   256
176
     0
 40
1.0
176
     0
 90
        2
176
     1
  1
strokes_ogs.tif
176
     1
290
     0
176
     1
 40
1.0
176
     1
 40
1.0
176
     1
  0
VISUALSTYLE
  5
3B
102
{ACAD_REACTORS
330
2A
102
}
330
2A
100
AcDbVisualStyle
  2
JitterOff
 70
    20
177
     3
291
     1
 70
    58
 90
        2
176
     0
 90
        2
176
     0
 90
        0
176
     0
 90
        0
176
     0
 40
0.6
176
     0
 40
30.0
176
     0
 62
     7
420
 16777215
176
     0
 90
        1
176
     0
 90
        4
176
     0
 62
     7
176
     0
 62
   257
176
     0
 90
        1
176
     0
 90
        1
176
     0
 40
1.0
176
     0
 90
       10
176
     2
 62
     7
176
     0
 40
1.0
176
     0
 90
        1
176
     0
 90
        6
176
     0
 90
        2
176
     0
 62
     7
176
     0
 90
        5
176
     0
 90
        0
176
     0
 90
        0
176
     0
290
     0
176
     0
 90
        1
176
     0
 40
0.0
176
     0
 90
        0
176
     0
290
     0
176
     0
290
     1
176
     0
290
     1
176
     0
290
     0
176
     0
290
     0
176
     0
290
     0
176
     0
290
     0
176
     0
290
     0
176
     0
290
     0
176
     0
 90
       50
176
     0
 40
0.0
176
     0
 40
1.0
176
     0
 90
        0
176
     0
 62
    18
420
        0
176
     0
 90
       50
176
     0
 90
        3
176
     0
 62
     5
420
      255
176
     0
290
     0
176
     0
 90
       50
176
     0
 90
       50
176
     0
 90
       50
176
     0
290
     0
176
     0
 90
       50
176
     0
 62
   256
176
     0
 40
1.0
176
     0
 90
        2
176
     0
  1
strokes_ogs.tif
176
     0
290
     0
176
     0
 40
1.0
176
     0
 40
1.0
176
     0
  0
VISUALSTYLE
  5
38
102
{ACAD_REACTORS
330
2A
102
}
330
2A
100
AcDbVisualStyle
  2
Linepattern
 70
    14
177
     3
291
     1
 70
    58
 90
        2
176
     1
 90
        2
176
     1
 90
        0
176
     1
 90
        0
176
     1
 40
0.6
176
     1
 40
30.0
176
     1
 62
     7
420
 16777215
176
     1
 90
        1
176
     1
 90
        4
176
     1
 62
     7
176
     1
 62
   257
176
     1
 90
        7
176
     1
 90
        7
176
     1
 40
1.0
176
     1
 90
        8
176
     1
 62
     7
176
     1
 40
1.0
176
     1
 90
        1
176
     1
 90
        6
176
     1
 90
        2
176
     1
 62
     7
176
     1
 90
        5
176
     1
 90
        0
176
     1
 90
        0
176
     1
290
     0
176
     1
 90
        1
176
     1
 40
0.0
176
     1
 90
        0
176
     1
290
     0
176
     1
290
     1
176
     1
290
     1
176
     1
290
     0
176
     1
290
     0
176
     1
290
     0
176
     1
290
     0
176
     1
290
     0
176
     1
290
     0
176
     1
 90
       50
176
     1
 40
0.0
176
     1
 40
1.0
176
     1
 90
        0
176
     1
 62
    18
420
        0
176
     1
 90
       50
176
     1
 90
        3
176
     1
 62
     5
420
      255
176
     1
290
     0
176
     1
 90
       50
176
     1
 90
       50
176
     1
 90
       50
176
     1
290
     0
176
     1
 90
       50
176
     1
 62
   256
176
     0
 40
1.0
176
     0
 90
        2
176
     1
  1
strokes_ogs.tif
176
     1
290
     0
176
     1
 40
1.0
176
     1
 40
1.0
176
     1
  0
VISUALSTYLE
  5
3C
102
{ACAD_REACTORS
330
2A
102
}
330
2A
100
AcDbVisualStyle
  2
OverhangOff
 70
    21
177
     3
291
     1
 70
    58
 90
        2
176
     0
 90
        2
176
     0
 90
        0
176
     0
 90
        0
176
     0
 40
0.6
176
     0
 40
30.0
176
     0
 62
     7
420
 16777215
176
     0
 90
        1
176
     0
 90
        4
176
     0
 62
     7
176
     0
 62
   257
176
     0
 90
        1
176
     0
 90
        1
176
     0
 40
1.0
176
     0
 90
        9
176
     2
 62
     7
176
     0
 40
1.0
176
     0
 90
        1
176
     0
 90
        6
176
     0
 90
        2
176
     0
 62
     7
176
     0
 90
        5
176
     0
 90
        0
176
     0
 90
        0
176
     0
290
     0
176
     0
 90
        1
176
     0
 40
0.0
176
     0
 90
        0
176
     0
290
     0
176
     0
290
     1
176
     0
290
     1
176
     0
290
     0
176
     0
290
     0
176
     0
290
     0
176
     0
290
     0
176
     0
290
     0
176
     0
290
     0
176
     0
 90
       50
176
     0
 40
0.0
176
     0
 40
1.0
176
     0
 90
        0
176
     0
 62
    18
420
        0
176
     0
 90
       50
176
     0
 90
        3
176
     0
 62
     5
420
      255
176
     0
290
     0
176
     0
 90
       50
176
     0
 90
       50
176
     0
 90
       50
176
     0
290
     0
176
     0
 90
       50
176
     0
 62
   256
176
     0
 40
1.0
176
     0
 90
        2
176
     0
  1
strokes_ogs.tif
176
     0
290
     0
176
     0
 40
1.0
176
     0
 40
1.0
176
     0
  0
VISUALSTYLE
  5
33
102
{ACAD_REACTORS
330
2A
102
}
330
2A
100
AcDbVisualStyle
  2
Realistic
 70
     8
177
     3
291
     0
 70
    58
 90
        2
176
     1
 90
        3
176
     1
 90
        0
176
     1
 90
        2
176
     1
 40
0.6
176
     1
 40
30.0
176
     1
 62
     7
420
 16777215
176
     1
 90
        0
176
     1
 90
        0
176
     1
 62
     7
176
     1
 62
   257
176
     1
 90
        1
176
     1
 90
        1
176
     1
 40
1.0
176
     1
 90
        8
176
     1
 62
   257
176
     1
 40
1.0
176
     1
 90
        1
176
     1
 90
        6
176
     1
 90
        2
176
     1
 62
     7
176
     1
 90
        3
176
     1
 90
        0
176
     1
 90
        0
176
     1
290
     0
176
     1
 90
       13
176
     1
 40
0.0
176
     1
 90
        0
176
     1
290
     0
176
     1
290
     1
176
     1
290
     1
176
     1
290
     0
176
     1
290
     0
176
     1
290
     0
176
     1
290
     0
176
     1
290
     0
176
     1
290
     0
176
     1
 90
       50
176
     1
 40
0.0
176
     1
 40
1.0
176
     1
 90
        0
176
     1
 62
    18
420
        0
176
     1
 90
       50
176
     1
 90
        3
176
     1
 62
     5
420
      255
176
     1
290
     0
176
     1
 90
       50
176
     1
 90
       50
176
     1
 90
       50
176
     1
290
     0
176
     1
 90
       50
176
     1
 62
   256
176
     0
 40
1.0
176
     0
 90
        2
176
     1
  1
strokes_ogs.tif
176
     1
290
     0
176
     1
 40
1.0
176
     1
 40
1.0
176
     1
  0
VISUALSTYLE
  5
42
102
{ACAD_REACTORS
330
2A
102
}
330
2A
100
AcDbVisualStyle
  2
Shaded
 70
    27
177
     3
291
     0
 70
    58
 90
        2
176
     1
 90
        2
176
     1
 90
        1
176
     1
 90
        2
176
     1
 40
0.6
176
     1
 40
30.0
176
     1
 62
     7
420
 16777215
176
     1
 90
        0
176
     1
 90
        4
176
     1
 62
     7
176
     1
 62
   257
176
     1
 90
        1
176
     1
 90
        1
176
     1
 40
1.0
176
     1
 90
        8
176
     1
 62
   257
176
     1
 40
1.0
176
     1
 90
        1
176
     1
 90
        6
176
     1
 90
        2
176
     1
 62
     8
420
  7895160
176
     1
 90
        3
176
     1
 90
        0
176
     1
 90
        0
176
     1
290
     0
176
     1
 90
        5
176
     1
 40
0.0
176
     1
 90
        0
176
     1
290
     0
176
     1
290
     1
176
     1
290
     1
176
     1
290
     0
176
     1
290
     0
176
     1
290
     0
176
     1
290
     0
176
     1
290
     0
176
     1
290
     0
176
     1
 90
       50
176
     1
 40
0.0
176
     1
 40
1.0
176
     1
 90
        0
176
     1
 62
    18
420
        0
176
     1
 90
       50
176
     1
 90
        3
176
     1
 62
     5
420
      255
176
     1
290
     0
176
     1
 90
       50
176
     1
 90
       50
176
     1
 90
       50
176
     1
290
     0
176
     1
 90
       50
176
     1
 62
   256
176
     0
 40
1.0
176
     0
 90
        2
176
     1
  1
strokes_ogs.tif
176
     1
290
     0
176
     1
 40
1.0
176
     1
 40
1.0
176
     1
  0
VISUALSTYLE
  5
41
102
{ACAD_REACTORS
330
2A
102
}
330
2A
100
AcDbVisualStyle
  2
Shaded with edges
 70
    26
177
     3
291
     0
 70
    58
 90
        2
176
     1
 90
        2
176
     1
 90
        1
176
     1
 90
        2
176
     1
 40
0.6
176
     1
 40
30.0
176
     1
 62
     7
420
 16777215
176
     1
 90
        1
176
     1
 90
       10
176
     1
 62
     7
176
     1
 62
   257
176
     1
 90
        2
176
     1
 90
        1
176
     1
 40
1.0
176
     1
 90
        8
176
     1
 62
   257
176
     1
 40
1.0
176
     1
 90
        1
176
     1
 90
        6
176
     1
 90
        2
176
     1
 62
     7
176
     1
 90
        3
176
     1
 90
        0
176
     1
 90
        0
176
     1
290
     0
176
     1
 90
        5
176
     1
 40
0.0
176
     1
 90
        0
176
     1
290
     0
176
     1
290
     1
176
     1
290
     1
176
     1
290
     0
176
     1
290
     0
176
     1
290
     0
176
     1
290
     0
176
     1
290
     0
176
     1
290
     0
176
     1
 90
       50
176
     1
 40
0.0
176
     1
 40
1.0
176
     1
 90
        0
176
     1
 62
    18
420
        0
176
     1
 90
       50
176
     1
 90
        3
176
     1
 62
     5
420
      255
176
     1
290
     0
176
     1
 90
       50
176
     1
 90
       50
176
     1
 90
       50
176
     1
290
     0
176
     1
 90
       50
176
     1
 62
   256
176
     0
 40
1.0
176
     0
 90
        2
176
     1
  1
strokes_ogs.tif
176
     1
290
     0
176
     1
 40
1.0
176
     1
 40
1.0
176
     1
  0
VISUALSTYLE
  5
3E
102
{ACAD_REACTORS
330
2A
102
}
330
2A
100
AcDbVisualStyle
  2
Shades of Gray
 70
    23
177
     3
291
     0
 70
    58
 90
        2
176
     1
 90
        2
176
     1
 90
        3
176
     1
 90
        0
176
     1
 40
0.6
176
     1
 40
30.0
176
     1
 62
     7
420
 16777215
176
     1
 90
        2
176
     1
 90
        2
176
     1
 62
     7
176
     1
 62
     7
176
     1
 90
        1
176
     1
 90
        1
176
     1
 40
40.0
176
     1
 90
        8
176
     1
 62
     7
176
     1
 40
1.0
176
     1
 90
        1
176
     1
 90
        6
176
     1
 90
        2
176
     1
 62
     7
176
     1
 90
        3
176
     1
 90
        0
176
     1
 90
        0
176
     1
290
     0
176
     1
 90
        1
176
     1
 40
0.0
176
     1
 90
        0
176
     1
290
     0
176
     1
290
     1
176
     1
290
     1
176
     1
290
     0
176
     1
290
     0
176
     1
290
     0
176
     1
290
     0
176
     1
290
     0
176
     1
290
     0
176
     1
 90
       50
176
     1
 40
0.0
176
     1
 40
1.0
176
     1
 90
        0
176
     1
 62
    18
420
        0
176
     1
 90
       50
176
     1
 90
        3
176
     1
 62
     5
420
      255
176
     1
290
     0
176
     1
 90
       50
176
     1
 90
       50
176
     1
 90
       50
176
     1
290
     0
176
     1
 90
       50
176
     1
 62
   256
176
     0
 40
1.0
176
     0
 90
        2
176
     1
  1
strokes_ogs.tif
176
     1
290
     0
176
     1
 40
1.0
176
     1
 40
1.0
176
     1
  0
VISUALSTYLE
  5
3F
102
{ACAD_REACTORS
330
2A
102
}
330
2A
100
AcDbVisualStyle
  2
Sketchy
 70
    24
177
     3
291
     0
 70
    58
 90
        1
176
     1
 90
        2
176
     1
 90
        2
176
     1
 90
        0
176
     1
 40
0.6
176
     1
 40
30.0
176
     1
 62
     7
420
 16777215
176
     1
 90
        2
176
     1
 90
        2
176
     1
 62
     7
176
     1
 62
     7
176
     1
 90
        1
176
     1
 90
        1
176
     1
 40
40.0
176
     1
 90
       11
176
     1
 62
     7
176
     1
 40
1.0
176
     1
 90
        1
176
     1
 90
        6
176
     1
 90
        2
176
     1
 62
     7
176
     1
 90
        6
176
     1
 90
        0
176
     1
 90
        0
176
     1
290
     0
176
     1
 90
        1
176
     1
 40
0.0
176
     1
 90
        0
176
     1
290
     0
176
     1
290
     1
176
     1
290
     1
176
     1
290
     0
176
     1
290
     0
176
     1
290
     0
176
     1
290
     0
176
     1
290
     0
176
     1
290
     0
176
     1
 90
       50
176
     1
 40
0.0
176
     1
 40
1.0
176
     1
 90
        0
176
     1
 62
    18
420
        0
176
     1
 90
       50
176
     1
 90
        3
176
     1
 62
     5
420
      255
176
     1
290
     0
176
     1
 90
       50
176
     1
 90
       50
176
     1
 90
       50
176
     1
290
     0
176
     1
 90
       50
176
     1
 62
   256
176
     0
 40
1.0
176
     0
 90
        2
176
     1
  1
strokes_ogs.tif
176
     1
290
     0
176
     1
 40
1.0
176
     1
 40
1.0
176
     1
  0
VISUALSTYLE
  5
37
102
{ACAD_REACTORS
330
2A
102
}
330
2A
100
AcDbVisualStyle
  2
Thicken
 70
    13
177
     3
291
     1
 70
    58
 90
        2
176
     1
 90
        2
176
     1
 90
        0
176
     1
 90
        0
176
     1
 40
0.6
176
     1
 40
30.0
176
     1
 62
     7
420
 16777215
176
     1
 90
        1
176
     1
 90
        4
176
     1
 62
     7
176
     1
 62
   257
176
     1
 90
        1
176
     1
 90
        1
176
     1
 40
1.0
176
     1
 90
       12
176
     1
 62
     7
176
     1
 40
1.0
176
     1
 90
        1
176
     1
 90
        6
176
     1
 90
        2
176
     1
 62
     7
176
     1
 90
        5
176
     1
 90
        0
176
     1
 90
        0
176
     1
290
     0
176
     1
 90
        1
176
     1
 40
0.0
176
     1
 90
        0
176
     1
290
     0
176
     1
290
     1
176
     1
290
     1
176
     1
290
     0
176
     1
290
     0
176
     1
290
     0
176
     1
290
     0
176
     1
290
     0
176
     1
290
     0
176
     1
 90
       50
176
     1
 40
0.0
176
     1
 40
1.0
176
     1
 90
        0
176
     1
 62
    18
420
        0
176
     1
 90
       50
176
     1
 90
        3
176
     1
 62
     5
420
      255
176
     1
290
     0
176
     1
 90
       50
176
     1
 90
       50
176
     1
 90
       50
176
     1
290
     0
176
     1
 90
       50
176
     1
 62
   256
176
     0
 40
1.0
176
     0
 90
        2
176
     1
  1
strokes_ogs.tif
176
     1
290
     0
176
     1
 40
1.0
176
     1
 40
1.0
176
     1
  0
VISUALSTYLE
  5
30
102
{ACAD_REACTORS
330
2A
102
}
330
2A
100
AcDbVisualStyle
  2
Wireframe
 70
     5
177
     3
291
     0
 70
    58
 90
        0
176
     1
 90
        2
176
     1
 90
        0
176
     1
 90
        0
176
     1
 40
0.6
176
     1
 40
30.0
176
     1
 62
     7
420
 16777215
176
     1
 90
        1
176
     1
 90
        4
176
     1
 62
     7
176
     1
 62
   257
176
     1
 90
        1
176
     1
 90
        1
176
     1
 40
1.0
176
     1
 90
        0
176
     1
 62
   257
176
     1
 40
1.0
176
     1
 90
        1
176
     1
 90
        6
176
     1
 90
        2
176
     1
 62
     7
176
     1
 90
        3
176
     1
 90
        0
176
     1
 90
        0
176
     1
290
     0
176
     1
 90
        1
176
     1
 40
0.0
176
     1
 90
        0
176
     1
290
     0
176
     1
290
     1
176
     1
290
     1
176
     1
290
     0
176
     1
290
     0
176
     1
290
     0
176
     1
290
     0
176
     1
290
     0
176
     1
290
     0
176
     1
 90
       50
176
     1
 40
0.0
176
     1
 40
1.0
176
     1
 90
        0
176
     1
 62
    18
420
        0
176
     1
 90
       50
176
     1
 90
        3
176
     1
 62
     5
420
      255
176
     1
290
     0
176
     1
 90
       50
176
     1
 90
       50
176
     1
 90
       50
176
     1
290
     0
176
     1
 90
       50
176
     1
 62
   256
176
     0
 40
1.0
176
     0
 90
        2
176
     1
  1
strokes_ogs.tif
176
     1
290
     0
176
     1
 40
1.0
176
     1
 40
1.0
176
     1
  0
VISUALSTYLE
  5
40
102
{ACAD_REACTORS
330
2A
102
}
330
2A
100
AcDbVisualStyle
  2
X-Ray
 70
    25
177
     3
291
     0
 70
    58
 90
        2
176
     1
 90
        2
176
     1
 90
        1
176
     1
 90
        1
176
     1
 40
0.5
176
     1
 40
30.0
176
     1
 62
     7
420
 16777215
176
     1
 90
        1
176
     1
 90
        0
176
     1
 62
     7
176
     1
 62
   257
176
     1
 90
        1
176
     1
 90
        1
176
     1
 40
1.0
176
     1
 90
        8
176
     1
 62
     7
176
     1
 40
1.0
176
     1
 90
        1
176
     1
 90
        6
176
     1
 90
        2
176
     1
 62
     7
176
     1
 90
        3
176
     1
 90
        0
176
     1
 90
        0
176
     1
290
     0
176
     1
 90
       13
176
     1
 40
0.0
176
     1
 90
        0
176
     1
290
     0
176
     1
290
     1
176
     1
290
     1
176
     1
290
     0
176
     1
290
     0
176
     1
290
     0
176
     1
290
     0
176
     1
290
     0
176
     1
290
     0
176
     1
 90
       50
176
     1
 40
0.0
176
     1
 40
1.0
176
     1
 90
        0
176
     1
 62
    18
420
        0
176
     1
 90
       50
176
     1
 90
        3
176
     1
 62
     5
420
      255
176
     1
290
     0
176
     1
 90
       50
176
     1
 90
       50
176
     1
 90
       50
176
     1
290
     0
176
     1
 90
       50
176
     1
 62
   256
176
     0
 40
1.0
176
     0
 90
        2
176
     1
  1
strokes_ogs.tif
176
     1
290
     0
176
     1
 40
1.0
176
     1
 40
1.0
176
     1
  0
DICTIONARYVAR
  5
1DA
102
{ACAD_REACTORS
330
1D9
102
}
330
1D9
100
DictionaryVariables
280
     0
  1
1:1
  0
DICTIONARYVAR
  5
1DF
102
{ACAD_REACTORS
330
1D9
102
}
330
1D9
100
DictionaryVariables
280
     0
  1
Standard
  0
DICTIONARYVAR
  5
1DE
102
{ACAD_REACTORS
330
1D9
102
}
330
1D9
100
DictionaryVariables
280
     0
  1
Standard
  0
DICTIONARY
  5
1DB
330
6A
100
AcDbDictionary
280
     1
281
     1
  3
ACAD_ROUNDTRIP_2008_TABLESTYLE_CELLSTYLEMAP
360
1DC
  0
CELLSTYLEMAP
  5
1DC
102
{ACAD_REACTORS
330
1DB
102
}
330
1DB
100
AcDbCellStyleMap
 90
        3
300
CELLSTYLE
  1
TABLEFORMAT_BEGIN
 90
        5
170
     1
 91
        0
 92
    32768
 62
   257
 93
        1
300
CONTENTFORMAT
  1
CONTENTFORMAT_BEGIN
 90
        0
 91
        0
 92
        4
 93
        0
300

 40
0.0
140
1.0
 94
        5
 62
     0
340
11
144
0.25
309
CONTENTFORMAT_END
171
     1
301
MARGIN
  1
CELLMARGIN_BEGIN
 40
0.06
 40
0.06
 40
0.06
 40
0.06
 40
0.06
 40
0.06
309
CELLMARGIN_END
 94
        6
 95
        1
302
GRIDFORMAT
  1
GRIDFORMAT_BEGIN
 90
        0
 91
        1
 62
     0
 92
       -2
340
14
 93
        0
 40
0.045
309
GRIDFORMAT_END
 95
        2
302
GRIDFORMAT
  1
GRIDFORMAT_BEGIN
 90
        0
 91
        1
 62
     0
 92
       -2
340
14
 93
        0
 40
0.045
309
GRIDFORMAT_END
 95
        4
302
GRIDFORMAT
  1
GRIDFORMAT_BEGIN
 90
        0
 91
        1
 62
     0
 92
       -2
340
14
 93
        0
 40
0.045
309
GRIDFORMAT_END
 95
        8
302
GRIDFORMAT
  1
GRIDFORMAT_BEGIN
 90
        0
 91
        1
 62
     0
 92
       -2
340
14
 93
        0
 40
0.045
309
GRIDFORMAT_END
 95
       16
302
GRIDFORMAT
  1
GRIDFORMAT_BEGIN
 90
        0
 91
        1
 62
     0
 92
       -2
340
14
 93
        0
 40
0.045
309
GRIDFORMAT_END
 95
       32
302
GRIDFORMAT
  1
GRIDFORMAT_BEGIN
 90
        0
 91
        1
 62
     0
 92
       -2
340
14
 93
        0
 40
0.045
309
GRIDFORMAT_END
309
TABLEFORMAT_END
  1
CELLSTYLE_BEGIN
 90
        1
 91
        1
300
_TITLE
309
CELLSTYLE_END
300
CELLSTYLE
  1
TABLEFORMAT_BEGIN
 90
        5
170
     1
 91
        0
 92
        0
 62
   257
 93
        1
300
CONTENTFORMAT
  1
CONTENTFORMAT_BEGIN
 90
        0
 91
        0
 92
        4
 93
        0
300

 40
0.0
140
1.0
 94
        5
 62
     0
340
11
144
0.18
309
CONTENTFORMAT_END
171
     1
301
MARGIN
  1
CELLMARGIN_BEGIN
 40
0.06
 40
0.06
 40
0.06
 40
0.06
 40
0.06
 40
0.06
309
CELLMARGIN_END
 94
        6
 95
        1
302
GRIDFORMAT
  1
GRIDFORMAT_BEGIN
 90
        0
 91
        1
 62
     0
 92
       -2
340
14
 93
        0
 40
0.045
309
GRIDFORMAT_END
 95
        2
302
GRIDFORMAT
  1
GRIDFORMAT_BEGIN
 90
        0
 91
        1
 62
     0
 92
       -2
340
14
 93
        0
 40
0.045
309
GRIDFORMAT_END
 95
        4
302
GRIDFORMAT
  1
GRIDFORMAT_BEGIN
 90
        0
 91
        1
 62
     0
 92
       -2
340
14
 93
        0
 40
0.045
309
GRIDFORMAT_END
 95
        8
302
GRIDFORMAT
  1
GRIDFORMAT_BEGIN
 90
        0
 91
        1
 62
     0
 92
       -2
340
14
 93
        0
 40
0.045
309
GRIDFORMAT_END
 95
       16
302
GRIDFORMAT
  1
GRIDFORMAT_BEGIN
 90
        0
 91
        1
 62
     0
 92
       -2
340
14
 93
        0
 40
0.045
309
GRIDFORMAT_END
 95
       32
302
GRIDFORMAT
  1
GRIDFORMAT_BEGIN
 90
        0
 91
        1
 62
     0
 92
       -2
340
14
 93
        0
 40
0.045
309
GRIDFORMAT_END
309
TABLEFORMAT_END
  1
CELLSTYLE_BEGIN
 90
        2
 91
        1
300
_HEADER
309
CELLSTYLE_END
300
CELLSTYLE
  1
TABLEFORMAT_BEGIN
 90
        5
170
     1
 91
        0
 92
        0
 62
   257
 93
        1
300
CONTENTFORMAT
  1
CONTENTFORMAT_BEGIN
 90
        0
 91
        0
 92
        4
 93
        0
300

 40
0.0
140
1.0
 94
        2
 62
     0
340
11
144
0.18
309
CONTENTFORMAT_END
171
     1
301
MARGIN
  1
CELLMARGIN_BEGIN
 40
0.06
 40
0.06
 40
0.06
 40
0.06
 40
0.06
 40
0.06
309
CELLMARGIN_END
 94
        6
 95
        1
302
GRIDFORMAT
  1
GRIDFORMAT_BEGIN
 90
        0
 91
        1
 62
     0
 92
       -2
340
14
 93
        0
 40
0.045
309
GRIDFORMAT_END
 95
        2
302
GRIDFORMAT
  1
GRIDFORMAT_BEGIN
 90
        0
 91
        1
 62
     0
 92
       -2
340
14
 93
        0
 40
0.045
309
GRIDFORMAT_END
 95
        4
302
GRIDFORMAT
  1
GRIDFORMAT_BEGIN
 90
        0
 91
        1
 62
     0
 92
       -2
340
14
 93
        0
 40
0.045
309
GRIDFORMAT_END
 95
        8
302
GRIDFORMAT
  1
GRIDFORMAT_BEGIN
 90
        0
 91
        1
 62
     0
 92
       -2
340
14
 93
        0
 40
0.045
309
GRIDFORMAT_END
 95
       16
302
GRIDFORMAT
  1
GRIDFORMAT_BEGIN
 90
        0
 91
        1
 62
     0
 92
       -2
340
14
 93
        0
 40
0.045
309
GRIDFORMAT_END
 95
       32
302
GRIDFORMAT
  1
GRIDFORMAT_BEGIN
 90
        0
 91
        1
 62
     0
 92
       -2
340
14
 93
        0
 40
0.045
309
GRIDFORMAT_END
309
TABLEFORMAT_END
  1
CELLSTYLE_BEGIN
 90
        3
 91
        2
300
_DATA
309
CELLSTYLE_END
  0
ENDSEC
  0
EOF