0
SECTION
  2
HEADER
  9
$ACADVER
  1
AC1027
  9
$ACADMAINTVER
 70
     8
  9
$DWGCODEPAGE
  3
ANSI_1252
  9
$REQUIREDVERSIONS
160
                 0
  9
$COMMENTS
  1
File was created by Cadenas
  9
$CUSTOMPROPERTYTAG
  1
NN
  9
$CUSTOMPROPERTY
  1
Flange Cartridge Expansion Inch Bore
  9
$CUSTOMPROPERTYTAG
  1
NT
  9
$CUSTOMPROPERTY
  1
Type E Piloted Flange Bearing -Inch
  9
$CUSTOMPROPERTYTAG
  1
NB
  9
$CUSTOMPROPERTY
  1
023134
  9
$CUSTOMPROPERTYTAG
  1
NBSYN
  9
$CUSTOMPROPERTY
  1
$PN.
  9
$CUSTOMPROPERTYTAG
  1
LINA
  9
$CUSTOMPROPERTY
  1
023134
  9
$CUSTOMPROPERTYTAG
  1
SS
  9
$CUSTOMPROPERTY
  1
2-1/2
  9
$CUSTOMPROPERTYTAG
  1
PN
  9
$CUSTOMPROPERTY
  1
023134
  9
$CUSTOMPROPERTYTAG
  1
DESCRIPTION
  9
$CUSTOMPROPERTY
  1
FC-E-208R
  9
$CUSTOMPROPERTYTAG
  1
A
  9
$CUSTOMPROPERTY
  1
4
  9
$CUSTOMPROPERTYTAG
  1
B
  9
$CUSTOMPROPERTY
  1
7-5/8
  9
$CUSTOMPROPERTYTAG
  1
C
  9
$CUSTOMPROPERTY
  1
3-5/16
  9
$CUSTOMPROPERTYTAG
  1
D
  9
$CUSTOMPROPERTY
  1
6-1/2
  9
$CUSTOMPROPERTYTAG
  1
E
  9
$CUSTOMPROPERTY
  1
1-5/16
  9
$CUSTOMPROPERTYTAG
  1
F
  9
$CUSTOMPROPERTY
  1
1/2
  9
$CUSTOMPROPERTYTAG
  1
G
  9
$CUSTOMPROPERTY
  1
1-13/16
  9
$CUSTOMPROPERTYTAG
  1
H
  9
$CUSTOMPROPERTY
  1
5/8
  9
$CUSTOMPROPERTYTAG
  1
K
  9
$CUSTOMPROPERTY
  1
5-1/2
  9
$CUSTOMPROPERTYTAG
  1
L
  9
$CUSTOMPROPERTY
  1
4-1/16
  9
$CUSTOMPROPERTYTAG
  1
M
  9
$CUSTOMPROPERTY
  1
1-3/16
  9
$CUSTOMPROPERTYTAG
  1
COMPANY
  9
$CUSTOMPROPERTY
  1
baldor
  9
$INSBASE
 10
0.0
 20
0.0
 30
0.0
  9
$EXTMIN
 10
1.000000000000000E+20
 20
1.000000000000000E+20
 30
1.000000000000000E+20
  9
$EXTMAX
 10
-1.000000000000000E+20
 20
-1.000000000000000E+20
 30
-1.000000000000000E+20
  9
$LIMMIN
 10
0.0
 20
0.0
  9
$LIMMAX
 10
12.0
 20
9.0
  9
$ORTHOMODE
 70
     0
  9
$REGENMODE
 70
     1
  9
$FILLMODE
 70
     1
  9
$QTEXTMODE
 70
     0
  9
$MIRRTEXT
 70
     1
  9
$LTSCALE
 40
1.0
  9
$ATTMODE
 70
     1
  9
$TEXTSIZE
 40
0.2
  9
$TRACEWID
 40
0.05
  9
$TEXTSTYLE
  7
Standard
  9
$CLAYER
  8
0
  9
$CELTYPE
  6
ByLayer
  9
$CECOLOR
 62
   256
  9
$CELTSCALE
 40
1.0
  9
$DISPSILH
 70
     0
  9
$DIMSCALE
 40
1.0
  9
$DIMASZ
 40
0.18
  9
$DIMEXO
 40
0.0625
  9
$DIMDLI
 40
0.38
  9
$DIMRND
 40
0.0
  9
$DIMDLE
 40
0.0
  9
$DIMEXE
 40
0.18
  9
$DIMTP
 40
0.0
  9
$DIMTM
 40
0.0
  9
$DIMTXT
 40
0.18
  9
$DIMCEN
 40
0.09
  9
$DIMTSZ
 40
0.0
  9
$DIMTOL
 70
     0
  9
$DIMLIM
 70
     0
  9
$DIMTIH
 70
     1
  9
$DIMTOH
 70
     1
  9
$DIMSE1
 70
     0
  9
$DIMSE2
 70
     0
  9
$DIMTAD
 70
     0
  9
$DIMZIN
 70
     0
  9
$DIMBLK
  1

  9
$DIMASO
 70
     1
  9
$DIMSHO
 70
     1
  9
$DIMPOST
  1

  9
$DIMAPOST
  1

  9
$DIMALT
 70
     0
  9
$DIMALTD
 70
     2
  9
$DIMALTF
 40
25.4
  9
$DIMLFAC
 40
1.0
  9
$DIMTOFL
 70
     0
  9
$DIMTVP
 40
0.0
  9
$DIMTIX
 70
     0
  9
$DIMSOXD
 70
     0
  9
$DIMSAH
 70
     0
  9
$DIMBLK1
  1

  9
$DIMBLK2
  1

  9
$DIMSTYLE
  2
Standard
  9
$DIMCLRD
 70
     0
  9
$DIMCLRE
 70
     0
  9
$DIMCLRT
 70
     0
  9
$DIMTFAC
 40
1.0
  9
$DIMGAP
 40
0.09
  9
$DIMJUST
 70
     0
  9
$DIMSD1
 70
     0
  9
$DIMSD2
 70
     0
  9
$DIMTOLJ
 70
     1
  9
$DIMTZIN
 70
     0
  9
$DIMALTZ
 70
     0
  9
$DIMALTTZ
 70
     0
  9
$DIMUPT
 70
     0
  9
$DIMDEC
 70
     4
  9
$DIMTDEC
 70
     4
  9
$DIMALTU
 70
     2
  9
$DIMALTTD
 70
     2
  9
$DIMTXSTY
  7
Standard
  9
$DIMAUNIT
 70
     0
  9
$DIMADEC
 70
     0
  9
$DIMALTRND
 40
0.0
  9
$DIMAZIN
 70
     0
  9
$DIMDSEP
 70
    46
  9
$DIMATFIT
 70
     3
  9
$DIMFRAC
 70
     0
  9
$DIMLDRBLK
  1

  9
$DIMLUNIT
 70
     2
  9
$DIMLWD
 70
    -2
  9
$DIMLWE
 70
    -2
  9
$DIMTMOVE
 70
     0
  9
$DIMFXL
 40
1.0
  9
$DIMFXLON
 70
     0
  9
$DIMJOGANG
 40
0.7853981633974483
  9
$DIMTFILL
 70
     0
  9
$DIMTFILLCLR
 70
     0
  9
$DIMARCSYM
 70
     0
  9
$DIMLTYPE
  6

  9
$DIMLTEX1
  6

  9
$DIMLTEX2
  6

  9
$DIMTXTDIRECTION
 70
     0
  9
$LUNITS
 70
     2
  9
$LUPREC
 70
     4
  9
$SKETCHINC
 40
0.1
  9
$FILLETRAD
 40
0.5
  9
$AUNITS
 70
     0
  9
$AUPREC
 70
     0
  9
$MENU
  1
.
  9
$ELEVATION
 40
0.0
  9
$PELEVATION
 40
0.0
  9
$THICKNESS
 40
0.0
  9
$LIMCHECK
 70
     0
  9
$CHAMFERA
 40
0.0
  9
$CHAMFERB
 40
0.0
  9
$CHAMFERC
 40
0.0
  9
$CHAMFERD
 40
0.0
  9
$SKPOLY
 70
     0
  9
$TDCREATE
 40
2458169.017233148
  9
$TDUCREATE
 40
2458168.975566482
  9
$TDUPDATE
 40
2458169.017233322
  9
$TDUUPDATE
 40
2458168.975566655
  9
$TDINDWG
 40
0.0000000116
  9
$TDUSRTIMER
 40
0.0000000116
  9
$USRTIMER
 70
     1
  9
$ANGBASE
 50
0.0
  9
$ANGDIR
 70
     0
  9
$PDMODE
 70
     0
  9
$PDSIZE
 40
0.0
  9
$PLINEWID
 40
0.0
  9
$SPLFRAME
 70
     0
  9
$SPLINETYPE
 70
     6
  9
$SPLINESEGS
 70
     8
  9
$HANDSEED
  5
1E0
  9
$SURFTAB1
 70
     6
  9
$SURFTAB2
 70
     6
  9
$SURFTYPE
 70
     6
  9
$SURFU
 70
     6
  9
$SURFV
 70
     6
  9
$UCSBASE
  2

  9
$UCSNAME
  2

  9
$UCSORG
 10
0.0
 20
0.0
 30
0.0
  9
$UCSXDIR
 10
1.0
 20
0.0
 30
0.0
  9
$UCSYDIR
 10
0.0
 20
1.0
 30
0.0
  9
$UCSORTHOREF
  2

  9
$UCSORTHOVIEW
 70
     0
  9
$UCSORGTOP
 10
0.0
 20
0.0
 30
0.0
  9
$UCSORGBOTTOM
 10
0.0
 20
0.0
 30
0.0
  9
$UCSORGLEFT
 10
0.0
 20
0.0
 30
0.0
  9
$UCSORGRIGHT
 10
0.0
 20
0.0
 30
0.0
  9
$UCSORGFRONT
 10
0.0
 20
0.0
 30
0.0
  9
$UCSORGBACK
 10
0.0
 20
0.0
 30
0.0
  9
$PUCSBASE
  2

  9
$PUCSNAME
  2

  9
$PUCSORG
 10
0.0
 20
0.0
 30
0.0
  9
$PUCSXDIR
 10
1.0
 20
0.0
 30
0.0
  9
$PUCSYDIR
 10
0.0
 20
1.0
 30
0.0
  9
$PUCSORTHOREF
  2

  9
$PUCSORTHOVIEW
 70
     0
  9
$PUCSORGTOP
 10
0.0
 20
0.0
 30
0.0
  9
$PUCSORGBOTTOM
 10
0.0
 20
0.0
 30
0.0
  9
$PUCSORGLEFT
 10
0.0
 20
0.0
 30
0.0
  9
$PUCSORGRIGHT
 10
0.0
 20
0.0
 30
0.0
  9
$PUCSORGFRONT
 10
0.0
 20
0.0
 30
0.0
  9
$PUCSORGBACK
 10
0.0
 20
0.0
 30
0.0
  9
$USERI1
 70
     0
  9
$USERI2
 70
     0
  9
$USERI3
 70
     0
  9
$USERI4
 70
     0
  9
$USERI5
 70
     0
  9
$USERR1
 40
0.0
  9
$USERR2
 40
0.0
  9
$USERR3
 40
0.0
  9
$USERR4
 40
0.0
  9
$USERR5
 40
0.0
  9
$WORLDVIEW
 70
     1
  9
$SHADEDGE
 70
     3
  9
$SHADEDIF
 70
    70
  9
$TILEMODE
 70
     1
  9
$MAXACTVP
 70
    64
  9
$PINSBASE
 10
0.0
 20
0.0
 30
0.0
  9
$PLIMCHECK
 70
     0
  9
$PEXTMIN
 10
1.000000000000000E+20
 20
1.000000000000000E+20
 30
1.000000000000000E+20
  9
$PEXTMAX
 10
-1.000000000000000E+20
 20
-1.000000000000000E+20
 30
-1.000000000000000E+20
  9
$PLIMMIN
 10
0.0
 20
0.0
  9
$PLIMMAX
 10
12.0
 20
9.0
  9
$UNITMODE
 70
     0
  9
$VISRETAIN
 70
     1
  9
$PLINEGEN
 70
     0
  9
$PSLTSCALE
 70
     1
  9
$TREEDEPTH
 70
  3020
  9
$CMLSTYLE
  2
Standard
  9
$CMLJUST
 70
     0
  9
$CMLSCALE
 40
1.0
  9
$PROXYGRAPHICS
 70
     1
  9
$MEASUREMENT
 70
     0
  9
$CELWEIGHT
370
    -1
  9
$ENDCAPS
280
     0
  9
$JOINSTYLE
280
     0
  9
$LWDISPLAY
290
     0
  9
$INSUNITS
 70
     1
  9
$HYPERLINKBASE
  1

  9
$STYLESHEET
  1

  9
$XEDIT
290
     1
  9
$CEPSNTYPE
380
     0
  9
$PSTYLEMODE
290
     1
  9
$FINGERPRINTGUID
  2
{4FA7FE7D-5942-438D-A523-85535BB6DD4D}
  9
$VERSIONGUID
  2
{FAEB1C32-E019-11D5-929B-00C0DF256EC4}
  9
$EXTNAMES
290
     1
  9
$PSVPSCALE
 40
0.0
  9
$OLESTARTUP
290
     0
  9
$SORTENTS
280
   127
  9
$INDEXCTL
280
     0
  9
$HIDETEXT
280
     1
  9
$XCLIPFRAME
280
     2
  9
$HALOGAP
280
     0
  9
$OBSCOLOR
 70
   257
  9
$OBSLTYPE
280
     0
  9
$INTERSECTIONDISPLAY
280
     0
  9
$INTERSECTIONCOLOR
 70
   257
  9
$DIMASSOC
280
     2
  9
$PROJECTNAME
  1

  9
$CAMERADISPLAY
290
     0
  9
$LENSLENGTH
 40
50.0
  9
$CAMERAHEIGHT
 40
0.0
  9
$STEPSPERSEC
 40
2.0
  9
$STEPSIZE
 40
6.0
  9
$3DDWFPREC
 40
2.0
  9
$PSOLWIDTH
 40
0.25
  9
$PSOLHEIGHT
 40
4.0
  9
$LOFTANG1
 40
1.570796326794897
  9
$LOFTANG2
 40
1.570796326794897
  9
$LOFTMAG1
 40
0.0
  9
$LOFTMAG2
 40
0.0
  9
$LOFTPARAM
 70
     7
  9
$LOFTNORMALS
280
     1
  9
$LATITUDE
 40
37.795
  9
$LONGITUDE
 40
-122.394
  9
$NORTHDIRECTION
 40
0.0
  9
$TIMEZONE
 70
 -8000
  9
$LIGHTGLYPHDISPLAY
280
     1
  9
$TILEMODELIGHTSYNCH
280
     1
  9
$CMATERIAL
347
44
  9
$SOLIDHIST
280
     0
  9
$SHOWHIST
280
     1
  9
$DWFFRAME
280
     2
  9
$DGNFRAME
280
     2
  9
$REALWORLDSCALE
290
     1
  9
$INTERFERECOLOR
 62
   256
  9
$CSHADOW
280
     0
  9
$SHADOWPLANELOCATION
 40
0.0
  0
ENDSEC
  0
SECTION
  2
CLASSES
  0
CLASS
  1
ACDBDICTIONARYWDFLT
  2
AcDbDictionaryWithDefault
  3
ObjectDBX Classes
 90
        0
 91
        4
280
     0
281
     0
  0
CLASS
  1
VISUALSTYLE
  2
AcDbVisualStyle
  3
ObjectDBX Classes
 90
     4095
 91
        4
280
     0
281
     0
  0
CLASS
  1
MATERIAL
  2
AcDbMaterial
  3
ObjectDBX Classes
 90
     1153
 91
        4
280
     0
281
     0
  0
CLASS
  1
SCALE
  2
AcDbScale
  3
ObjectDBX Classes
 90
     1153
 91
        4
280
     0
281
     0
  0
CLASS
  1
TABLESTYLE
  2
AcDbTableStyle
  3
ObjectDBX Classes
 90
     4095
 91
        4
280
     0
281
     0
  0
CLASS
  1
MLEADERSTYLE
  2
AcDbMLeaderStyle
  3
ACDB_MLEADERSTYLE_CLASS
 90
     4095
 91
        4
280
     0
281
     0
  0
CLASS
  1
SUN
  2
AcDbSun
  3
SCENEOE
 90
     1153
 91
        4
280
     0
281
     0
  0
CLASS
  1
DICTIONARYVAR
  2
AcDbDictionaryVar
  3
ObjectDBX Classes
 90
        0
 91
        4
280
     0
281
     0
  0
CLASS
  1
CELLSTYLEMAP
  2
AcDbCellStyleMap
  3
ObjectDBX Classes
 90
     1152
 91
        4
280
     0
281
     0
  0
ENDSEC
  0
SECTION
  2
TABLES
  0
TABLE
  2
VPORT
  5
8
330
0
100
AcDbSymbolTable
 70
     1
  0
VPORT
  5
29
330
8
100
AcDbSymbolTableRecord
100
AcDbViewportTableRecord
  2
*Active
 70
     0
 10
0.0
 20
0.0
 11
1.0
 21
1.0
 12
0.1531249988079075
 22
0.0
 13
0.0
 23
0.0
 14
0.5
 24
0.5
 15
0.5
 25
0.5
 16
0.0
 26
0.0
 36
1.0
 17
0.0
 27
0.0
 37
0.0
 40
7.7775
 41
0.9155737708044834
 42
50.0
 43
0.0
 44
0.0
 50
0.0
 51
0.0
 71
     0
 72
   100
 73
     1
 74
     3
 75
     0
 76
     0
 77
     0
 78
     0
281
     0
 65
     1
110
0.0
120
0.0
130
0.0
111
1.0
121
0.0
131
0.0
112
0.0
122
1.0
132
0.0
 79
     0
146
0.0
348
2F
 60
     3
 61
     5
292
     1
282
     1
141
0.0
142
0.0
 63
   250
361
6D
  0
ENDTAB
  0
TABLE
  2
LTYPE
  5
5
330
0
100
AcDbSymbolTable
 70
     3
  0
LTYPE
  5
14
330
5
100
AcDbSymbolTableRecord
100
AcDbLinetypeTableRecord
  2
ByBlock
 70
     0
  3

 72
    65
 73
     0
 40
0.0
  0
LTYPE
  5
15
330
5
100
AcDbSymbolTableRecord
100
AcDbLinetypeTableRecord
  2
ByLayer
 70
     0
  3

 72
    65
 73
     0
 40
0.0
  0
LTYPE
  5
16
330
5
100
AcDbSymbolTableRecord
100
AcDbLinetypeTableRecord
  2
Continuous
 70
     0
  3
Solid line
 72
    65
 73
     0
 40
0.0
  0
LTYPE
  5
9C
330
5
100
AcDbSymbolTableRecord
100
AcDbLinetypeTableRecord
  2
Dashed
 70
     0
  3

 72
    65
 73
     2
 40
2.0
 49
1.0
 74
     0
 49
-1.0
 74
     0
  0
LTYPE
  5
CB
330
5
100
AcDbSymbolTableRecord
100
AcDbLinetypeTableRecord
  2
Center
 70
     0
  3

 72
    65
 73
     4
 40
1.5
 49
0.45
 74
     0
 49
-0.5
 74
     0
 49
0.05
 74
     0
 49
-0.5
 74
     0
  0
ENDTAB
  0
TABLE
  2
LAYER
  5
2
330
0
100
AcDbSymbolTable
 70
     7
  0
LAYER
  5
10
330
2
100
AcDbSymbolTableRecord
100
AcDbLayerTableRecord
  2
0
 70
     0
 62
     7
  6
Continuous
370
    -3
390
F
347
46
348
0
  0
LAYER
  5
72
330
2
100
AcDbSymbolTableRecord
100
AcDbLayerTableRecord
  2
AM_6
 70
     0
 62
    -2
  6
Continuous
370
    35
390
F
347
46
348
0
  0
LAYER
  5
9D
330
2
100
AcDbSymbolTableRecord
100
AcDbLayerTableRecord
  2
AM_9
 70
     0
 62
     6
  6
Dashed
370
    25
390
F
347
46
348
0
  0
LAYER
  5
C5
330
2
100
AcDbSymbolTableRecord
100
AcDbLayerTableRecord
  2
AM_5
 70
     0
 62
     3
  6
Continuous
370
    25
390
F
347
46
348
0
  0
LAYER
  5
CC
330
2
100
AcDbSymbolTableRecord
100
AcDbLayerTableRecord
  2
AM_7
 70
     0
 62
     7
  6
Center
370
    25
390
F
347
46
348
0
  0
LAYER
  5
CE
330
2
100
AcDbSymbolTableRecord
100
AcDbLayerTableRecord
  2
AM_4
 70
     0
 62
     7
  6
Continuous
370
    50
390
F
347
46
348
0
  0
LAYER
  5
1CE
330
2
100
AcDbSymbolTableRecord
100
AcDbLayerTableRecord
  2
ConnectionPoints
 70
     0
 62
     7
  6
Continuous
370
    50
390
F
347
46
348
0
  0
ENDTAB
  0
TABLE
  2
STYLE
  5
3
330
0
100
AcDbSymbolTable
 70
     1
  0
STYLE
  5
11
330
3
100
AcDbSymbolTableRecord
100
AcDbTextStyleTableRecord
  2
Standard
 70
     0
 40
0.0
 41
1.0
 50
0.0
 71
     0
 42
0.2
  3
txt
  4

  0
ENDTAB
  0
TABLE
  2
VIEW
  5
6
330
0
100
AcDbSymbolTable
 70
     0
  0
ENDTAB
  0
TABLE
  2
UCS
  5
7
330
0
100
AcDbSymbolTable
 70
     0
  0
ENDTAB
  0
TABLE
  2
APPID
  5
9
330
0
100
AcDbSymbolTable
 70
     1
  0
APPID
  5
12
330
9
100
AcDbSymbolTableRecord
100
AcDbRegAppTableRecord
  2
ACAD
 70
     0
  0
ENDTAB
  0
TABLE
  2
DIMSTYLE
  5
A
330
0
100
AcDbSymbolTable
 70
     1
100
AcDbDimStyleTable
  0
DIMSTYLE
105
27
330
A
100
AcDbSymbolTableRecord
100
AcDbDimStyleTableRecord
  2
Standard
 70
     0
178
     0
340
11
  0
ENDTAB
  0
TABLE
  2
BLOCK_RECORD
  5
1
330
0
100
AcDbSymbolTable
 70
     7
  0
BLOCK_RECORD
  5
1F
330
1
100
AcDbSymbolTableRecord
100
AcDbBlockTableRecord
  2
*Model_Space
340
22
 70
     0
280
     1
281
     0
  0
BLOCK_RECORD
  5
1B
330
1
100
AcDbSymbolTableRecord
100
AcDbBlockTableRecord
  2
*Paper_Space
340
1E
 70
     0
280
     1
281
     0
  0
BLOCK_RECORD
  5
23
330
1
100
AcDbSymbolTableRecord
100
AcDbBlockTableRecord
  2
*Paper_Space0
340
26
 70
     0
280
     1
281
     0
  0
BLOCK_RECORD
  5
6E
330
1
100
AcDbSymbolTableRecord
100
AcDbBlockTableRecord
  2
1_023134_2
340
0
102
{BLKREFS
331
6F
102
}
 70
     0
280
     1
281
     0
  0
BLOCK_RECORD
  5
87
330
1
100
AcDbSymbolTableRecord
100
AcDbBlockTableRecord
  2
2_2_1_2D_0_in_023134_2
340
0
102
{BLKREFS
331
88
102
}
 70
     0
280
     1
281
     0
  0
BLOCK_RECORD
  5
AC
330
1
100
AcDbSymbolTableRecord
100
AcDbBlockTableRecord
  2
3_405015E_Inch_0_in_023134_2
340
0
102
{BLKREFS
331
AD
102
}
 70
     0
280
     1
281
     0
  0
BLOCK_RECORD
  5
F4
330
1
100
AcDbSymbolTableRecord
100
AcDbBlockTableRecord
  2
4_2_1_2C_0_in_023134_2
340
0
102
{BLKREFS
331
F5
102
}
 70
     0
280
     1
281
     0
  0
BLOCK_RECORD
  5
12B
330
1
100
AcDbSymbolTableRecord
100
AcDbBlockTableRecord
  2
5_2_1_2I_0_in_023134_2
340
0
102
{BLKREFS
331
12C
102
}
 70
     0
280
     1
281
     0
  0
BLOCK_RECORD
  5
17D
330
1
100
AcDbSymbolTableRecord
100
AcDbBlockTableRecord
  2
6_023134H_0_in_023134_2
340
0
102
{BLKREFS
331
17E
102
}
 70
     0
280
     1
281
     0
  0
ENDTAB
  0
ENDSEC
  0
SECTION
  2
BLOCKS
  0
BLOCK
  5
20
330
1F
100
AcDbEntity
  8
0
100
AcDbBlockBegin
  2
*Model_Space
 70
     0
 10
0.0
 20
0.0
 30
0.0
  3
*Model_Space
  1

  0
ENDBLK
  5
21
330
1F
100
AcDbEntity
  8
0
100
AcDbBlockEnd
  0
BLOCK
  5
1C
330
1B
100
AcDbEntity
 67
     1
  8
0
100
AcDbBlockBegin
  2
*Paper_Space
 70
     0
 10
0.0
 20
0.0
 30
0.0
  3
*Paper_Space
  1

  0
ENDBLK
  5
1D
330
1B
100
AcDbEntity
 67
     1
  8
0
100
AcDbBlockEnd
  0
BLOCK
  5
24
330
23
100
AcDbEntity
  8
0
100
AcDbBlockBegin
  2
*Paper_Space0
 70
     0
 10
0.0
 20
0.0
 30
0.0
  3
*Paper_Space0
  1

  0
ENDBLK
  5
25
330
23
100
AcDbEntity
  8
0
100
AcDbBlockEnd
  0
BLOCK
  5
70
330
6E
100
AcDbEntity
  8
0
100
AcDbBlockBegin
  2
1_023134_2
 70
     2
 10
0.0
 20
0.0
 30
0.0
  3
1_023134_2
  1

  0
ATTDEF
  5
73
330
6E
100
AcDbEntity
  8
AM_6
100
AcDbText
 10
8.643749999999999
 20
3.8125
 30
0.0
 40
0.5
  1
Flange Cartridge Expansion Inch Bore
100
AcDbAttributeDefinition
  3

  2
NN
 70
     8
280
     0
  0
ATTDEF
  5
74
330
6E
100
AcDbEntity
  8
AM_6
100
AcDbText
 10
8.643749999999999
 20
3.3125
 30
0.0
 40
0.5
  1
Type E Piloted Flange Bearing -Inch
100
AcDbAttributeDefinition
  3

  2
NT
 70
     8
280
     0
  0
ATTDEF
  5
75
330
6E
100
AcDbEntity
  8
AM_6
100
AcDbText
 10
8.643749999999999
 20
2.8125
 30
0.0
 40
0.5
  1
023134
100
AcDbAttributeDefinition
  3

  2
NB
 70
     8
280
     0
  0
ATTDEF
  5
76
330
6E
100
AcDbEntity
  8
AM_6
100
AcDbText
 10
8.643749999999999
 20
2.3125
 30
0.0
 40
0.5
  1
$PN.
100
AcDbAttributeDefinition
  3

  2
NBSYN
 70
     8
280
     0
  0
ATTDEF
  5
77
330
6E
100
AcDbEntity
  8
AM_6
100
AcDbText
 10
8.643749999999999
 20
1.8125
 30
0.0
 40
0.5
  1
023134
100
AcDbAttributeDefinition
  3

  2
LINA
 70
     8
280
     0
  0
ATTDEF
  5
78
330
6E
100
AcDbEntity
  8
AM_6
100
AcDbText
 10
8.643749999999999
 20
1.3125
 30
0.0
 40
0.5
  1
2-1/2
100
AcDbAttributeDefinition
  3

  2
SS
 70
     8
280
     0
  0
ATTDEF
  5
79
330
6E
100
AcDbEntity
  8
AM_6
100
AcDbText
 10
8.643749999999999
 20
0.8125
 30
0.0
 40
0.5
  1
023134
100
AcDbAttributeDefinition
  3

  2
PN
 70
     8
280
     0
  0
ATTDEF
  5
7A
330
6E
100
AcDbEntity
  8
AM_6
100
AcDbText
 10
8.643749999999999
 20
0.3125
 30
0.0
 40
0.5
  1
FC-E-208R
100
AcDbAttributeDefinition
  3

  2
DESCRIPTION
 70
     8
280
     0
  0
ATTDEF
  5
7B
330
6E
100
AcDbEntity
  8
AM_6
100
AcDbText
 10
8.643749999999999
 20
-0.1875
 30
0.0
 40
0.5
  1
4
100
AcDbAttributeDefinition
  3

  2
A
 70
     8
280
     0
  0
ATTDEF
  5
7C
330
6E
100
AcDbEntity
  8
AM_6
100
AcDbText
 10
8.643749999999999
 20
-0.6875
 30
0.0
 40
0.5
  1
7-5/8
100
AcDbAttributeDefinition
  3

  2
B
 70
     8
280
     0
  0
ATTDEF
  5
7D
330
6E
100
AcDbEntity
  8
AM_6
100
AcDbText
 10
8.643749999999999
 20
-1.1875
 30
0.0
 40
0.5
  1
3-5/16
100
AcDbAttributeDefinition
  3

  2
C
 70
     8
280
     0
  0
ATTDEF
  5
7E
330
6E
100
AcDbEntity
  8
AM_6
100
AcDbText
 10
8.643749999999999
 20
-1.6875
 30
0.0
 40
0.5
  1
6-1/2
100
AcDbAttributeDefinition
  3

  2
D
 70
     8
280
     0
  0
ATTDEF
  5
7F
330
6E
100
AcDbEntity
  8
AM_6
100
AcDbText
 10
8.643749999999999
 20
-2.1875
 30
0.0
 40
0.5
  1
1-5/16
100
AcDbAttributeDefinition
  3

  2
E
 70
     8
280
     0
  0
ATTDEF
  5
80
330
6E
100
AcDbEntity
  8
AM_6
100
AcDbText
 10
8.643749999999999
 20
-2.6875
 30
0.0
 40
0.5
  1
1/2
100
AcDbAttributeDefinition
  3

  2
F
 70
     8
280
     0
  0
ATTDEF
  5
81
330
6E
100
AcDbEntity
  8
AM_6
100
AcDbText
 10
8.643749999999999
 20
-3.1875
 30
0.0
 40
0.5
  1
1-13/16
100
AcDbAttributeDefinition
  3

  2
G
 70
     8
280
     0
  0
ATTDEF
  5
82
330
6E
100
AcDbEntity
  8
AM_6
100
AcDbText
 10
8.643749999999999
 20
-3.6875
 30
0.0
 40
0.5
  1
5/8
100
AcDbAttributeDefinition
  3

  2
H
 70
     8
280
     0
  0
ATTDEF
  5
83
330
6E
100
AcDbEntity
  8
AM_6
100
AcDbText
 10
8.643749999999999
 20
-4.1875
 30
0.0
 40
0.5
  1
5-1/2
100
AcDbAttributeDefinition
  3

  2
K
 70
     8
280
     0
  0
ATTDEF
  5
84
330
6E
100
AcDbEntity
  8
AM_6
100
AcDbText
 10
8.643749999999999
 20
-4.6875
 30
0.0
 40
0.5
  1
4-1/16
100
AcDbAttributeDefinition
  3

  2
L
 70
     8
280
     0
  0
ATTDEF
  5
85
330
6E
100
AcDbEntity
  8
AM_6
100
AcDbText
 10
8.643749999999999
 20
-5.1875
 30
0.0
 40
0.5
  1
1-3/16
100
AcDbAttributeDefinition
  3

  2
M
 70
     8
280
     0
  0
ATTDEF
  5
86
330
6E
100
AcDbEntity
  8
AM_6
100
AcDbText
 10
8.643749999999999
 20
-5.6875
 30
0.0
 40
0.5
  1
baldor
100
AcDbAttributeDefinition
  3

  2
COMPANY
 70
     8
280
     0
  0
INSERT
  5
88
330
6E
100
AcDbEntity
  8
0
100
AcDbBlockReference
  2
2_2_1_2D_0_in_023134_2
 10
0.0
 20
0.0
 30
0.0
  0
INSERT
  5
AD
330
6E
100
AcDbEntity
  8
0
100
AcDbBlockReference
  2
3_405015E_Inch_0_in_023134_2
 10
0.0
 20
0.0
 30
0.0
  0
INSERT
  5
F5
330
6E
100
AcDbEntity
  8
0
100
AcDbBlockReference
  2
4_2_1_2C_0_in_023134_2
 10
0.0
 20
0.0
 30
0.0
  0
INSERT
  5
12C
330
6E
100
AcDbEntity
  8
0
100
AcDbBlockReference
  2
5_2_1_2I_0_in_023134_2
 10
0.0
 20
0.0
 30
0.0
  0
INSERT
  5
17E
330
6E
100
AcDbEntity
  8
0
100
AcDbBlockReference
  2
6_023134H_0_in_023134_2
 10
0.0
 20
0.0
 30
0.0
  0
ENDBLK
  5
71
330
6E
100
AcDbEntity
  8
0
100
AcDbBlockEnd
  0
BLOCK
  5
89
330
87
100
AcDbEntity
  8
0
100
AcDbBlockBegin
  2
2_2_1_2D_0_in_023134_2
 70
     2
 10
0.0
 20
0.0
 30
0.0
  3
2_2_1_2D_0_in_023134_2
  1

  0
ATTDEF
  5
8B
330
87
100
AcDbEntity
  8
AM_6
100
AcDbText
 10
7.078125
 20
2.06
 30
0.0
 40
0.5
  1
E-Type Disc -Inch
100
AcDbAttributeDefinition
  3

  2
NN
 70
     8
280
     0
  0
ATTDEF
  5
8C
330
87
100
AcDbEntity
  8
AM_6
100
AcDbText
 10
7.078125
 20
1.56
 30
0.0
 40
0.5
  1
E-Type Bearings
100
AcDbAttributeDefinition
  3

  2
NT
 70
     8
280
     0
  0
ATTDEF
  5
8D
330
87
100
AcDbEntity
  8
AM_6
100
AcDbText
 10
7.078125
 20
1.06
 30
0.0
 40
0.5
  1
2-1/2D
100
AcDbAttributeDefinition
  3

  2
NB
 70
     8
280
     0
  0
ATTDEF
  5
8E
330
87
100
AcDbEntity
  8
AM_6
100
AcDbText
 10
7.078125
 20
0.56
 30
0.0
 40
0.5
  1
$BORE.D
100
AcDbAttributeDefinition
  3

  2
NBSYN
 70
     8
280
     0
  0
ATTDEF
  5
8F
330
87
100
AcDbEntity
  8
AM_6
100
AcDbText
 10
7.078125
 20
0.0600000000000001
 30
0.0
 40
0.5
  1
2-1/2D
100
AcDbAttributeDefinition
  3

  2
LINA
 70
     8
280
     0
  0
ATTDEF
  5
90
330
87
100
AcDbEntity
  8
AM_6
100
AcDbText
 10
7.078125
 20
-0.4399999999999999
 30
0.0
 40
0.5
  1
2-1/2
100
AcDbAttributeDefinition
  3

  2
BORE
 70
     8
280
     0
  0
ATTDEF
  5
91
330
87
100
AcDbEntity
  8
AM_6
100
AcDbText
 10
7.078125
 20
-0.94
 30
0.0
 40
0.5
  1
2.500000
100
AcDbAttributeDefinition
  3

  2
BORE1
 70
     8
280
     0
  0
ATTDEF
  5
92
330
87
100
AcDbEntity
  8
AM_6
100
AcDbText
 10
7.078125
 20
-1.44
 30
0.0
 40
0.5
  1
4.00
100
AcDbAttributeDefinition
  3

  2
A
 70
     8
280
     0
  0
ATTDEF
  5
93
330
87
100
AcDbEntity
  8
AM_6
100
AcDbText
 10
7.078125
 20
-1.94
 30
0.0
 40
0.5
  1
1.70
100
AcDbAttributeDefinition
  3

  2
B
 70
     8
280
     0
  0
ATTDEF
  5
94
330
87
100
AcDbEntity
  8
AM_6
100
AcDbText
 10
7.078125
 20
-2.44
 30
0.0
 40
0.5
  1
2.94
100
AcDbAttributeDefinition
  3

  2
C
 70
     8
280
     0
  0
ATTDEF
  5
95
330
87
100
AcDbEntity
  8
AM_6
100
AcDbText
 10
7.078125
 20
-2.94
 30
0.0
 40
0.5
  1
4.12
100
AcDbAttributeDefinition
  3

  2
D
 70
     8
280
     0
  0
ATTDEF
  5
96
330
87
100
AcDbEntity
  8
AM_6
100
AcDbText
 10
7.078125
 20
-3.44
 30
0.0
 40
0.5
  1
0.41
100
AcDbAttributeDefinition
  3

  2
E
 70
     8
280
     0
  0
ATTDEF
  5
97
330
87
100
AcDbEntity
  8
AM_6
100
AcDbText
 10
7.078125
 20
-3.94
 30
0.0
 40
0.5
  1
0.31
100
AcDbAttributeDefinition
  3

  2
F
 70
     8
280
     0
  0
ATTDEF
  5
98
330
87
100
AcDbEntity
  8
AM_6
100
AcDbText
 10
7.078125
 20
-4.44
 30
0.0
 40
0.5
  1
3/8-16
100
AcDbAttributeDefinition
  3

  2
CS
 70
     8
280
     0
  0
ATTDEF
  5
99
330
87
100
AcDbEntity
  8
AM_6
100
AcDbText
 10
7.078125
 20
-4.94
 30
0.0
 40
0.5
  1
0.3750
100
AcDbAttributeDefinition
  3

  2
NDM
 70
     8
280
     0
  0
ATTDEF
  5
9A
330
87
100
AcDbEntity
  8
AM_6
100
AcDbText
 10
7.078125
 20
-5.44
 30
0.0
 40
0.5
  1
0.3070
100
AcDbAttributeDefinition
  3

  2
KDM
 70
     8
280
     0
  0
ATTDEF
  5
9B
330
87
100
AcDbEntity
  8
AM_6
100
AcDbText
 10
7.078125
 20
-5.94
 30
0.0
 40
0.5
  1
baldor
100
AcDbAttributeDefinition
  3

  2
COMPANY
 70
     8
280
     0
  0
LINE
  5
9E
330
87
100
AcDbEntity
  8
AM_9
100
AcDbLine
 10
2.03125
 20
-1.47
 30
0.0
 11
2.078125
 21
-1.47
 31
0.0
  0
LINE
  5
9F
330
87
100
AcDbEntity
  8
AM_9
100
AcDbLine
 10
2.078125
 20
1.47
 30
0.0
 11
2.03125
 21
1.47
 31
0.0
  0
ARC
  5
A0
330
87
100
AcDbEntity
  8
AM_9
100
AcDbCircle
 10
2.0078125
 20
-1.9896875
 30
0.0
 40
0.0234375000000002
100
AcDbArc
 50
270.0
 51
0.0
  0
ARC
  5
A1
330
87
100
AcDbEntity
  8
AM_9
100
AcDbCircle
 10
2.0078125
 20
1.9896875
 30
0.0
 40
0.0234375000000004
100
AcDbArc
 50
0.0
 51
90.0
  0
LINE
  5
A2
330
87
100
AcDbEntity
  8
AM_9
100
AcDbLine
 10
1.768125
 20
-2.013125
 30
0.0
 11
2.0078125
 21
-2.013125
 31
0.0
  0
LINE
  5
A3
330
87
100
AcDbEntity
  8
AM_9
100
AcDbLine
 10
2.0078125
 20
2.013125
 30
0.0
 11
1.768125
 21
2.013125
 31
0.0
  0
LINE
  5
A4
330
87
100
AcDbEntity
  8
AM_9
100
AcDbLine
 10
2.0078125
 20
2.013125
 30
0.0
 11
2.0078125
 21
-2.013125
 31
0.0
  0
LINE
  5
A5
330
87
100
AcDbEntity
  8
AM_9
100
AcDbLine
 10
2.078125
 20
2.013125
 30
0.0
 11
2.078125
 21
-2.013125
 31
0.0
  0
ARC
  5
A6
330
87
100
AcDbEntity
  8
AM_9
100
AcDbCircle
 10
2.03125
 20
-2.013125
 30
0.0
 40
0.0468750000000004
100
AcDbArc
 50
270.0
 51
0.0000008537736463
  0
ARC
  5
A7
330
87
100
AcDbEntity
  8
AM_9
100
AcDbCircle
 10
2.03125
 20
2.013125
 30
0.0
 40
0.0468750000000004
100
AcDbArc
 50
0.0000008537736463
 51
90.0
  0
LINE
  5
A8
330
87
100
AcDbEntity
  8
AM_9
100
AcDbLine
 10
1.768125
 20
-2.06
 30
0.0
 11
2.031249999999999
 21
-2.06
 31
0.0
  0
LINE
  5
A9
330
87
100
AcDbEntity
  8
AM_9
100
AcDbLine
 10
2.031249999999999
 20
2.06
 30
0.0
 11
1.768125
 21
2.06
 31
0.0
  0
LINE
  5
AA
330
87
100
AcDbEntity
  8
AM_9
100
AcDbLine
 10
1.768125
 20
2.06
 30
0.0
 11
1.768125
 21
-2.06
 31
0.0
  0
LINE
  5
AB
330
87
100
AcDbEntity
  8
AM_9
100
AcDbLine
 10
2.031249999999999
 20
2.06
 30
0.0
 11
2.031249999999999
 21
-2.06
 31
0.0
  0
ENDBLK
  5
8A
330
87
100
AcDbEntity
  8
0
100
AcDbBlockEnd
  0
BLOCK
  5
AE
330
AC
100
AcDbEntity
  8
0
100
AcDbBlockBegin
  2
3_405015E_Inch_0_in_023134_2
 70
     2
 10
0.0
 20
0.0
 30
0.0
  3
3_405015E_Inch_0_in_023134_2
  1

  0
ATTDEF
  5
B0
330
AC
100
AcDbEntity
  8
AM_6
100
AcDbText
 10
4.434678416047921
 20
3.20225443417926
 30
0.0
 40
0.5
  1
405015E -Inch
100
AcDbAttributeDefinition
  3

  2
NN
 70
     8
280
     0
  0
ATTDEF
  5
B1
330
AC
100
AcDbEntity
  8
AM_6
100
AcDbText
 10
4.434678416047921
 20
2.70225443417926
 30
0.0
 40
0.5
  1
Grease Fitting
100
AcDbAttributeDefinition
  3

  2
NT
 70
     8
280
     0
  0
ATTDEF
  5
B2
330
AC
100
AcDbEntity
  8
AM_6
100
AcDbText
 10
4.434678416047921
 20
2.20225443417926
 30
0.0
 40
0.5
  1
405015E-Inch
100
AcDbAttributeDefinition
  3

  2
NB
 70
     8
280
     0
  0
ATTDEF
  5
B3
330
AC
100
AcDbEntity
  8
AM_6
100
AcDbText
 10
4.434678416047921
 20
1.70225443417926
 30
0.0
 40
0.5
  1
$MN.-Inch
100
AcDbAttributeDefinition
  3

  2
NBSYN
 70
     8
280
     0
  0
ATTDEF
  5
B4
330
AC
100
AcDbEntity
  8
AM_6
100
AcDbText
 10
4.434678416047921
 20
1.20225443417926
 30
0.0
 40
0.5
  1
405015E
100
AcDbAttributeDefinition
  3

  2
LINA
 70
     8
280
     0
  0
ATTDEF
  5
B5
330
AC
100
AcDbEntity
  8
AM_6
100
AcDbText
 10
4.434678416047921
 20
0.70225443417926
 30
0.0
 40
0.5
  1
405015E
100
AcDbAttributeDefinition
  3

  2
MN
 70
     8
280
     0
  0
ATTDEF
  5
B6
330
AC
100
AcDbEntity
  8
AM_6
100
AcDbText
 10
4.434678416047921
 20
0.20225443417926
 30
0.0
 40
0.5
  1
1/8 x 27PTF
100
AcDbAttributeDefinition
  3

  2
T
 70
     8
280
     0
  0
ATTDEF
  5
B7
330
AC
100
AcDbEntity
  8
AM_6
100
AcDbText
 10
4.434678416047921
 20
-0.29774556582074
 30
0.0
 40
0.5
  1
baldor
100
AcDbAttributeDefinition
  3

  2
COMPANY
 70
     8
280
     0
  0
LINE
  5
B8
330
AC
100
AcDbEntity
  8
AM_9
100
AcDbLine
 10
-0.8671874999852364
 20
2.86448515049934
 30
0.0
 11
-0.7125078916006792
 21
3.019164758883898
 31
0.0
  0
LINE
  5
B9
330
AC
100
AcDbEntity
  8
AM_9
100
AcDbLine
 10
-0.7125078916006792
 20
3.019164758883898
 30
0.0
 11
-0.6949906341418575
 21
3.049505538811842
 31
0.0
  0
LINE
  5
BA
330
AC
100
AcDbEntity
  8
AM_9
100
AcDbLine
 10
-0.7070003934175787
 20
3.061515298087563
 30
0.0
 11
-0.6949906341418575
 21
3.049505538811842
 31
0.0
  0
LWPOLYLINE
  5
BB
330
AC
100
AcDbEntity
  8
AM_9
100
AcDbPolyline
 90
        4
 70
     0
 43
0.0
 10
-0.6949906341418575
 20
3.049505538811842
 10
-0.7125118941970382
 20
3.022575410217979
 10
-0.7224367217191743
 20
3.010105050418
 10
-0.7332310296767813
 20
2.998441620807796
  0
LINE
  5
BC
330
AC
100
AcDbEntity
  8
AM_9
100
AcDbLine
 10
-0.5653215839520791
 20
2.791584472503627
 30
0.0
 11
-0.5653215839520791
 21
2.843506975986535
 31
0.0
  0
LINE
  5
BD
330
AC
100
AcDbEntity
  8
AM_9
100
AcDbLine
 10
-0.8462093254724317
 20
2.562619234466183
 30
0.0
 11
-0.7942868219895235
 21
2.562619234466183
 31
0.0
  0
LINE
  5
BE
330
AC
100
AcDbEntity
  8
AM_9
100
AcDbLine
 10
-0.7942868219895235
 20
2.562619234466183
 30
0.0
 11
-0.5653215839520791
 21
2.791584472503627
 31
0.0
  0
LWPOLYLINE
  5
BF
330
AC
100
AcDbEntity
  8
AM_9
100
AcDbPolyline
 90
        4
 70
     0
 43
0.0
 10
-0.7332310296767813
 20
2.998441620807796
 10
-0.7448235754303681
 20
2.98770808817664
 10
-0.7572494838445833
 20
2.977807918206112
 10
-0.7842949476808275
 20
2.960201225272872
  0
LINE
  5
C0
330
AC
100
AcDbEntity
  8
AM_9
100
AcDbLine
 10
-0.5653215839520791
 20
2.843506975986535
 30
0.0
 11
-0.7216989382168063
 21
3.009973712267771
 31
0.0
  0
LINE
  5
C1
330
AC
100
AcDbEntity
  8
AM_9
100
AcDbLine
 10
-0.9972512838066704
 20
2.704506691113183
 30
0.0
 11
-0.8462093254724317
 21
2.562619234466183
 31
0.0
  0
LINE
  5
C2
330
AC
100
AcDbEntity
  8
AM_9
100
AcDbLine
 10
-0.8462093254724317
 20
2.562619234466183
 30
0.0
 11
-0.5653215839520791
 21
2.843506975986535
 31
0.0
  0
LINE
  5
C3
330
AC
100
AcDbEntity
  8
AM_9
100
AcDbLine
 10
-0.7870939467014074
 20
2.963000224293451
 30
0.0
 11
-0.7842949476808275
 21
2.960201225272872
 31
0.0
  0
LWPOLYLINE
  5
C4
330
AC
100
AcDbEntity
  8
AM_9
100
AcDbPolyline
 90
        4
 70
     0
 43
0.0
 10
-0.7842949476808275
 20
2.960201225272872
 10
-0.8240419020605296
 20
2.911045402354488
 10
-0.8451643232437237
 20
2.88737744889345
 10
-0.8671874999852364
 20
2.86448515049934
  0
LINE
  5
C6
330
AC
100
AcDbEntity
  8
AM_5
100
AcDbLine
 10
-0.7616840041572503
 20
2.877881041105033
 30
0.0
 11
-0.6225628934614403
 21
2.734343162994266
 31
0.0
  0
LINE
  5
C7
330
AC
100
AcDbEntity
  8
AM_5
100
AcDbLine
 10
-0.7944432191010212
 20
2.937229431383556
 30
0.0
 11
-0.7616840041572503
 21
2.877881041105033
 31
0.0
  0
LINE
  5
C8
330
AC
100
AcDbEntity
  8
AM_5
100
AcDbLine
 10
-0.8931583516312991
 20
2.746406693630985
 30
0.0
 11
-0.7491090431168806
 21
2.890456002145403
 31
0.0
  0
LINE
  5
C9
330
AC
100
AcDbEntity
  8
AM_5
100
AcDbLine
 10
-0.8805833905909293
 20
2.758981654671354
 30
0.0
 11
-0.7370455124801628
 21
2.619860543975544
 31
0.0
  0
LINE
  5
CA
330
AC
100
AcDbEntity
  8
AM_5
100
AcDbLine
 10
-0.9305426895977966
 20
2.786558264701136
 30
0.0
 11
-0.8805833905909293
 21
2.758981654671354
 31
0.0
  0
LINE
  5
CD
330
AC
100
AcDbEntity
  8
AM_7
100
AcDbLine
 10
-1.154979959928161
 20
3.152277610442265
 30
0.0
 11
-0.6571767859728318
 21
2.654474436486936
 31
0.0
  0
LINE
  5
CF
330
AC
100
AcDbEntity
  8
AM_4
100
AcDbLine
 10
-1.092577786488448
 20
2.780516220233438
 30
0.0
 11
-1.11009504394727
 21
2.750175440305494
 31
0.0
  0
LINE
  5
D0
330
AC
100
AcDbEntity
  8
AM_4
100
AcDbLine
 10
-1.092577786488448
 20
2.780516220233438
 30
0.0
 11
-0.7832185697193338
 21
3.089875437002552
 31
0.0
  0
LINE
  5
D1
330
AC
100
AcDbEntity
  8
AM_4
100
AcDbLine
 10
-1.052207888297738
 20
2.692288284655961
 30
0.0
 11
-1.021867108369794
 21
2.709805542114783
 31
0.0
  0
LINE
  5
D2
330
AC
100
AcDbEntity
  8
AM_4
100
AcDbLine
 10
-1.021867108369794
 20
2.709805542114783
 30
0.0
 11
-0.8671874999852364
 21
2.86448515049934
 31
0.0
  0
LINE
  5
D3
330
AC
100
AcDbEntity
  8
AM_4
100
AcDbLine
 10
-0.75287778979139
 20
3.107392694461374
 30
0.0
 11
-0.7832185697193338
 21
3.089875437002552
 31
0.0
  0
LINE
  5
D4
330
AC
100
AcDbEntity
  8
AM_4
100
AcDbLine
 10
-0.9378981781038912
 20
3.08368825266717
 30
0.0
 11
-0.9591113815394876
 21
3.104901456102767
 31
0.0
  0
LINE
  5
D5
330
AC
100
AcDbEntity
  8
AM_4
100
AcDbLine
 10
-1.107603805588663
 20
2.956409032053592
 30
0.0
 11
-1.086390602153066
 21
2.935195828617995
 31
0.0
  0
LINE
  5
D6
330
AC
100
AcDbEntity
  8
AM_4
100
AcDbLine
 10
-1.086390602153066
 20
2.935195828617995
 30
0.0
 11
-0.9378981781038912
 21
3.08368825266717
 31
0.0
  0
LINE
  5
D7
330
AC
100
AcDbEntity
  8
AM_4
100
AcDbLine
 10
-1.086390602153066
 20
2.935195828617995
 30
0.0
 11
-1.07336089565272
 21
2.902621562367131
 31
0.0
  0
LINE
  5
D8
330
AC
100
AcDbEntity
  8
AM_4
100
AcDbLine
 10
-0.9053239118530264
 20
3.070658546166824
 30
0.0
 11
-0.9378981781038912
 21
3.08368825266717
 31
0.0
  0
LINE
  5
D9
330
AC
100
AcDbEntity
  8
AM_4
100
AcDbLine
 10
-1.107603805588663
 20
2.956409032053592
 30
0.0
 11
-0.9591113815394876
 21
3.104901456102767
 31
0.0
  0
LINE
  5
DA
330
AC
100
AcDbEntity
  8
AM_4
100
AcDbLine
 10
-0.9591113815394876
 20
3.104901456102767
 30
0.0
 11
-0.9803245849750839
 21
3.168541066409556
 31
0.0
  0
LINE
  5
DB
330
AC
100
AcDbEntity
  8
AM_4
100
AcDbLine
 10
-1.171243415895452
 20
2.977622235489188
 30
0.0
 11
-1.107603805588663
 21
2.956409032053592
 31
0.0
  0
LINE
  5
DC
330
AC
100
AcDbEntity
  8
AM_4
100
AcDbLine
 10
-1.204956783665156
 20
3.057045952709331
 30
0.0
 11
-1.059748302195227
 21
3.20225443417926
 31
0.0
  0
LINE
  5
DD
330
AC
100
AcDbEntity
  8
AM_4
100
AcDbLine
 10
-1.171243415895452
 20
2.977622235489188
 30
0.0
 11
-0.9803245849750839
 21
3.168541066409556
 31
0.0
  0
LINE
  5
DE
330
AC
100
AcDbEntity
  8
AM_4
100
AcDbLine
 10
-1.204956783665156
 20
3.057045952709331
 30
0.0
 11
-1.171243415895452
 21
2.977622235489188
 31
0.0
  0
LINE
  5
DF
330
AC
100
AcDbEntity
  8
AM_4
100
AcDbLine
 10
-0.9803245849750839
 20
3.168541066409556
 30
0.0
 11
-1.059748302195227
 21
3.20225443417926
 31
0.0
  0
LINE
  5
E0
330
AC
100
AcDbEntity
  8
AM_4
100
AcDbLine
 10
-0.7528777897913899
 20
3.107392694461374
 30
0.0
 11
-0.7070003934175787
 21
3.061515298087563
 31
0.0
  0
LWPOLYLINE
  5
E1
330
AC
100
AcDbEntity
  8
AM_4
100
AcDbPolyline
 90
        4
 70
     0
 43
0.0
 10
-0.8039417077954361
 20
3.06915229892645
 10
-0.7923491620418494
 20
3.079885831557606
 10
-0.779923253627634
 20
3.089786001528133
 10
-0.7528777897913899
 20
3.107392694461374
  0
LWPOLYLINE
  5
E2
330
AC
100
AcDbEntity
  8
AM_4
100
AcDbPolyline
 90
        4
 70
     0
 43
0.0
 10
-1.11009504394727
 20
2.750175440305494
 10
-1.102201835485025
 20
2.763138869099603
 10
-1.088008780283681
 20
2.783068800799239
 10
-1.071854648412346
 20
2.801239358309541
  0
LINE
  5
E3
330
AC
100
AcDbEntity
  8
AM_4
100
AcDbLine
 10
-1.11009504394727
 20
2.750175440305494
 30
0.0
 11
-1.052207888297738
 21
2.692288284655961
 31
0.0
  0
LWPOLYLINE
  5
E4
330
AC
100
AcDbEntity
  8
AM_4
100
AcDbPolyline
 90
        4
 70
     0
 43
0.0
 10
-1.001143970293692
 20
2.730528680190885
 10
-1.019258256160177
 20
2.714419127916063
 10
-1.039244459503628
 20
2.700181493118207
 10
-1.052207888297738
 20
2.692288284655961
  0
LINE
  5
E5
330
AC
100
AcDbEntity
  8
AM_4
100
AcDbLine
 10
-1.07336089565272
 20
2.902621562367131
 30
0.0
 11
-0.9053239118530264
 21
3.070658546166824
 31
0.0
  0
LINE
  5
E6
330
AC
100
AcDbEntity
  8
AM_4
100
AcDbLine
 10
-1.07336089565272
 20
2.902621562367131
 30
0.0
 11
-1.072851099573292
 21
2.826148751963353
 31
0.0
  0
LINE
  5
E7
330
AC
100
AcDbEntity
  8
AM_4
100
AcDbLine
 10
-0.828851101449249
 20
3.070148750087395
 30
0.0
 11
-0.9053239118530264
 21
3.070658546166824
 31
0.0
  0
LWPOLYLINE
  5
E8
330
AC
100
AcDbEntity
  8
AM_4
100
AcDbPolyline
 90
        4
 70
     0
 43
0.0
 10
-0.8421821033303599
 20
3.018088380922404
 10
-0.8246608432751793
 20
3.045018509516266
 10
-0.8147360157530432
 20
3.057488869316246
 10
-0.8039417077954361
 20
3.06915229892645
  0
LWPOLYLINE
  5
E9
330
AC
100
AcDbEntity
  8
AM_4
100
AcDbPolyline
 90
        4
 70
     0
 43
0.0
 10
-0.9629035747587676
 20
2.781592598194931
 10
-0.9804248348139484
 20
2.754662469601069
 10
-0.9903496623360845
 20
2.742192109801089
 10
-1.001143970293692
 20
2.730528680190885
  0
LWPOLYLINE
  5
EA
330
AC
100
AcDbEntity
  8
AM_4
100
AcDbPolyline
 90
        4
 70
     0
 43
0.0
 10
-1.071854648412346
 20
2.801239358309541
 10
-1.06026210265876
 20
2.811972890940696
 10
-1.047836194244544
 20
2.821873060911223
 10
-1.0207907304083
 20
2.839479753844464
  0
LINE
  5
EB
330
AC
100
AcDbEntity
  8
AM_4
100
AcDbLine
 10
-1.012676061753667
 20
2.71899658873091
 30
0.0
 11
-0.9972512838066704
 21
2.704506691113183
 31
0.0
  0
LINE
  5
EC
330
AC
100
AcDbEntity
  8
AM_4
100
AcDbLine
 10
-1.072851099573292
 20
2.826148751963353
 30
0.0
 11
-0.828851101449249
 21
3.070148750087395
 31
0.0
  0
LINE
  5
ED
330
AC
100
AcDbEntity
  8
AM_4
100
AcDbLine
 10
-1.072851099573292
 20
2.826148751963353
 30
0.0
 11
-1.089042252582516
 21
2.78405175413937
 31
0.0
  0
LINE
  5
EE
330
AC
100
AcDbEntity
  8
AM_4
100
AcDbLine
 10
-0.7867541036252667
 20
3.086339903096619
 30
0.0
 11
-0.828851101449249
 21
3.070148750087395
 31
0.0
  0
LINE
  5
EF
330
AC
100
AcDbEntity
  8
AM_4
100
AcDbLine
 10
-0.8421821033303599
 20
3.018088380922404
 30
0.0
 11
-0.7870939467014074
 21
2.963000224293451
 31
0.0
  0
LWPOLYLINE
  5
F0
330
AC
100
AcDbEntity
  8
AM_4
100
AcDbPolyline
 90
        4
 70
     0
 43
0.0
 10
-0.9378981781038912
 20
2.935195828617995
 10
-0.9151425931579331
 20
2.957092400441522
 10
-0.8915536455513465
 20
2.97815560960442
 10
-0.8421821033303599
 20
3.018088380922404
  0
LWPOLYLINE
  5
F1
330
AC
100
AcDbEntity
  8
AM_4
100
AcDbPolyline
 90
        4
 70
     0
 43
0.0
 10
-1.0207907304083
 20
2.839479753844464
 10
-0.9810437760285979
 20
2.888635576762848
 10
-0.9599213548454038
 20
2.912303530223885
 10
-0.9378981781038912
 20
2.935195828617995
  0
LINE
  5
F2
330
AC
100
AcDbEntity
  8
AM_4
100
AcDbLine
 10
-1.0207907304083
 20
2.839479753844464
 30
0.0
 11
-0.9629035747587676
 21
2.781592598194931
 31
0.0
  0
LWPOLYLINE
  5
F3
330
AC
100
AcDbEntity
  8
AM_4
100
AcDbPolyline
 90
        4
 70
     0
 43
0.0
 10
-0.8671874999852364
 20
2.86448515049934
 10
-0.8899430849311945
 20
2.842588578675813
 10
-0.9135320325377809
 20
2.821525369512915
 10
-0.9629035747587676
 20
2.781592598194931
  0
ENDBLK
  5
AF
330
AC
100
AcDbEntity
  8
0
100
AcDbBlockEnd
  0
BLOCK
  5
F6
330
F4
100
AcDbEntity
  8
0
100
AcDbBlockBegin
  2
4_2_1_2C_0_in_023134_2
 70
     2
 10
0.0
 20
0.0
 30
0.0
  3
4_2_1_2C_0_in_023134_2
  1

  0
ATTDEF
  5
F8
330
F4
100
AcDbEntity
  8
AM_6
100
AcDbText
 10
3.8075
 20
2.0605625
 30
0.0
 40
0.5
  1
E-Type Collar -Inch
100
AcDbAttributeDefinition
  3

  2
NN
 70
     8
280
     0
  0
ATTDEF
  5
F9
330
F4
100
AcDbEntity
  8
AM_6
100
AcDbText
 10
3.8075
 20
1.5605625
 30
0.0
 40
0.5
  1
E-Type Bearings
100
AcDbAttributeDefinition
  3

  2
NT
 70
     8
280
     0
  0
ATTDEF
  5
FA
330
F4
100
AcDbEntity
  8
AM_6
100
AcDbText
 10
3.8075
 20
1.0605625
 30
0.0
 40
0.5
  1
2-1/2C
100
AcDbAttributeDefinition
  3

  2
NB
 70
     8
280
     0
  0
ATTDEF
  5
FB
330
F4
100
AcDbEntity
  8
AM_6
100
AcDbText
 10
3.8075
 20
0.5605625000000001
 30
0.0
 40
0.5
  1
$BORE.C
100
AcDbAttributeDefinition
  3

  2
NBSYN
 70
     8
280
     0
  0
ATTDEF
  5
FC
330
F4
100
AcDbEntity
  8
AM_6
100
AcDbText
 10
3.8075
 20
0.0605625000000001
 30
0.0
 40
0.5
  1
2-1/2C
100
AcDbAttributeDefinition
  3

  2
LINA
 70
     8
280
     0
  0
ATTDEF
  5
FD
330
F4
100
AcDbEntity
  8
AM_6
100
AcDbText
 10
3.8075
 20
-0.4394374999999999
 30
0.0
 40
0.5
  1
2-1/2
100
AcDbAttributeDefinition
  3

  2
BORE
 70
     8
280
     0
  0
ATTDEF
  5
FE
330
F4
100
AcDbEntity
  8
AM_6
100
AcDbText
 10
3.8075
 20
-0.9394374999999999
 30
0.0
 40
0.5
  1
4.06250
100
AcDbAttributeDefinition
  3

  2
L
 70
     8
280
     0
  0
ATTDEF
  5
FF
330
F4
100
AcDbEntity
  8
AM_6
100
AcDbText
 10
3.8075
 20
-1.4394375
 30
0.0
 40
0.5
  1
4.00
100
AcDbAttributeDefinition
  3

  2
A
 70
     8
280
     0
  0
ATTDEF
  5
100
330
F4
100
AcDbEntity
  8
AM_6
100
AcDbText
 10
3.8075
 20
-1.9394375
 30
0.0
 40
0.5
  1
1.70
100
AcDbAttributeDefinition
  3

  2
B
 70
     8
280
     0
  0
ATTDEF
  5
101
330
F4
100
AcDbEntity
  8
AM_6
100
AcDbText
 10
3.8075
 20
-2.4394375
 30
0.0
 40
0.5
  1
2.94
100
AcDbAttributeDefinition
  3

  2
C
 70
     8
280
     0
  0
ATTDEF
  5
102
330
F4
100
AcDbEntity
  8
AM_6
100
AcDbText
 10
3.8075
 20
-2.9394375
 30
0.0
 40
0.5
  1
4.12
100
AcDbAttributeDefinition
  3

  2
D
 70
     8
280
     0
  0
ATTDEF
  5
103
330
F4
100
AcDbEntity
  8
AM_6
100
AcDbText
 10
3.8075
 20
-3.4394375
 30
0.0
 40
0.5
  1
0.41
100
AcDbAttributeDefinition
  3

  2
E
 70
     8
280
     0
  0
ATTDEF
  5
104
330
F4
100
AcDbEntity
  8
AM_6
100
AcDbText
 10
3.8075
 20
-3.9394375
 30
0.0
 40
0.5
  1
0.31
100
AcDbAttributeDefinition
  3

  2
F
 70
     8
280
     0
  0
ATTDEF
  5
105
330
F4
100
AcDbEntity
  8
AM_6
100
AcDbText
 10
3.8075
 20
-4.4394375
 30
0.0
 40
0.5
  1
3/8-16
100
AcDbAttributeDefinition
  3

  2
CS
 70
     8
280
     0
  0
ATTDEF
  5
106
330
F4
100
AcDbEntity
  8
AM_6
100
AcDbText
 10
3.8075
 20
-4.9394375
 30
0.0
 40
0.5
  1
0.3750
100
AcDbAttributeDefinition
  3

  2
NDM
 70
     8
280
     0
  0
ATTDEF
  5
107
330
F4
100
AcDbEntity
  8
AM_6
100
AcDbText
 10
3.8075
 20
-5.4394375
 30
0.0
 40
0.5
  1
0.3070
100
AcDbAttributeDefinition
  3

  2
KDM
 70
     8
280
     0
  0
ATTDEF
  5
108
330
F4
100
AcDbEntity
  8
AM_6
100
AcDbText
 10
3.8075
 20
-5.9394375
 30
0.0
 40
0.5
  1
baldor
100
AcDbAttributeDefinition
  3

  2
COMPANY
 70
     8
280
     0
  0
LINE
  5
109
330
F4
100
AcDbEntity
  8
AM_9
100
AcDbLine
 10
-1.34885
 20
1.47885
 30
0.0
 11
-1.34885
 21
1.9974
 31
0.0
  0
LINE
  5
10A
330
F4
100
AcDbEntity
  8
AM_9
100
AcDbLine
 10
-1.65615
 20
1.9974
 30
0.0
 11
-1.65615
 21
1.47885
 31
0.0
  0
LINE
  5
10B
330
F4
100
AcDbEntity
  8
AM_9
100
AcDbLine
 10
-1.65615
 20
1.47885
 30
0.0
 11
-1.34885
 21
1.47885
 31
0.0
  0
LINE
  5
10C
330
F4
100
AcDbEntity
  8
AM_9
100
AcDbLine
 10
-1.65615
 20
1.47885
 30
0.0
 11
-1.664757593413386
 21
1.470242406586614
 31
0.0
  0
LINE
  5
10D
330
F4
100
AcDbEntity
  8
AM_9
100
AcDbLine
 10
-1.340235870667618
 20
1.470235870667618
 30
0.0
 11
-1.34885
 21
1.47885
 31
0.0
  0
LINE
  5
10E
330
F4
100
AcDbEntity
  8
AM_9
100
AcDbLine
 10
-1.65615
 20
1.9974
 30
0.0
 11
-1.34885
 21
1.9974
 31
0.0
  0
LINE
  5
10F
330
F4
100
AcDbEntity
  8
AM_9
100
AcDbLine
 10
-1.34885
 20
1.9974
 30
0.0
 11
-1.315
 21
2.03125
 31
0.0
  0
LINE
  5
110
330
F4
100
AcDbEntity
  8
AM_9
100
AcDbLine
 10
-1.69
 20
2.03125
 30
0.0
 11
-1.65615
 21
1.9974
 31
0.0
  0
LWPOLYLINE
  5
111
330
F4
100
AcDbEntity
  8
AM_9
100
AcDbPolyline
 90
       38
 70
     0
 43
0.0
 10
-1.381789438370362
 20
0.5146837495901997
 10
-1.367205728926732
 20
0.533395665387327
 10
-1.355577262917381
 20
0.5537257927356822
 10
-1.345895802571748
 20
0.5793069639454874
 10
-1.340795237646095
 20
0.6057766466606562
 10
-1.340497315861997
 20
0.6332314413594383
 10
-1.345179019343003
 20
0.6600965568428381
 10
-1.354902011676165
 20
0.6858111942120637
 10
-1.369374026234256
 20
0.7094555039507517
 10
-1.387961621957355
 20
0.7299599228603243
 10
-1.410369816854495
 20
0.7471624406600673
 10
-1.434775405848487
 20
0.7598840809393814
 10
-1.461421743985311
 20
0.7686191919518975
 10
-1.487672826139211
 20
0.7728099352040113
 10
-1.514377379624312
 20
0.7730491941003077
 10
-1.539620896206091
 20
0.7695031008768268
 10
-1.563836015025139
 20
0.7624416362604652
 10
-1.586574159602232
 20
0.7519380922144729
 10
-1.607091196266356
 20
0.7384022811345642
 10
-1.625755087034343
 20
0.7212715702002607
 10
-1.641099152053088
 20
0.7016531834582257
 10
-1.653378021810585
 20
0.6786357754527865
 10
-1.661354740441031
 20
0.653953065992132
 10
-1.664870073700271
 20
0.6271002309954915
 10
-1.663476259825302
 20
0.5998334414846981
 10
-1.656998321371628
 20
0.5724815177461745
 10
-1.645620512588065
 20
0.5462978730967153
 10
-1.629688425922101
 20
0.5223442253456689
 10
-1.609553118707599
 20
0.5011961950238533
 10
-1.586618876585749
 20
0.4843112398157979
 10
-1.560872362384886
 20
0.4714948147030074
 10
-1.534823361674165
 20
0.4637829448334964
 10
-1.507753692110981
 20
0.4605357747473236
 10
-1.481975178627994
 20
0.4617948268101639
 10
-1.456782242319745
 20
0.4671394148390464
 10
-1.433082022152444
 20
0.4763093135388531
 10
-1.411229825610207
 20
0.4889197175227187
 10
-1.381789438370362
 20
0.5146837495901998
  0
LINE
  5
112
330
F4
100
AcDbEntity
  8
AM_9
100
AcDbLine
 10
-1.8125
 20
-1.47
 30
0.0
 11
-1.1925
 21
-1.47
 31
0.0
  0
LINE
  5
113
330
F4
100
AcDbEntity
  8
AM_9
100
AcDbLine
 10
-1.1925
 20
1.47
 30
0.0
 11
-1.340538830069028
 21
1.47
 31
0.0
  0
LINE
  5
114
330
F4
100
AcDbEntity
  8
AM_9
100
AcDbLine
 10
-1.664446352836781
 20
1.47
 30
0.0
 11
-1.8125
 21
1.47
 31
0.0
  0
LWPOLYLINE
  5
115
330
F4
100
AcDbEntity
  8
AM_9
100
AcDbPolyline
 90
       21
 70
     0
 43
0.0
 10
-1.664999999999877
 20
1.469999999999984
 10
-1.664704694987161
 20
1.469963330931792
 10
-1.660390339424635
 20
1.469434979268364
 10
-1.651253413306858
 20
1.468361743863902
 10
-1.636964619652971
 20
1.466808455843292
 10
-1.619023936179177
 20
1.465075748064412
 10
-1.596540770599332
 20
1.463249050051434
 10
-1.572722462372669
 20
1.461735503021439
 10
-1.545731656816433
 20
1.460548397930296
 10
-1.51990785885086
 20
1.459940495715826
 10
-1.492721677539698
 20
1.459859932564025
 10
-1.467751116569448
 20
1.460291675631193
 10
-1.443061129721632
 20
1.461193739523056
 10
-1.420471313926026
 20
1.462431313695708
 10
-1.399505878699983
 20
1.463930347093519
 10
-1.380846267382886
 20
1.465546352084191
 10
-1.365043745800934
 20
1.467120992139931
 10
-1.352581910056273
 20
1.468495087636685
 10
-1.344136785972304
 20
1.469492214862596
 10
-1.340237211153408
 20
1.469970539544335
 10
-1.340000000000197
 20
1.469999999999975
  0
LINE
  5
116
330
F4
100
AcDbEntity
  8
AM_9
100
AcDbLine
 10
-1.38292145940152
 20
1.46535357508323
 30
0.0
 11
-1.386139819734366
 21
1.465061053601682
 31
0.0
  0
LINE
  5
117
330
F4
100
AcDbEntity
  8
AM_9
100
AcDbLine
 10
-1.340000000000197
 20
1.469999999999975
 30
0.0
 11
-1.344651081716002
 21
1.469429973668601
 31
0.0
  0
ELLIPSE
  5
118
330
F4
100
AcDbEntity
  8
AM_9
100
AcDbEllipse
 10
-1.5025
 20
0.6249890163752331
 30
0.0
 11
0.1536500000000001
 21
0.0
 31
0.0
210
0.0
220
0.0
230
1.0
 40
0.9063077870366505
 41
2.235879076071466
 42
3.141592653589793
  0
LINE
  5
119
330
F4
100
AcDbEntity
  8
AM_9
100
AcDbLine
 10
-1.34885
 20
0.6249890163752333
 30
0.0
 11
-1.34885
 21
0.8441377160008731
 31
0.0
  0
LINE
  5
11A
330
F4
100
AcDbEntity
  8
AM_9
100
AcDbLine
 10
-1.65615
 20
0.8441377160008731
 30
0.0
 11
-1.65615
 21
0.6249890163752333
 31
0.0
  0
ELLIPSE
  5
11B
330
F4
100
AcDbEntity
  8
AM_9
100
AcDbEllipse
 10
-1.5025
 20
0.6249890163752333
 30
0.0
 11
0.1536500000000001
 21
0.0
 31
0.0
210
0.0
220
0.0
230
1.0
 40
0.9063077870366505
 41
3.141592653589793
 42
7.188898884697914
  0
LINE
  5
11C
330
F4
100
AcDbEntity
  8
AM_5
100
AcDbLine
 10
-1.69
 20
2.03125
 30
0.0
 11
-1.69
 21
1.47
 31
0.0
  0
LINE
  5
11D
330
F4
100
AcDbEntity
  8
AM_5
100
AcDbLine
 10
-1.315
 20
2.03125
 30
0.0
 11
-1.315
 21
1.47
 31
0.0
  0
LINE
  5
11E
330
F4
100
AcDbEntity
  8
AM_7
100
AcDbLine
 10
-1.5025
 20
2.0605625
 30
0.0
 11
-1.5025
 21
-0.0753846153846154
 31
0.0
  0
ELLIPSE
  5
11F
330
F4
100
AcDbEntity
  8
AM_4
100
AcDbEllipse
 10
-1.5025
 20
0.6249890163752344
 30
0.0
 11
0.1536499999999987
 21
0.0
 31
0.0
210
0.0
220
0.0
230
1.0
 40
0.9063077870366504
 41
0.9057135775183225
 42
2.235879076071469
  0
LINE
  5
120
330
F4
100
AcDbEntity
  8
AM_4
100
AcDbLine
 10
-1.8125
 20
1.927916666666667
 30
0.0
 11
-1.8125
 21
-1.927916666666667
 31
0.0
  0
ARC
  5
121
330
F4
100
AcDbEntity
  8
AM_4
100
AcDbCircle
 10
-1.709166666666666
 20
-1.927916666666666
 30
0.0
 40
0.1033333333333339
100
AcDbArc
 50
180.0
 51
270.0
  0
ARC
  5
122
330
F4
100
AcDbEntity
  8
AM_4
100
AcDbCircle
 10
-1.709166666666666
 20
1.927916666666666
 30
0.0
 40
0.1033333333333339
100
AcDbArc
 50
90.0
 51
179.9999991462263
  0
LWPOLYLINE
  5
123
330
F4
100
AcDbEntity
  8
AM_4
100
AcDbPolyline
 90
       38
 70
     0
 43
0.0
 10
-1.359570705293375
 20
0.7517660994475587
 10
-1.379172137683651
 20
0.7340240845006035
 10
-1.401347159619536
 20
0.7190808457793569
 10
-1.429240961797478
 20
0.7058410427565713
 10
-1.459055141894784
 20
0.6969729168029961
 10
-1.491013000457022
 20
0.6926921268128664
 10
-1.523285716259739
 20
0.6934025263490667
 10
-1.555454677460487
 20
0.6992790809403207
 10
-1.58611408782087
 20
0.7101265778736733
 10
-1.614160044583945
 20
0.7256139653596464
 10
-1.638943637532696
 20
0.7453002672348101
 10
-1.659063918051434
 20
0.7679761972836505
 10
-1.674620635656467
 20
0.7934177361282476
 10
-1.684616596303496
 20
0.819649671075944
 10
-1.689528004913196
 20
0.8468968648124913
 10
-1.689193637668492
 20
0.8732938233921331
 10
-1.68398251129042
 20
0.8990953747037947
 10
-1.674123849402899
 20
0.9233504462743256
 10
-1.659989732026093
 20
0.945712451683705
 10
-1.641504317200677
 20
0.9660716685324106
 10
-1.619566043113323
 20
0.9834680517021913
 10
-1.593672056482904
 20
0.9980309116205284
 10
-1.565433056551788
 20
1.008735439579442
 10
-1.534410891950673
 20
1.015515635531445
 10
-1.502526945247891
 20
1.017809724108686
 10
-1.469956111866257
 20
1.0154222800121
 10
-1.438302672949687
 20
1.008354914458461
 10
-1.408477436697594
 20
0.9966704912144219
 10
-1.381383334006796
 20
0.9806671568216612
 10
-1.358390720485193
 20
0.9610956736041052
 10
-1.339619115011542
 20
0.9381767645037178
 10
-1.326275085782116
 20
0.913533584712539
 10
-1.317940523298934
 20
0.8870226721215105
 10
-1.315036631114294
 20
0.8605809500955569
 10
-1.317134957275816
 20
0.8339004735777731
 10
-1.324045326578185
 20
0.8082818371173552
 10
-1.335449818905222
 20
0.7839007875900547
 10
-1.359570705266322
 20
0.7517660994071064
  0
LINE
  5
124
330
F4
100
AcDbEntity
  8
AM_4
100
AcDbLine
 10
-1.709166666666667
 20
-2.03125
 30
0.0
 11
-1.1925
 21
-2.03125
 31
0.0
  0
LINE
  5
125
330
F4
100
AcDbEntity
  8
AM_4
100
AcDbLine
 10
-1.1925
 20
2.03125
 30
0.0
 11
-1.315
 21
2.03125
 31
0.0
  0
LINE
  5
126
330
F4
100
AcDbEntity
  8
AM_4
100
AcDbLine
 10
-1.69
 20
2.03125
 30
0.0
 11
-1.709166666666667
 21
2.03125
 31
0.0
  0
LINE
  5
127
330
F4
100
AcDbEntity
  8
AM_4
100
AcDbLine
 10
-1.709166666666667
 20
2.03125
 30
0.0
 11
-1.709166666666667
 21
-2.03125
 31
0.0
  0
LWPOLYLINE
  5
128
330
F4
100
AcDbEntity
  8
AM_4
100
AcDbPolyline
 90
       20
 70
     0
 43
0.0
 10
-1.315000000000011
 20
2.031249999999999
 10
-1.31736929297898
 20
2.03105102523948
 10
-1.324366795369221
 20
2.030477942861427
 10
-1.336136036420325
 20
2.029563245768623
 10
-1.351925463588468
 20
2.028433227628702
 10
-1.371934434832376
 20
2.027161591354826
 10
-1.395478565855643
 20
2.025895633551818
 10
-1.422415778195619
 20
2.024753736269771
 10
-1.451825310202632
 20
2.023881682247449
 10
-1.483411222254348
 20
2.023381675578007
 10
-1.515498300078744
 20
2.023337320520983
 10
-1.54812690986095
 20
2.023771398522443
 10
-1.578776361523808
 20
2.024618763205512
 10
-1.608090139331721
 20
2.025826721945777
 10
-1.633118678455015
 20
2.027164729078158
 10
-1.655009445242505
 20
2.028565711567188
 10
-1.671173086421113
 20
2.029737839284003
 10
-1.682874684485277
 20
2.030659144469329
 10
-1.688798446041334
 20
2.031148780959285
 10
-1.689999999999953
 20
2.031249999999996
  0
LINE
  5
129
330
F4
100
AcDbEntity
  8
AM_4
100
AcDbLine
 10
-1.1925
 20
2.03125
 30
0.0
 11
-1.1925
 21
-2.03125
 31
0.0
  0
ELLIPSE
  5
12A
330
F4
100
AcDbEntity
  8
AM_4
100
AcDbEllipse
 10
-1.5025
 20
0.8441377160008731
 30
0.0
 11
0.1536500000000001
 21
0.0
 31
0.0
210
0.0
220
0.0
230
1.0
 40
0.9063077870366498
 41
0.0
 42
6.283185307179586
  0
ENDBLK
  5
F7
330
F4
100
AcDbEntity
  8
0
100
AcDbBlockEnd
  0
BLOCK
  5
12D
330
12B
100
AcDbEntity
  8
0
100
AcDbBlockBegin
  2
5_2_1_2I_0_in_023134_2
 70
     2
 10
0.0
 20
0.0
 30
0.0
  3
5_2_1_2I_0_in_023134_2
  1

  0
ATTDEF
  5
12F
330
12B
100
AcDbEntity
  8
AM_6
100
AcDbText
 10
7.1875
 20
2.06
 30
0.0
 40
0.5
  1
E-Type Insert -Inch
100
AcDbAttributeDefinition
  3

  2
NN
 70
     8
280
     0
  0
ATTDEF
  5
130
330
12B
100
AcDbEntity
  8
AM_6
100
AcDbText
 10
7.1875
 20
1.56
 30
0.0
 40
0.5
  1
E-Type Bearings
100
AcDbAttributeDefinition
  3

  2
NT
 70
     8
280
     0
  0
ATTDEF
  5
131
330
12B
100
AcDbEntity
  8
AM_6
100
AcDbText
 10
7.1875
 20
1.06
 30
0.0
 40
0.5
  1
2-1/2I
100
AcDbAttributeDefinition
  3

  2
NB
 70
     8
280
     0
  0
ATTDEF
  5
132
330
12B
100
AcDbEntity
  8
AM_6
100
AcDbText
 10
7.1875
 20
0.56
 30
0.0
 40
0.5
  1
$BORE.I
100
AcDbAttributeDefinition
  3

  2
NBSYN
 70
     8
280
     0
  0
ATTDEF
  5
133
330
12B
100
AcDbEntity
  8
AM_6
100
AcDbText
 10
7.1875
 20
0.0600000000000001
 30
0.0
 40
0.5
  1
2-1/2I
100
AcDbAttributeDefinition
  3

  2
LINA
 70
     8
280
     0
  0
ATTDEF
  5
134
330
12B
100
AcDbEntity
  8
AM_6
100
AcDbText
 10
7.1875
 20
-0.4399999999999999
 30
0.0
 40
0.5
  1
2-1/2
100
AcDbAttributeDefinition
  3

  2
BORE
 70
     8
280
     0
  0
ATTDEF
  5
135
330
12B
100
AcDbEntity
  8
AM_6
100
AcDbText
 10
7.1875
 20
-0.94
 30
0.0
 40
0.5
  1
4.00
100
AcDbAttributeDefinition
  3

  2
A
 70
     8
280
     0
  0
ATTDEF
  5
136
330
12B
100
AcDbEntity
  8
AM_6
100
AcDbText
 10
7.1875
 20
-1.44
 30
0.0
 40
0.5
  1
1.70
100
AcDbAttributeDefinition
  3

  2
B
 70
     8
280
     0
  0
ATTDEF
  5
137
330
12B
100
AcDbEntity
  8
AM_6
100
AcDbText
 10
7.1875
 20
-1.94
 30
0.0
 40
0.5
  1
2.94
100
AcDbAttributeDefinition
  3

  2
C
 70
     8
280
     0
  0
ATTDEF
  5
138
330
12B
100
AcDbEntity
  8
AM_6
100
AcDbText
 10
7.1875
 20
-2.44
 30
0.0
 40
0.5
  1
4.12
100
AcDbAttributeDefinition
  3

  2
D
 70
     8
280
     0
  0
ATTDEF
  5
139
330
12B
100
AcDbEntity
  8
AM_6
100
AcDbText
 10
7.1875
 20
-2.94
 30
0.0
 40
0.5
  1
0.41
100
AcDbAttributeDefinition
  3

  2
E
 70
     8
280
     0
  0
ATTDEF
  5
13A
330
12B
100
AcDbEntity
  8
AM_6
100
AcDbText
 10
7.1875
 20
-3.44
 30
0.0
 40
0.5
  1
0.31
100
AcDbAttributeDefinition
  3

  2
F
 70
     8
280
     0
  0
ATTDEF
  5
13B
330
12B
100
AcDbEntity
  8
AM_6
100
AcDbText
 10
7.1875
 20
-3.94
 30
0.0
 40
0.5
  1
baldor
100
AcDbAttributeDefinition
  3

  2
COMPANY
 70
     8
280
     0
  0
LINE
  5
13C
330
12B
100
AcDbEntity
  8
AM_9
100
AcDbLine
 10
1.6725
 20
1.469999999999999
 30
0.0
 11
1.6725
 21
1.25
 31
0.0
  0
LINE
  5
13D
330
12B
100
AcDbEntity
  8
AM_9
100
AcDbLine
 10
2.0825
 20
1.25
 30
0.0
 11
2.0825
 21
1.469999999999999
 31
0.0
  0
LINE
  5
13E
330
12B
100
AcDbEntity
  8
AM_9
100
AcDbLine
 10
-1.7075
 20
1.469999999999999
 30
0.0
 11
-1.7075
 21
1.25
 31
0.0
  0
LINE
  5
13F
330
12B
100
AcDbEntity
  8
AM_9
100
AcDbLine
 10
-1.2975
 20
1.25
 30
0.0
 11
-1.2975
 21
1.469999999999999
 31
0.0
  0
LINE
  5
140
330
12B
100
AcDbEntity
  8
AM_9
100
AcDbLine
 10
-1.8125
 20
-1.25
 30
0.0
 11
2.1875
 21
-1.25
 31
0.0
  0
LINE
  5
141
330
12B
100
AcDbEntity
  8
AM_9
100
AcDbLine
 10
2.1875
 20
1.25
 30
0.0
 11
2.0825
 21
1.25
 31
0.0
  0
LINE
  5
142
330
12B
100
AcDbEntity
  8
AM_9
100
AcDbLine
 10
1.6725
 20
1.25
 30
0.0
 11
-1.2975
 21
1.25
 31
0.0
  0
LINE
  5
143
330
12B
100
AcDbEntity
  8
AM_9
100
AcDbLine
 10
-1.7075
 20
1.25
 30
0.0
 11
-1.8125
 21
1.25
 31
0.0
  0
LWPOLYLINE
  5
144
330
12B
100
AcDbEntity
  8
AM_9
100
AcDbPolyline
 90
       21
 70
     0
 43
0.0
 10
1.672500000000485
 20
1.249999999999921
 10
1.673729509886364
 20
1.249798948887841
 10
1.680132472255402
 20
1.248770972199472
 10
1.692241097455118
 20
1.246914536354491
 10
1.70912645014392
 20
1.244517839282
 10
1.73121518652564
 20
1.241722290471274
 10
1.757016710414575
 20
1.238947627250371
 10
1.787051489292007
 20
1.236388261465343
 10
1.818842139083068
 20
1.234469823303653
 10
1.853305415863342
 20
1.233312765644443
 10
1.887089849884273
 20
1.233112713915805
 10
1.921579788870162
 20
1.233863050661149
 10
1.953671403173999
 20
1.235425870969803
 10
1.984507342922417
 20
1.237709809058374
 10
2.011795855219901
 20
1.240367033070956
 10
2.03603713519531
 20
1.243225250401526
 10
2.055410953991253
 20
1.245844014132619
 10
2.070204378975011
 20
1.248042458282628
 10
2.079123168448183
 20
1.249450640103515
 10
2.082489051047757
 20
1.249998204418494
 10
2.08249999999976
 20
1.249999999999961
  0
LWPOLYLINE
  5
145
330
12B
100
AcDbEntity
  8
AM_9
100
AcDbPolyline
 90
       21
 70
     0
 43
0.0
 10
-1.707499999999515
 20
1.249999999999921
 10
-1.706270490113636
 20
1.249798948887841
 10
-1.699867527744598
 20
1.248770972199472
 10
-1.687758902544882
 20
1.246914536354491
 10
-1.67087354985608
 20
1.244517839282
 10
-1.64878481347436
 20
1.241722290471274
 10
-1.622983289585425
 20
1.238947627250371
 10
-1.592948510707993
 20
1.236388261465343
 10
-1.561157860916933
 20
1.234469823303653
 10
-1.526694584136658
 20
1.233312765644443
 10
-1.492910150115728
 20
1.233112713915805
 10
-1.458420211129838
 20
1.233863050661149
 10
-1.426328596826001
 20
1.235425870969803
 10
-1.395492657077583
 20
1.237709809058374
 10
-1.368204144780099
 20
1.240367033070956
 10
-1.34396286480469
 20
1.243225250401526
 10
-1.324589046008747
 20
1.245844014132619
 10
-1.309795621024989
 20
1.248042458282628
 10
-1.300876831551817
 20
1.249450640103515
 10
-1.297510948952243
 20
1.249998204418494
 10
-1.29750000000024
 20
1.249999999999961
  0
LWPOLYLINE
  5
146
330
12B
100
AcDbEntity
  8
AM_9
100
AcDbPolyline
 90
        4
 70
     0
 43
0.0
 10
-1.70078329513471
 20
0.5749839731181282
 10
-1.702249301276474
 20
0.5696942970342385
 10
-1.707117484081847
 20
0.5395909529632144
 10
-1.707499999321503
 20
0.5282879432990742
  0
LWPOLYLINE
  5
147
330
12B
100
AcDbEntity
  8
AM_9
100
AcDbPolyline
 90
        5
 70
     0
 43
0.0
 10
-1.652308357712921
 20
0.6517783189509094
 10
-1.654385502316524
 20
0.649839117977959
 10
-1.675558476093788
 20
0.6258214560997338
 10
-1.691409418588085
 20
0.5993541695095864
 10
-1.70078329513471
 20
0.5749839731181282
  0
LWPOLYLINE
  5
148
330
12B
100
AcDbEntity
  8
AM_9
100
AcDbPolyline
 90
        6
 70
     0
 43
0.0
 10
-1.510823367430826
 20
0.706771956713845
 10
-1.536168638790983
 20
0.7045846009297264
 10
-1.569837277581966
 20
0.6973806103694619
 10
-1.600668457615583
 20
0.6858741331958658
 10
-1.629575228579358
 20
0.6696714838083072
 10
-1.652308357712921
 20
0.6517783189509094
  0
LINE
  5
149
330
12B
100
AcDbEntity
  8
AM_9
100
AcDbLine
 10
-1.7075
 20
0.6212443873315786
 30
0.0
 11
-1.7075
 21
0.5282254139434219
 31
0.0
  0
LINE
  5
14A
330
12B
100
AcDbEntity
  8
AM_9
100
AcDbLine
 10
-1.2975
 20
0.5282616046692952
 30
0.0
 11
-1.2975
 21
0.6212090516748283
 31
0.0
  0
LWPOLYLINE
  5
14B
330
12B
100
AcDbEntity
  8
AM_9
100
AcDbPolyline
 90
       21
 70
     0
 43
0.0
 10
-1.707499999321503
 20
0.5282879432990742
 10
-1.706270490113636
 20
0.5078698342292753
 10
-1.699867527744598
 20
0.4775284354495404
 10
-1.687758902544882
 20
0.4474192965775411
 10
-1.67087354985608
 20
0.4199708448777718
 10
-1.64878481347436
 20
0.3946135924141317
 10
-1.622983289585425
 20
0.3732837667975327
 10
-1.592948510707993
 20
0.3557890164000164
 10
-1.561157860916933
 20
0.3436845816524355
 10
-1.526694584136658
 20
0.3367259204044039
 10
-1.492910150115728
 20
0.335546256427582
 10
-1.458420211129838
 20
0.340005865208453
 10
-1.426328596826
 20
0.3496221433130131
 10
-1.395492657077582
 20
0.3646059116727089
 10
-1.368204144780099
 20
0.3838275170164405
 10
-1.34396286480469
 20
0.4076211393499961
 10
-1.324589046008747
 20
0.4342122317596547
 10
-1.309795621024988
 20
0.4640686138745475
 10
-1.300876831551817
 20
0.4944571178528605
 10
-1.297510948952243
 20
0.5263518610072415
 10
-1.29750000033632
 20
0.5282621846432627
  0
LWPOLYLINE
  5
14C
330
12B
100
AcDbEntity
  8
AM_9
100
AcDbPolyline
 90
        6
 70
     0
 43
0.0
 10
-1.351200999216584
 20
0.6503927700073479
 10
-1.362954708866263
 20
0.6605501048333338
 10
-1.390462805336615
 20
0.678858176731048
 10
-1.420539959001493
 20
0.6925680626966946
 10
-1.453914761031923
 20
0.7020242858426744
 10
-1.491710492075649
 20
0.7066757262749189
  0
LWPOLYLINE
  5
14D
330
12B
100
AcDbEntity
  8
AM_9
100
AcDbPolyline
 90
        5
 70
     0
 43
0.0
 10
-1.303879296791042
 20
0.5738258383616085
 10
-1.308132353440761
 20
0.5866122712079047
 10
-1.321395857524295
 20
0.613764943006507
 10
-1.34009069369696
 20
0.6389934917559867
 10
-1.351200999216584
 20
0.6503927700073479
  0
LWPOLYLINE
  5
14E
330
12B
100
AcDbEntity
  8
AM_9
100
AcDbPolyline
 90
        3
 70
     0
 43
0.0
 10
-1.29750000033632
 20
0.5282621846432627
 10
-1.299933260753626
 20
0.5566461680183014
 10
-1.303879296791042
 20
0.5738258383616085
  0
LWPOLYLINE
  5
14F
330
12B
100
AcDbEntity
  8
AM_9
100
AcDbPolyline
 90
       21
 70
     0
 43
0.0
 10
-1.297500000764301
 20
0.6212648882383816
 10
-1.298769790940304
 20
0.6005270811700684
 10
-1.305416387987285
 20
0.5697244006287627
 10
-1.317505406575552
 20
0.5400731111374376
 10
-1.334826662054247
 20
0.5123838179549528
 10
-1.356793346991632
 20
0.4875599373016697
 10
-1.38309611052346
 20
0.466244207318571
 10
-1.412782365402957
 20
0.4492902770233033
 10
-1.445084775341658
 20
0.4373214580255931
 10
-1.479036539167731
 20
0.4306859754589515
 10
-1.513383725771878
 20
0.4296858064352356
 10
-1.547421926545163
 20
0.4341935961795557
 10
-1.580032713685614
 20
0.4440790393074447
 10
-1.610479976640759
 20
0.4589384412991212
 10
-1.63805969891944
 20
0.4784917840481279
 10
-1.661851424487539
 20
0.5019708780063699
 10
-1.681262329118804
 20
0.5288946185330613
 10
-1.695618536628131
 20
0.5582356776910137
 10
-1.704406051146466
 20
0.5890213510587594
 10
-1.707497909501705
 20
0.6204096645978546
 10
-1.707499999910733
 20
0.6212433618124849
  0
LWPOLYLINE
  5
150
330
12B
100
AcDbEntity
  8
AM_9
100
AcDbPolyline
 90
        5
 70
     0
 43
0.0
 10
-1.627056225029898
 20
0.7649923567211644
 10
-1.613093176643088
 20
0.7733887608419929
 10
-1.582442272724457
 20
0.7871704464638192
 10
-1.549499292283115
 20
0.7963430923755211
 10
-1.5025
 20
0.800971283344228
  0
LWPOLYLINE
  5
151
330
12B
100
AcDbEntity
  8
AM_9
100
AcDbPolyline
 90
        7
 70
     0
 43
0.0
 10
-1.707499999910733
 20
0.6212433618124849
 10
-1.704765850087044
 20
0.6512157025837275
 10
-1.696423388871479
 20
0.6808587422273499
 10
-1.682647914698168
 20
0.7085024323850196
 10
-1.663901901534925
 20
0.7334965180114494
 10
-1.640435396191295
 20
0.755355172483647
 10
-1.627056225029898
 20
0.7649923567211644
  0
LWPOLYLINE
  5
152
330
12B
100
AcDbEntity
  8
AM_9
100
AcDbPolyline
 90
        4
 70
     0
 43
0.0
 10
1.67921670486529
 20
0.5749839731181282
 10
1.677750698723526
 20
0.5696942970342385
 10
1.672882515918153
 20
0.5395909529632144
 10
1.672500000678497
 20
0.5282879432990742
  0
LWPOLYLINE
  5
153
330
12B
100
AcDbEntity
  8
AM_9
100
AcDbPolyline
 90
        6
 70
     0
 43
0.0
 10
1.767749309754064
 20
0.680104498004903
 10
1.750424771420642
 20
0.6696714838083072
 10
1.725614497683476
 20
0.649839117977959
 10
1.704441523906212
 20
0.6258214560997338
 10
1.688590581411915
 20
0.5993541695095864
 10
1.67921670486529
 20
0.5749839731181282
  0
LWPOLYLINE
  5
154
330
12B
100
AcDbEntity
  8
AM_9
100
AcDbPolyline
 90
        5
 70
     0
 43
0.0
 10
1.8775
 20
0.7069132884104561
 10
1.843831361209017
 20
0.7045846009297264
 10
1.810162722418034
 20
0.6973806103694619
 10
1.779331542384417
 20
0.6858741331958658
 10
1.767749309754064
 20
0.680104498004903
  0
LINE
  5
155
330
12B
100
AcDbEntity
  8
AM_9
100
AcDbLine
 10
1.6725
 20
0.6212443873315786
 30
0.0
 11
1.6725
 21
0.5282254139434219
 31
0.0
  0
LINE
  5
156
330
12B
100
AcDbEntity
  8
AM_9
100
AcDbLine
 10
2.0825
 20
0.5282616046692952
 30
0.0
 11
2.0825
 21
0.6212090516748283
 31
0.0
  0
LWPOLYLINE
  5
157
330
12B
100
AcDbEntity
  8
AM_9
100
AcDbPolyline
 90
        4
 70
     0
 43
0.0
 10
2.07840055830123
 20
0.491021595924937
 10
2.079123168448183
 20
0.4944571178528605
 10
2.082489051047757
 20
0.5263518610072415
 10
2.08249999966368
 20
0.5282621846432627
  0
LWPOLYLINE
  5
158
330
12B
100
AcDbEntity
  8
AM_9
100
AcDbPolyline
 90
       19
 70
     0
 43
0.0
 10
1.672500000678497
 20
0.5282879432990742
 10
1.673729509886364
 20
0.5078698342292753
 10
1.680132472255402
 20
0.4775284354495404
 10
1.692241097455118
 20
0.4474192965775411
 10
1.70912645014392
 20
0.4199708448777718
 10
1.73121518652564
 20
0.3946135924141317
 10
1.757016710414575
 20
0.3732837667975327
 10
1.787051489292007
 20
0.3557890164000164
 10
1.818842139083068
 20
0.3436845816524355
 10
1.853305415863342
 20
0.3367259204044039
 10
1.887089849884273
 20
0.335546256427582
 10
1.921579788870162
 20
0.340005865208453
 10
1.953671403174
 20
0.3496221433130131
 10
1.984507342922418
 20
0.3646059116727089
 10
2.011795855219901
 20
0.3838275170164405
 10
2.03603713519531
 20
0.4076211393499961
 10
2.055410953991253
 20
0.4342122317596547
 10
2.070204378975012
 20
0.4640686138745475
 10
2.07840055830123
 20
0.491021595924937
  0
LWPOLYLINE
  5
159
330
12B
100
AcDbEntity
  8
AM_9
100
AcDbPolyline
 90
        9
 70
     0
 43
0.0
 10
2.076120703208958
 20
0.5738258383616085
 10
2.07186764655924
 20
0.5866122712079047
 10
2.058604142475705
 20
0.613764943006507
 10
2.03990930630304
 20
0.6389934917559867
 10
2.017045291133738
 20
0.6605501048333338
 10
1.989537194663385
 20
0.678858176731048
 10
1.959460040998507
 20
0.6925680626966946
 10
1.926085238968077
 20
0.7020242858426744
 10
1.8775
 20
0.7069132884104561
  0
LINE
  5
15A
330
12B
100
AcDbEntity
  8
AM_9
100
AcDbLine
 10
2.078644671174828
 20
0.5638710784646961
 30
0.0
 11
2.076120703208958
 21
0.5738258383616085
 31
0.0
  0
LWPOLYLINE
  5
15B
330
12B
100
AcDbEntity
  8
AM_9
100
AcDbPolyline
 90
        3
 70
     0
 43
0.0
 10
2.08249999966368
 20
0.5282621846432627
 10
2.080066739246374
 20
0.5566461680183014
 10
2.078644671174828
 20
0.5638710784646961
  0
LWPOLYLINE
  5
15C
330
12B
100
AcDbEntity
  8
AM_9
100
AcDbPolyline
 90
        8
 70
     0
 43
0.0
 10
1.768050220274401
 20
0.4598179675204908
 10
1.74194030108056
 20
0.4784917840481279
 10
1.718148575512461
 20
0.5019708780063699
 10
1.698737670881196
 20
0.5288946185330613
 10
1.684381463371869
 20
0.5582356776910137
 10
1.675593948853534
 20
0.5890213510587594
 10
1.672502090498295
 20
0.6204096645978546
 10
1.672500000089267
 20
0.6212433618124849
  0
LWPOLYLINE
  5
15D
330
12B
100
AcDbEntity
  8
AM_9
100
AcDbPolyline
 90
       14
 70
     0
 43
0.0
 10
2.078833115006656
 20
0.5860509492486455
 10
2.074583612012715
 20
0.5697244006287627
 10
2.062494593424448
 20
0.5400731111374376
 10
2.045173337945753
 20
0.5123838179549528
 10
2.023206653008368
 20
0.4875599373016697
 10
1.99690388947654
 20
0.466244207318571
 10
1.967217634597043
 20
0.4492902770233033
 10
1.934915224658343
 20
0.4373214580255931
 10
1.900963460832269
 20
0.4306859754589515
 10
1.866616274228122
 20
0.4296858064352356
 10
1.832578073454837
 20
0.4341935961795557
 10
1.799967286314386
 20
0.4440790393074447
 10
1.769520023359241
 20
0.4589384412991212
 10
1.768050220274401
 20
0.4598179675204908
  0
LWPOLYLINE
  5
15E
330
12B
100
AcDbEntity
  8
AM_9
100
AcDbPolyline
 90
        3
 70
     0
 43
0.0
 10
2.082499999235699
 20
0.6212648882383816
 10
2.081230209059695
 20
0.6005270811700684
 10
2.078833115006656
 20
0.5860509492486455
  0
LWPOLYLINE
  5
15F
330
12B
100
AcDbEntity
  8
AM_9
100
AcDbPolyline
 90
        4
 70
     0
 43
0.0
 10
1.768064492105599
 20
0.7740191852737441
 10
1.797557727275544
 20
0.7871704464638192
 10
1.830500707716885
 20
0.7963430923755211
 10
1.8775
 20
0.800971283344228
  0
LWPOLYLINE
  5
160
330
12B
100
AcDbEntity
  8
AM_9
100
AcDbPolyline
 90
        8
 70
     0
 43
0.0
 10
1.672500000089267
 20
0.6212433618124849
 10
1.675234149912956
 20
0.6512157025837275
 10
1.683576611128521
 20
0.6808587422273499
 10
1.697352085301832
 20
0.7085024323850196
 10
1.716098098465075
 20
0.7334965180114494
 10
1.739564603808704
 20
0.755355172483647
 10
1.766906823356911
 20
0.7733887608419929
 10
1.768064492105599
 20
0.7740191852737441
  0
LWPOLYLINE
  5
161
330
12B
100
AcDbEntity
  8
AM_9
100
AcDbPolyline
 90
        8
 70
     0
 43
0.0
 10
-1.377496247029528
 20
0.7646973473754871
 10
-1.375150483436233
 20
0.7631226077835981
 10
-1.350049255928544
 20
0.7427291822337232
 10
-1.329226005882894
 20
0.7188069979816564
 10
-1.313273625633185
 20
0.6917725498070586
 10
-1.302680492161406
 20
0.6624514986069256
 10
-1.297853877162551
 20
0.6318063993270573
 10
-1.297500000764301
 20
0.6212648882383816
  0
LWPOLYLINE
  5
162
330
12B
100
AcDbEntity
  8
AM_9
100
AcDbPolyline
 90
        5
 70
     0
 43
0.0
 10
-1.5025
 20
0.800971283344228
 10
-1.468274677095872
 20
0.798516892145376
 10
-1.435018628677903
 20
0.7912773730048465
 10
-1.403702433054943
 20
0.7793672504553468
 10
-1.377496247029528
 20
0.7646973473754871
  0
LINE
  5
163
330
12B
100
AcDbEntity
  8
AM_9
100
AcDbLine
 10
-1.1875
 20
-1.469999999999999
 30
0.0
 11
-0.6625
 21
-1.469999999999999
 31
0.0
  0
LINE
  5
164
330
12B
100
AcDbEntity
  8
AM_9
100
AcDbLine
 10
-1.8125
 20
-1.469999999999999
 30
0.0
 11
-1.1925
 21
-1.469999999999999
 31
0.0
  0
LINE
  5
165
330
12B
100
AcDbEntity
  8
AM_9
100
AcDbLine
 10
-1.1925
 20
1.469999999999999
 30
0.0
 11
-1.2975
 21
1.469999999999999
 31
0.0
  0
LINE
  5
166
330
12B
100
AcDbEntity
  8
AM_9
100
AcDbLine
 10
-0.6625
 20
1.469999999999999
 30
0.0
 11
-1.1875
 21
1.469999999999999
 31
0.0
  0
LINE
  5
167
330
12B
100
AcDbEntity
  8
AM_9
100
AcDbLine
 10
-1.7075
 20
1.469999999999999
 30
0.0
 11
-1.8125
 21
1.469999999999999
 31
0.0
  0
LWPOLYLINE
  5
168
330
12B
100
AcDbEntity
  8
AM_9
100
AcDbPolyline
 90
       21
 70
     0
 43
0.0
 10
-1.297500000000285
 20
1.46999999999996
 10
-1.298769790940304
 20
1.469823458134855
 10
-1.305263625593496
 20
1.468937434810966
 10
-1.317505406575552
 20
1.467343858676716
 10
-1.334533297566067
 20
1.465294445879915
 10
-1.356793346991632
 20
1.462909918187343
 10
-1.382681971473905
 20
1.460558578065213
 10
-1.412782365402957
 20
1.45839783802558
 10
-1.444593513030556
 20
1.456786930622711
 10
-1.479036539167731
 20
1.455824692054035
 10
-1.512888439059973
 20
1.455672669134823
 10
-1.547421926545163
 20
1.456328595985304
 10
-1.579592595119145
 20
1.45767563889303
 10
-1.610479976640759
 20
1.459635117197218
 10
-1.637708009282971
 20
1.461901571848892
 10
-1.661851424487539
 20
1.464331887410161
 10
-1.681034933557701
 20
1.466543460829051
 10
-1.695618536628131
 20
1.468390196504114
 10
-1.70433938479574
 20
1.469562566634957
 10
-1.707497909501705
 20
1.469999708469382
 10
-1.70749999999997
 20
1.469999999999995
  0
LWPOLYLINE
  5
169
330
12B
100
AcDbEntity
  8
AM_9
100
AcDbPolyline
 90
        3
 70
     0
 43
0.0
 10
2.078523491673225
 20
0.6574335512180183
 10
2.082146122837449
 20
0.6318063993270573
 10
2.082499999235699
 20
0.6212648882383816
  0
LWPOLYLINE
  5
16A
330
12B
100
AcDbEntity
  8
AM_9
100
AcDbPolyline
 90
       10
 70
     0
 43
0.0
 10
1.8775
 20
0.800971283344228
 10
1.911725322904128
 20
0.798516892145376
 10
1.944981371322097
 20
0.7912773730048465
 10
1.976297566945058
 20
0.7793672504553468
 10
2.004849516563767
 20
0.7631226077835981
 10
2.029950744071456
 20
0.7427291822337232
 10
2.050773994117106
 20
0.7188069979816564
 10
2.066726374366815
 20
0.6917725498070586
 10
2.077319507838594
 20
0.6624514986069256
 10
2.078523491673225
 20
0.6574335512180183
  0
LINE
  5
16B
330
12B
100
AcDbEntity
  8
AM_9
100
AcDbLine
 10
1.0375
 20
-1.469999999999999
 30
0.0
 11
2.125
 21
-1.469999999999999
 31
0.0
  0
LINE
  5
16C
330
12B
100
AcDbEntity
  8
AM_9
100
AcDbLine
 10
2.125
 20
1.469999999999999
 30
0.0
 11
2.0825
 21
1.469999999999999
 31
0.0
  0
LINE
  5
16D
330
12B
100
AcDbEntity
  8
AM_9
100
AcDbLine
 10
1.6725
 20
1.469999999999999
 30
0.0
 11
1.0375
 21
1.469999999999999
 31
0.0
  0
LWPOLYLINE
  5
16E
330
12B
100
AcDbEntity
  8
AM_9
100
AcDbPolyline
 90
        8
 70
     0
 43
0.0
 10
1.768051942641067
 20
1.459744456149652
 10
1.742291990717028
 20
1.461901571848892
 10
1.718148575512461
 20
1.464331887410161
 10
1.698965066442299
 20
1.466543460829051
 10
1.684381463371869
 20
1.468390196504114
 10
1.67566061520426
 20
1.469562566634957
 10
1.672502090498295
 20
1.469999708469382
 10
1.67250000000003
 20
1.469999999999995
  0
LWPOLYLINE
  5
16F
330
12B
100
AcDbEntity
  8
AM_9
100
AcDbPolyline
 90
       14
 70
     0
 43
0.0
 10
2.078805702731597
 20
1.469489362313406
 10
2.074736374406504
 20
1.468937434810966
 10
2.062494593424448
 20
1.467343858676716
 10
2.045466702433933
 20
1.465294445879915
 10
2.023206653008368
 20
1.462909918187343
 10
1.997318028526095
 20
1.460558578065213
 10
1.967217634597043
 20
1.45839783802558
 10
1.935406486969443
 20
1.456786930622711
 10
1.900963460832269
 20
1.455824692054035
 10
1.867111560940027
 20
1.455672669134823
 10
1.832578073454837
 20
1.456328595985304
 10
1.800407404880855
 20
1.45767563889303
 10
1.769520023359241
 20
1.459635117197218
 10
1.768051942641067
 20
1.459744456149652
  0
LINE
  5
170
330
12B
100
AcDbEntity
  8
AM_9
100
AcDbLine
 10
2.082499999999715
 20
1.46999999999996
 30
0.0
 11
2.078805702731597
 21
1.469489362313406
 31
0.0
  0
LINE
  5
171
330
12B
100
AcDbEntity
  8
AM_9
100
AcDbLine
 10
-0.6625
 20
-2.06
 30
0.0
 11
1.0375
 21
-2.06
 31
0.0
  0
LINE
  5
172
330
12B
100
AcDbEntity
  8
AM_9
100
AcDbLine
 10
1.0375
 20
2.06
 30
0.0
 11
-0.6625
 21
2.06
 31
0.0
  0
LINE
  5
173
330
12B
100
AcDbEntity
  8
AM_9
100
AcDbLine
 10
-0.6625
 20
2.06
 30
0.0
 11
-0.6625
 21
-2.06
 31
0.0
  0
LINE
  5
174
330
12B
100
AcDbEntity
  8
AM_9
100
AcDbLine
 10
1.0375
 20
2.06
 30
0.0
 11
1.0375
 21
-2.06
 31
0.0
  0
LINE
  5
175
330
12B
100
AcDbEntity
  8
AM_7
100
AcDbLine
 10
1.8775
 20
-0.0753846153846154
 30
0.0
 11
1.8775
 21
1.583076923076923
 31
0.0
  0
LINE
  5
176
330
12B
100
AcDbEntity
  8
AM_4
100
AcDbLine
 10
-1.5025
 20
0.7069132884104561
 30
0.0
 11
-1.510823367430826
 21
0.706771956713845
 31
0.0
  0
LINE
  5
177
330
12B
100
AcDbEntity
  8
AM_4
100
AcDbLine
 10
-1.491710492075649
 20
0.7066757262749189
 30
0.0
 11
-1.5025
 21
0.7069132884104561
 31
0.0
  0
LINE
  5
178
330
12B
100
AcDbEntity
  8
AM_4
100
AcDbLine
 10
-1.1925
 20
-1.469999999999999
 30
0.0
 11
-1.1875
 21
-1.469999999999999
 31
0.0
  0
LINE
  5
179
330
12B
100
AcDbEntity
  8
AM_4
100
AcDbLine
 10
-1.1875
 20
1.469999999999999
 30
0.0
 11
-1.1925
 21
1.469999999999999
 31
0.0
  0
LINE
  5
17A
330
12B
100
AcDbEntity
  8
AM_4
100
AcDbLine
 10
2.125
 20
-1.469999999999999
 30
0.0
 11
2.1875
 21
-1.469999999999999
 31
0.0
  0
LINE
  5
17B
330
12B
100
AcDbEntity
  8
AM_4
100
AcDbLine
 10
2.1875
 20
1.469999999999999
 30
0.0
 11
2.125
 21
1.469999999999999
 31
0.0
  0
LINE
  5
17C
330
12B
100
AcDbEntity
  8
AM_4
100
AcDbLine
 10
2.1875
 20
1.469999999999999
 30
0.0
 11
2.1875
 21
-1.469999999999999
 31
0.0
  0
ENDBLK
  5
12E
330
12B
100
AcDbEntity
  8
0
100
AcDbBlockEnd
  0
BLOCK
  5
17F
330
17D
100
AcDbEntity
  8
0
100
AcDbBlockBegin
  2
6_023134H_0_in_023134_2
 70
     2
 10
0.0
 20
0.0
 30
0.0
  3
6_023134H_0_in_023134_2
  1

  0
ATTDEF
  5
181
330
17D
100
AcDbEntity
  8
AM_6
100
AcDbText
 10
8.643749999999999
 20
3.8125
 30
0.0
 40
0.5
  1
FC-E-Housing
100
AcDbAttributeDefinition
  3

  2
NN
 70
     8
280
     0
  0
ATTDEF
  5
182
330
17D
100
AcDbEntity
  8
AM_6
100
AcDbText
 10
8.643749999999999
 20
3.3125
 30
0.0
 40
0.5
  1
Type E Piloted Flange -Inch
100
AcDbAttributeDefinition
  3

  2
NT
 70
     8
280
     0
  0
ATTDEF
  5
183
330
17D
100
AcDbEntity
  8
AM_6
100
AcDbText
 10
8.643749999999999
 20
2.8125
 30
0.0
 40
0.5
  1
023134H
100
AcDbAttributeDefinition
  3

  2
NB
 70
     8
280
     0
  0
ATTDEF
  5
184
330
17D
100
AcDbEntity
  8
AM_6
100
AcDbText
 10
8.643749999999999
 20
2.3125
 30
0.0
 40
0.5
  1
$PN.H
100
AcDbAttributeDefinition
  3

  2
NBSYN
 70
     8
280
     0
  0
ATTDEF
  5
185
330
17D
100
AcDbEntity
  8
AM_6
100
AcDbText
 10
8.643749999999999
 20
1.8125
 30
0.0
 40
0.5
  1
023134
100
AcDbAttributeDefinition
  3

  2
LINA
 70
     8
280
     0
  0
ATTDEF
  5
186
330
17D
100
AcDbEntity
  8
AM_6
100
AcDbText
 10
8.643749999999999
 20
1.3125
 30
0.0
 40
0.5
  1
2-1/2
100
AcDbAttributeDefinition
  3

  2
SS
 70
     8
280
     0
  0
ATTDEF
  5
187
330
17D
100
AcDbEntity
  8
AM_6
100
AcDbText
 10
8.643749999999999
 20
0.8125
 30
0.0
 40
0.5
  1
023134
100
AcDbAttributeDefinition
  3

  2
PN
 70
     8
280
     0
  0
ATTDEF
  5
188
330
17D
100
AcDbEntity
  8
AM_6
100
AcDbText
 10
8.643749999999999
 20
0.3125
 30
0.0
 40
0.5
  1
FC-E-208R
100
AcDbAttributeDefinition
  3

  2
DESCRIPTION
 70
     8
280
     0
  0
ATTDEF
  5
189
330
17D
100
AcDbEntity
  8
AM_6
100
AcDbText
 10
8.643749999999999
 20
-0.1875
 30
0.0
 40
0.5
  1
4
100
AcDbAttributeDefinition
  3

  2
A
 70
     8
280
     0
  0
ATTDEF
  5
18A
330
17D
100
AcDbEntity
  8
AM_6
100
AcDbText
 10
8.643749999999999
 20
-0.6875
 30
0.0
 40
0.5
  1
7-5/8
100
AcDbAttributeDefinition
  3

  2
B
 70
     8
280
     0
  0
ATTDEF
  5
18B
330
17D
100
AcDbEntity
  8
AM_6
100
AcDbText
 10
8.643749999999999
 20
-1.1875
 30
0.0
 40
0.5
  1
3-5/16
100
AcDbAttributeDefinition
  3

  2
C
 70
     8
280
     0
  0
ATTDEF
  5
18C
330
17D
100
AcDbEntity
  8
AM_6
100
AcDbText
 10
8.643749999999999
 20
-1.6875
 30
0.0
 40
0.5
  1
6-1/2
100
AcDbAttributeDefinition
  3

  2
D
 70
     8
280
     0
  0
ATTDEF
  5
18D
330
17D
100
AcDbEntity
  8
AM_6
100
AcDbText
 10
8.643749999999999
 20
-2.1875
 30
0.0
 40
0.5
  1
1-5/16
100
AcDbAttributeDefinition
  3

  2
E
 70
     8
280
     0
  0
ATTDEF
  5
18E
330
17D
100
AcDbEntity
  8
AM_6
100
AcDbText
 10
8.643749999999999
 20
-2.6875
 30
0.0
 40
0.5
  1
1/2
100
AcDbAttributeDefinition
  3

  2
F
 70
     8
280
     0
  0
ATTDEF
  5
18F
330
17D
100
AcDbEntity
  8
AM_6
100
AcDbText
 10
8.643749999999999
 20
-3.1875
 30
0.0
 40
0.5
  1
1-13/16
100
AcDbAttributeDefinition
  3

  2
G
 70
     8
280
     0
  0
ATTDEF
  5
190
330
17D
100
AcDbEntity
  8
AM_6
100
AcDbText
 10
8.643749999999999
 20
-3.6875
 30
0.0
 40
0.5
  1
5/8
100
AcDbAttributeDefinition
  3

  2
H
 70
     8
280
     0
  0
ATTDEF
  5
191
330
17D
100
AcDbEntity
  8
AM_6
100
AcDbText
 10
8.643749999999999
 20
-4.1875
 30
0.0
 40
0.5
  1
5-1/2
100
AcDbAttributeDefinition
  3

  2
K
 70
     8
280
     0
  0
ATTDEF
  5
192
330
17D
100
AcDbEntity
  8
AM_6
100
AcDbText
 10
8.643749999999999
 20
-4.6875
 30
0.0
 40
0.5
  1
4-1/16
100
AcDbAttributeDefinition
  3

  2
L
 70
     8
280
     0
  0
ATTDEF
  5
193
330
17D
100
AcDbEntity
  8
AM_6
100
AcDbText
 10
8.643749999999999
 20
-5.1875
 30
0.0
 40
0.5
  1
1-3/16
100
AcDbAttributeDefinition
  3

  2
M
 70
     8
280
     0
  0
ATTDEF
  5
194
330
17D
100
AcDbEntity
  8
AM_6
100
AcDbText
 10
8.643749999999999
 20
-5.6875
 30
0.0
 40
0.5
  1
baldor
100
AcDbAttributeDefinition
  3

  2
COMPANY
 70
     8
280
     0
  0
LINE
  5
195
330
17D
100
AcDbEntity
  8
AM_9
100
AcDbLine
 10
-0.625
 20
-2.478125
 30
0.0
 11
-0.546875
 21
-2.478125
 31
0.0
  0
LINE
  5
196
330
17D
100
AcDbEntity
  8
AM_9
100
AcDbLine
 10
-0.625
 20
2.427159557100645
 30
0.0
 11
-0.546875
 21
2.427159557100645
 31
0.0
  0
LINE
  5
197
330
17D
100
AcDbEntity
  8
AM_9
100
AcDbLine
 10
-0.546875
 20
-2.2790996892185
 30
0.0
 11
-0.625
 21
-2.2790996892185
 31
0.0
  0
LINE
  5
198
330
17D
100
AcDbEntity
  8
AM_9
100
AcDbLine
 10
-0.546875
 20
-2.272714071669154
 30
0.0
 11
-0.625
 21
-2.272714071669153
 31
0.0
  0
LINE
  5
199
330
17D
100
AcDbEntity
  8
AM_9
100
AcDbLine
 10
-0.546875
 20
-2.262352864691556
 30
0.0
 11
-0.625
 21
-2.262352864691556
 31
0.0
  0
LINE
  5
19A
330
17D
100
AcDbEntity
  8
AM_9
100
AcDbLine
 10
-0.546875
 20
2.2790996892185
 30
0.0
 11
-0.625
 21
2.2790996892185
 31
0.0
  0
LINE
  5
19B
330
17D
100
AcDbEntity
  8
AM_9
100
AcDbLine
 10
-0.546875
 20
2.272714071669152
 30
0.0
 11
-0.625
 21
2.272714071669152
 31
0.0
  0
LINE
  5
19C
330
17D
100
AcDbEntity
  8
AM_9
100
AcDbLine
 10
-0.625
 20
2.262352864691556
 30
0.0
 11
-0.546875
 21
2.262352864691556
 31
0.0
  0
LINE
  5
19D
330
17D
100
AcDbEntity
  8
AM_9
100
AcDbLine
 10
-0.5468749999999999
 20
2.809221978324379
 30
0.0
 11
-0.5468749999999999
 21
2.577484845057145
 31
0.0
  0
LINE
  5
19E
330
17D
100
AcDbEntity
  8
AM_9
100
AcDbLine
 10
-0.5468749999999999
 20
-2.577484845057147
 30
0.0
 11
-0.5468749999999999
 21
-2.809221978324379
 31
0.0
  0
LINE
  5
19F
330
17D
100
AcDbEntity
  8
AM_9
100
AcDbLine
 10
-1.1875
 20
-2.06
 30
0.0
 11
2.124999999999999
 21
-2.06
 31
0.0
  0
LINE
  5
1A0
330
17D
100
AcDbEntity
  8
AM_9
100
AcDbLine
 10
2.124999999999999
 20
2.06
 30
0.0
 11
-1.1875
 21
2.06
 31
0.0
  0
LINE
  5
1A1
330
17D
100
AcDbEntity
  8
AM_9
100
AcDbLine
 10
-0.6249999999999999
 20
2.048097038856279
 30
0.0
 11
0.0000000000000001
 21
2.048097038856279
 31
0.0
  0
LINE
  5
1A2
330
17D
100
AcDbEntity
  8
AM_9
100
AcDbLine
 10
0.0000000000000001
 20
2.548097038856279
 30
0.0
 11
-0.6249999999999999
 21
2.548097038856279
 31
0.0
  0
LINE
  5
1A3
330
17D
100
AcDbEntity
  8
AM_9
100
AcDbLine
 10
-0.6249999999999999
 20
-2.548097038856279
 30
0.0
 11
0.0000000000000001
 21
-2.548097038856279
 31
0.0
  0
LINE
  5
1A4
330
17D
100
AcDbEntity
  8
AM_9
100
AcDbLine
 10
0.0000000000000001
 20
-2.048097038856279
 30
0.0
 11
-0.6249999999999999
 21
-2.048097038856279
 31
0.0
  0
LINE
  5
1A5
330
17D
100
AcDbEntity
  8
AM_9
100
AcDbLine
 10
-0.5468749999999999
 20
2.802556836560715
 30
0.0
 11
-0.6249999999999999
 21
2.802556836560715
 31
0.0
  0
LINE
  5
1A6
330
17D
100
AcDbEntity
  8
AM_9
100
AcDbLine
 10
-0.5468749999999999
 20
-2.802556836560716
 30
0.0
 11
-0.6249999999999999
 21
-2.802556836560716
 31
0.0
  0
LINE
  5
1A7
330
17D
100
AcDbEntity
  8
AM_7
100
AcDbLine
 10
3.643749999999999
 20
0.0
 30
0.0
 11
-3.337500002384185
 21
0.0
 31
0.0
  0
LINE
  5
1A8
330
17D
100
AcDbEntity
  8
AM_7
100
AcDbLine
 10
0.0343750015625001
 20
-2.298097038856279
 30
0.0
 11
-0.7218750328124998
 21
-2.298097038856279
 31
0.0
  0
LINE
  5
1A9
330
17D
100
AcDbEntity
  8
AM_7
100
AcDbLine
 10
0.0343750015624999
 20
2.29809703885628
 30
0.0
 11
-0.7218750328125001
 21
2.29809703885628
 31
0.0
  0
LINE
  5
1AA
330
17D
100
AcDbEntity
  8
AM_4
100
AcDbLine
 10
-1.150305499166882
 20
2.51625
 30
0.0
 11
-1.1875
 21
2.51625
 31
0.0
  0
LINE
  5
1AB
330
17D
100
AcDbEntity
  8
AM_4
100
AcDbLine
 10
-0.546875
 20
3.258469538498681
 30
0.0
 11
-1.187499999970473
 21
2.470500762499999
 31
0.0
  0
LINE
  5
1AC
330
17D
100
AcDbEntity
  8
AM_4
100
AcDbLine
 10
-0.5468749999999999
 20
-0.9878634845271014
 30
0.0
 11
-0.6249999999999999
 21
-0.9878634845271014
 31
0.0
  0
LINE
  5
1AD
330
17D
100
AcDbEntity
  8
AM_4
100
AcDbLine
 10
-0.5468749999999999
 20
0.9878634845270997
 30
0.0
 11
-0.6249999999999999
 21
0.9878634845270997
 31
0.0
  0
LINE
  5
1AE
330
17D
100
AcDbEntity
  8
AM_4
100
AcDbLine
 10
-0.625
 20
2.46607259878942
 30
0.0
 11
-1.1875
 21
2.46607259878942
 31
0.0
  0
LINE
  5
1AF
330
17D
100
AcDbEntity
  8
AM_4
100
AcDbLine
 10
-1.1875
 20
-2.51625
 30
0.0
 11
-0.625
 21
-2.51625
 31
0.0
  0
LINE
  5
1B0
330
17D
100
AcDbEntity
  8
AM_4
100
AcDbLine
 10
-1.1875
 20
-2.51625
 30
0.0
 11
-1.1875
 21
2.51625
 31
0.0
  0
LINE
  5
1B1
330
17D
100
AcDbEntity
  8
AM_4
100
AcDbLine
 10
2.125
 20
2.484144762509098
 30
0.0
 11
2.125
 21
-2.484144762509098
 31
0.0
  0
ARC
  5
1B2
330
17D
100
AcDbEntity
  8
AM_4
100
AcDbCircle
 10
2.062500000000002
 20
-2.4841447625091
 30
0.0
 40
0.0624999999999983
100
AcDbArc
 50
274.9999999999987
 51
0.0
  0
ARC
  5
1B3
330
17D
100
AcDbEntity
  8
AM_4
100
AcDbCircle
 10
2.062500000000002
 20
2.4841447625091
 30
0.0
 40
0.0624999999999982
100
AcDbArc
 50
0.0
 51
85.00000000000131
  0
LINE
  5
1B4
330
17D
100
AcDbEntity
  8
AM_4
100
AcDbLine
 10
-0.6249999999999999
 20
-2.880597038856281
 30
0.0
 11
-0.6249999999999999
 21
2.88059703885628
 31
0.0
  0
LINE
  5
1B5
330
17D
100
AcDbEntity
  8
AM_4
100
AcDbLine
 10
-0.5468749999999999
 20
2.88059703885628
 30
0.0
 11
-0.6249999999999999
 21
2.88059703885628
 31
0.0
  0
LINE
  5
1B6
330
17D
100
AcDbEntity
  8
AM_4
100
AcDbLine
 10
-0.6249999999999999
 20
-2.880597038856281
 30
0.0
 11
-0.5468749999999999
 21
-2.880597038856281
 31
0.0
  0
LINE
  5
1B7
330
17D
100
AcDbEntity
  8
AM_4
100
AcDbLine
 10
2.067947233921729
 20
2.546406931139832
 30
0.0
 11
1.3125
 21
2.612499999999999
 31
0.0
  0
LINE
  5
1B8
330
17D
100
AcDbEntity
  8
AM_4
100
AcDbLine
 10
1.3125
 20
-2.612499999999999
 30
0.0
 11
2.067947233921729
 21
-2.546406931139832
 31
0.0
  0
LINE
  5
1B9
330
17D
100
AcDbEntity
  8
AM_4
100
AcDbLine
 10
2.067947233921729
 20
2.546406931139832
 30
0.0
 11
2.067947233921729
 21
-2.546406931139832
 31
0.0
  0
LINE
  5
1BA
330
17D
100
AcDbEntity
  8
AM_4
100
AcDbLine
 10
0.0
 20
-2.75
 30
0.0
 11
1.3125
 21
-2.75
 31
0.0
  0
LINE
  5
1BB
330
17D
100
AcDbEntity
  8
AM_4
100
AcDbLine
 10
1.3125
 20
2.75
 30
0.0
 11
0.0
 21
2.75
 31
0.0
  0
LINE
  5
1BC
330
17D
100
AcDbEntity
  8
AM_4
100
AcDbLine
 10
1.3125
 20
2.75
 30
0.0
 11
1.3125
 21
-2.75
 31
0.0
  0
LINE
  5
1BD
330
17D
100
AcDbEntity
  8
AM_4
100
AcDbLine
 10
-0.5468749999999999
 20
-1.100192664074497
 30
0.0
 11
-0.6249999999999999
 21
-1.100192664074497
 31
0.0
  0
LINE
  5
1BE
330
17D
100
AcDbEntity
  8
AM_4
100
AcDbLine
 10
-0.5468749999999999
 20
1.100192664074495
 30
0.0
 11
-0.6249999999999999
 21
1.100192664074495
 31
0.0
  0
LINE
  5
1BF
330
17D
100
AcDbEntity
  8
AM_4
100
AcDbLine
 10
-0.5468749999999998
 20
-2.00684703885628
 30
0.0
 11
-0.6249999999999999
 21
-2.00684703885628
 31
0.0
  0
LINE
  5
1C0
330
17D
100
AcDbEntity
  8
AM_4
100
AcDbLine
 10
-0.5468749999999998
 20
2.006847038856279
 30
0.0
 11
-0.6249999999999999
 21
2.006847038856279
 31
0.0
  0
LINE
  5
1C1
330
17D
100
AcDbEntity
  8
AM_4
100
AcDbLine
 10
0.0
 20
3.65625
 30
0.0
 11
-0.15625
 21
3.8125
 31
0.0
  0
LINE
  5
1C2
330
17D
100
AcDbEntity
  8
AM_4
100
AcDbLine
 10
-0.15625
 20
-3.8125
 30
0.0
 11
0.0
 21
-3.65625
 31
0.0
  0
LINE
  5
1C3
330
17D
100
AcDbEntity
  8
AM_4
100
AcDbLine
 10
0.0
 20
3.65625
 30
0.0
 11
0.0
 21
-3.65625
 31
0.0
  0
LINE
  5
1C4
330
17D
100
AcDbEntity
  8
AM_4
100
AcDbLine
 10
-0.5468749999999999
 20
2.809221978324379
 30
0.0
 11
-0.546875
 21
3.8125
 31
0.0
  0
LINE
  5
1C5
330
17D
100
AcDbEntity
  8
AM_4
100
AcDbLine
 10
-0.6249999999999999
 20
2.809221978324379
 30
0.0
 11
-0.5468749999999999
 21
2.809221978324379
 31
0.0
  0
LINE
  5
1C6
330
17D
100
AcDbEntity
  8
AM_4
100
AcDbLine
 10
-0.5468749999999998
 20
2.577484845057145
 30
0.0
 11
-0.6249999999999999
 21
2.577484845057145
 31
0.0
  0
LINE
  5
1C7
330
17D
100
AcDbEntity
  8
AM_4
100
AcDbLine
 10
-0.5468749999999998
 20
-2.577484845057147
 30
0.0
 11
-0.5468749999999998
 21
2.577484845057145
 31
0.0
  0
LINE
  5
1C8
330
17D
100
AcDbEntity
  8
AM_4
100
AcDbLine
 10
-0.6249999999999999
 20
-2.577484845057147
 30
0.0
 11
-0.5468749999999998
 21
-2.577484845057147
 31
0.0
  0
LINE
  5
1C9
330
17D
100
AcDbEntity
  8
AM_4
100
AcDbLine
 10
-0.5468749999999999
 20
-2.809221978324379
 30
0.0
 11
-0.6249999999999999
 21
-2.809221978324379
 31
0.0
  0
LINE
  5
1CA
330
17D
100
AcDbEntity
  8
AM_4
100
AcDbLine
 10
-0.546875
 20
-3.8125
 30
0.0
 11
-0.15625
 21
-3.8125
 31
0.0
  0
LINE
  5
1CB
330
17D
100
AcDbEntity
  8
AM_4
100
AcDbLine
 10
-0.15625
 20
3.8125
 30
0.0
 11
-0.546875
 21
3.8125
 31
0.0
  0
LINE
  5
1CC
330
17D
100
AcDbEntity
  8
AM_4
100
AcDbLine
 10
-0.15625
 20
3.8125
 30
0.0
 11
-0.15625
 21
-3.8125
 31
0.0
  0
LINE
  5
1CD
330
17D
100
AcDbEntity
  8
AM_4
100
AcDbLine
 10
-0.546875
 20
-3.8125
 30
0.0
 11
-0.5468749999999999
 21
-2.809221978324379
 31
0.0
  0
ENDBLK
  5
180
330
17D
100
AcDbEntity
  8
0
100
AcDbBlockEnd
  0
ENDSEC
  0
SECTION
  2
ENTITIES
  0
INSERT
  5
6F
330
1F
100
AcDbEntity
  8
0
100
AcDbBlockReference
  2
1_023134_2
 10
0.0
 20
0.0
 30
0.0
  0
POINT
  5
1CF
330
1F
100
AcDbEntity
  8
ConnectionPoints
100
AcDbPoint
 10
-0.8671874999852365
 20
2.86448515049934
 30
0.0000000000000001
  0
POINT
  5
1D0
330
1F
100
AcDbEntity
  8
ConnectionPoints
100
AcDbPoint
 10
-1.8125
 20
0.0
 30
0.0000000000000001
  0
POINT
  5
1D1
330
1F
100
AcDbEntity
  8
ConnectionPoints
100
AcDbPoint
 10
-1.8125
 20
0.0
 30
0.0000000000000001
  0
POINT
  5
1D2
330
1F
100
AcDbEntity
  8
ConnectionPoints
100
AcDbPoint
 10
2.1875
 20
0.0
 30
-0.0000000000000001
  0
POINT
  5
1D3
330
1F
100
AcDbEntity
  8
ConnectionPoints
100
AcDbPoint
 10
0.1875
 20
0.0
 30
0.0
  0
POINT
  5
1D4
330
1F
100
AcDbEntity
  8
ConnectionPoints
100
AcDbPoint
 10
2.078125
 20
0.0
 30
-0.0000000000000001
  0
POINT
  5
1D5
330
1F
100
AcDbEntity
  8
ConnectionPoints
100
AcDbPoint
 10
-0.8671874999852365
 20
2.86448515049934
 30
0.0000000000000001
  0
POINT
  5
1D6
330
1F
100
AcDbEntity
  8
ConnectionPoints
100
AcDbPoint
 10
0.1875
 20
0.0
 30
0.0
  0
ENDSEC
  0
SECTION
  2
OBJECTS
  0
DICTIONARY
  5
C
330
0
100
AcDbDictionary
281
     1
  3
ACAD_DETAILVIEWSTYLE
350
1DE
  3
ACAD_GROUP
350
D
  3
ACAD_LAYOUT
350
1A
  3
ACAD_MATERIAL
350
43
  3
ACAD_MLEADERSTYLE
350
6B
  3
ACAD_MLINESTYLE
350
17
  3
ACAD_PLOTSETTINGS
350
19
  3
ACAD_PLOTSTYLENAME
350
E
  3
ACAD_SCALELIST
350
47
  3
ACAD_SECTIONVIEWSTYLE
350
1DF
  3
ACAD_TABLESTYLE
350
69
  3
ACAD_VISUALSTYLE
350
2A
  3
ACDB_RECOMPOSE_DATA
350
1DB
  3
AcDbVariableDictionary
350
1D7
  0
SUN
  5
6D
330
29
100
AcDbSun
 90
        1
290
     0
 63
     7
421
 16777215
 40
1.0
291
     1
 91
  2455826
 92
 54000000
292
     0
 70
     2
 71
   256
280
     1
  0
DICTIONARY
  5
1DE
102
{ACAD_REACTORS
330
C
102
}
330
C
100
AcDbDictionary
281
     1
  0
DICTIONARY
  5
D
102
{ACAD_REACTORS
330
C
102
}
330
C
100
AcDbDictionary
281
     1
  0
DICTIONARY
  5
1A
102
{ACAD_REACTORS
330
C
102
}
330
C
100
AcDbDictionary
281
     1
  3
Layout1
350
1E
  3
Layout2
350
26
  3
Model
350
22
  0
DICTIONARY
  5
43
102
{ACAD_REACTORS
330
C
102
}
330
C
100
AcDbDictionary
281
     1
  3
ByBlock
350
45
  3
ByLayer
350
44
  3
Global
350
46
  0
DICTIONARY
  5
6B
102
{ACAD_REACTORS
330
C
102
}
330
C
100
AcDbDictionary
281
     1
  3
Standard
350
6C
  0
DICTIONARY
  5
17
102
{ACAD_REACTORS
330
C
102
}
330
C
100
AcDbDictionary
281
     1
  3
Standard
350
18
  0
DICTIONARY
  5
19
102
{ACAD_REACTORS
330
C
102
}
330
C
100
AcDbDictionary
281
     1
  0
ACDBDICTIONARYWDFLT
  5
E
102
{ACAD_REACTORS
330
C
102
}
330
C
100
AcDbDictionary
281
     1
  3
Normal
350
F
100
AcDbDictionaryWithDefault
340
F
  0
DICTIONARY
  5
47
102
{ACAD_REACTORS
330
C
102
}
330
C
100
AcDbDictionary
281
     1
  3
A0
350
48
  3
A1
350
49
  3
A2
350
4A
  3
A3
350
4B
  3
A4
350
4C
  3
A5
350
4D
  3
A6
350
4E
  3
A7
350
4F
  3
A8
350
50
  3
A9
350
51
  3
B0
350
52
  3
B1
350
53
  3
B2
350
54
  3
B3
350
55
  3
B4
350
56
  3
B5
350
57
  3
B6
350
58
  3
B7
350
59
  3
B8
350
5A
  3
B9
350
5B
  3
C0
350
5C
  3
C1
350
5D
  3
C2
350
5E
  3
C3
350
5F
  3
C4
350
60
  3
C5
350
61
  3
C6
350
62
  3
C7
350
63
  3
C8
350
64
  3
C9
350
65
  3
D0
350
66
  3
D1
350
67
  3
D2
350
68
  0
DICTIONARY
  5
1DF
102
{ACAD_REACTORS
330
C
102
}
330
C
100
AcDbDictionary
281
     1
  0
DICTIONARY
  5
69
102
{ACAD_REACTORS
330
C
102
}
330
C
100
AcDbDictionary
281
     1
  3
Standard
350
6A
  0
DICTIONARY
  5
2A
102
{ACAD_REACTORS
330
C
102
}
330
C
100
AcDbDictionary
281
     1
  3
2dWireframe
350
2F
  3
Basic
350
32
  3
Brighten
350
36
  3
ColorChange
350
3A
  3
Conceptual
350
34
  3
Dim
350
35
  3
EdgeColorOff
350
3D
  3
Facepattern
350
39
  3
Flat
350
2B
  3
FlatWithEdges
350
2C
  3
Gouraud
350
2D
  3
GouraudWithEdges
350
2E
  3
Hidden
350
31
  3
JitterOff
350
3B
  3
Linepattern
350
38
  3
OverhangOff
350
3C
  3
Realistic
350
33
  3
Shaded
350
42
  3
Shaded with edges
350
41
  3
Shades of Gray
350
3E
  3
Sketchy
350
3F
  3
Thicken
350
37
  3
Wireframe
350
30
  3
X-Ray
350
40
  0
XRECORD
  5
1DB
102
{ACAD_REACTORS
330
C
102
}
330
C
100
AcDbXrecord
280
     1
 90
        1
330
6A
  0
DICTIONARY
  5
1D7
102
{ACAD_REACTORS
330
C
102
}
330
C
100
AcDbDictionary
281
     1
  3
CANNOSCALE
350
1D8
  3
CMLEADERSTYLE
350
1DD
  3
CTABLESTYLE
350
1DC
  0
LAYOUT
  5
1E
102
{ACAD_REACTORS
330
1A
102
}
330
1A
100
AcDbPlotSettings
  1

  2
none_device
  4

  6

 40
0.0
 41
0.0
 42
0.0
 43
0.0
 44
0.0
 45
0.0
 46
0.0
 47
0.0
 48
0.0
 49
0.0
140
0.0
141
0.0
142
1.0
143
1.0
 70
   688
 72
     0
 73
     0
 74
     5
  7

 75
    16
 76
     0
 77
     2
 78
   300
147
1.0
148
0.0
149
0.0
100
AcDbLayout
  1
Layout1
 70
     1
 71
     1
 10
0.0
 20
0.0
 11
12.0
 21
9.0
 12
0.0
 22
0.0
 32
0.0
 14
1.000000000000000E+20
 24
1.000000000000000E+20
 34
1.000000000000000E+20
 15
-1.000000000000000E+20
 25
-1.000000000000000E+20
 35
-1.000000000000000E+20
146
0.0
 13
0.0
 23
0.0
 33
0.0
 16
1.0
 26
0.0
 36
0.0
 17
0.0
 27
1.0
 37
0.0
 76
     0
330
1B
  0
LAYOUT
  5
26
102
{ACAD_REACTORS
330
1A
102
}
330
1A
100
AcDbPlotSettings
  1

  2
none_device
  4

  6

 40
0.0
 41
0.0
 42
0.0
 43
0.0
 44
0.0
 45
0.0
 46
0.0
 47
0.0
 48
0.0
 49
0.0
140
0.0
141
0.0
142
1.0
143
1.0
 70
   688
 72
     0
 73
     0
 74
     5
  7

 75
    16
 76
     0
 77
     2
 78
   300
147
1.0
148
0.0
149
0.0
100
AcDbLayout
  1
Layout2
 70
     1
 71
     2
 10
0.0
 20
0.0
 11
0.0
 21
0.0
 12
0.0
 22
0.0
 32
0.0
 14
0.0
 24
0.0
 34
0.0
 15
0.0
 25
0.0
 35
0.0
146
0.0
 13
0.0
 23
0.0
 33
0.0
 16
1.0
 26
0.0
 36
0.0
 17
0.0
 27
1.0
 37
0.0
 76
     0
330
23
  0
LAYOUT
  5
22
102
{ACAD_REACTORS
330
1A
102
}
330
1A
100
AcDbPlotSettings
  1

  2
none_device
  4
Letter_(8.50_x_11.00_Inches)
  6

 40
6.35
 41
6.35
 42
6.35000508
 43
6.35000508
 44
215.9
 45
279.4
 46
0.0
 47
0.0
 48
0.0
 49
0.0
140
0.0
141
0.0
142
1.0
143
1.0
 70
  1712
 72
     0
 73
     0
 74
     0
  7

 75
     0
 76
     0
 77
     2
 78
   300
147
1.0
148
0.0
149
0.0
100
AcDbLayout
  1
Model
 70
     1
 71
     0
 10
0.0
 20
0.0
 11
12.0
 21
9.0
 12
0.0
 22
0.0
 32
0.0
 14
1.000000000000000E+20
 24
1.000000000000000E+20
 34
1.000000000000000E+20
 15
-1.000000000000000E+20
 25
-1.000000000000000E+20
 35
-1.000000000000000E+20
146
0.0
 13
0.0
 23
0.0
 33
0.0
 16
1.0
 26
0.0
 36
0.0
 17
0.0
 27
1.0
 37
0.0
 76
     0
330
1F
331
29
  0
MATERIAL
  5
45
102
{ACAD_REACTORS
330
43
102
}
330
43
100
AcDbMaterial
  1
ByBlock
 72
     1
 94
      127
  0
MATERIAL
  5
44
102
{ACAD_REACTORS
330
43
102
}
330
43
100
AcDbMaterial
  1
ByLayer
 72
     1
 94
      127
  0
MATERIAL
  5
46
102
{ACAD_REACTORS
330
43
102
}
330
43
100
AcDbMaterial
  1
Global
 72
     1
 94
      127
  0
MLEADERSTYLE
  5
6C
102
{ACAD_REACTORS
330
6B
102
}
330
6B
100
AcDbMLeaderStyle
179
     2
170
     2
171
     1
172
     0
 90
        2
 40
0.0
 41
0.0
173
     1
 91
-1056964608
340
14
 92
       -2
290
     1
 42
0.09
291
     1
 43
0.36
  3
Standard
341
0
 44
0.18
300

342
11
174
     1
178
     6
175
     1
176
     0
 93
-1056964608
 45
0.18
292
     0
297
     0
 46
0.18
343
0
 94
-1056964608
 47
1.0
 49
1.0
140
1.0
293
     1
141
0.0
294
     1
177
     0
142
1.0
295
     0
296
     0
143
0.125
271
     0
272
     9
273
     9
298
     0
  0
MLINESTYLE
  5
18
102
{ACAD_REACTORS
330
17
102
}
330
17
100
AcDbMlineStyle
  2
Standard
 70
     0
  3

 62
   256
 51
90.0
 52
90.0
 71
     2
 49
0.5
 62
   256
  6
BYLAYER
 49
-0.5
 62
   256
  6
BYLAYER
  0
ACDBPLACEHOLDER
  5
F
102
{ACAD_REACTORS
330
E
102
}
330
E
  0
SCALE
  5
48
102
{ACAD_REACTORS
330
47
102
}
330
47
100
AcDbScale
 70
     0
300
1:1
140
1.0
141
1.0
290
     1
  0
SCALE
  5
49
102
{ACAD_REACTORS
330
47
102
}
330
47
100
AcDbScale
 70
     0
300
1:2
140
1.0
141
2.0
290
     0
  0
SCALE
  5
4A
102
{ACAD_REACTORS
330
47
102
}
330
47
100
AcDbScale
 70
     0
300
1:4
140
1.0
141
4.0
290
     0
  0
SCALE
  5
4B
102
{ACAD_REACTORS
330
47
102
}
330
47
100
AcDbScale
 70
     0
300
1:5
140
1.0
141
5.0
290
     0
  0
SCALE
  5
4C
102
{ACAD_REACTORS
330
47
102
}
330
47
100
AcDbScale
 70
     0
300
1:8
140
1.0
141
8.0
290
     0
  0
SCALE
  5
4D
102
{ACAD_REACTORS
330
47
102
}
330
47
100
AcDbScale
 70
     0
300
1:10
140
1.0
141
10.0
290
     0
  0
SCALE
  5
4E
102
{ACAD_REACTORS
330
47
102
}
330
47
100
AcDbScale
 70
     0
300
1:16
140
1.0
141
16.0
290
     0
  0
SCALE
  5
4F
102
{ACAD_REACTORS
330
47
102
}
330
47
100
AcDbScale
 70
     0
300
1:20
140
1.0
141
20.0
290
     0
  0
SCALE
  5
50
102
{ACAD_REACTORS
330
47
102
}
330
47
100
AcDbScale
 70
     0
300
1:30
140
1.0
141
30.0
290
     0
  0
SCALE
  5
51
102
{ACAD_REACTORS
330
47
102
}
330
47
100
AcDbScale
 70
     0
300
1:40
140
1.0
141
40.0
290
     0
  0
SCALE
  5
52
102
{ACAD_REACTORS
330
47
102
}
330
47
100
AcDbScale
 70
     0
300
1:50
140
1.0
141
50.0
290
     0
  0
SCALE
  5
53
102
{ACAD_REACTORS
330
47
102
}
330
47
100
AcDbScale
 70
     0
300
1:100
140
1.0
141
100.0
290
     0
  0
SCALE
  5
54
102
{ACAD_REACTORS
330
47
102
}
330
47
100
AcDbScale
 70
     0
300
2:1
140
2.0
141
1.0
290
     0
  0
SCALE
  5
55
102
{ACAD_REACTORS
330
47
102
}
330
47
100
AcDbScale
 70
     0
300
4:1
140
4.0
141
1.0
290
     0
  0
SCALE
  5
56
102
{ACAD_REACTORS
330
47
102
}
330
47
100
AcDbScale
 70
     0
300
8:1
140
8.0
141
1.0
290
     0
  0
SCALE
  5
57
102
{ACAD_REACTORS
330
47
102
}
330
47
100
AcDbScale
 70
     0
300
10:1
140
10.0
141
1.0
290
     0
  0
SCALE
  5
58
102
{ACAD_REACTORS
330
47
102
}
330
47
100
AcDbScale
 70
     0
300
100:1
140
100.0
141
1.0
290
     0
  0
SCALE
  5
59
102
{ACAD_REACTORS
330
47
102
}
330
47
100
AcDbScale
 70
     0
300
1/128" = 1'-0"
140
0.0078125
141
12.0
290
     0
  0
SCALE
  5
5A
102
{ACAD_REACTORS
330
47
102
}
330
47
100
AcDbScale
 70
     0
300
1/64" = 1'-0"
140
0.015625
141
12.0
290
     0
  0
SCALE
  5
5B
102
{ACAD_REACTORS
330
47
102
}
330
47
100
AcDbScale
 70
     0
300
1/32" = 1'-0"
140
0.03125
141
12.0
290
     0
  0
SCALE
  5
5C
102
{ACAD_REACTORS
330
47
102
}
330
47
100
AcDbScale
 70
     0
300
1/16" = 1'-0"
140
0.0625
141
12.0
290
     0
  0
SCALE
  5
5D
102
{ACAD_REACTORS
330
47
102
}
330
47
100
AcDbScale
 70
     0
300
3/32" = 1'-0"
140
0.09375
141
12.0
290
     0
  0
SCALE
  5
5E
102
{ACAD_REACTORS
330
47
102
}
330
47
100
AcDbScale
 70
     0
300
1/8" = 1'-0"
140
0.125
141
12.0
290
     0
  0
SCALE
  5
5F
102
{ACAD_REACTORS
330
47
102
}
330
47
100
AcDbScale
 70
     0
300
3/16" = 1'-0"
140
0.1875
141
12.0
290
     0
  0
SCALE
  5
60
102
{ACAD_REACTORS
330
47
102
}
330
47
100
AcDbScale
 70
     0
300
1/4" = 1'-0"
140
0.25
141
12.0
290
     0
  0
SCALE
  5
61
102
{ACAD_REACTORS
330
47
102
}
330
47
100
AcDbScale
 70
     0
300
3/8" = 1'-0"
140
0.375
141
12.0
290
     0
  0
SCALE
  5
62
102
{ACAD_REACTORS
330
47
102
}
330
47
100
AcDbScale
 70
     0
300
1/2" = 1'-0"
140
0.5
141
12.0
290
     0
  0
SCALE
  5
63
102
{ACAD_REACTORS
330
47
102
}
330
47
100
AcDbScale
 70
     0
300
3/4" = 1'-0"
140
0.75
141
12.0
290
     0
  0
SCALE
  5
64
102
{ACAD_REACTORS
330
47
102
}
330
47
100
AcDbScale
 70
     0
300
1" = 1'-0"
140
1.0
141
12.0
290
     0
  0
SCALE
  5
65
102
{ACAD_REACTORS
330
47
102
}
330
47
100
AcDbScale
 70
     0
300
1-1/2" = 1'-0"
140
1.5
141
12.0
290
     0
  0
SCALE
  5
66
102
{ACAD_REACTORS
330
47
102
}
330
47
100
AcDbScale
 70
     0
300
3" = 1'-0"
140
3.0
141
12.0
290
     0
  0
SCALE
  5
67
102
{ACAD_REACTORS
330
47
102
}
330
47
100
AcDbScale
 70
     0
300
6" = 1'-0"
140
6.0
141
12.0
290
     0
  0
SCALE
  5
68
102
{ACAD_REACTORS
330
47
102
}
330
47
100
AcDbScale
 70
     0
300
1'-0" = 1'-0"
140
12.0
141
12.0
290
     0
  0
TABLESTYLE
  5
6A
102
{ACAD_REACTORS
330
69
102
}
102
{ACAD_XDICTIONARY
360
1D9
102
}
330
69
100
AcDbTableStyle
  3
Standard
 70
     0
 71
     0
 40
0.06
 41
0.06
280
     0
281
     0
  7
Standard
140
0.18
170
     2
 62
     0
 63
   257
283
     0
 90
        4
 91
        0
  1

274
    -2
284
     1
 64
     0
275
    -2
285
     1
 65
     0
276
    -2
286
     1
 66
     0
277
    -2
287
     1
 67
     0
278
    -2
288
     1
 68
     0
279
    -2
289
     1
 69
     0
  7
Standard
140
0.25
170
     5
 62
     0
 63
   257
283
     0
 90
        4
 91
        0
  1

274
    -2
284
     1
 64
     0
275
    -2
285
     1
 65
     0
276
    -2
286
     1
 66
     0
277
    -2
287
     1
 67
     0
278
    -2
288
     1
 68
     0
279
    -2
289
     1
 69
     0
  7
Standard
140
0.18
170
     5
 62
     0
 63
   257
283
     0
 90
        4
 91
        0
  1

274
    -2
284
     1
 64
     0
275
    -2
285
     1
 65
     0
276
    -2
286
     1
 66
     0
277
    -2
287
     1
 67
     0
278
    -2
288
     1
 68
     0
279
    -2
289
     1
 69
     0
  0
VISUALSTYLE
  5
2F
102
{ACAD_REACTORS
330
2A
102
}
330
2A
100
AcDbVisualStyle
  2
2dWireframe
 70
     4
177
     3
291
     0
 70
    58
 90
        0
176
     1
 90
        2
176
     1
 90
        0
176
     1
 90
        0
176
     1
 40
0.6
176
     1
 40
30.0
176
     1
 62
     7
420
 16777215
176
     1
 90
        1
176
     1
 90
        4
176
     1
 62
     7
176
     1
 62
   257
176
     1
 90
        1
176
     1
 90
        1
176
     1
 40
1.0
176
     1
 90
        0
176
     1
 62
   257
176
     1
 40
1.0
176
     1
 90
        1
176
     1
 90
        6
176
     1
 90
        2
176
     1
 62
     7
176
     1
 90
        5
176
     1
 90
        0
176
     1
 90
        0
176
     1
290
     0
176
     1
 90
        1
176
     1
 40
0.0
176
     1
 90
        0
176
     1
290
     1
176
     1
290
     1
176
     1
290
     0
176
     1
290
     0
176
     1
290
     0
176
     1
290
     0
176
     1
290
     0
176
     1
290
     0
176
     1
290
     0
176
     1
 90
       50
176
     1
 40
0.0
176
     1
 40
1.0
176
     1
 90
        0
176
     1
 62
    18
420
        0
176
     1
 90
       50
176
     1
 90
        3
176
     1
 62
     5
420
      255
176
     1
290
     0
176
     1
 90
       50
176
     1
 90
       50
176
     1
 90
       50
176
     1
290
     0
176
     1
 90
       50
176
     1
 62
   256
176
     0
 40
1.0
176
     0
 90
        2
176
     1
  1
strokes_ogs.tif
176
     1
290
     0
176
     1
 40
1.0
176
     1
 40
1.0
176
     1
  0
VISUALSTYLE
  5
32
102
{ACAD_REACTORS
330
2A
102
}
330
2A
100
AcDbVisualStyle
  2
Basic
 70
     7
177
     3
291
     1
 70
    58
 90
        1
176
     1
 90
        0
176
     1
 90
        1
176
     1
 90
        0
176
     1
 40
0.6
176
     1
 40
30.0
176
     1
 62
     7
420
 16777215
176
     1
 90
        0
176
     1
 90
        4
176
     1
 62
     7
176
     1
 62
   257
176
     1
 90
        1
176
     1
 90
        1
176
     1
 40
1.0
176
     1
 90
        8
176
     1
 62
     7
176
     1
 40
1.0
176
     1
 90
        1
176
     1
 90
        6
176
     1
 90
        2
176
     1
 62
     7
176
     1
 90
        5
176
     1
 90
        0
176
     1
 90
        0
176
     1
290
     0
176
     1
 90
        1
176
     1
 40
0.0
176
     1
 90
        0
176
     1
290
     0
176
     1
290
     1
176
     1
290
     1
176
     1
290
     0
176
     1
290
     0
176
     1
290
     0
176
     1
290
     0
176
     1
290
     0
176
     1
290
     0
176
     1
 90
       50
176
     1
 40
0.0
176
     1
 40
1.0
176
     1
 90
        0
176
     1
 62
    18
420
        0
176
     1
 90
       50
176
     1
 90
        3
176
     1
 62
     5
420
      255
176
     1
290
     0
176
     1
 90
       50
176
     1
 90
       50
176
     1
 90
       50
176
     1
290
     0
176
     1
 90
       50
176
     1
 62
   256
176
     0
 40
1.0
176
     0
 90
        2
176
     1
  1
strokes_ogs.tif
176
     1
290
     0
176
     1
 40
1.0
176
     1
 40
1.0
176
     1
  0
VISUALSTYLE
  5
36
102
{ACAD_REACTORS
330
2A
102
}
330
2A
100
AcDbVisualStyle
  2
Brighten
 70
    12
177
     3
291
     1
 70
    58
 90
        2
176
     1
 90
        2
176
     1
 90
        0
176
     1
 90
        0
176
     1
 40
0.6
176
     1
 40
30.0
176
     1
 62
     7
420
 16777215
176
     1
 90
        1
176
     1
 90
        4
176
     1
 62
     7
176
     1
 62
   257
176
     1
 90
        1
176
     1
 90
        1
176
     1
 40
1.0
176
     1
 90
        8
176
     1
 62
     7
176
     1
 40
1.0
176
     1
 90
        1
176
     1
 90
        6
176
     1
 90
        2
176
     1
 62
     7
176
     1
 90
        5
176
     1
 90
        0
176
     1
 90
        0
176
     1
290
     0
176
     1
 90
        1
176
     1
 40
50.0
176
     1
 90
        0
176
     1
290
     0
176
     1
290
     1
176
     1
290
     1
176
     1
290
     0
176
     1
290
     0
176
     1
290
     0
176
     1
290
     0
176
     1
290
     0
176
     1
290
     0
176
     1
 90
       50
176
     1
 40
0.0
176
     1
 40
1.0
176
     1
 90
        0
176
     1
 62
    18
420
        0
176
     1
 90
       50
176
     1
 90
        3
176
     1
 62
     5
420
      255
176
     1
290
     0
176
     1
 90
       50
176
     1
 90
       50
176
     1
 90
       50
176
     1
290
     0
176
     1
 90
       50
176
     1
 62
   256
176
     0
 40
1.0
176
     0
 90
        2
176
     1
  1
strokes_ogs.tif
176
     1
290
     0
176
     1
 40
1.0
176
     1
 40
1.0
176
     1
  0
VISUALSTYLE
  5
3A
102
{ACAD_REACTORS
330
2A
102
}
330
2A
100
AcDbVisualStyle
  2
ColorChange
 70
    16
177
     3
291
     1
 70
    58
 90
        2
176
     1
 90
        2
176
     1
 90
        3
176
     1
 90
        0
176
     1
 40
0.6
176
     1
 40
30.0
176
     1
 62
     8
420
  8421504
176
     1
 90
        1
176
     1
 90
        4
176
     1
 62
     7
176
     1
 62
   257
176
     1
 90
        1
176
     1
 90
        1
176
     1
 40
1.0
176
     1
 90
        8
176
     1
 62
     8
420
  8421504
176
     1
 40
1.0
176
     1
 90
        1
176
     1
 90
        6
176
     1
 90
        2
176
     1
 62
     7
176
     1
 90
        5
176
     1
 90
        0
176
     1
 90
        0
176
     1
290
     0
176
     1
 90
        1
176
     1
 40
0.0
176
     1
 90
        0
176
     1
290
     0
176
     1
290
     1
176
     1
290
     1
176
     1
290
     0
176
     1
290
     0
176
     1
290
     0
176
     1
290
     0
176
     1
290
     0
176
     1
290
     0
176
     1
 90
       50
176
     1
 40
0.0
176
     1
 40
1.0
176
     1
 90
        0
176
     1
 62
    18
420
        0
176
     1
 90
       50
176
     1
 90
        3
176
     1
 62
     5
420
      255
176
     1
290
     0
176
     1
 90
       50
176
     1
 90
       50
176
     1
 90
       50
176
     1
290
     0
176
     1
 90
       50
176
     1
 62
   256
176
     0
 40
1.0
176
     0
 90
        2
176
     1
  1
strokes_ogs.tif
176
     1
290
     0
176
     1
 40
1.0
176
     1
 40
1.0
176
     1
  0
VISUALSTYLE
  5
34
102
{ACAD_REACTORS
330
2A
102
}
330
2A
100
AcDbVisualStyle
  2
Conceptual
 70
     9
177
     3
291
     0
 70
    58
 90
        3
176
     1
 90
        2
176
     1
 90
        0
176
     1
 90
        0
176
     1
 40
0.6
176
     1
 40
30.0
176
     1
 62
     7
420
 16777215
176
     1
 90
        2
176
     1
 90
        2
176
     1
 62
     7
176
     1
 62
   257
176
     1
 90
        1
176
     1
 90
        1
176
     1
 40
179.0
176
     1
 90
        8
176
     1
 62
     7
176
     1
 40
1.0
176
     1
 90
        1
176
     1
 90
        6
176
     1
 90
        2
176
     1
 62
     7
176
     1
 90
        3
176
     1
 90
        0
176
     1
 90
        0
176
     1
290
     0
176
     1
 90
        1
176
     1
 40
0.0
176
     1
 90
        0
176
     1
290
     0
176
     1
290
     1
176
     1
290
     1
176
     1
290
     0
176
     1
290
     0
176
     1
290
     0
176
     1
290
     0
176
     1
290
     0
176
     1
290
     0
176
     1
 90
       50
176
     1
 40
0.0
176
     1
 40
1.0
176
     1
 90
        0
176
     1
 62
    18
420
        0
176
     1
 90
       50
176
     1
 90
        3
176
     1
 62
     5
420
      255
176
     1
290
     0
176
     1
 90
       50
176
     1
 90
       50
176
     1
 90
       50
176
     1
290
     0
176
     1
 90
       50
176
     1
 62
   256
176
     0
 40
1.0
176
     0
 90
        2
176
     1
  1
strokes_ogs.tif
176
     1
290
     0
176
     1
 40
1.0
176
     1
 40
1.0
176
     1
  0
VISUALSTYLE
  5
35
102
{ACAD_REACTORS
330
2A
102
}
330
2A
100
AcDbVisualStyle
  2
Dim
 70
    11
177
     3
291
     1
 70
    58
 90
        2
176
     1
 90
        2
176
     1
 90
        0
176
     1
 90
        0
176
     1
 40
0.6
176
     1
 40
30.0
176
     1
 62
     7
420
 16777215
176
     1
 90
        1
176
     1
 90
        4
176
     1
 62
     7
176
     1
 62
   257
176
     1
 90
        1
176
     1
 90
        1
176
     1
 40
1.0
176
     1
 90
        8
176
     1
 62
     7
176
     1
 40
1.0
176
     1
 90
        1
176
     1
 90
        6
176
     1
 90
        2
176
     1
 62
     7
176
     1
 90
        5
176
     1
 90
        0
176
     1
 90
        0
176
     1
290
     0
176
     1
 90
        1
176
     1
 40
-50.0
176
     1
 90
        0
176
     1
290
     0
176
     1
290
     1
176
     1
290
     1
176
     1
290
     0
176
     1
290
     0
176
     1
290
     0
176
     1
290
     0
176
     1
290
     0
176
     1
290
     0
176
     1
 90
       50
176
     1
 40
0.0
176
     1
 40
1.0
176
     1
 90
        0
176
     1
 62
    18
420
        0
176
     1
 90
       50
176
     1
 90
        3
176
     1
 62
     5
420
      255
176
     1
290
     0
176
     1
 90
       50
176
     1
 90
       50
176
     1
 90
       50
176
     1
290
     0
176
     1
 90
       50
176
     1
 62
   256
176
     0
 40
1.0
176
     0
 90
        2
176
     1
  1
strokes_ogs.tif
176
     1
290
     0
176
     1
 40
1.0
176
     1
 40
1.0
176
     1
  0
VISUALSTYLE
  5
3D
102
{ACAD_REACTORS
330
2A
102
}
330
2A
100
AcDbVisualStyle
  2
EdgeColorOff
 70
    22
177
     3
291
     1
 70
    58
 90
        2
176
     0
 90
        2
176
     0
 90
        0
176
     0
 90
        0
176
     0
 40
0.6
176
     0
 40
30.0
176
     0
 62
     7
420
 16777215
176
     0
 90
        1
176
     0
 90
        4
176
     0
 62
     7
176
     0
 62
   257
176
     0
 90
        1
176
     0
 90
        1
176
     0
 40
1.0
176
     0
 90
        8
176
     2
 62
     7
176
     0
 40
1.0
176
     0
 90
        1
176
     0
 90
        6
176
     0
 90
        2
176
     0
 62
     7
176
     0
 90
        5
176
     0
 90
        0
176
     0
 90
        0
176
     0
290
     0
176
     0
 90
        1
176
     0
 40
0.0
176
     0
 90
        0
176
     0
290
     0
176
     0
290
     1
176
     0
290
     1
176
     0
290
     0
176
     0
290
     0
176
     0
290
     0
176
     0
290
     0
176
     0
290
     0
176
     0
290
     0
176
     0
 90
       50
176
     0
 40
0.0
176
     0
 40
1.0
176
     0
 90
        0
176
     0
 62
    18
420
        0
176
     0
 90
       50
176
     0
 90
        3
176
     0
 62
     5
420
      255
176
     0
290
     0
176
     0
 90
       50
176
     0
 90
       50
176
     0
 90
       50
176
     0
290
     0
176
     0
 90
       50
176
     0
 62
   256
176
     0
 40
1.0
176
     0
 90
        2
176
     0
  1
strokes_ogs.tif
176
     0
290
     0
176
     0
 40
1.0
176
     0
 40
1.0
176
     0
  0
VISUALSTYLE
  5
39
102
{ACAD_REACTORS
330
2A
102
}
330
2A
100
AcDbVisualStyle
  2
Facepattern
 70
    15
177
     3
291
     1
 70
    58
 90
        2
176
     1
 90
        2
176
     1
 90
        0
176
     1
 90
        0
176
     1
 40
0.6
176
     1
 40
30.0
176
     1
 62
     7
420
 16777215
176
     1
 90
        1
176
     1
 90
        4
176
     1
 62
     7
176
     1
 62
   257
176
     1
 90
        1
176
     1
 90
        1
176
     1
 40
1.0
176
     1
 90
        8
176
     1
 62
     7
176
     1
 40
1.0
176
     1
 90
        1
176
     1
 90
        6
176
     1
 90
        2
176
     1
 62
     7
176
     1
 90
        5
176
     1
 90
        0
176
     1
 90
        0
176
     1
290
     0
176
     1
 90
        1
176
     1
 40
0.0
176
     1
 90
        0
176
     1
290
     0
176
     1
290
     1
176
     1
290
     1
176
     1
290
     0
176
     1
290
     0
176
     1
290
     0
176
     1
290
     0
176
     1
290
     0
176
     1
290
     0
176
     1
 90
       50
176
     1
 40
0.0
176
     1
 40
1.0
176
     1
 90
        0
176
     1
 62
    18
420
        0
176
     1
 90
       50
176
     1
 90
        3
176
     1
 62
     5
420
      255
176
     1
290
     0
176
     1
 90
       50
176
     1
 90
       50
176
     1
 90
       50
176
     1
290
     0
176
     1
 90
       50
176
     1
 62
   256
176
     0
 40
1.0
176
     0
 90
        2
176
     1
  1
strokes_ogs.tif
176
     1
290
     0
176
     1
 40
1.0
176
     1
 40
1.0
176
     1
  0
VISUALSTYLE
  5
2B
102
{ACAD_REACTORS
330
2A
102
}
330
2A
100
AcDbVisualStyle
  2
Flat
 70
     0
177
     3
291
     1
 70
    58
 90
        2
176
     1
 90
        1
176
     1
 90
        1
176
     1
 90
        2
176
     1
 40
0.6
176
     1
 40
30.0
176
     1
 62
     7
420
 16777215
176
     1
 90
        0
176
     1
 90
        0
176
     1
 62
     7
176
     1
 62
   257
176
     1
 90
        1
176
     1
 90
        1
176
     1
 40
1.0
176
     1
 90
        8
176
     1
 62
     7
176
     1
 40
1.0
176
     1
 90
        1
176
     1
 90
        6
176
     1
 90
        2
176
     1
 62
     7
176
     1
 90
        5
176
     1
 90
        0
176
     1
 90
        0
176
     1
290
     0
176
     1
 90
       13
176
     1
 40
0.0
176
     1
 90
        0
176
     1
290
     0
176
     1
290
     1
176
     1
290
     1
176
     1
290
     0
176
     1
290
     0
176
     1
290
     0
176
     1
290
     0
176
     1
290
     0
176
     1
290
     0
176
     1
 90
       50
176
     1
 40
0.0
176
     1
 40
1.0
176
     1
 90
        0
176
     1
 62
    18
420
        0
176
     1
 90
       50
176
     1
 90
        3
176
     1
 62
     5
420
      255
176
     1
290
     0
176
     1
 90
       50
176
     1
 90
       50
176
     1
 90
       50
176
     1
290
     0
176
     1
 90
       50
176
     1
 62
   256
176
     0
 40
1.0
176
     0
 90
        2
176
     1
  1
strokes_ogs.tif
176
     1
290
     0
176
     1
 40
1.0
176
     1
 40
1.0
176
     1
  0
VISUALSTYLE
  5
2C
102
{ACAD_REACTORS
330
2A
102
}
330
2A
100
AcDbVisualStyle
  2
FlatWithEdges
 70
     1
177
     3
291
     1
 70
    58
 90
        2
176
     1
 90
        1
176
     1
 90
        1
176
     1
 90
        2
176
     1
 40
0.6
176
     1
 40
30.0
176
     1
 62
     7
420
 16777215
176
     1
 90
        1
176
     1
 90
        0
176
     1
 62
     7
176
     1
 62
   257
176
     1
 90
        1
176
     1
 90
        1
176
     1
 40
1.0
176
     1
 90
        0
176
     1
 62
   257
176
     1
 40
1.0
176
     1
 90
        1
176
     1
 90
        6
176
     1
 90
        2
176
     1
 62
     7
176
     1
 90
        5
176
     1
 90
        0
176
     1
 90
        0
176
     1
290
     0
176
     1
 90
       13
176
     1
 40
0.0
176
     1
 90
        0
176
     1
290
     0
176
     1
290
     1
176
     1
290
     1
176
     1
290
     0
176
     1
290
     0
176
     1
290
     0
176
     1
290
     0
176
     1
290
     0
176
     1
290
     0
176
     1
 90
       50
176
     1
 40
0.0
176
     1
 40
1.0
176
     1
 90
        0
176
     1
 62
    18
420
        0
176
     1
 90
       50
176
     1
 90
        3
176
     1
 62
     5
420
      255
176
     1
290
     0
176
     1
 90
       50
176
     1
 90
       50
176
     1
 90
       50
176
     1
290
     0
176
     1
 90
       50
176
     1
 62
   256
176
     0
 40
1.0
176
     0
 90
        2
176
     1
  1
strokes_ogs.tif
176
     1
290
     0
176
     1
 40
1.0
176
     1
 40
1.0
176
     1
  0
VISUALSTYLE
  5
2D
102
{ACAD_REACTORS
330
2A
102
}
330
2A
100
AcDbVisualStyle
  2
Gouraud
 70
     2
177
     3
291
     1
 70
    58
 90
        2
176
     1
 90
        2
176
     1
 90
        1
176
     1
 90
        2
176
     1
 40
0.6
176
     1
 40
30.0
176
     1
 62
     7
420
 16777215
176
     1
 90
        0
176
     1
 90
        0
176
     1
 62
     7
176
     1
 62
   257
176
     1
 90
        1
176
     1
 90
        1
176
     1
 40
1.0
176
     1
 90
        0
176
     1
 62
     7
176
     1
 40
1.0
176
     1
 90
        1
176
     1
 90
        6
176
     1
 90
        2
176
     1
 62
     7
176
     1
 90
        5
176
     1
 90
        0
176
     1
 90
        0
176
     1
290
     0
176
     1
 90
       13
176
     1
 40
0.0
176
     1
 90
        0
176
     1
290
     0
176
     1
290
     1
176
     1
290
     1
176
     1
290
     0
176
     1
290
     0
176
     1
290
     0
176
     1
290
     0
176
     1
290
     0
176
     1
290
     0
176
     1
 90
       50
176
     1
 40
0.0
176
     1
 40
1.0
176
     1
 90
        0
176
     1
 62
    18
420
        0
176
     1
 90
       50
176
     1
 90
        3
176
     1
 62
     5
420
      255
176
     1
290
     0
176
     1
 90
       50
176
     1
 90
       50
176
     1
 90
       50
176
     1
290
     0
176
     1
 90
       50
176
     1
 62
   256
176
     0
 40
1.0
176
     0
 90
        2
176
     1
  1
strokes_ogs.tif
176
     1
290
     0
176
     1
 40
1.0
176
     1
 40
1.0
176
     1
  0
VISUALSTYLE
  5
2E
102
{ACAD_REACTORS
330
2A
102
}
330
2A
100
AcDbVisualStyle
  2
GouraudWithEdges
 70
     3
177
     3
291
     1
 70
    58
 90
        2
176
     1
 90
        2
176
     1
 90
        1
176
     1
 90
        2
176
     1
 40
0.6
176
     1
 40
30.0
176
     1
 62
     7
420
 16777215
176
     1
 90
        1
176
     1
 90
        0
176
     1
 62
     7
176
     1
 62
   257
176
     1
 90
        1
176
     1
 90
        1
176
     1
 40
1.0
176
     1
 90
        0
176
     1
 62
   257
176
     1
 40
1.0
176
     1
 90
        1
176
     1
 90
        6
176
     1
 90
        2
176
     1
 62
     7
176
     1
 90
        5
176
     1
 90
        0
176
     1
 90
        0
176
     1
290
     0
176
     1
 90
       13
176
     1
 40
0.0
176
     1
 90
        0
176
     1
290
     0
176
     1
290
     1
176
     1
290
     1
176
     1
290
     0
176
     1
290
     0
176
     1
290
     0
176
     1
290
     0
176
     1
290
     0
176
     1
290
     0
176
     1
 90
       50
176
     1
 40
0.0
176
     1
 40
1.0
176
     1
 90
        0
176
     1
 62
    18
420
        0
176
     1
 90
       50
176
     1
 90
        3
176
     1
 62
     5
420
      255
176
     1
290
     0
176
     1
 90
       50
176
     1
 90
       50
176
     1
 90
       50
176
     1
290
     0
176
     1
 90
       50
176
     1
 62
   256
176
     0
 40
1.0
176
     0
 90
        2
176
     1
  1
strokes_ogs.tif
176
     1
290
     0
176
     1
 40
1.0
176
     1
 40
1.0
176
     1
  0
VISUALSTYLE
  5
31
102
{ACAD_REACTORS
330
2A
102
}
330
2A
100
AcDbVisualStyle
  2
Hidden
 70
     6
177
     3
291
     0
 70
    58
 90
        1
176
     1
 90
        2
176
     1
 90
        2
176
     1
 90
        0
176
     1
 40
0.6
176
     1
 40
30.0
176
     1
 62
     7
420
 16777215
176
     1
 90
        2
176
     1
 90
        2
176
     1
 62
     7
176
     1
 62
   257
176
     1
 90
        2
176
     1
 90
        1
176
     1
 40
40.0
176
     1
 90
        0
176
     1
 62
   257
176
     1
 40
1.0
176
     1
 90
        1
176
     1
 90
        6
176
     1
 90
        2
176
     1
 62
     7
176
     1
 90
        3
176
     1
 90
        0
176
     1
 90
        0
176
     1
290
     0
176
     1
 90
        1
176
     1
 40
0.0
176
     1
 90
        0
176
     1
290
     0
176
     1
290
     1
176
     1
290
     1
176
     1
290
     0
176
     1
290
     0
176
     1
290
     0
176
     1
290
     0
176
     1
290
     0
176
     1
290
     0
176
     1
 90
       50
176
     1
 40
0.0
176
     1
 40
1.0
176
     1
 90
        0
176
     1
 62
    18
420
        0
176
     1
 90
       50
176
     1
 90
        3
176
     1
 62
     5
420
      255
176
     1
290
     0
176
     1
 90
       50
176
     1
 90
       50
176
     1
 90
       50
176
     1
290
     0
176
     1
 90
       50
176
     1
 62
   256
176
     0
 40
1.0
176
     0
 90
        2
176
     1
  1
strokes_ogs.tif
176
     1
290
     0
176
     1
 40
1.0
176
     1
 40
1.0
176
     1
  0
VISUALSTYLE
  5
3B
102
{ACAD_REACTORS
330
2A
102
}
330
2A
100
AcDbVisualStyle
  2
JitterOff
 70
    20
177
     3
291
     1
 70
    58
 90
        2
176
     0
 90
        2
176
     0
 90
        0
176
     0
 90
        0
176
     0
 40
0.6
176
     0
 40
30.0
176
     0
 62
     7
420
 16777215
176
     0
 90
        1
176
     0
 90
        4
176
     0
 62
     7
176
     0
 62
   257
176
     0
 90
        1
176
     0
 90
        1
176
     0
 40
1.0
176
     0
 90
       10
176
     2
 62
     7
176
     0
 40
1.0
176
     0
 90
        1
176
     0
 90
        6
176
     0
 90
        2
176
     0
 62
     7
176
     0
 90
        5
176
     0
 90
        0
176
     0
 90
        0
176
     0
290
     0
176
     0
 90
        1
176
     0
 40
0.0
176
     0
 90
        0
176
     0
290
     0
176
     0
290
     1
176
     0
290
     1
176
     0
290
     0
176
     0
290
     0
176
     0
290
     0
176
     0
290
     0
176
     0
290
     0
176
     0
290
     0
176
     0
 90
       50
176
     0
 40
0.0
176
     0
 40
1.0
176
     0
 90
        0
176
     0
 62
    18
420
        0
176
     0
 90
       50
176
     0
 90
        3
176
     0
 62
     5
420
      255
176
     0
290
     0
176
     0
 90
       50
176
     0
 90
       50
176
     0
 90
       50
176
     0
290
     0
176
     0
 90
       50
176
     0
 62
   256
176
     0
 40
1.0
176
     0
 90
        2
176
     0
  1
strokes_ogs.tif
176
     0
290
     0
176
     0
 40
1.0
176
     0
 40
1.0
176
     0
  0
VISUALSTYLE
  5
38
102
{ACAD_REACTORS
330
2A
102
}
330
2A
100
AcDbVisualStyle
  2
Linepattern
 70
    14
177
     3
291
     1
 70
    58
 90
        2
176
     1
 90
        2
176
     1
 90
        0
176
     1
 90
        0
176
     1
 40
0.6
176
     1
 40
30.0
176
     1
 62
     7
420
 16777215
176
     1
 90
        1
176
     1
 90
        4
176
     1
 62
     7
176
     1
 62
   257
176
     1
 90
        7
176
     1
 90
        7
176
     1
 40
1.0
176
     1
 90
        8
176
     1
 62
     7
176
     1
 40
1.0
176
     1
 90
        1
176
     1
 90
        6
176
     1
 90
        2
176
     1
 62
     7
176
     1
 90
        5
176
     1
 90
        0
176
     1
 90
        0
176
     1
290
     0
176
     1
 90
        1
176
     1
 40
0.0
176
     1
 90
        0
176
     1
290
     0
176
     1
290
     1
176
     1
290
     1
176
     1
290
     0
176
     1
290
     0
176
     1
290
     0
176
     1
290
     0
176
     1
290
     0
176
     1
290
     0
176
     1
 90
       50
176
     1
 40
0.0
176
     1
 40
1.0
176
     1
 90
        0
176
     1
 62
    18
420
        0
176
     1
 90
       50
176
     1
 90
        3
176
     1
 62
     5
420
      255
176
     1
290
     0
176
     1
 90
       50
176
     1
 90
       50
176
     1
 90
       50
176
     1
290
     0
176
     1
 90
       50
176
     1
 62
   256
176
     0
 40
1.0
176
     0
 90
        2
176
     1
  1
strokes_ogs.tif
176
     1
290
     0
176
     1
 40
1.0
176
     1
 40
1.0
176
     1
  0
VISUALSTYLE
  5
3C
102
{ACAD_REACTORS
330
2A
102
}
330
2A
100
AcDbVisualStyle
  2
OverhangOff
 70
    21
177
     3
291
     1
 70
    58
 90
        2
176
     0
 90
        2
176
     0
 90
        0
176
     0
 90
        0
176
     0
 40
0.6
176
     0
 40
30.0
176
     0
 62
     7
420
 16777215
176
     0
 90
        1
176
     0
 90
        4
176
     0
 62
     7
176
     0
 62
   257
176
     0
 90
        1
176
     0
 90
        1
176
     0
 40
1.0
176
     0
 90
        9
176
     2
 62
     7
176
     0
 40
1.0
176
     0
 90
        1
176
     0
 90
        6
176
     0
 90
        2
176
     0
 62
     7
176
     0
 90
        5
176
     0
 90
        0
176
     0
 90
        0
176
     0
290
     0
176
     0
 90
        1
176
     0
 40
0.0
176
     0
 90
        0
176
     0
290
     0
176
     0
290
     1
176
     0
290
     1
176
     0
290
     0
176
     0
290
     0
176
     0
290
     0
176
     0
290
     0
176
     0
290
     0
176
     0
290
     0
176
     0
 90
       50
176
     0
 40
0.0
176
     0
 40
1.0
176
     0
 90
        0
176
     0
 62
    18
420
        0
176
     0
 90
       50
176
     0
 90
        3
176
     0
 62
     5
420
      255
176
     0
290
     0
176
     0
 90
       50
176
     0
 90
       50
176
     0
 90
       50
176
     0
290
     0
176
     0
 90
       50
176
     0
 62
   256
176
     0
 40
1.0
176
     0
 90
        2
176
     0
  1
strokes_ogs.tif
176
     0
290
     0
176
     0
 40
1.0
176
     0
 40
1.0
176
     0
  0
VISUALSTYLE
  5
33
102
{ACAD_REACTORS
330
2A
102
}
330
2A
100
AcDbVisualStyle
  2
Realistic
 70
     8
177
     3
291
     0
 70
    58
 90
        2
176
     1
 90
        3
176
     1
 90
        0
176
     1
 90
        2
176
     1
 40
0.6
176
     1
 40
30.0
176
     1
 62
     7
420
 16777215
176
     1
 90
        0
176
     1
 90
        0
176
     1
 62
     7
176
     1
 62
   257
176
     1
 90
        1
176
     1
 90
        1
176
     1
 40
1.0
176
     1
 90
        8
176
     1
 62
   257
176
     1
 40
1.0
176
     1
 90
        1
176
     1
 90
        6
176
     1
 90
        2
176
     1
 62
     7
176
     1
 90
        3
176
     1
 90
        0
176
     1
 90
        0
176
     1
290
     0
176
     1
 90
       13
176
     1
 40
0.0
176
     1
 90
        0
176
     1
290
     0
176
     1
290
     1
176
     1
290
     1
176
     1
290
     0
176
     1
290
     0
176
     1
290
     0
176
     1
290
     0
176
     1
290
     0
176
     1
290
     0
176
     1
 90
       50
176
     1
 40
0.0
176
     1
 40
1.0
176
     1
 90
        0
176
     1
 62
    18
420
        0
176
     1
 90
       50
176
     1
 90
        3
176
     1
 62
     5
420
      255
176
     1
290
     0
176
     1
 90
       50
176
     1
 90
       50
176
     1
 90
       50
176
     1
290
     0
176
     1
 90
       50
176
     1
 62
   256
176
     0
 40
1.0
176
     0
 90
        2
176
     1
  1
strokes_ogs.tif
176
     1
290
     0
176
     1
 40
1.0
176
     1
 40
1.0
176
     1
  0
VISUALSTYLE
  5
42
102
{ACAD_REACTORS
330
2A
102
}
330
2A
100
AcDbVisualStyle
  2
Shaded
 70
    27
177
     3
291
     0
 70
    58
 90
        2
176
     1
 90
        2
176
     1
 90
        1
176
     1
 90
        2
176
     1
 40
0.6
176
     1
 40
30.0
176
     1
 62
     7
420
 16777215
176
     1
 90
        0
176
     1
 90
        4
176
     1
 62
     7
176
     1
 62
   257
176
     1
 90
        1
176
     1
 90
        1
176
     1
 40
1.0
176
     1
 90
        8
176
     1
 62
   257
176
     1
 40
1.0
176
     1
 90
        1
176
     1
 90
        6
176
     1
 90
        2
176
     1
 62
     8
420
  7895160
176
     1
 90
        3
176
     1
 90
        0
176
     1
 90
        0
176
     1
290
     0
176
     1
 90
        5
176
     1
 40
0.0
176
     1
 90
        0
176
     1
290
     0
176
     1
290
     1
176
     1
290
     1
176
     1
290
     0
176
     1
290
     0
176
     1
290
     0
176
     1
290
     0
176
     1
290
     0
176
     1
290
     0
176
     1
 90
       50
176
     1
 40
0.0
176
     1
 40
1.0
176
     1
 90
        0
176
     1
 62
    18
420
        0
176
     1
 90
       50
176
     1
 90
        3
176
     1
 62
     5
420
      255
176
     1
290
     0
176
     1
 90
       50
176
     1
 90
       50
176
     1
 90
       50
176
     1
290
     0
176
     1
 90
       50
176
     1
 62
   256
176
     0
 40
1.0
176
     0
 90
        2
176
     1
  1
strokes_ogs.tif
176
     1
290
     0
176
     1
 40
1.0
176
     1
 40
1.0
176
     1
  0
VISUALSTYLE
  5
41
102
{ACAD_REACTORS
330
2A
102
}
330
2A
100
AcDbVisualStyle
  2
Shaded with edges
 70
    26
177
     3
291
     0
 70
    58
 90
        2
176
     1
 90
        2
176
     1
 90
        1
176
     1
 90
        2
176
     1
 40
0.6
176
     1
 40
30.0
176
     1
 62
     7
420
 16777215
176
     1
 90
        1
176
     1
 90
       10
176
     1
 62
     7
176
     1
 62
   257
176
     1
 90
        2
176
     1
 90
        1
176
     1
 40
1.0
176
     1
 90
        8
176
     1
 62
   257
176
     1
 40
1.0
176
     1
 90
        1
176
     1
 90
        6
176
     1
 90
        2
176
     1
 62
     7
176
     1
 90
        3
176
     1
 90
        0
176
     1
 90
        0
176
     1
290
     0
176
     1
 90
        5
176
     1
 40
0.0
176
     1
 90
        0
176
     1
290
     0
176
     1
290
     1
176
     1
290
     1
176
     1
290
     0
176
     1
290
     0
176
     1
290
     0
176
     1
290
     0
176
     1
290
     0
176
     1
290
     0
176
     1
 90
       50
176
     1
 40
0.0
176
     1
 40
1.0
176
     1
 90
        0
176
     1
 62
    18
420
        0
176
     1
 90
       50
176
     1
 90
        3
176
     1
 62
     5
420
      255
176
     1
290
     0
176
     1
 90
       50
176
     1
 90
       50
176
     1
 90
       50
176
     1
290
     0
176
     1
 90
       50
176
     1
 62
   256
176
     0
 40
1.0
176
     0
 90
        2
176
     1
  1
strokes_ogs.tif
176
     1
290
     0
176
     1
 40
1.0
176
     1
 40
1.0
176
     1
  0
VISUALSTYLE
  5
3E
102
{ACAD_REACTORS
330
2A
102
}
330
2A
100
AcDbVisualStyle
  2
Shades of Gray
 70
    23
177
     3
291
     0
 70
    58
 90
        2
176
     1
 90
        2
176
     1
 90
        3
176
     1
 90
        0
176
     1
 40
0.6
176
     1
 40
30.0
176
     1
 62
     7
420
 16777215
176
     1
 90
        2
176
     1
 90
        2
176
     1
 62
     7
176
     1
 62
     7
176
     1
 90
        1
176
     1
 90
        1
176
     1
 40
40.0
176
     1
 90
        8
176
     1
 62
     7
176
     1
 40
1.0
176
     1
 90
        1
176
     1
 90
        6
176
     1
 90
        2
176
     1
 62
     7
176
     1
 90
        3
176
     1
 90
        0
176
     1
 90
        0
176
     1
290
     0
176
     1
 90
        1
176
     1
 40
0.0
176
     1
 90
        0
176
     1
290
     0
176
     1
290
     1
176
     1
290
     1
176
     1
290
     0
176
     1
290
     0
176
     1
290
     0
176
     1
290
     0
176
     1
290
     0
176
     1
290
     0
176
     1
 90
       50
176
     1
 40
0.0
176
     1
 40
1.0
176
     1
 90
        0
176
     1
 62
    18
420
        0
176
     1
 90
       50
176
     1
 90
        3
176
     1
 62
     5
420
      255
176
     1
290
     0
176
     1
 90
       50
176
     1
 90
       50
176
     1
 90
       50
176
     1
290
     0
176
     1
 90
       50
176
     1
 62
   256
176
     0
 40
1.0
176
     0
 90
        2
176
     1
  1
strokes_ogs.tif
176
     1
290
     0
176
     1
 40
1.0
176
     1
 40
1.0
176
     1
  0
VISUALSTYLE
  5
3F
102
{ACAD_REACTORS
330
2A
102
}
330
2A
100
AcDbVisualStyle
  2
Sketchy
 70
    24
177
     3
291
     0
 70
    58
 90
        1
176
     1
 90
        2
176
     1
 90
        2
176
     1
 90
        0
176
     1
 40
0.6
176
     1
 40
30.0
176
     1
 62
     7
420
 16777215
176
     1
 90
        2
176
     1
 90
        2
176
     1
 62
     7
176
     1
 62
     7
176
     1
 90
        1
176
     1
 90
        1
176
     1
 40
40.0
176
     1
 90
       11
176
     1
 62
     7
176
     1
 40
1.0
176
     1
 90
        1
176
     1
 90
        6
176
     1
 90
        2
176
     1
 62
     7
176
     1
 90
        6
176
     1
 90
        0
176
     1
 90
        0
176
     1
290
     0
176
     1
 90
        1
176
     1
 40
0.0
176
     1
 90
        0
176
     1
290
     0
176
     1
290
     1
176
     1
290
     1
176
     1
290
     0
176
     1
290
     0
176
     1
290
     0
176
     1
290
     0
176
     1
290
     0
176
     1
290
     0
176
     1
 90
       50
176
     1
 40
0.0
176
     1
 40
1.0
176
     1
 90
        0
176
     1
 62
    18
420
        0
176
     1
 90
       50
176
     1
 90
        3
176
     1
 62
     5
420
      255
176
     1
290
     0
176
     1
 90
       50
176
     1
 90
       50
176
     1
 90
       50
176
     1
290
     0
176
     1
 90
       50
176
     1
 62
   256
176
     0
 40
1.0
176
     0
 90
        2
176
     1
  1
strokes_ogs.tif
176
     1
290
     0
176
     1
 40
1.0
176
     1
 40
1.0
176
     1
  0
VISUALSTYLE
  5
37
102
{ACAD_REACTORS
330
2A
102
}
330
2A
100
AcDbVisualStyle
  2
Thicken
 70
    13
177
     3
291
     1
 70
    58
 90
        2
176
     1
 90
        2
176
     1
 90
        0
176
     1
 90
        0
176
     1
 40
0.6
176
     1
 40
30.0
176
     1
 62
     7
420
 16777215
176
     1
 90
        1
176
     1
 90
        4
176
     1
 62
     7
176
     1
 62
   257
176
     1
 90
        1
176
     1
 90
        1
176
     1
 40
1.0
176
     1
 90
       12
176
     1
 62
     7
176
     1
 40
1.0
176
     1
 90
        1
176
     1
 90
        6
176
     1
 90
        2
176
     1
 62
     7
176
     1
 90
        5
176
     1
 90
        0
176
     1
 90
        0
176
     1
290
     0
176
     1
 90
        1
176
     1
 40
0.0
176
     1
 90
        0
176
     1
290
     0
176
     1
290
     1
176
     1
290
     1
176
     1
290
     0
176
     1
290
     0
176
     1
290
     0
176
     1
290
     0
176
     1
290
     0
176
     1
290
     0
176
     1
 90
       50
176
     1
 40
0.0
176
     1
 40
1.0
176
     1
 90
        0
176
     1
 62
    18
420
        0
176
     1
 90
       50
176
     1
 90
        3
176
     1
 62
     5
420
      255
176
     1
290
     0
176
     1
 90
       50
176
     1
 90
       50
176
     1
 90
       50
176
     1
290
     0
176
     1
 90
       50
176
     1
 62
   256
176
     0
 40
1.0
176
     0
 90
        2
176
     1
  1
strokes_ogs.tif
176
     1
290
     0
176
     1
 40
1.0
176
     1
 40
1.0
176
     1
  0
VISUALSTYLE
  5
30
102
{ACAD_REACTORS
330
2A
102
}
330
2A
100
AcDbVisualStyle
  2
Wireframe
 70
     5
177
     3
291
     0
 70
    58
 90
        0
176
     1
 90
        2
176
     1
 90
        0
176
     1
 90
        0
176
     1
 40
0.6
176
     1
 40
30.0
176
     1
 62
     7
420
 16777215
176
     1
 90
        1
176
     1
 90
        4
176
     1
 62
     7
176
     1
 62
   257
176
     1
 90
        1
176
     1
 90
        1
176
     1
 40
1.0
176
     1
 90
        0
176
     1
 62
   257
176
     1
 40
1.0
176
     1
 90
        1
176
     1
 90
        6
176
     1
 90
        2
176
     1
 62
     7
176
     1
 90
        3
176
     1
 90
        0
176
     1
 90
        0
176
     1
290
     0
176
     1
 90
        1
176
     1
 40
0.0
176
     1
 90
        0
176
     1
290
     0
176
     1
290
     1
176
     1
290
     1
176
     1
290
     0
176
     1
290
     0
176
     1
290
     0
176
     1
290
     0
176
     1
290
     0
176
     1
290
     0
176
     1
 90
       50
176
     1
 40
0.0
176
     1
 40
1.0
176
     1
 90
        0
176
     1
 62
    18
420
        0
176
     1
 90
       50
176
     1
 90
        3
176
     1
 62
     5
420
      255
176
     1
290
     0
176
     1
 90
       50
176
     1
 90
       50
176
     1
 90
       50
176
     1
290
     0
176
     1
 90
       50
176
     1
 62
   256
176
     0
 40
1.0
176
     0
 90
        2
176
     1
  1
strokes_ogs.tif
176
     1
290
     0
176
     1
 40
1.0
176
     1
 40
1.0
176
     1
  0
VISUALSTYLE
  5
40
102
{ACAD_REACTORS
330
2A
102
}
330
2A
100
AcDbVisualStyle
  2
X-Ray
 70
    25
177
     3
291
     0
 70
    58
 90
        2
176
     1
 90
        2
176
     1
 90
        1
176
     1
 90
        1
176
     1
 40
0.5
176
     1
 40
30.0
176
     1
 62
     7
420
 16777215
176
     1
 90
        1
176
     1
 90
        0
176
     1
 62
     7
176
     1
 62
   257
176
     1
 90
        1
176
     1
 90
        1
176
     1
 40
1.0
176
     1
 90
        8
176
     1
 62
     7
176
     1
 40
1.0
176
     1
 90
        1
176
     1
 90
        6
176
     1
 90
        2
176
     1
 62
     7
176
     1
 90
        3
176
     1
 90
        0
176
     1
 90
        0
176
     1
290
     0
176
     1
 90
       13
176
     1
 40
0.0
176
     1
 90
        0
176
     1
290
     0
176
     1
290
     1
176
     1
290
     1
176
     1
290
     0
176
     1
290
     0
176
     1
290
     0
176
     1
290
     0
176
     1
290
     0
176
     1
290
     0
176
     1
 90
       50
176
     1
 40
0.0
176
     1
 40
1.0
176
     1
 90
        0
176
     1
 62
    18
420
        0
176
     1
 90
       50
176
     1
 90
        3
176
     1
 62
     5
420
      255
176
     1
290
     0
176
     1
 90
       50
176
     1
 90
       50
176
     1
 90
       50
176
     1
290
     0
176
     1
 90
       50
176
     1
 62
   256
176
     0
 40
1.0
176
     0
 90
        2
176
     1
  1
strokes_ogs.tif
176
     1
290
     0
176
     1
 40
1.0
176
     1
 40
1.0
176
     1
  0
DICTIONARYVAR
  5
1D8
102
{ACAD_REACTORS
330
1D7
102
}
330
1D7
100
DictionaryVariables
280
     0
  1
1:1
  0
DICTIONARYVAR
  5
1DD
102
{ACAD_REACTORS
330
1D7
102
}
330
1D7
100
DictionaryVariables
280
     0
  1
Standard
  0
DICTIONARYVAR
  5
1DC
102
{ACAD_REACTORS
330
1D7
102
}
330
1D7
100
DictionaryVariables
280
     0
  1
Standard
  0
DICTIONARY
  5
1D9
330
6A
100
AcDbDictionary
280
     1
281
     1
  3
ACAD_ROUNDTRIP_2008_TABLESTYLE_CELLSTYLEMAP
360
1DA
  0
CELLSTYLEMAP
  5
1DA
102
{ACAD_REACTORS
330
1D9
102
}
330
1D9
100
AcDbCellStyleMap
 90
        3
300
CELLSTYLE
  1
TABLEFORMAT_BEGIN
 90
        5
170
     1
 91
        0
 92
    32768
 62
   257
 93
        1
300
CONTENTFORMAT
  1
CONTENTFORMAT_BEGIN
 90
        0
 91
        0
 92
        4
 93
        0
300

 40
0.0
140
1.0
 94
        5
 62
     0
340
11
144
0.25
309
CONTENTFORMAT_END
171
     1
301
MARGIN
  1
CELLMARGIN_BEGIN
 40
0.06
 40
0.06
 40
0.06
 40
0.06
 40
0.06
 40
0.06
309
CELLMARGIN_END
 94
        6
 95
        1
302
GRIDFORMAT
  1
GRIDFORMAT_BEGIN
 90
        0
 91
        1
 62
     0
 92
       -2
340
14
 93
        0
 40
0.045
309
GRIDFORMAT_END
 95
        2
302
GRIDFORMAT
  1
GRIDFORMAT_BEGIN
 90
        0
 91
        1
 62
     0
 92
       -2
340
14
 93
        0
 40
0.045
309
GRIDFORMAT_END
 95
        4
302
GRIDFORMAT
  1
GRIDFORMAT_BEGIN
 90
        0
 91
        1
 62
     0
 92
       -2
340
14
 93
        0
 40
0.045
309
GRIDFORMAT_END
 95
        8
302
GRIDFORMAT
  1
GRIDFORMAT_BEGIN
 90
        0
 91
        1
 62
     0
 92
       -2
340
14
 93
        0
 40
0.045
309
GRIDFORMAT_END
 95
       16
302
GRIDFORMAT
  1
GRIDFORMAT_BEGIN
 90
        0
 91
        1
 62
     0
 92
       -2
340
14
 93
        0
 40
0.045
309
GRIDFORMAT_END
 95
       32
302
GRIDFORMAT
  1
GRIDFORMAT_BEGIN
 90
        0
 91
        1
 62
     0
 92
       -2
340
14
 93
        0
 40
0.045
309
GRIDFORMAT_END
309
TABLEFORMAT_END
  1
CELLSTYLE_BEGIN
 90
        1
 91
        1
300
_TITLE
309
CELLSTYLE_END
300
CELLSTYLE
  1
TABLEFORMAT_BEGIN
 90
        5
170
     1
 91
        0
 92
        0
 62
   257
 93
        1
300
CONTENTFORMAT
  1
CONTENTFORMAT_BEGIN
 90
        0
 91
        0
 92
        4
 93
        0
300

 40
0.0
140
1.0
 94
        5
 62
     0
340
11
144
0.18
309
CONTENTFORMAT_END
171
     1
301
MARGIN
  1
CELLMARGIN_BEGIN
 40
0.06
 40
0.06
 40
0.06
 40
0.06
 40
0.06
 40
0.06
309
CELLMARGIN_END
 94
        6
 95
        1
302
GRIDFORMAT
  1
GRIDFORMAT_BEGIN
 90
        0
 91
        1
 62
     0
 92
       -2
340
14
 93
        0
 40
0.045
309
GRIDFORMAT_END
 95
        2
302
GRIDFORMAT
  1
GRIDFORMAT_BEGIN
 90
        0
 91
        1
 62
     0
 92
       -2
340
14
 93
        0
 40
0.045
309
GRIDFORMAT_END
 95
        4
302
GRIDFORMAT
  1
GRIDFORMAT_BEGIN
 90
        0
 91
        1
 62
     0
 92
       -2
340
14
 93
        0
 40
0.045
309
GRIDFORMAT_END
 95
        8
302
GRIDFORMAT
  1
GRIDFORMAT_BEGIN
 90
        0
 91
        1
 62
     0
 92
       -2
340
14
 93
        0
 40
0.045
309
GRIDFORMAT_END
 95
       16
302
GRIDFORMAT
  1
GRIDFORMAT_BEGIN
 90
        0
 91
        1
 62
     0
 92
       -2
340
14
 93
        0
 40
0.045
309
GRIDFORMAT_END
 95
       32
302
GRIDFORMAT
  1
GRIDFORMAT_BEGIN
 90
        0
 91
        1
 62
     0
 92
       -2
340
14
 93
        0
 40
0.045
309
GRIDFORMAT_END
309
TABLEFORMAT_END
  1
CELLSTYLE_BEGIN
 90
        2
 91
        1
300
_HEADER
309
CELLSTYLE_END
300
CELLSTYLE
  1
TABLEFORMAT_BEGIN
 90
        5
170
     1
 91
        0
 92
        0
 62
   257
 93
        1
300
CONTENTFORMAT
  1
CONTENTFORMAT_BEGIN
 90
        0
 91
        0
 92
        4
 93
        0
300

 40
0.0
140
1.0
 94
        2
 62
     0
340
11
144
0.18
309
CONTENTFORMAT_END
171
     1
301
MARGIN
  1
CELLMARGIN_BEGIN
 40
0.06
 40
0.06
 40
0.06
 40
0.06
 40
0.06
 40
0.06
309
CELLMARGIN_END
 94
        6
 95
        1
302
GRIDFORMAT
  1
GRIDFORMAT_BEGIN
 90
        0
 91
        1
 62
     0
 92
       -2
340
14
 93
        0
 40
0.045
309
GRIDFORMAT_END
 95
        2
302
GRIDFORMAT
  1
GRIDFORMAT_BEGIN
 90
        0
 91
        1
 62
     0
 92
       -2
340
14
 93
        0
 40
0.045
309
GRIDFORMAT_END
 95
        4
302
GRIDFORMAT
  1
GRIDFORMAT_BEGIN
 90
        0
 91
        1
 62
     0
 92
       -2
340
14
 93
        0
 40
0.045
309
GRIDFORMAT_END
 95
        8
302
GRIDFORMAT
  1
GRIDFORMAT_BEGIN
 90
        0
 91
        1
 62
     0
 92
       -2
340
14
 93
        0
 40
0.045
309
GRIDFORMAT_END
 95
       16
302
GRIDFORMAT
  1
GRIDFORMAT_BEGIN
 90
        0
 91
        1
 62
     0
 92
       -2
340
14
 93
        0
 40
0.045
309
GRIDFORMAT_END
 95
       32
302
GRIDFORMAT
  1
GRIDFORMAT_BEGIN
 90
        0
 91
        1
 62
     0
 92
       -2
340
14
 93
        0
 40
0.045
309
GRIDFORMAT_END
309
TABLEFORMAT_END
  1
CELLSTYLE_BEGIN
 90
        3
 91
        2
300
_DATA
309
CELLSTYLE_END
  0
ENDSEC
  0
EOF