0
SECTION
  2
HEADER
  9
$ACADVER
  1
AC1027
  9
$ACADMAINTVER
 70
     8
  9
$DWGCODEPAGE
  3
ANSI_1252
  9
$REQUIREDVERSIONS
160
                 0
  9
$COMMENTS
  1
File was created by Cadenas
  9
$CUSTOMPROPERTYTAG
  1
NN
  9
$CUSTOMPROPERTY
  1
Flange Cartridge Expansion Inch Bore
  9
$CUSTOMPROPERTYTAG
  1
NT
  9
$CUSTOMPROPERTY
  1
Type E Piloted Flange Bearing -Inch
  9
$CUSTOMPROPERTYTAG
  1
NB
  9
$CUSTOMPROPERTY
  1
023130
  9
$CUSTOMPROPERTYTAG
  1
NBSYN
  9
$CUSTOMPROPERTY
  1
$PN.
  9
$CUSTOMPROPERTYTAG
  1
LINA
  9
$CUSTOMPROPERTY
  1
023130
  9
$CUSTOMPROPERTYTAG
  1
SS
  9
$CUSTOMPROPERTY
  1
2
  9
$CUSTOMPROPERTYTAG
  1
PN
  9
$CUSTOMPROPERTY
  1
023130
  9
$CUSTOMPROPERTYTAG
  1
DESCRIPTION
  9
$CUSTOMPROPERTY
  1
FC-E-200R
  9
$CUSTOMPROPERTYTAG
  1
A
  9
$CUSTOMPROPERTY
  1
3-1/2
  9
$CUSTOMPROPERTYTAG
  1
B
  9
$CUSTOMPROPERTY
  1
6-3/8
  9
$CUSTOMPROPERTYTAG
  1
C
  9
$CUSTOMPROPERTY
  1
2-29/32
  9
$CUSTOMPROPERTYTAG
  1
D
  9
$CUSTOMPROPERTY
  1
5-3/8
  9
$CUSTOMPROPERTYTAG
  1
E
  9
$CUSTOMPROPERTY
  1
1-3/16
  9
$CUSTOMPROPERTYTAG
  1
F
  9
$CUSTOMPROPERTY
  1
7/16
  9
$CUSTOMPROPERTYTAG
  1
G
  9
$CUSTOMPROPERTY
  1
1-9/16
  9
$CUSTOMPROPERTYTAG
  1
H
  9
$CUSTOMPROPERTY
  1
9/16
  9
$CUSTOMPROPERTYTAG
  1
K
  9
$CUSTOMPROPERTY
  1
4-1/2
  9
$CUSTOMPROPERTYTAG
  1
L
  9
$CUSTOMPROPERTY
  1
3-7/16
  9
$CUSTOMPROPERTYTAG
  1
M
  9
$CUSTOMPROPERTY
  1
1-1/32
  9
$CUSTOMPROPERTYTAG
  1
COMPANY
  9
$CUSTOMPROPERTY
  1
baldor
  9
$INSBASE
 10
0.0
 20
0.0
 30
0.0
  9
$EXTMIN
 10
1.000000000000000E+20
 20
1.000000000000000E+20
 30
1.000000000000000E+20
  9
$EXTMAX
 10
-1.000000000000000E+20
 20
-1.000000000000000E+20
 30
-1.000000000000000E+20
  9
$LIMMIN
 10
0.0
 20
0.0
  9
$LIMMAX
 10
12.0
 20
9.0
  9
$ORTHOMODE
 70
     0
  9
$REGENMODE
 70
     1
  9
$FILLMODE
 70
     1
  9
$QTEXTMODE
 70
     0
  9
$MIRRTEXT
 70
     1
  9
$LTSCALE
 40
1.0
  9
$ATTMODE
 70
     1
  9
$TEXTSIZE
 40
0.2
  9
$TRACEWID
 40
0.05
  9
$TEXTSTYLE
  7
Standard
  9
$CLAYER
  8
0
  9
$CELTYPE
  6
ByLayer
  9
$CECOLOR
 62
   256
  9
$CELTSCALE
 40
1.0
  9
$DISPSILH
 70
     0
  9
$DIMSCALE
 40
1.0
  9
$DIMASZ
 40
0.18
  9
$DIMEXO
 40
0.0625
  9
$DIMDLI
 40
0.38
  9
$DIMRND
 40
0.0
  9
$DIMDLE
 40
0.0
  9
$DIMEXE
 40
0.18
  9
$DIMTP
 40
0.0
  9
$DIMTM
 40
0.0
  9
$DIMTXT
 40
0.18
  9
$DIMCEN
 40
0.09
  9
$DIMTSZ
 40
0.0
  9
$DIMTOL
 70
     0
  9
$DIMLIM
 70
     0
  9
$DIMTIH
 70
     1
  9
$DIMTOH
 70
     1
  9
$DIMSE1
 70
     0
  9
$DIMSE2
 70
     0
  9
$DIMTAD
 70
     0
  9
$DIMZIN
 70
     0
  9
$DIMBLK
  1

  9
$DIMASO
 70
     1
  9
$DIMSHO
 70
     1
  9
$DIMPOST
  1

  9
$DIMAPOST
  1

  9
$DIMALT
 70
     0
  9
$DIMALTD
 70
     2
  9
$DIMALTF
 40
25.4
  9
$DIMLFAC
 40
1.0
  9
$DIMTOFL
 70
     0
  9
$DIMTVP
 40
0.0
  9
$DIMTIX
 70
     0
  9
$DIMSOXD
 70
     0
  9
$DIMSAH
 70
     0
  9
$DIMBLK1
  1

  9
$DIMBLK2
  1

  9
$DIMSTYLE
  2
Standard
  9
$DIMCLRD
 70
     0
  9
$DIMCLRE
 70
     0
  9
$DIMCLRT
 70
     0
  9
$DIMTFAC
 40
1.0
  9
$DIMGAP
 40
0.09
  9
$DIMJUST
 70
     0
  9
$DIMSD1
 70
     0
  9
$DIMSD2
 70
     0
  9
$DIMTOLJ
 70
     1
  9
$DIMTZIN
 70
     0
  9
$DIMALTZ
 70
     0
  9
$DIMALTTZ
 70
     0
  9
$DIMUPT
 70
     0
  9
$DIMDEC
 70
     4
  9
$DIMTDEC
 70
     4
  9
$DIMALTU
 70
     2
  9
$DIMALTTD
 70
     2
  9
$DIMTXSTY
  7
Standard
  9
$DIMAUNIT
 70
     0
  9
$DIMADEC
 70
     0
  9
$DIMALTRND
 40
0.0
  9
$DIMAZIN
 70
     0
  9
$DIMDSEP
 70
    46
  9
$DIMATFIT
 70
     3
  9
$DIMFRAC
 70
     0
  9
$DIMLDRBLK
  1

  9
$DIMLUNIT
 70
     2
  9
$DIMLWD
 70
    -2
  9
$DIMLWE
 70
    -2
  9
$DIMTMOVE
 70
     0
  9
$DIMFXL
 40
1.0
  9
$DIMFXLON
 70
     0
  9
$DIMJOGANG
 40
0.7853981633974483
  9
$DIMTFILL
 70
     0
  9
$DIMTFILLCLR
 70
     0
  9
$DIMARCSYM
 70
     0
  9
$DIMLTYPE
  6

  9
$DIMLTEX1
  6

  9
$DIMLTEX2
  6

  9
$DIMTXTDIRECTION
 70
     0
  9
$LUNITS
 70
     2
  9
$LUPREC
 70
     4
  9
$SKETCHINC
 40
0.1
  9
$FILLETRAD
 40
0.5
  9
$AUNITS
 70
     0
  9
$AUPREC
 70
     0
  9
$MENU
  1
.
  9
$ELEVATION
 40
0.0
  9
$PELEVATION
 40
0.0
  9
$THICKNESS
 40
0.0
  9
$LIMCHECK
 70
     0
  9
$CHAMFERA
 40
0.0
  9
$CHAMFERB
 40
0.0
  9
$CHAMFERC
 40
0.0
  9
$CHAMFERD
 40
0.0
  9
$SKPOLY
 70
     0
  9
$TDCREATE
 40
2458168.971153426
  9
$TDUCREATE
 40
2458168.929486759
  9
$TDUPDATE
 40
2458168.971153611
  9
$TDUUPDATE
 40
2458168.929486944
  9
$TDINDWG
 40
0.0000000116
  9
$TDUSRTIMER
 40
0.0000000116
  9
$USRTIMER
 70
     1
  9
$ANGBASE
 50
0.0
  9
$ANGDIR
 70
     0
  9
$PDMODE
 70
     0
  9
$PDSIZE
 40
0.0
  9
$PLINEWID
 40
0.0
  9
$SPLFRAME
 70
     0
  9
$SPLINETYPE
 70
     6
  9
$SPLINESEGS
 70
     8
  9
$HANDSEED
  5
1E7
  9
$SURFTAB1
 70
     6
  9
$SURFTAB2
 70
     6
  9
$SURFTYPE
 70
     6
  9
$SURFU
 70
     6
  9
$SURFV
 70
     6
  9
$UCSBASE
  2

  9
$UCSNAME
  2

  9
$UCSORG
 10
0.0
 20
0.0
 30
0.0
  9
$UCSXDIR
 10
1.0
 20
0.0
 30
0.0
  9
$UCSYDIR
 10
0.0
 20
1.0
 30
0.0
  9
$UCSORTHOREF
  2

  9
$UCSORTHOVIEW
 70
     0
  9
$UCSORGTOP
 10
0.0
 20
0.0
 30
0.0
  9
$UCSORGBOTTOM
 10
0.0
 20
0.0
 30
0.0
  9
$UCSORGLEFT
 10
0.0
 20
0.0
 30
0.0
  9
$UCSORGRIGHT
 10
0.0
 20
0.0
 30
0.0
  9
$UCSORGFRONT
 10
0.0
 20
0.0
 30
0.0
  9
$UCSORGBACK
 10
0.0
 20
0.0
 30
0.0
  9
$PUCSBASE
  2

  9
$PUCSNAME
  2

  9
$PUCSORG
 10
0.0
 20
0.0
 30
0.0
  9
$PUCSXDIR
 10
1.0
 20
0.0
 30
0.0
  9
$PUCSYDIR
 10
0.0
 20
1.0
 30
0.0
  9
$PUCSORTHOREF
  2

  9
$PUCSORTHOVIEW
 70
     0
  9
$PUCSORGTOP
 10
0.0
 20
0.0
 30
0.0
  9
$PUCSORGBOTTOM
 10
0.0
 20
0.0
 30
0.0
  9
$PUCSORGLEFT
 10
0.0
 20
0.0
 30
0.0
  9
$PUCSORGRIGHT
 10
0.0
 20
0.0
 30
0.0
  9
$PUCSORGFRONT
 10
0.0
 20
0.0
 30
0.0
  9
$PUCSORGBACK
 10
0.0
 20
0.0
 30
0.0
  9
$USERI1
 70
     0
  9
$USERI2
 70
     0
  9
$USERI3
 70
     0
  9
$USERI4
 70
     0
  9
$USERI5
 70
     0
  9
$USERR1
 40
0.0
  9
$USERR2
 40
0.0
  9
$USERR3
 40
0.0
  9
$USERR4
 40
0.0
  9
$USERR5
 40
0.0
  9
$WORLDVIEW
 70
     1
  9
$SHADEDGE
 70
     3
  9
$SHADEDIF
 70
    70
  9
$TILEMODE
 70
     1
  9
$MAXACTVP
 70
    64
  9
$PINSBASE
 10
0.0
 20
0.0
 30
0.0
  9
$PLIMCHECK
 70
     0
  9
$PEXTMIN
 10
1.000000000000000E+20
 20
1.000000000000000E+20
 30
1.000000000000000E+20
  9
$PEXTMAX
 10
-1.000000000000000E+20
 20
-1.000000000000000E+20
 30
-1.000000000000000E+20
  9
$PLIMMIN
 10
0.0
 20
0.0
  9
$PLIMMAX
 10
12.0
 20
9.0
  9
$UNITMODE
 70
     0
  9
$VISRETAIN
 70
     1
  9
$PLINEGEN
 70
     0
  9
$PSLTSCALE
 70
     1
  9
$TREEDEPTH
 70
  3020
  9
$CMLSTYLE
  2
Standard
  9
$CMLJUST
 70
     0
  9
$CMLSCALE
 40
1.0
  9
$PROXYGRAPHICS
 70
     1
  9
$MEASUREMENT
 70
     0
  9
$CELWEIGHT
370
    -1
  9
$ENDCAPS
280
     0
  9
$JOINSTYLE
280
     0
  9
$LWDISPLAY
290
     0
  9
$INSUNITS
 70
     1
  9
$HYPERLINKBASE
  1

  9
$STYLESHEET
  1

  9
$XEDIT
290
     1
  9
$CEPSNTYPE
380
     0
  9
$PSTYLEMODE
290
     1
  9
$FINGERPRINTGUID
  2
{F7A11EEB-9CA3-4EBC-8E23-E0773A21C1F5}
  9
$VERSIONGUID
  2
{FAEB1C32-E019-11D5-929B-00C0DF256EC4}
  9
$EXTNAMES
290
     1
  9
$PSVPSCALE
 40
0.0
  9
$OLESTARTUP
290
     0
  9
$SORTENTS
280
   127
  9
$INDEXCTL
280
     0
  9
$HIDETEXT
280
     1
  9
$XCLIPFRAME
280
     2
  9
$HALOGAP
280
     0
  9
$OBSCOLOR
 70
   257
  9
$OBSLTYPE
280
     0
  9
$INTERSECTIONDISPLAY
280
     0
  9
$INTERSECTIONCOLOR
 70
   257
  9
$DIMASSOC
280
     2
  9
$PROJECTNAME
  1

  9
$CAMERADISPLAY
290
     0
  9
$LENSLENGTH
 40
50.0
  9
$CAMERAHEIGHT
 40
0.0
  9
$STEPSPERSEC
 40
2.0
  9
$STEPSIZE
 40
6.0
  9
$3DDWFPREC
 40
2.0
  9
$PSOLWIDTH
 40
0.25
  9
$PSOLHEIGHT
 40
4.0
  9
$LOFTANG1
 40
1.570796326794897
  9
$LOFTANG2
 40
1.570796326794897
  9
$LOFTMAG1
 40
0.0
  9
$LOFTMAG2
 40
0.0
  9
$LOFTPARAM
 70
     7
  9
$LOFTNORMALS
280
     1
  9
$LATITUDE
 40
37.795
  9
$LONGITUDE
 40
-122.394
  9
$NORTHDIRECTION
 40
0.0
  9
$TIMEZONE
 70
 -8000
  9
$LIGHTGLYPHDISPLAY
280
     1
  9
$TILEMODELIGHTSYNCH
280
     1
  9
$CMATERIAL
347
44
  9
$SOLIDHIST
280
     0
  9
$SHOWHIST
280
     1
  9
$DWFFRAME
280
     2
  9
$DGNFRAME
280
     2
  9
$REALWORLDSCALE
290
     1
  9
$INTERFERECOLOR
 62
   256
  9
$CSHADOW
280
     0
  9
$SHADOWPLANELOCATION
 40
0.0
  0
ENDSEC
  0
SECTION
  2
CLASSES
  0
CLASS
  1
ACDBDICTIONARYWDFLT
  2
AcDbDictionaryWithDefault
  3
ObjectDBX Classes
 90
        0
 91
        4
280
     0
281
     0
  0
CLASS
  1
VISUALSTYLE
  2
AcDbVisualStyle
  3
ObjectDBX Classes
 90
     4095
 91
        4
280
     0
281
     0
  0
CLASS
  1
MATERIAL
  2
AcDbMaterial
  3
ObjectDBX Classes
 90
     1153
 91
        4
280
     0
281
     0
  0
CLASS
  1
SCALE
  2
AcDbScale
  3
ObjectDBX Classes
 90
     1153
 91
        4
280
     0
281
     0
  0
CLASS
  1
TABLESTYLE
  2
AcDbTableStyle
  3
ObjectDBX Classes
 90
     4095
 91
        4
280
     0
281
     0
  0
CLASS
  1
MLEADERSTYLE
  2
AcDbMLeaderStyle
  3
ACDB_MLEADERSTYLE_CLASS
 90
     4095
 91
        4
280
     0
281
     0
  0
CLASS
  1
SUN
  2
AcDbSun
  3
SCENEOE
 90
     1153
 91
        4
280
     0
281
     0
  0
CLASS
  1
DICTIONARYVAR
  2
AcDbDictionaryVar
  3
ObjectDBX Classes
 90
        0
 91
        4
280
     0
281
     0
  0
CLASS
  1
CELLSTYLEMAP
  2
AcDbCellStyleMap
  3
ObjectDBX Classes
 90
     1152
 91
        4
280
     0
281
     0
  0
ENDSEC
  0
SECTION
  2
TABLES
  0
TABLE
  2
VPORT
  5
8
330
0
100
AcDbSymbolTable
 70
     1
  0
VPORT
  5
29
330
8
100
AcDbSymbolTableRecord
100
AcDbViewportTableRecord
  2
*Active
 70
     0
 10
0.0
 20
0.0
 11
1.0
 21
1.0
 12
0.1796874988079082
 22
0.0
 13
0.0
 23
0.0
 14
0.5
 24
0.5
 15
0.5
 25
0.5
 16
0.0
 26
0.0
 36
1.0
 17
0.0
 27
0.0
 37
0.0
 40
6.5025
 41
0.9465686278249704
 42
50.0
 43
0.0
 44
0.0
 50
0.0
 51
0.0
 71
     0
 72
   100
 73
     1
 74
     3
 75
     0
 76
     0
 77
     0
 78
     0
281
     0
 65
     1
110
0.0
120
0.0
130
0.0
111
1.0
121
0.0
131
0.0
112
0.0
122
1.0
132
0.0
 79
     0
146
0.0
348
2F
 60
     3
 61
     5
292
     1
282
     1
141
0.0
142
0.0
 63
   250
361
6D
  0
ENDTAB
  0
TABLE
  2
LTYPE
  5
5
330
0
100
AcDbSymbolTable
 70
     3
  0
LTYPE
  5
14
330
5
100
AcDbSymbolTableRecord
100
AcDbLinetypeTableRecord
  2
ByBlock
 70
     0
  3

 72
    65
 73
     0
 40
0.0
  0
LTYPE
  5
15
330
5
100
AcDbSymbolTableRecord
100
AcDbLinetypeTableRecord
  2
ByLayer
 70
     0
  3

 72
    65
 73
     0
 40
0.0
  0
LTYPE
  5
16
330
5
100
AcDbSymbolTableRecord
100
AcDbLinetypeTableRecord
  2
Continuous
 70
     0
  3
Solid line
 72
    65
 73
     0
 40
0.0
  0
LTYPE
  5
9C
330
5
100
AcDbSymbolTableRecord
100
AcDbLinetypeTableRecord
  2
Dashed
 70
     0
  3

 72
    65
 73
     2
 40
2.0
 49
1.0
 74
     0
 49
-1.0
 74
     0
  0
LTYPE
  5
CB
330
5
100
AcDbSymbolTableRecord
100
AcDbLinetypeTableRecord
  2
Center
 70
     0
  3

 72
    65
 73
     4
 40
1.5
 49
0.45
 74
     0
 49
-0.5
 74
     0
 49
0.05
 74
     0
 49
-0.5
 74
     0
  0
ENDTAB
  0
TABLE
  2
LAYER
  5
2
330
0
100
AcDbSymbolTable
 70
     7
  0
LAYER
  5
10
330
2
100
AcDbSymbolTableRecord
100
AcDbLayerTableRecord
  2
0
 70
     0
 62
     7
  6
Continuous
370
    -3
390
F
347
46
348
0
  0
LAYER
  5
72
330
2
100
AcDbSymbolTableRecord
100
AcDbLayerTableRecord
  2
AM_6
 70
     0
 62
    -2
  6
Continuous
370
    35
390
F
347
46
348
0
  0
LAYER
  5
9D
330
2
100
AcDbSymbolTableRecord
100
AcDbLayerTableRecord
  2
AM_9
 70
     0
 62
     6
  6
Dashed
370
    25
390
F
347
46
348
0
  0
LAYER
  5
C5
330
2
100
AcDbSymbolTableRecord
100
AcDbLayerTableRecord
  2
AM_5
 70
     0
 62
     3
  6
Continuous
370
    25
390
F
347
46
348
0
  0
LAYER
  5
CC
330
2
100
AcDbSymbolTableRecord
100
AcDbLayerTableRecord
  2
AM_7
 70
     0
 62
     7
  6
Center
370
    25
390
F
347
46
348
0
  0
LAYER
  5
CE
330
2
100
AcDbSymbolTableRecord
100
AcDbLayerTableRecord
  2
AM_4
 70
     0
 62
     7
  6
Continuous
370
    50
390
F
347
46
348
0
  0
LAYER
  5
1D5
330
2
100
AcDbSymbolTableRecord
100
AcDbLayerTableRecord
  2
ConnectionPoints
 70
     0
 62
     7
  6
Continuous
370
    50
390
F
347
46
348
0
  0
ENDTAB
  0
TABLE
  2
STYLE
  5
3
330
0
100
AcDbSymbolTable
 70
     1
  0
STYLE
  5
11
330
3
100
AcDbSymbolTableRecord
100
AcDbTextStyleTableRecord
  2
Standard
 70
     0
 40
0.0
 41
1.0
 50
0.0
 71
     0
 42
0.2
  3
txt
  4

  0
ENDTAB
  0
TABLE
  2
VIEW
  5
6
330
0
100
AcDbSymbolTable
 70
     0
  0
ENDTAB
  0
TABLE
  2
UCS
  5
7
330
0
100
AcDbSymbolTable
 70
     0
  0
ENDTAB
  0
TABLE
  2
APPID
  5
9
330
0
100
AcDbSymbolTable
 70
     1
  0
APPID
  5
12
330
9
100
AcDbSymbolTableRecord
100
AcDbRegAppTableRecord
  2
ACAD
 70
     0
  0
ENDTAB
  0
TABLE
  2
DIMSTYLE
  5
A
330
0
100
AcDbSymbolTable
 70
     1
100
AcDbDimStyleTable
  0
DIMSTYLE
105
27
330
A
100
AcDbSymbolTableRecord
100
AcDbDimStyleTableRecord
  2
Standard
 70
     0
178
     0
340
11
  0
ENDTAB
  0
TABLE
  2
BLOCK_RECORD
  5
1
330
0
100
AcDbSymbolTable
 70
     7
  0
BLOCK_RECORD
  5
1F
330
1
100
AcDbSymbolTableRecord
100
AcDbBlockTableRecord
  2
*Model_Space
340
22
 70
     0
280
     1
281
     0
  0
BLOCK_RECORD
  5
1B
330
1
100
AcDbSymbolTableRecord
100
AcDbBlockTableRecord
  2
*Paper_Space
340
1E
 70
     0
280
     1
281
     0
  0
BLOCK_RECORD
  5
23
330
1
100
AcDbSymbolTableRecord
100
AcDbBlockTableRecord
  2
*Paper_Space0
340
26
 70
     0
280
     1
281
     0
  0
BLOCK_RECORD
  5
6E
330
1
100
AcDbSymbolTableRecord
100
AcDbBlockTableRecord
  2
1_023130_2
340
0
102
{BLKREFS
331
6F
102
}
 70
     0
280
     1
281
     0
  0
BLOCK_RECORD
  5
87
330
1
100
AcDbSymbolTableRecord
100
AcDbBlockTableRecord
  2
2_2D_0_in_023130_2
340
0
102
{BLKREFS
331
88
102
}
 70
     0
280
     1
281
     0
  0
BLOCK_RECORD
  5
AC
330
1
100
AcDbSymbolTableRecord
100
AcDbBlockTableRecord
  2
3_405015E_Inch_0_in_023130_2
340
0
102
{BLKREFS
331
AD
102
}
 70
     0
280
     1
281
     0
  0
BLOCK_RECORD
  5
F4
330
1
100
AcDbSymbolTableRecord
100
AcDbBlockTableRecord
  2
4_2C_0_in_023130_2
340
0
102
{BLKREFS
331
F5
102
}
 70
     0
280
     1
281
     0
  0
BLOCK_RECORD
  5
12D
330
1
100
AcDbSymbolTableRecord
100
AcDbBlockTableRecord
  2
5_2I_0_in_023130_2
340
0
102
{BLKREFS
331
12E
102
}
 70
     0
280
     1
281
     0
  0
BLOCK_RECORD
  5
184
330
1
100
AcDbSymbolTableRecord
100
AcDbBlockTableRecord
  2
6_023130H_0_in_023130_2
340
0
102
{BLKREFS
331
185
102
}
 70
     0
280
     1
281
     0
  0
ENDTAB
  0
ENDSEC
  0
SECTION
  2
BLOCKS
  0
BLOCK
  5
20
330
1F
100
AcDbEntity
  8
0
100
AcDbBlockBegin
  2
*Model_Space
 70
     0
 10
0.0
 20
0.0
 30
0.0
  3
*Model_Space
  1

  0
ENDBLK
  5
21
330
1F
100
AcDbEntity
  8
0
100
AcDbBlockEnd
  0
BLOCK
  5
1C
330
1B
100
AcDbEntity
 67
     1
  8
0
100
AcDbBlockBegin
  2
*Paper_Space
 70
     0
 10
0.0
 20
0.0
 30
0.0
  3
*Paper_Space
  1

  0
ENDBLK
  5
1D
330
1B
100
AcDbEntity
 67
     1
  8
0
100
AcDbBlockEnd
  0
BLOCK
  5
24
330
23
100
AcDbEntity
  8
0
100
AcDbBlockBegin
  2
*Paper_Space0
 70
     0
 10
0.0
 20
0.0
 30
0.0
  3
*Paper_Space0
  1

  0
ENDBLK
  5
25
330
23
100
AcDbEntity
  8
0
100
AcDbBlockEnd
  0
BLOCK
  5
70
330
6E
100
AcDbEntity
  8
0
100
AcDbBlockBegin
  2
1_023130_2
 70
     2
 10
0.0
 20
0.0
 30
0.0
  3
1_023130_2
  1

  0
ATTDEF
  5
73
330
6E
100
AcDbEntity
  8
AM_6
100
AcDbText
 10
8.196875
 20
3.1875
 30
0.0
 40
0.5
  1
Flange Cartridge Expansion Inch Bore
100
AcDbAttributeDefinition
  3

  2
NN
 70
     8
280
     0
  0
ATTDEF
  5
74
330
6E
100
AcDbEntity
  8
AM_6
100
AcDbText
 10
8.196875
 20
2.6875
 30
0.0
 40
0.5
  1
Type E Piloted Flange Bearing -Inch
100
AcDbAttributeDefinition
  3

  2
NT
 70
     8
280
     0
  0
ATTDEF
  5
75
330
6E
100
AcDbEntity
  8
AM_6
100
AcDbText
 10
8.196875
 20
2.1875
 30
0.0
 40
0.5
  1
023130
100
AcDbAttributeDefinition
  3

  2
NB
 70
     8
280
     0
  0
ATTDEF
  5
76
330
6E
100
AcDbEntity
  8
AM_6
100
AcDbText
 10
8.196875
 20
1.6875
 30
0.0
 40
0.5
  1
$PN.
100
AcDbAttributeDefinition
  3

  2
NBSYN
 70
     8
280
     0
  0
ATTDEF
  5
77
330
6E
100
AcDbEntity
  8
AM_6
100
AcDbText
 10
8.196875
 20
1.1875
 30
0.0
 40
0.5
  1
023130
100
AcDbAttributeDefinition
  3

  2
LINA
 70
     8
280
     0
  0
ATTDEF
  5
78
330
6E
100
AcDbEntity
  8
AM_6
100
AcDbText
 10
8.196875
 20
0.6875
 30
0.0
 40
0.5
  1
2
100
AcDbAttributeDefinition
  3

  2
SS
 70
     8
280
     0
  0
ATTDEF
  5
79
330
6E
100
AcDbEntity
  8
AM_6
100
AcDbText
 10
8.196875
 20
0.1875
 30
0.0
 40
0.5
  1
023130
100
AcDbAttributeDefinition
  3

  2
PN
 70
     8
280
     0
  0
ATTDEF
  5
7A
330
6E
100
AcDbEntity
  8
AM_6
100
AcDbText
 10
8.196875
 20
-0.3125
 30
0.0
 40
0.5
  1
FC-E-200R
100
AcDbAttributeDefinition
  3

  2
DESCRIPTION
 70
     8
280
     0
  0
ATTDEF
  5
7B
330
6E
100
AcDbEntity
  8
AM_6
100
AcDbText
 10
8.196875
 20
-0.8125
 30
0.0
 40
0.5
  1
3-1/2
100
AcDbAttributeDefinition
  3

  2
A
 70
     8
280
     0
  0
ATTDEF
  5
7C
330
6E
100
AcDbEntity
  8
AM_6
100
AcDbText
 10
8.196875
 20
-1.3125
 30
0.0
 40
0.5
  1
6-3/8
100
AcDbAttributeDefinition
  3

  2
B
 70
     8
280
     0
  0
ATTDEF
  5
7D
330
6E
100
AcDbEntity
  8
AM_6
100
AcDbText
 10
8.196875
 20
-1.8125
 30
0.0
 40
0.5
  1
2-29/32
100
AcDbAttributeDefinition
  3

  2
C
 70
     8
280
     0
  0
ATTDEF
  5
7E
330
6E
100
AcDbEntity
  8
AM_6
100
AcDbText
 10
8.196875
 20
-2.3125
 30
0.0
 40
0.5
  1
5-3/8
100
AcDbAttributeDefinition
  3

  2
D
 70
     8
280
     0
  0
ATTDEF
  5
7F
330
6E
100
AcDbEntity
  8
AM_6
100
AcDbText
 10
8.196875
 20
-2.8125
 30
0.0
 40
0.5
  1
1-3/16
100
AcDbAttributeDefinition
  3

  2
E
 70
     8
280
     0
  0
ATTDEF
  5
80
330
6E
100
AcDbEntity
  8
AM_6
100
AcDbText
 10
8.196875
 20
-3.3125
 30
0.0
 40
0.5
  1
7/16
100
AcDbAttributeDefinition
  3

  2
F
 70
     8
280
     0
  0
ATTDEF
  5
81
330
6E
100
AcDbEntity
  8
AM_6
100
AcDbText
 10
8.196875
 20
-3.8125
 30
0.0
 40
0.5
  1
1-9/16
100
AcDbAttributeDefinition
  3

  2
G
 70
     8
280
     0
  0
ATTDEF
  5
82
330
6E
100
AcDbEntity
  8
AM_6
100
AcDbText
 10
8.196875
 20
-4.3125
 30
0.0
 40
0.5
  1
9/16
100
AcDbAttributeDefinition
  3

  2
H
 70
     8
280
     0
  0
ATTDEF
  5
83
330
6E
100
AcDbEntity
  8
AM_6
100
AcDbText
 10
8.196875
 20
-4.8125
 30
0.0
 40
0.5
  1
4-1/2
100
AcDbAttributeDefinition
  3

  2
K
 70
     8
280
     0
  0
ATTDEF
  5
84
330
6E
100
AcDbEntity
  8
AM_6
100
AcDbText
 10
8.196875
 20
-5.3125
 30
0.0
 40
0.5
  1
3-7/16
100
AcDbAttributeDefinition
  3

  2
L
 70
     8
280
     0
  0
ATTDEF
  5
85
330
6E
100
AcDbEntity
  8
AM_6
100
AcDbText
 10
8.196875
 20
-5.8125
 30
0.0
 40
0.5
  1
1-1/32
100
AcDbAttributeDefinition
  3

  2
M
 70
     8
280
     0
  0
ATTDEF
  5
86
330
6E
100
AcDbEntity
  8
AM_6
100
AcDbText
 10
8.196875
 20
-6.3125
 30
0.0
 40
0.5
  1
baldor
100
AcDbAttributeDefinition
  3

  2
COMPANY
 70
     8
280
     0
  0
INSERT
  5
88
330
6E
100
AcDbEntity
  8
0
100
AcDbBlockReference
  2
2_2D_0_in_023130_2
 10
0.0
 20
0.0
 30
0.0
  0
INSERT
  5
AD
330
6E
100
AcDbEntity
  8
0
100
AcDbBlockReference
  2
3_405015E_Inch_0_in_023130_2
 10
0.0
 20
0.0
 30
0.0
  0
INSERT
  5
F5
330
6E
100
AcDbEntity
  8
0
100
AcDbBlockReference
  2
4_2C_0_in_023130_2
 10
0.0
 20
0.0
 30
0.0
  0
INSERT
  5
12E
330
6E
100
AcDbEntity
  8
0
100
AcDbBlockReference
  2
5_2I_0_in_023130_2
 10
0.0
 20
0.0
 30
0.0
  0
INSERT
  5
185
330
6E
100
AcDbEntity
  8
0
100
AcDbBlockReference
  2
6_023130H_0_in_023130_2
 10
0.0
 20
0.0
 30
0.0
  0
ENDBLK
  5
71
330
6E
100
AcDbEntity
  8
0
100
AcDbBlockEnd
  0
BLOCK
  5
89
330
87
100
AcDbEntity
  8
0
100
AcDbBlockBegin
  2
2_2D_0_in_023130_2
 70
     2
 10
0.0
 20
0.0
 30
0.0
  3
2_2D_0_in_023130_2
  1

  0
ATTDEF
  5
8B
330
87
100
AcDbEntity
  8
AM_6
100
AcDbText
 10
6.828125
 20
1.75
 30
0.0
 40
0.5
  1
E-Type Disc -Inch
100
AcDbAttributeDefinition
  3

  2
NN
 70
     8
280
     0
  0
ATTDEF
  5
8C
330
87
100
AcDbEntity
  8
AM_6
100
AcDbText
 10
6.828125
 20
1.25
 30
0.0
 40
0.5
  1
E-Type Bearings
100
AcDbAttributeDefinition
  3

  2
NT
 70
     8
280
     0
  0
ATTDEF
  5
8D
330
87
100
AcDbEntity
  8
AM_6
100
AcDbText
 10
6.828125
 20
0.75
 30
0.0
 40
0.5
  1
2D
100
AcDbAttributeDefinition
  3

  2
NB
 70
     8
280
     0
  0
ATTDEF
  5
8E
330
87
100
AcDbEntity
  8
AM_6
100
AcDbText
 10
6.828125
 20
0.25
 30
0.0
 40
0.5
  1
$BORE.D
100
AcDbAttributeDefinition
  3

  2
NBSYN
 70
     8
280
     0
  0
ATTDEF
  5
8F
330
87
100
AcDbEntity
  8
AM_6
100
AcDbText
 10
6.828125
 20
-0.25
 30
0.0
 40
0.5
  1
2D
100
AcDbAttributeDefinition
  3

  2
LINA
 70
     8
280
     0
  0
ATTDEF
  5
90
330
87
100
AcDbEntity
  8
AM_6
100
AcDbText
 10
6.828125
 20
-0.75
 30
0.0
 40
0.5
  1
2
100
AcDbAttributeDefinition
  3

  2
BORE
 70
     8
280
     0
  0
ATTDEF
  5
91
330
87
100
AcDbEntity
  8
AM_6
100
AcDbText
 10
6.828125
 20
-1.25
 30
0.0
 40
0.5
  1
2.000000
100
AcDbAttributeDefinition
  3

  2
BORE1
 70
     8
280
     0
  0
ATTDEF
  5
92
330
87
100
AcDbEntity
  8
AM_6
100
AcDbText
 10
6.828125
 20
-1.75
 30
0.0
 40
0.5
  1
3.50
100
AcDbAttributeDefinition
  3

  2
A
 70
     8
280
     0
  0
ATTDEF
  5
93
330
87
100
AcDbEntity
  8
AM_6
100
AcDbText
 10
6.828125
 20
-2.25
 30
0.0
 40
0.5
  1
1.62
100
AcDbAttributeDefinition
  3

  2
B
 70
     8
280
     0
  0
ATTDEF
  5
94
330
87
100
AcDbEntity
  8
AM_6
100
AcDbText
 10
6.828125
 20
-2.75
 30
0.0
 40
0.5
  1
2.31
100
AcDbAttributeDefinition
  3

  2
C
 70
     8
280
     0
  0
ATTDEF
  5
95
330
87
100
AcDbEntity
  8
AM_6
100
AcDbText
 10
6.828125
 20
-3.25
 30
0.0
 40
0.5
  1
3.50
100
AcDbAttributeDefinition
  3

  2
D
 70
     8
280
     0
  0
ATTDEF
  5
96
330
87
100
AcDbEntity
  8
AM_6
100
AcDbText
 10
6.828125
 20
-3.75
 30
0.0
 40
0.5
  1
0.41
100
AcDbAttributeDefinition
  3

  2
E
 70
     8
280
     0
  0
ATTDEF
  5
97
330
87
100
AcDbEntity
  8
AM_6
100
AcDbText
 10
6.828125
 20
-4.25
 30
0.0
 40
0.5
  1
0.31
100
AcDbAttributeDefinition
  3

  2
F
 70
     8
280
     0
  0
ATTDEF
  5
98
330
87
100
AcDbEntity
  8
AM_6
100
AcDbText
 10
6.828125
 20
-4.75
 30
0.0
 40
0.5
  1
3/8-16
100
AcDbAttributeDefinition
  3

  2
CS
 70
     8
280
     0
  0
ATTDEF
  5
99
330
87
100
AcDbEntity
  8
AM_6
100
AcDbText
 10
6.828125
 20
-5.25
 30
0.0
 40
0.5
  1
0.3750
100
AcDbAttributeDefinition
  3

  2
NDM
 70
     8
280
     0
  0
ATTDEF
  5
9A
330
87
100
AcDbEntity
  8
AM_6
100
AcDbText
 10
6.828125
 20
-5.75
 30
0.0
 40
0.5
  1
0.3070
100
AcDbAttributeDefinition
  3

  2
KDM
 70
     8
280
     0
  0
ATTDEF
  5
9B
330
87
100
AcDbEntity
  8
AM_6
100
AcDbText
 10
6.828125
 20
-6.25
 30
0.0
 40
0.5
  1
baldor
100
AcDbAttributeDefinition
  3

  2
COMPANY
 70
     8
280
     0
  0
LINE
  5
9E
330
87
100
AcDbEntity
  8
AM_9
100
AcDbLine
 10
1.78125
 20
-1.155
 30
0.0
 11
1.828125
 21
-1.155
 31
0.0
  0
LINE
  5
9F
330
87
100
AcDbEntity
  8
AM_9
100
AcDbLine
 10
1.828125
 20
1.155
 30
0.0
 11
1.78125
 21
1.155
 31
0.0
  0
ARC
  5
A0
330
87
100
AcDbEntity
  8
AM_9
100
AcDbCircle
 10
1.7578125
 20
-1.6796875
 30
0.0
 40
0.0234375
100
AcDbArc
 50
270.0
 51
0.0
  0
ARC
  5
A1
330
87
100
AcDbEntity
  8
AM_9
100
AcDbCircle
 10
1.7578125
 20
1.6796875
 30
0.0
 40
0.0234375
100
AcDbArc
 50
0.0
 51
90.0
  0
LINE
  5
A2
330
87
100
AcDbEntity
  8
AM_9
100
AcDbLine
 10
1.518125
 20
-1.703125
 30
0.0
 11
1.7578125
 21
-1.703125
 31
0.0
  0
LINE
  5
A3
330
87
100
AcDbEntity
  8
AM_9
100
AcDbLine
 10
1.7578125
 20
1.703125
 30
0.0
 11
1.518125
 21
1.703125
 31
0.0
  0
LINE
  5
A4
330
87
100
AcDbEntity
  8
AM_9
100
AcDbLine
 10
1.7578125
 20
1.703125
 30
0.0
 11
1.7578125
 21
-1.703125
 31
0.0
  0
LINE
  5
A5
330
87
100
AcDbEntity
  8
AM_9
100
AcDbLine
 10
1.828125
 20
1.703125
 30
0.0
 11
1.828125
 21
-1.703125
 31
0.0
  0
ARC
  5
A6
330
87
100
AcDbEntity
  8
AM_9
100
AcDbCircle
 10
1.78125
 20
-1.703125
 30
0.0
 40
0.0468750000000004
100
AcDbArc
 50
270.0
 51
0.0
  0
ARC
  5
A7
330
87
100
AcDbEntity
  8
AM_9
100
AcDbCircle
 10
1.78125
 20
1.703125
 30
0.0
 40
0.0468750000000002
100
AcDbArc
 50
0.0
 51
90.0
  0
LINE
  5
A8
330
87
100
AcDbEntity
  8
AM_9
100
AcDbLine
 10
1.518125
 20
-1.75
 30
0.0
 11
1.78125
 21
-1.75
 31
0.0
  0
LINE
  5
A9
330
87
100
AcDbEntity
  8
AM_9
100
AcDbLine
 10
1.78125
 20
1.75
 30
0.0
 11
1.518125
 21
1.75
 31
0.0
  0
LINE
  5
AA
330
87
100
AcDbEntity
  8
AM_9
100
AcDbLine
 10
1.518125
 20
1.75
 30
0.0
 11
1.518125
 21
-1.75
 31
0.0
  0
LINE
  5
AB
330
87
100
AcDbEntity
  8
AM_9
100
AcDbLine
 10
1.78125
 20
1.75
 30
0.0
 11
1.78125
 21
-1.75
 31
0.0
  0
ENDBLK
  5
8A
330
87
100
AcDbEntity
  8
0
100
AcDbBlockEnd
  0
BLOCK
  5
AE
330
AC
100
AcDbEntity
  8
0
100
AcDbBlockBegin
  2
3_405015E_Inch_0_in_023130_2
 70
     2
 10
0.0
 20
0.0
 30
0.0
  3
3_405015E_Inch_0_in_023130_2
  1

  0
ATTDEF
  5
B0
330
AC
100
AcDbEntity
  8
AM_6
100
AcDbText
 10
4.540147166046444
 20
2.734793369617325
 30
0.0
 40
0.5
  1
405015E -Inch
100
AcDbAttributeDefinition
  3

  2
NN
 70
     8
280
     0
  0
ATTDEF
  5
B1
330
AC
100
AcDbEntity
  8
AM_6
100
AcDbText
 10
4.540147166046444
 20
2.234793369617325
 30
0.0
 40
0.5
  1
Grease Fitting
100
AcDbAttributeDefinition
  3

  2
NT
 70
     8
280
     0
  0
ATTDEF
  5
B2
330
AC
100
AcDbEntity
  8
AM_6
100
AcDbText
 10
4.540147166046444
 20
1.734793369617325
 30
0.0
 40
0.5
  1
405015E-Inch
100
AcDbAttributeDefinition
  3

  2
NB
 70
     8
280
     0
  0
ATTDEF
  5
B3
330
AC
100
AcDbEntity
  8
AM_6
100
AcDbText
 10
4.540147166046444
 20
1.234793369617325
 30
0.0
 40
0.5
  1
$MN.-Inch
100
AcDbAttributeDefinition
  3

  2
NBSYN
 70
     8
280
     0
  0
ATTDEF
  5
B4
330
AC
100
AcDbEntity
  8
AM_6
100
AcDbText
 10
4.540147166046444
 20
0.734793369617325
 30
0.0
 40
0.5
  1
405015E
100
AcDbAttributeDefinition
  3

  2
LINA
 70
     8
280
     0
  0
ATTDEF
  5
B5
330
AC
100
AcDbEntity
  8
AM_6
100
AcDbText
 10
4.540147166046444
 20
0.234793369617325
 30
0.0
 40
0.5
  1
405015E
100
AcDbAttributeDefinition
  3

  2
MN
 70
     8
280
     0
  0
ATTDEF
  5
B6
330
AC
100
AcDbEntity
  8
AM_6
100
AcDbText
 10
4.540147166046444
 20
-0.265206630382675
 30
0.0
 40
0.5
  1
1/8 x 27PTF
100
AcDbAttributeDefinition
  3

  2
T
 70
     8
280
     0
  0
ATTDEF
  5
B7
330
AC
100
AcDbEntity
  8
AM_6
100
AcDbText
 10
4.540147166046444
 20
-0.765206630382675
 30
0.0
 40
0.5
  1
baldor
100
AcDbAttributeDefinition
  3

  2
COMPANY
 70
     8
280
     0
  0
LINE
  5
B8
330
AC
100
AcDbEntity
  8
AM_9
100
AcDbLine
 10
-0.7617187499867129
 20
2.397024085937406
 30
0.0
 11
-0.6070391416021557
 21
2.551703694321963
 31
0.0
  0
LINE
  5
B9
330
AC
100
AcDbEntity
  8
AM_9
100
AcDbLine
 10
-0.6070391416021557
 20
2.551703694321963
 30
0.0
 11
-0.589521884143334
 21
2.582044474249907
 31
0.0
  0
LINE
  5
BA
330
AC
100
AcDbEntity
  8
AM_9
100
AcDbLine
 10
-0.6015316434190555
 20
2.594054233525628
 30
0.0
 11
-0.589521884143334
 21
2.582044474249907
 31
0.0
  0
LWPOLYLINE
  5
BB
330
AC
100
AcDbEntity
  8
AM_9
100
AcDbPolyline
 90
        3
 70
     0
 43
0.0
 10
-0.589521884143334
 20
2.582044474249907
 10
-0.6070431441985147
 20
2.555114345656045
 10
-0.6277622796782578
 20
2.530980556245861
  0
LINE
  5
BC
330
AC
100
AcDbEntity
  8
AM_9
100
AcDbLine
 10
-0.4598528339535556
 20
2.324123407941693
 30
0.0
 11
-0.4598528339535556
 21
2.376045911424601
 31
0.0
  0
LINE
  5
BD
330
AC
100
AcDbEntity
  8
AM_9
100
AcDbLine
 10
-0.7407405754739081
 20
2.095158169904249
 30
0.0
 11
-0.6888180719910001
 21
2.095158169904249
 31
0.0
  0
LINE
  5
BE
330
AC
100
AcDbEntity
  8
AM_9
100
AcDbLine
 10
-0.6888180719910001
 20
2.095158169904249
 30
0.0
 11
-0.4598528339535556
 21
2.324123407941693
 31
0.0
  0
LWPOLYLINE
  5
BF
330
AC
100
AcDbEntity
  8
AM_9
100
AcDbPolyline
 90
        3
 70
     0
 43
0.0
 10
-0.6277622796782578
 20
2.530980556245861
 10
-0.6517807338460598
 20
2.510346853644178
 10
-0.6788261976823041
 20
2.492740160710937
  0
LINE
  5
C0
330
AC
100
AcDbEntity
  8
AM_9
100
AcDbLine
 10
-0.4598528339535556
 20
2.376045911424601
 30
0.0
 11
-0.6162301882182829
 21
2.542512647705836
 31
0.0
  0
LINE
  5
C1
330
AC
100
AcDbEntity
  8
AM_9
100
AcDbLine
 10
-0.8917825338081472
 20
2.23704562655125
 30
0.0
 11
-0.7407405754739081
 21
2.095158169904249
 31
0.0
  0
LINE
  5
C2
330
AC
100
AcDbEntity
  8
AM_9
100
AcDbLine
 10
-0.7407405754739081
 20
2.095158169904249
 30
0.0
 11
-0.4598528339535556
 21
2.376045911424601
 31
0.0
  0
LINE
  5
C3
330
AC
100
AcDbEntity
  8
AM_9
100
AcDbLine
 10
-0.6816251967028842
 20
2.495539159731517
 30
0.0
 11
-0.6788261976823041
 21
2.492740160710937
 31
0.0
  0
LWPOLYLINE
  5
C4
330
AC
100
AcDbEntity
  8
AM_9
100
AcDbPolyline
 90
        3
 70
     0
 43
0.0
 10
-0.6788261976823041
 20
2.492740160710937
 10
-0.7185731520620061
 20
2.443584337792553
 10
-0.7617187499867129
 20
2.397024085937406
  0
LINE
  5
C6
330
AC
100
AcDbEntity
  8
AM_5
100
AcDbLine
 10
-0.6562152541587268
 20
2.410419976543098
 30
0.0
 11
-0.5170941434629167
 21
2.266882098432332
 31
0.0
  0
LINE
  5
C7
330
AC
100
AcDbEntity
  8
AM_5
100
AcDbLine
 10
-0.6889744691024977
 20
2.469768366821621
 30
0.0
 11
-0.6562152541587268
 21
2.410419976543098
 31
0.0
  0
LINE
  5
C8
330
AC
100
AcDbEntity
  8
AM_5
100
AcDbLine
 10
-0.7876896016327757
 20
2.27894562906905
 30
0.0
 11
-0.6436402931183571
 21
2.422994937583468
 31
0.0
  0
LINE
  5
C9
330
AC
100
AcDbEntity
  8
AM_5
100
AcDbLine
 10
-0.7751146405924058
 20
2.29152059010942
 30
0.0
 11
-0.631576762481639
 21
2.152399479413609
 31
0.0
  0
LINE
  5
CA
330
AC
100
AcDbEntity
  8
AM_5
100
AcDbLine
 10
-0.8250739395992734
 20
2.319097200139201
 30
0.0
 11
-0.7751146405924058
 21
2.29152059010942
 31
0.0
  0
LINE
  5
CD
330
AC
100
AcDbEntity
  8
AM_7
100
AcDbLine
 10
-1.049511209929638
 20
2.68481654588033
 30
0.0
 11
-0.5517080359743083
 21
2.187013371925001
 31
0.0
  0
LINE
  5
CF
330
AC
100
AcDbEntity
  8
AM_4
100
AcDbLine
 10
-0.9871090364899249
 20
2.313055155671503
 30
0.0
 11
-1.004626293948746
 21
2.282714375743559
 31
0.0
  0
LINE
  5
D0
330
AC
100
AcDbEntity
  8
AM_4
100
AcDbLine
 10
-0.9871090364899249
 20
2.313055155671503
 30
0.0
 11
-0.6777498197208103
 21
2.622414372440618
 31
0.0
  0
LINE
  5
D1
330
AC
100
AcDbEntity
  8
AM_4
100
AcDbLine
 10
-0.9467391382992141
 20
2.224827220094027
 30
0.0
 11
-0.9163983583712703
 21
2.242344477552848
 31
0.0
  0
LINE
  5
D2
330
AC
100
AcDbEntity
  8
AM_4
100
AcDbLine
 10
-0.9163983583712703
 20
2.242344477552848
 30
0.0
 11
-0.7617187499867129
 21
2.397024085937406
 31
0.0
  0
LINE
  5
D3
330
AC
100
AcDbEntity
  8
AM_4
100
AcDbLine
 10
-0.6474090397928665
 20
2.63993162989944
 30
0.0
 11
-0.6777498197208103
 21
2.622414372440618
 31
0.0
  0
LINE
  5
D4
330
AC
100
AcDbEntity
  8
AM_4
100
AcDbLine
 10
-0.8324294281053677
 20
2.616227188105235
 30
0.0
 11
-0.8536426315409641
 21
2.637440391540832
 31
0.0
  0
LINE
  5
D5
330
AC
100
AcDbEntity
  8
AM_4
100
AcDbLine
 10
-1.002135055590139
 20
2.488947967491657
 30
0.0
 11
-0.9809218521545426
 21
2.46773476405606
 31
0.0
  0
LINE
  5
D6
330
AC
100
AcDbEntity
  8
AM_4
100
AcDbLine
 10
-0.9809218521545426
 20
2.46773476405606
 30
0.0
 11
-0.8324294281053677
 21
2.616227188105235
 31
0.0
  0
LINE
  5
D7
330
AC
100
AcDbEntity
  8
AM_4
100
AcDbLine
 10
-0.9809218521545426
 20
2.46773476405606
 30
0.0
 11
-0.9678921456541968
 21
2.435160497805196
 31
0.0
  0
LINE
  5
D8
330
AC
100
AcDbEntity
  8
AM_4
100
AcDbLine
 10
-0.7998551618545029
 20
2.60319748160489
 30
0.0
 11
-0.8324294281053677
 21
2.616227188105235
 31
0.0
  0
LINE
  5
D9
330
AC
100
AcDbEntity
  8
AM_4
100
AcDbLine
 10
-1.002135055590139
 20
2.488947967491657
 30
0.0
 11
-0.8536426315409641
 21
2.637440391540832
 31
0.0
  0
LINE
  5
DA
330
AC
100
AcDbEntity
  8
AM_4
100
AcDbLine
 10
-0.8536426315409641
 20
2.637440391540832
 30
0.0
 11
-0.8748558349765604
 21
2.701080001847621
 31
0.0
  0
LINE
  5
DB
330
AC
100
AcDbEntity
  8
AM_4
100
AcDbLine
 10
-1.065774665896928
 20
2.510161170927253
 30
0.0
 11
-1.002135055590139
 21
2.488947967491657
 31
0.0
  0
LINE
  5
DC
330
AC
100
AcDbEntity
  8
AM_4
100
AcDbLine
 10
-1.099488033666632
 20
2.589584888147396
 30
0.0
 11
-0.954279552196704
 21
2.734793369617325
 31
0.0
  0
LINE
  5
DD
330
AC
100
AcDbEntity
  8
AM_4
100
AcDbLine
 10
-1.065774665896928
 20
2.510161170927253
 30
0.0
 11
-0.8748558349765604
 21
2.701080001847621
 31
0.0
  0
LINE
  5
DE
330
AC
100
AcDbEntity
  8
AM_4
100
AcDbLine
 10
-1.099488033666632
 20
2.589584888147396
 30
0.0
 11
-1.065774665896928
 21
2.510161170927253
 31
0.0
  0
LINE
  5
DF
330
AC
100
AcDbEntity
  8
AM_4
100
AcDbLine
 10
-0.8748558349765604
 20
2.701080001847621
 30
0.0
 11
-0.954279552196704
 21
2.734793369617325
 31
0.0
  0
LINE
  5
E0
330
AC
100
AcDbEntity
  8
AM_4
100
AcDbLine
 10
-0.6474090397928663
 20
2.63993162989944
 30
0.0
 11
-0.6015316434190555
 21
2.594054233525628
 31
0.0
  0
LWPOLYLINE
  5
E1
330
AC
100
AcDbEntity
  8
AM_4
100
AcDbPolyline
 90
        3
 70
     0
 43
0.0
 10
-0.6984729577969127
 20
2.601691234364515
 10
-0.6744545036291105
 20
2.622324936966198
 10
-0.6474090397928663
 20
2.63993162989944
  0
LWPOLYLINE
  5
E2
330
AC
100
AcDbEntity
  8
AM_4
100
AcDbPolyline
 90
        4
 70
     0
 43
0.0
 10
-1.004626293948746
 20
2.282714375743559
 10
-0.9967330854865012
 20
2.295677804537668
 10
-0.9825400302851576
 20
2.315607736237304
 10
-0.9663858984138226
 20
2.333778293747605
  0
LINE
  5
E3
330
AC
100
AcDbEntity
  8
AM_4
100
AcDbLine
 10
-1.004626293948746
 20
2.282714375743559
 30
0.0
 11
-0.9467391382992141
 21
2.224827220094027
 31
0.0
  0
LWPOLYLINE
  5
E4
330
AC
100
AcDbEntity
  8
AM_4
100
AcDbPolyline
 90
        4
 70
     0
 43
0.0
 10
-0.895675220295168
 20
2.263067615628951
 10
-0.9137895061616533
 20
2.246958063354128
 10
-0.9337757095051048
 20
2.232720428556272
 10
-0.9467391382992141
 20
2.224827220094027
  0
LINE
  5
E5
330
AC
100
AcDbEntity
  8
AM_4
100
AcDbLine
 10
-0.9678921456541968
 20
2.435160497805196
 30
0.0
 11
-0.7998551618545029
 21
2.60319748160489
 31
0.0
  0
LINE
  5
E6
330
AC
100
AcDbEntity
  8
AM_4
100
AcDbLine
 10
-0.9678921456541968
 20
2.435160497805196
 30
0.0
 11
-0.9673823495747682
 21
2.358687687401418
 31
0.0
  0
LINE
  5
E7
330
AC
100
AcDbEntity
  8
AM_4
100
AcDbLine
 10
-0.7233823514507256
 20
2.602687685525461
 30
0.0
 11
-0.7998551618545029
 21
2.60319748160489
 31
0.0
  0
LWPOLYLINE
  5
E8
330
AC
100
AcDbEntity
  8
AM_4
100
AcDbPolyline
 90
        3
 70
     0
 43
0.0
 10
-0.7367133533318364
 20
2.550627316360469
 10
-0.7191920932766558
 20
2.577557444954331
 10
-0.6984729577969127
 20
2.601691234364515
  0
LWPOLYLINE
  5
E9
330
AC
100
AcDbEntity
  8
AM_4
100
AcDbPolyline
 90
        3
 70
     0
 43
0.0
 10
-0.8574348247602441
 20
2.314131533632997
 10
-0.8749560848154249
 20
2.287201405039134
 10
-0.895675220295168
 20
2.263067615628951
  0
LWPOLYLINE
  5
EA
330
AC
100
AcDbEntity
  8
AM_4
100
AcDbPolyline
 90
        3
 70
     0
 43
0.0
 10
-0.9663858984138226
 20
2.333778293747605
 10
-0.9423674442460206
 20
2.354411996349288
 10
-0.9153219804097765
 20
2.372018689282529
  0
LINE
  5
EB
330
AC
100
AcDbEntity
  8
AM_4
100
AcDbLine
 10
-0.9072073117551429
 20
2.251535524168975
 30
0.0
 11
-0.8917825338081472
 21
2.23704562655125
 31
0.0
  0
LINE
  5
EC
330
AC
100
AcDbEntity
  8
AM_4
100
AcDbLine
 10
-0.9673823495747682
 20
2.358687687401418
 30
0.0
 11
-0.7233823514507256
 21
2.602687685525461
 31
0.0
  0
LINE
  5
ED
330
AC
100
AcDbEntity
  8
AM_4
100
AcDbLine
 10
-0.9673823495747682
 20
2.358687687401418
 30
0.0
 11
-0.9835735025839921
 21
2.316590689577436
 31
0.0
  0
LINE
  5
EE
330
AC
100
AcDbEntity
  8
AM_4
100
AcDbLine
 10
-0.6812853536267431
 20
2.618878838534684
 30
0.0
 11
-0.7233823514507256
 21
2.602687685525461
 31
0.0
  0
LINE
  5
EF
330
AC
100
AcDbEntity
  8
AM_4
100
AcDbLine
 10
-0.7367133533318364
 20
2.550627316360469
 30
0.0
 11
-0.6816251967028842
 21
2.495539159731517
 31
0.0
  0
LWPOLYLINE
  5
F0
330
AC
100
AcDbEntity
  8
AM_4
100
AcDbPolyline
 90
        3
 70
     0
 43
0.0
 10
-0.8324294281053677
 20
2.46773476405606
 10
-0.786084895552823
 20
2.510694545042486
 10
-0.7367133533318364
 20
2.550627316360469
  0
LWPOLYLINE
  5
F1
330
AC
100
AcDbEntity
  8
AM_4
100
AcDbPolyline
 90
        3
 70
     0
 43
0.0
 10
-0.9153219804097765
 20
2.372018689282529
 10
-0.8755750260300744
 20
2.421174512200913
 10
-0.8324294281053677
 20
2.46773476405606
  0
LINE
  5
F2
330
AC
100
AcDbEntity
  8
AM_4
100
AcDbLine
 10
-0.9153219804097765
 20
2.372018689282529
 30
0.0
 11
-0.8574348247602441
 21
2.314131533632997
 31
0.0
  0
LWPOLYLINE
  5
F3
330
AC
100
AcDbEntity
  8
AM_4
100
AcDbPolyline
 90
        3
 70
     0
 43
0.0
 10
-0.7617187499867129
 20
2.397024085937406
 10
-0.8080632825392574
 20
2.35406430495098
 10
-0.8574348247602441
 20
2.314131533632997
  0
ENDBLK
  5
AF
330
AC
100
AcDbEntity
  8
0
100
AcDbBlockEnd
  0
BLOCK
  5
F6
330
F4
100
AcDbEntity
  8
0
100
AcDbBlockBegin
  2
4_2C_0_in_023130_2
 70
     2
 10
0.0
 20
0.0
 30
0.0
  3
4_2C_0_in_023130_2
  1

  0
ATTDEF
  5
F8
330
F4
100
AcDbEntity
  8
AM_6
100
AcDbText
 10
4.0575
 20
1.71875
 30
0.0
 40
0.5
  1
E-Type Collar -Inch
100
AcDbAttributeDefinition
  3

  2
NN
 70
     8
280
     0
  0
ATTDEF
  5
F9
330
F4
100
AcDbEntity
  8
AM_6
100
AcDbText
 10
4.0575
 20
1.21875
 30
0.0
 40
0.5
  1
E-Type Bearings
100
AcDbAttributeDefinition
  3

  2
NT
 70
     8
280
     0
  0
ATTDEF
  5
FA
330
F4
100
AcDbEntity
  8
AM_6
100
AcDbText
 10
4.0575
 20
0.7187500000000004
 30
0.0
 40
0.5
  1
2C
100
AcDbAttributeDefinition
  3

  2
NB
 70
     8
280
     0
  0
ATTDEF
  5
FB
330
F4
100
AcDbEntity
  8
AM_6
100
AcDbText
 10
4.0575
 20
0.2187500000000004
 30
0.0
 40
0.5
  1
$BORE.C
100
AcDbAttributeDefinition
  3

  2
NBSYN
 70
     8
280
     0
  0
ATTDEF
  5
FC
330
F4
100
AcDbEntity
  8
AM_6
100
AcDbText
 10
4.0575
 20
-0.2812499999999996
 30
0.0
 40
0.5
  1
2C
100
AcDbAttributeDefinition
  3

  2
LINA
 70
     8
280
     0
  0
ATTDEF
  5
FD
330
F4
100
AcDbEntity
  8
AM_6
100
AcDbText
 10
4.0575
 20
-0.7812499999999996
 30
0.0
 40
0.5
  1
2
100
AcDbAttributeDefinition
  3

  2
BORE
 70
     8
280
     0
  0
ATTDEF
  5
FE
330
F4
100
AcDbEntity
  8
AM_6
100
AcDbText
 10
4.0575
 20
-1.28125
 30
0.0
 40
0.5
  1
3.43750
100
AcDbAttributeDefinition
  3

  2
L
 70
     8
280
     0
  0
ATTDEF
  5
FF
330
F4
100
AcDbEntity
  8
AM_6
100
AcDbText
 10
4.0575
 20
-1.78125
 30
0.0
 40
0.5
  1
3.50
100
AcDbAttributeDefinition
  3

  2
A
 70
     8
280
     0
  0
ATTDEF
  5
100
330
F4
100
AcDbEntity
  8
AM_6
100
AcDbText
 10
4.0575
 20
-2.28125
 30
0.0
 40
0.5
  1
1.62
100
AcDbAttributeDefinition
  3

  2
B
 70
     8
280
     0
  0
ATTDEF
  5
101
330
F4
100
AcDbEntity
  8
AM_6
100
AcDbText
 10
4.0575
 20
-2.78125
 30
0.0
 40
0.5
  1
2.31
100
AcDbAttributeDefinition
  3

  2
C
 70
     8
280
     0
  0
ATTDEF
  5
102
330
F4
100
AcDbEntity
  8
AM_6
100
AcDbText
 10
4.0575
 20
-3.28125
 30
0.0
 40
0.5
  1
3.50
100
AcDbAttributeDefinition
  3

  2
D
 70
     8
280
     0
  0
ATTDEF
  5
103
330
F4
100
AcDbEntity
  8
AM_6
100
AcDbText
 10
4.0575
 20
-3.78125
 30
0.0
 40
0.5
  1
0.41
100
AcDbAttributeDefinition
  3

  2
E
 70
     8
280
     0
  0
ATTDEF
  5
104
330
F4
100
AcDbEntity
  8
AM_6
100
AcDbText
 10
4.0575
 20
-4.28125
 30
0.0
 40
0.5
  1
0.31
100
AcDbAttributeDefinition
  3

  2
F
 70
     8
280
     0
  0
ATTDEF
  5
105
330
F4
100
AcDbEntity
  8
AM_6
100
AcDbText
 10
4.0575
 20
-4.78125
 30
0.0
 40
0.5
  1
3/8-16
100
AcDbAttributeDefinition
  3

  2
CS
 70
     8
280
     0
  0
ATTDEF
  5
106
330
F4
100
AcDbEntity
  8
AM_6
100
AcDbText
 10
4.0575
 20
-5.28125
 30
0.0
 40
0.5
  1
0.3750
100
AcDbAttributeDefinition
  3

  2
NDM
 70
     8
280
     0
  0
ATTDEF
  5
107
330
F4
100
AcDbEntity
  8
AM_6
100
AcDbText
 10
4.0575
 20
-5.78125
 30
0.0
 40
0.5
  1
0.3070
100
AcDbAttributeDefinition
  3

  2
KDM
 70
     8
280
     0
  0
ATTDEF
  5
108
330
F4
100
AcDbEntity
  8
AM_6
100
AcDbText
 10
4.0575
 20
-6.28125
 30
0.0
 40
0.5
  1
baldor
100
AcDbAttributeDefinition
  3

  2
COMPANY
 70
     8
280
     0
  0
LINE
  5
109
330
F4
100
AcDbEntity
  8
AM_9
100
AcDbLine
 10
-1.09885
 20
1.16385
 30
0.0
 11
-1.09885
 21
1.6849
 31
0.0
  0
LINE
  5
10A
330
F4
100
AcDbEntity
  8
AM_9
100
AcDbLine
 10
-1.40615
 20
1.6849
 30
0.0
 11
-1.40615
 21
1.16385
 31
0.0
  0
LINE
  5
10B
330
F4
100
AcDbEntity
  8
AM_9
100
AcDbLine
 10
-1.40615
 20
1.16385
 30
0.0
 11
-1.09885
 21
1.16385
 31
0.0
  0
LINE
  5
10C
330
F4
100
AcDbEntity
  8
AM_9
100
AcDbLine
 10
-1.40615
 20
1.16385
 30
0.0
 11
-1.414833859590502
 21
1.155166140409497
 31
0.0
  0
LINE
  5
10D
330
F4
100
AcDbEntity
  8
AM_9
100
AcDbLine
 10
-1.090268486589464
 20
1.155268486589464
 30
0.0
 11
-1.09885
 21
1.16385
 31
0.0
  0
LINE
  5
10E
330
F4
100
AcDbEntity
  8
AM_9
100
AcDbLine
 10
-1.40615
 20
1.6849
 30
0.0
 11
-1.09885
 21
1.6849
 31
0.0
  0
LINE
  5
10F
330
F4
100
AcDbEntity
  8
AM_9
100
AcDbLine
 10
-1.09885
 20
1.6849
 30
0.0
 11
-1.065
 21
1.71875
 31
0.0
  0
LINE
  5
110
330
F4
100
AcDbEntity
  8
AM_9
100
AcDbLine
 10
-1.44
 20
1.71875
 30
0.0
 11
-1.40615
 21
1.6849
 31
0.0
  0
LWPOLYLINE
  5
111
330
F4
100
AcDbEntity
  8
AM_9
100
AcDbPolyline
 90
       38
 70
     0
 43
0.0
 10
-1.13277070075761
 20
0.3779306153227042
 10
-1.118073278082183
 20
0.3969823851245571
 10
-1.106308271443681
 20
0.4176293360648106
 10
-1.096301432537046
 20
0.4439182519710257
 10
-1.090931658753936
 20
0.471070827009669
 10
-1.090422827735136
 20
0.4993266874148434
 10
-1.095006840884038
 20
0.5269257457283391
 10
-1.104764255474736
 20
0.5533184649773233
 10
-1.119416029846857
 20
0.5775465560041894
 10
-1.138328571350548
 20
0.5985069496908872
 10
-1.161240925088391
 20
0.6160441469379795
 10
-1.186009356111881
 20
0.6288048404677834
 10
-1.213115795223777
 20
0.6374696658014961
 10
-1.239171165229201
 20
0.6414014566813423
 10
-1.265647638067584
 20
0.6414329664232039
 10
-1.2901973154402
 20
0.6378349976865151
 10
-1.313712472618772
 20
0.6309080904423755
 10
-1.335900298022891
 20
0.6206741931724533
 10
-1.35593708596584
 20
0.6075673369347371
 10
-1.374564809653996
 20
0.5906952130942349
 10
-1.389945301954543
 20
0.5713661406842143
 10
-1.402580868890708
 20
0.5482122720450486
 10
-1.410904421512374
 20
0.5232951791991903
 10
-1.414792849706193
 20
0.4958213139565705
 10
-1.41367665001329
 20
0.4677970280308608
 10
-1.407358942332217
 20
0.4394979658413339
 10
-1.396004583658789
 20
0.412279727198437
 10
-1.37993230373832
 20
0.387246833657287
 10
-1.359472829888136
 20
0.3650564070238982
 10
-1.336178283758053
 20
0.3473968064820104
 10
-1.309911069580452
 20
0.3340073621826995
 10
-1.283836514347769
 20
0.326183497435596
 10
-1.25672461584844
 20
0.322985231694274
 10
-1.231521520915243
 20
0.3243871284980401
 10
-1.20691924203597
 20
0.3298323777881105
 10
-1.18385532203937
 20
0.3390024523154558
 10
-1.162578384257334
 20
0.3514964254536931
 10
-1.132770700757611
 20
0.3779306153227042
  0
LINE
  5
112
330
F4
100
AcDbEntity
  8
AM_9
100
AcDbLine
 10
-1.5625
 20
-1.155
 30
0.0
 11
-0.9424999999999999
 21
-1.155
 31
0.0
  0
LINE
  5
113
330
F4
100
AcDbEntity
  8
AM_9
100
AcDbLine
 10
-0.9424999999999999
 20
1.155
 30
0.0
 11
-1.090641874627085
 21
1.155
 31
0.0
  0
LINE
  5
114
330
F4
100
AcDbEntity
  8
AM_9
100
AcDbLine
 10
-1.414602342789093
 20
1.155
 30
0.0
 11
-1.5625
 21
1.155
 31
0.0
  0
LWPOLYLINE
  5
115
330
F4
100
AcDbEntity
  8
AM_9
100
AcDbPolyline
 90
       21
 70
     0
 43
0.0
 10
-1.414999999999293
 20
1.154999999999884
 10
-1.414900986662972
 20
1.15498379342257
 10
-1.411257120128051
 20
1.154393873255462
 10
-1.402631994249787
 20
1.153048235227184
 10
-1.388698885410673
 20
1.151026350938733
 10
-1.370885052348585
 20
1.148717802829725
 10
-1.348271329989636
 20
1.146240524342773
 10
-1.324315148278001
 20
1.144177281125706
 10
-1.296923654001466
 20
1.142534733138016
 10
-1.27126369557254
 20
1.141696141547657
 10
-1.244141036554751
 20
1.1415500348332
 10
-1.219739733160895
 20
1.14206930960979
 10
-1.195578803751197
 20
1.143188797776558
 10
-1.173397546785489
 20
1.144743350316933
 10
-1.152742928870741
 20
1.146640022566709
 10
-1.133898942507806
 20
1.148743921308349
 10
-1.11778701758864
 20
1.150821876167579
 10
-1.104595250353039
 20
1.152712392277049
 10
-1.095358838042085
 20
1.154136323883433
 10
-1.090573151141622
 20
1.154906315782236
 10
-1.090000000000017
 20
1.154999999999997
  0
ELLIPSE
  5
116
330
F4
100
AcDbEntity
  8
AM_9
100
AcDbEllipse
 10
-1.252499999999998
 20
0.4918642639269119
 30
0.0
 11
0.1536500000000014
 21
0.0
 31
0.0
210
0.0
220
0.0
230
1.0
 40
0.9063077870366524
 41
2.229707554477703
 42
3.141592653589793
  0
LINE
  5
117
330
F4
100
AcDbEntity
  8
AM_9
100
AcDbLine
 10
-1.09885
 20
0.491864263926913
 30
0.0
 11
-1.09885
 21
0.7120695092069046
 31
0.0
  0
LINE
  5
118
330
F4
100
AcDbEntity
  8
AM_9
100
AcDbLine
 10
-1.40615
 20
0.7120695092069046
 30
0.0
 11
-1.40615
 21
0.491864263926913
 31
0.0
  0
ELLIPSE
  5
119
330
F4
100
AcDbEntity
  8
AM_9
100
AcDbEllipse
 10
-1.2525
 20
0.4918642639269132
 30
0.0
 11
0.1536500000000003
 21
0.0
 31
0.0
210
0.0
220
0.0
230
1.0
 40
0.9063077870366502
 41
3.141592653589793
 42
6.283185307179586
  0
ELLIPSE
  5
11A
330
F4
100
AcDbEntity
  8
AM_9
100
AcDbEllipse
 10
-1.252500000000001
 20
0.4918642639269118
 30
0.0
 11
0.1536500000000014
 21
0.0
 31
0.0
210
0.0
220
0.0
230
1.0
 40
0.906307787036652
 41
0.0
 42
0.9118850991120904
  0
LINE
  5
11B
330
F4
100
AcDbEntity
  8
AM_9
100
AcDbLine
 10
-1.03125
 20
-1.71875
 30
0.0
 11
-0.9424999999999999
 21
-1.71875
 31
0.0
  0
LINE
  5
11C
330
F4
100
AcDbEntity
  8
AM_9
100
AcDbLine
 10
-0.9424999999999999
 20
1.71875
 30
0.0
 11
-1.03125
 21
1.71875
 31
0.0
  0
LINE
  5
11D
330
F4
100
AcDbEntity
  8
AM_9
100
AcDbLine
 10
-0.9424999999999999
 20
1.71875
 30
0.0
 11
-0.9424999999999999
 21
-1.71875
 31
0.0
  0
LINE
  5
11E
330
F4
100
AcDbEntity
  8
AM_5
100
AcDbLine
 10
-1.44
 20
1.71875
 30
0.0
 11
-1.44
 21
1.155
 31
0.0
  0
LINE
  5
11F
330
F4
100
AcDbEntity
  8
AM_5
100
AcDbLine
 10
-1.065
 20
1.71875
 30
0.0
 11
-1.065
 21
1.155
 31
0.0
  0
ELLIPSE
  5
120
330
F4
100
AcDbEntity
  8
AM_4
100
AcDbEllipse
 10
-1.2525
 20
0.4918642639269133
 30
0.0
 11
0.1536499999999996
 21
0.0
 31
0.0
210
0.0
220
0.0
230
1.0
 40
0.9063077870366499
 41
1.570796326794897
 42
2.2297075544777
  0
ELLIPSE
  5
121
330
F4
100
AcDbEntity
  8
AM_4
100
AcDbEllipse
 10
-1.2525
 20
0.7120695092069047
 30
0.0
 11
0.1536500000000001
 21
0.0
 31
0.0
210
0.0
220
0.0
230
1.0
 40
0.9063077870366505
 41
3.141592653589793
 42
7.853981633974483
  0
ELLIPSE
  5
122
330
F4
100
AcDbEntity
  8
AM_4
100
AcDbEllipse
 10
-1.2525
 20
0.4918642639269133
 30
0.0
 11
0.1536499999999996
 21
0.0
 31
0.0
210
0.0
220
0.0
230
1.0
 40
0.9063077870366503
 41
0.9118850991120926
 42
1.570796326794897
  0
ELLIPSE
  5
123
330
F4
100
AcDbEntity
  8
AM_4
100
AcDbEllipse
 10
-1.2525
 20
0.7120695092069051
 30
0.0
 11
0.1536499999999996
 21
0.0
 31
0.0
210
0.0
220
0.0
230
1.0
 40
0.906307787036648
 41
1.570796326794897
 42
3.141592653589793
  0
LINE
  5
124
330
F4
100
AcDbEntity
  8
AM_4
100
AcDbLine
 10
-1.5625
 20
1.615416666666667
 30
0.0
 11
-1.5625
 21
-1.615416666666667
 31
0.0
  0
ARC
  5
125
330
F4
100
AcDbEntity
  8
AM_4
100
AcDbCircle
 10
-1.459166666666666
 20
-1.615416666666666
 30
0.0
 40
0.1033333333333337
100
AcDbArc
 50
179.9999991462263
 51
270.0
  0
ARC
  5
126
330
F4
100
AcDbEntity
  8
AM_4
100
AcDbCircle
 10
-1.459166666666666
 20
1.615416666666666
 30
0.0
 40
0.1033333333333339
100
AcDbArc
 50
90.0
 51
179.9999991462263
  0
LWPOLYLINE
  5
127
330
F4
100
AcDbEntity
  8
AM_4
100
AcDbPolyline
 90
       38
 70
     0
 43
0.0
 10
-1.109430807006645
 20
0.620401127536357
 10
-1.129014390619004
 20
0.6026772403173434
 10
-1.151152563181371
 20
0.5877464461645957
 10
-1.17903292523478
 20
0.5744856075499754
 10
-1.208819497257077
 20
0.5655918426281175
 10
-1.240888967470955
 20
0.5612671253337135
 10
-1.27327568009637
 20
0.5619696181972665
 10
-1.305616697527709
 20
0.5678900374206148
 10
-1.336441721387244
 20
0.5788362043451799
 10
-1.364619366843909
 20
0.5944649060961978
 10
-1.38950466160193
 20
0.6143379728590016
 10
-1.409599450482889
 20
0.6371373069737768
 10
-1.425086246790907
 20
0.6627039385728177
 10
-1.434889013083795
 20
0.6888285276339489
 10
-1.439607159433268
 20
0.7159190693475173
 10
-1.439104209972099
 20
0.7419184397725251
 10
-1.433799623303223
 20
0.7672769790728751
 10
-1.423947793556051
 20
0.7910366203213197
 10
-1.409922983049049
 20
0.8129052086842058
 10
-1.391559853466126
 20
0.8328886625445291
 10
-1.369816266457222
 20
0.849951747685816
 10
-1.343997738300273
 20
0.8643395065520344
 10
-1.315857658603039
 20
0.8749220561279052
 10
-1.284771594632546
 20
0.8816808926539007
 10
-1.252818634536983
 20
0.8839933237186927
 10
-1.220083310751253
 20
0.8816586394749941
 10
-1.188261669974212
 20
0.8746595853048477
 10
-1.158265251530746
 20
0.8630451330807581
 10
-1.131016415794893
 20
0.8470944708211451
 10
-1.107963197498034
 20
0.8275917740042813
 10
-1.089171691984435
 20
0.8047035046119496
 10
-1.075950346773515
 20
0.7802161807407949
 10
-1.067759034383965
 20
0.7538414137987154
 10
-1.065027320132529
 20
0.7277339641470991
 10
-1.067245591100707
 20
0.7013834469947793
 10
-1.074182101193912
 20
0.6761688379620842
 10
-1.085513566975309
 20
0.6521659761147418
 10
-1.109430806951132
 20
0.6204011274540294
  0
LINE
  5
128
330
F4
100
AcDbEntity
  8
AM_4
100
AcDbLine
 10
-1.459166666666666
 20
-1.71875
 30
0.0
 11
-1.03125
 21
-1.71875
 31
0.0
  0
LINE
  5
129
330
F4
100
AcDbEntity
  8
AM_4
100
AcDbLine
 10
-1.03125
 20
1.71875
 30
0.0
 11
-1.065
 21
1.71875
 31
0.0
  0
LINE
  5
12A
330
F4
100
AcDbEntity
  8
AM_4
100
AcDbLine
 10
-1.44
 20
1.71875
 30
0.0
 11
-1.459166666666666
 21
1.71875
 31
0.0
  0
LINE
  5
12B
330
F4
100
AcDbEntity
  8
AM_4
100
AcDbLine
 10
-1.459166666666666
 20
1.71875
 30
0.0
 11
-1.459166666666666
 21
-1.71875
 31
0.0
  0
LWPOLYLINE
  5
12C
330
F4
100
AcDbEntity
  8
AM_4
100
AcDbPolyline
 90
       20
 70
     0
 43
0.0
 10
-1.065000000000037
 20
1.718749999999996
 10
-1.067254850172967
 20
1.718529519557033
 10
-1.074057762316057
 20
1.717880195165575
 10
-1.085540450456118
 20
1.716838375755907
 10
-1.101008929883739
 20
1.715542845283204
 10
-1.120616984994908
 20
1.714079377104359
 10
-1.14387120765533
 20
1.712604011323974
 10
-1.170493906127274
 20
1.71126321852817
 10
-1.199802242362799
 20
1.710218916693832
 10
-1.231319167410728
 20
1.709602465016823
 10
-1.263525836554177
 20
1.709515843880191
 10
-1.296331687781893
 20
1.709992380340885
 10
-1.327252581646669
 20
1.710962566616508
 10
-1.3568890283441
 20
1.712365553290242
 10
-1.38222240319613
 20
1.713930378857723
 10
-1.404438761563095
 20
1.715578595844378
 10
-1.420799306696605
 20
1.716956419087102
 10
-1.43269335997593
 20
1.718045056547901
 10
-1.438714696784885
 20
1.718624001717391
 10
-1.439999999999895
 20
1.71874999999999
  0
ENDBLK
  5
F7
330
F4
100
AcDbEntity
  8
0
100
AcDbBlockEnd
  0
BLOCK
  5
12F
330
12D
100
AcDbEntity
  8
0
100
AcDbBlockBegin
  2
5_2I_0_in_023130_2
 70
     2
 10
0.0
 20
0.0
 30
0.0
  3
5_2I_0_in_023130_2
  1

  0
ATTDEF
  5
131
330
12D
100
AcDbEntity
  8
AM_6
100
AcDbText
 10
6.9375
 20
1.75
 30
0.0
 40
0.5
  1
E-Type Insert -Inch
100
AcDbAttributeDefinition
  3

  2
NN
 70
     8
280
     0
  0
ATTDEF
  5
132
330
12D
100
AcDbEntity
  8
AM_6
100
AcDbText
 10
6.9375
 20
1.25
 30
0.0
 40
0.5
  1
E-Type Bearings
100
AcDbAttributeDefinition
  3

  2
NT
 70
     8
280
     0
  0
ATTDEF
  5
133
330
12D
100
AcDbEntity
  8
AM_6
100
AcDbText
 10
6.9375
 20
0.75
 30
0.0
 40
0.5
  1
2I
100
AcDbAttributeDefinition
  3

  2
NB
 70
     8
280
     0
  0
ATTDEF
  5
134
330
12D
100
AcDbEntity
  8
AM_6
100
AcDbText
 10
6.9375
 20
0.25
 30
0.0
 40
0.5
  1
$BORE.I
100
AcDbAttributeDefinition
  3

  2
NBSYN
 70
     8
280
     0
  0
ATTDEF
  5
135
330
12D
100
AcDbEntity
  8
AM_6
100
AcDbText
 10
6.9375
 20
-0.25
 30
0.0
 40
0.5
  1
2I
100
AcDbAttributeDefinition
  3

  2
LINA
 70
     8
280
     0
  0
ATTDEF
  5
136
330
12D
100
AcDbEntity
  8
AM_6
100
AcDbText
 10
6.9375
 20
-0.75
 30
0.0
 40
0.5
  1
2
100
AcDbAttributeDefinition
  3

  2
BORE
 70
     8
280
     0
  0
ATTDEF
  5
137
330
12D
100
AcDbEntity
  8
AM_6
100
AcDbText
 10
6.9375
 20
-1.25
 30
0.0
 40
0.5
  1
3.50
100
AcDbAttributeDefinition
  3

  2
A
 70
     8
280
     0
  0
ATTDEF
  5
138
330
12D
100
AcDbEntity
  8
AM_6
100
AcDbText
 10
6.9375
 20
-1.75
 30
0.0
 40
0.5
  1
1.62
100
AcDbAttributeDefinition
  3

  2
B
 70
     8
280
     0
  0
ATTDEF
  5
139
330
12D
100
AcDbEntity
  8
AM_6
100
AcDbText
 10
6.9375
 20
-2.25
 30
0.0
 40
0.5
  1
2.31
100
AcDbAttributeDefinition
  3

  2
C
 70
     8
280
     0
  0
ATTDEF
  5
13A
330
12D
100
AcDbEntity
  8
AM_6
100
AcDbText
 10
6.9375
 20
-2.75
 30
0.0
 40
0.5
  1
3.50
100
AcDbAttributeDefinition
  3

  2
D
 70
     8
280
     0
  0
ATTDEF
  5
13B
330
12D
100
AcDbEntity
  8
AM_6
100
AcDbText
 10
6.9375
 20
-3.25
 30
0.0
 40
0.5
  1
0.41
100
AcDbAttributeDefinition
  3

  2
E
 70
     8
280
     0
  0
ATTDEF
  5
13C
330
12D
100
AcDbEntity
  8
AM_6
100
AcDbText
 10
6.9375
 20
-3.75
 30
0.0
 40
0.5
  1
0.31
100
AcDbAttributeDefinition
  3

  2
F
 70
     8
280
     0
  0
ATTDEF
  5
13D
330
12D
100
AcDbEntity
  8
AM_6
100
AcDbText
 10
6.9375
 20
-4.25
 30
0.0
 40
0.5
  1
baldor
100
AcDbAttributeDefinition
  3

  2
COMPANY
 70
     8
280
     0
  0
LINE
  5
13E
330
12D
100
AcDbEntity
  8
AM_9
100
AcDbLine
 10
1.4225
 20
1.155
 30
0.0
 11
1.4225
 21
1.0
 31
0.0
  0
LINE
  5
13F
330
12D
100
AcDbEntity
  8
AM_9
100
AcDbLine
 10
1.8325
 20
1.0
 30
0.0
 11
1.8325
 21
1.155
 31
0.0
  0
LINE
  5
140
330
12D
100
AcDbEntity
  8
AM_9
100
AcDbLine
 10
-1.4575
 20
1.155
 30
0.0
 11
-1.4575
 21
1.0
 31
0.0
  0
LINE
  5
141
330
12D
100
AcDbEntity
  8
AM_9
100
AcDbLine
 10
-1.0475
 20
1.0
 30
0.0
 11
-1.0475
 21
1.155
 31
0.0
  0
LINE
  5
142
330
12D
100
AcDbEntity
  8
AM_9
100
AcDbLine
 10
-1.5625
 20
-1.0
 30
0.0
 11
1.9375
 21
-1.0
 31
0.0
  0
LINE
  5
143
330
12D
100
AcDbEntity
  8
AM_9
100
AcDbLine
 10
1.9375
 20
1.0
 30
0.0
 11
1.8325
 21
1.0
 31
0.0
  0
LINE
  5
144
330
12D
100
AcDbEntity
  8
AM_9
100
AcDbLine
 10
1.4225
 20
1.0
 30
0.0
 11
-1.0475
 21
1.0
 31
0.0
  0
LINE
  5
145
330
12D
100
AcDbEntity
  8
AM_9
100
AcDbLine
 10
-1.4575
 20
1.0
 30
0.0
 11
-1.5625
 21
1.0
 31
0.0
  0
LWPOLYLINE
  5
146
330
12D
100
AcDbEntity
  8
AM_9
100
AcDbPolyline
 90
       21
 70
     0
 43
0.0
 10
1.422500000000905
 20
0.9999999999998144
 10
1.423650161941116
 20
0.9997648505906943
 10
1.429871960583645
 20
0.9985148180991369
 10
1.441715962022485
 20
0.996238279111594
 10
1.458314041924872
 20
0.9932768437901885
 10
1.480056113061309
 20
0.9898053848083416
 10
1.505675436537087
 20
0.9863144652000848
 10
1.535568316156538
 20
0.9830699031576007
 10
1.567319829829837
 20
0.9806103471214802
 10
1.601828299168185
 20
0.9790985835060728
 10
1.635482016382499
 20
0.9787945201039545
 10
1.669890609368116
 20
0.9796795209468249
 10
1.701816185413769
 20
0.9815792863617557
 10
1.732540800011407
 20
0.9843823290099413
 10
1.759938729099678
 20
0.9876816374548723
 10
1.784365257303498
 20
0.9912525959355125
 10
1.804121729646055
 20
0.9945703772901966
 10
1.819339287254996
 20
0.9973852375759853
 10
1.828662382974014
 20
0.9992203482334533
 10
1.832449943975661
 20
0.9999897397151765
 10
1.832499999998435
 20
0.999999999999679
  0
LINE
  5
147
330
12D
100
AcDbEntity
  8
AM_9
100
AcDbLine
 10
1.632159871160169
 20
0.9787730658325399
 30
0.0
 11
1.6275
 21
0.9787619731068428
 31
0.0
  0
LINE
  5
148
330
12D
100
AcDbEntity
  8
AM_9
100
AcDbLine
 10
1.832499999998435
 20
0.999999999999679
 30
0.0
 11
1.827326022593245
 21
0.9989521706795756
 31
0.0
  0
LWPOLYLINE
  5
149
330
12D
100
AcDbEntity
  8
AM_9
100
AcDbPolyline
 90
       21
 70
     0
 43
0.0
 10
-1.457499999999095
 20
0.9999999999998144
 10
-1.456349838058884
 20
0.9997648505906943
 10
-1.450128039416355
 20
0.9985148180991369
 10
-1.438284037977515
 20
0.996238279111594
 10
-1.421685958075128
 20
0.9932768437901885
 10
-1.399943886938691
 20
0.9898053848083416
 10
-1.374324563462913
 20
0.9863144652000848
 10
-1.344431683843462
 20
0.9830699031576007
 10
-1.312680170170162
 20
0.9806103471214802
 10
-1.278171700831815
 20
0.9790985835060728
 10
-1.244517983617501
 20
0.9787945201039545
 10
-1.210109390631884
 20
0.9796795209468249
 10
-1.178183814586231
 20
0.9815792863617557
 10
-1.147459199988593
 20
0.9843823290099413
 10
-1.120061270900321
 20
0.9876816374548723
 10
-1.095634742696502
 20
0.9912525959355125
 10
-1.075878270353945
 20
0.9945703772901966
 10
-1.060660712745005
 20
0.9973852375759853
 10
-1.051337617025986
 20
0.9992203482334533
 10
-1.04755005602434
 20
0.9999897397151765
 10
-1.047500000001565
 20
0.999999999999679
  0
LINE
  5
14A
330
12D
100
AcDbEntity
  8
AM_9
100
AcDbLine
 10
-1.247840128839831
 20
0.9787730658325399
 30
0.0
 11
-1.2525
 21
0.9787619731068428
 31
0.0
  0
LINE
  5
14B
330
12D
100
AcDbEntity
  8
AM_9
100
AcDbLine
 10
-1.047500000001565
 20
0.999999999999679
 30
0.0
 11
-1.052673977406734
 21
0.9989521706795799
 31
0.0
  0
LWPOLYLINE
  5
14C
330
12D
100
AcDbEntity
  8
AM_9
100
AcDbPolyline
 90
        3
 70
     0
 43
0.0
 10
1.425445208881158
 20
0.4537453798689089
 10
1.422926187271198
 20
0.4345554518343193
 10
1.422500000518029
 20
0.4226314699299872
  0
LWPOLYLINE
  5
14D
330
12D
100
AcDbEntity
  8
AM_9
100
AcDbPolyline
 90
        7
 70
     0
 43
0.0
 10
1.517746851930219
 20
0.5731579760602091
 10
1.500984367114789
 20
0.5632745663724615
 10
1.476129532714186
 20
0.5438537514384042
 10
1.454883840115097
 20
0.5202487713235638
 10
1.438882314099073
 20
0.4940315461365218
 10
1.427895353760841
 20
0.4645016245804086
 10
1.425445208881158
 20
0.4537453798689089
  0
LWPOLYLINE
  5
14E
330
12D
100
AcDbEntity
  8
AM_9
100
AcDbPolyline
 90
        5
 70
     0
 43
0.0
 10
1.6275
 20
0.5994357800748243
 10
1.593978194231308
 20
0.5971775094625698
 10
1.560456388462615
 20
0.5901882568264206
 10
1.529766248866855
 20
0.5790191302071742
 10
1.517746851930219
 20
0.5731579760602091
  0
LINE
  5
14F
330
12D
100
AcDbEntity
  8
AM_9
100
AcDbLine
 10
1.4225
 20
0.4881076412112373
 30
0.0
 11
1.4225
 21
0.4225577418216828
 31
0.0
  0
LINE
  5
150
330
12D
100
AcDbEntity
  8
AM_9
100
AcDbLine
 10
1.8325
 20
0.4225906600232956
 30
0.0
 11
1.8325
 21
0.4880725092054525
 31
0.0
  0
LWPOLYLINE
  5
151
330
12D
100
AcDbEntity
  8
AM_9
100
AcDbPolyline
 90
        4
 70
     0
 43
0.0
 10
1.828275594254875
 20
0.3847325488689672
 10
1.828662382974014
 20
0.3865074451133467
 10
1.832449943975661
 20
0.4185083948593536
 10
1.832499999103579
 20
0.4226008867105324
  0
LWPOLYLINE
  5
152
330
12D
100
AcDbEntity
  8
AM_9
100
AcDbPolyline
 90
       19
 70
     0
 43
0.0
 10
1.422500000518029
 20
0.4226314699299872
 10
1.423650161941116
 20
0.4028655091209495
 10
1.429871960583645
 20
0.3726142195723278
 10
1.441715962022485
 20
0.3424913310932841
 10
1.458314041924872
 20
0.3148598704851223
 10
1.480056113061309
 20
0.2892276096508849
 10
1.505675436537087
 20
0.2674069806321856
 10
1.535568316156538
 20
0.2493996952440807
 10
1.567319829829837
 20
0.2368167700801631
 10
1.601828299168185
 20
0.2294544057724765
 10
1.635482016382499
 20
0.2280042328685671
 10
1.669890609368116
 20
0.2322529555449184
 10
1.701816185413769
 20
0.2416784803428047
 10
1.732540800011406
 20
0.256468054137285
 10
1.759938729099678
 20
0.2755961715410413
 10
1.784365257303498
 20
0.2993084214874651
 10
1.804121729646055
 20
0.3260076373841796
 10
1.819339287254996
 20
0.3560160134854748
 10
1.828275594254875
 20
0.3847325488689672
  0
LWPOLYLINE
  5
153
330
12D
100
AcDbEntity
  8
AM_9
100
AcDbPolyline
 90
       10
 70
     0
 43
0.0
 10
1.828723573872501
 20
0.4577915555063293
 10
1.822731369249134
 20
0.4784606302790476
 10
1.809998534593898
 20
0.5054001662744984
 10
1.791902110309404
 20
0.5304255803948396
 10
1.769508833309518
 20
0.5519679817957867
 10
1.742444248219814
 20
0.5703251100966236
 10
1.712582045599567
 20
0.5842382157202092
 10
1.679298784148368
 20
0.5939857860956218
 10
1.653841648089188
 20
0.598045342244026
 10
1.6275
 20
0.5994357800748243
  0
LINE
  5
154
330
12D
100
AcDbEntity
  8
AM_9
100
AcDbLine
 10
1.829178550876271
 20
0.4556420094170588
 30
0.0
 11
1.828723573872501
 21
0.4577915555063293
 31
0.0
  0
LWPOLYLINE
  5
155
330
12D
100
AcDbEntity
  8
AM_9
100
AcDbPolyline
 90
        3
 70
     0
 43
0.0
 10
1.832499999103579
 20
0.4226008867105324
 10
1.830447954838699
 20
0.448663678313163
 10
1.829178550876271
 20
0.4556420094170588
  0
LWPOLYLINE
  5
156
330
12D
100
AcDbEntity
  8
AM_9
100
AcDbPolyline
 90
        8
 70
     0
 43
0.0
 10
1.51797626756691
 20
0.3255444550355347
 10
1.493418559939227
 20
0.343185947518981
 10
1.469469404785717
 20
0.3666481447704773
 10
1.449745335435469
 20
0.3936983893967246
 10
1.435055624917102
 20
0.4231877156710321
 10
1.425941907098632
 20
0.4540719850384655
 10
1.422519874684364
 20
0.4855355372143438
 10
1.422500000576729
 20
0.4881101557715589
  0
LWPOLYLINE
  5
157
330
12D
100
AcDbEntity
  8
AM_9
100
AcDbPolyline
 90
       14
 70
     0
 43
0.0
 10
1.828827793192922
 20
0.4528422046356693
 10
1.824798212665202
 20
0.4371744941705606
 10
1.812920443226721
 20
0.4074837453702556
 10
1.79583651427101
 20
0.379610097828691
 10
1.774139899355452
 20
0.3545227402605503
 10
1.747981352391878
 20
0.3327693832822596
 10
1.718400303144283
 20
0.3153783686275085
 10
1.686125003279319
 20
0.3030020108582965
 10
1.652145425831918
 20
0.2960413747677831
 10
1.617904582061244
 20
0.2948240869715158
 10
1.583937555419073
 20
0.2991768908283279
 10
1.551460575943977
 20
0.3089297927979093
 10
1.521092745364522
 20
0.3236699157196553
 10
1.51797626756691
 20
0.3255444550355347
  0
LWPOLYLINE
  5
158
330
12D
100
AcDbEntity
  8
AM_9
100
AcDbPolyline
 90
        3
 70
     0
 43
0.0
 10
1.832499999363773
 20
0.4881387299977162
 10
1.831294998115517
 20
0.4679188545951772
 10
1.828827793192922
 20
0.4528422046356693
  0
LWPOLYLINE
  5
159
330
12D
100
AcDbEntity
  8
AM_9
100
AcDbPolyline
 90
        5
 70
     0
 43
0.0
 10
1.517960230705709
 20
0.6396447400519534
 10
1.545060959345697
 20
0.6517252120896527
 10
1.577935264890733
 20
0.6611113656534127
 10
1.602526989680055
 20
0.6648947039647001
 10
1.6275
 20
0.6661671216004318
  0
LWPOLYLINE
  5
15A
330
12D
100
AcDbEntity
  8
AM_9
100
AcDbPolyline
 90
        8
 70
     0
 43
0.0
 10
1.422500000576729
 20
0.4881101557715589
 10
1.424907761293978
 20
0.5162123387929745
 10
1.432863953789169
 20
0.5456929045843851
 10
1.446202571434621
 20
0.5731313362391617
 10
1.464476360126783
 20
0.5979356195792978
 10
1.487566196985514
 20
0.6197528055456031
 10
1.514573889191245
 20
0.6378014968234393
 10
1.517960230705709
 20
0.6396447400519534
  0
LWPOLYLINE
  5
15B
330
12D
100
AcDbEntity
  8
AM_9
100
AcDbPolyline
 90
        3
 70
     0
 43
0.0
 10
-1.454554791118842
 20
0.4537453798689091
 10
-1.457073812728802
 20
0.4345554518343193
 10
-1.457499999481971
 20
0.4226314699299872
  0
LWPOLYLINE
  5
15C
330
12D
100
AcDbEntity
  8
AM_9
100
AcDbPolyline
 90
        6
 70
     0
 43
0.0
 10
-1.38923943006824
 20
0.5560828828189167
 10
-1.403870467285814
 20
0.5438537514384042
 10
-1.425116159884903
 20
0.5202487713235638
 10
-1.441117685900927
 20
0.4940315461365218
 10
-1.452104646239158
 20
0.4645016245804086
 10
-1.454554791118842
 20
0.4537453798689091
  0
LWPOLYLINE
  5
15D
330
12D
100
AcDbEntity
  8
AM_9
100
AcDbPolyline
 90
        4
 70
     0
 43
0.0
 10
-1.32296420098713
 20
0.5891858546283986
 10
-1.350233751133145
 20
0.5790191302071742
 10
-1.379015632885211
 20
0.5632745663724615
 10
-1.38923943006824
 20
0.5560828828189167
  0
LINE
  5
15E
330
12D
100
AcDbEntity
  8
AM_9
100
AcDbLine
 10
-1.4575
 20
0.4881076412112375
 30
0.0
 11
-1.4575
 21
0.4225577418216828
 31
0.0
  0
LINE
  5
15F
330
12D
100
AcDbEntity
  8
AM_9
100
AcDbLine
 10
-1.0475
 20
0.4225906600232956
 30
0.0
 11
-1.0475
 21
0.4880725092054527
 31
0.0
  0
LWPOLYLINE
  5
160
330
12D
100
AcDbEntity
  8
AM_9
100
AcDbPolyline
 90
       21
 70
     0
 43
0.0
 10
-1.457499999481971
 20
0.4226314699299872
 10
-1.456349838058884
 20
0.4028655091209495
 10
-1.450128039416355
 20
0.3726142195723278
 10
-1.438284037977515
 20
0.3424913310932841
 10
-1.421685958075128
 20
0.3148598704851223
 10
-1.399943886938691
 20
0.2892276096508849
 10
-1.374324563462913
 20
0.2674069806321856
 10
-1.344431683843462
 20
0.2493996952440807
 10
-1.312680170170162
 20
0.2368167700801631
 10
-1.278171700831815
 20
0.2294544057724765
 10
-1.244517983617501
 20
0.2280042328685671
 10
-1.210109390631884
 20
0.2322529555449184
 10
-1.178183814586231
 20
0.2416784803428047
 10
-1.147459199988593
 20
0.256468054137285
 10
-1.120061270900322
 20
0.2755961715410413
 10
-1.095634742696502
 20
0.2993084214874651
 10
-1.075878270353945
 20
0.3260076373841796
 10
-1.060660712745005
 20
0.3560160134854748
 10
-1.051337617025986
 20
0.3865074451133467
 10
-1.04755005602434
 20
0.4185083948593536
 10
-1.047500000896421
 20
0.4226008867105326
  0
LWPOLYLINE
  5
161
330
12D
100
AcDbEntity
  8
AM_9
100
AcDbPolyline
 90
        4
 70
     0
 43
0.0
 10
-1.117511250545355
 20
0.5573854474120291
 10
-1.137555751780186
 20
0.5703251100966236
 10
-1.167417954400433
 20
0.5842382157202092
 10
-1.183260233475517
 20
0.5895512142275284
  0
LWPOLYLINE
  5
162
330
12D
100
AcDbEntity
  8
AM_9
100
AcDbPolyline
 90
        6
 70
     0
 43
0.0
 10
-1.050821449123728
 20
0.4556420094170591
 10
-1.057268630750866
 20
0.4784606302790476
 10
-1.070001465406102
 20
0.5054001662744984
 10
-1.088097889690596
 20
0.5304255803948396
 10
-1.110491166690482
 20
0.5519679817957867
 10
-1.117511250545355
 20
0.5573854474120291
  0
LWPOLYLINE
  5
163
330
12D
100
AcDbEntity
  8
AM_9
100
AcDbPolyline
 90
        3
 70
     0
 43
0.0
 10
-1.047500000896421
 20
0.4226008867105326
 10
-1.049552045161301
 20
0.448663678313163
 10
-1.050821449123728
 20
0.4556420094170591
  0
LWPOLYLINE
  5
164
330
12D
100
AcDbEntity
  8
AM_9
100
AcDbPolyline
 90
       21
 70
     0
 43
0.0
 10
-1.047500000636228
 20
0.4881387299977162
 10
-1.048705001884483
 20
0.4679188545951775
 10
-1.055201787334798
 20
0.4371744941705608
 10
-1.067079556773278
 20
0.4074837453702558
 10
-1.08416348572899
 20
0.3796100978286911
 10
-1.105860100644548
 20
0.3545227402605505
 10
-1.132018647608122
 20
0.3327693832822598
 10
-1.161599696855717
 20
0.3153783686275088
 10
-1.19387499672068
 20
0.3030020108582968
 10
-1.227854574168082
 20
0.2960413747677834
 10
-1.262095417938757
 20
0.2948240869715161
 10
-1.296062444580927
 20
0.2991768908283282
 10
-1.328539424056023
 20
0.3089297927979094
 10
-1.358907254635478
 20
0.3236699157196555
 10
-1.386581440060773
 20
0.3431859475189811
 10
-1.410530595214283
 20
0.3666481447704775
 10
-1.430254664564531
 20
0.3936983893967249
 10
-1.444944375082898
 20
0.4231877156710324
 10
-1.454058092901368
 20
0.4540719850384657
 10
-1.457480125315636
 20
0.4855355372143441
 10
-1.457499999423271
 20
0.4881101557715591
  0
LWPOLYLINE
  5
165
330
12D
100
AcDbEntity
  8
AM_9
100
AcDbPolyline
 90
        6
 70
     0
 43
0.0
 10
-1.376679000011485
 20
0.6310592696648726
 10
-1.365426110808755
 20
0.6378014968234396
 10
-1.334939040654303
 20
0.6517252120896532
 10
-1.302064735109267
 20
0.6611113656534129
 10
-1.277473010319945
 20
0.6648947039647004
 10
-1.2525
 20
0.6661671216004321
  0
LWPOLYLINE
  5
166
330
12D
100
AcDbEntity
  8
AM_9
100
AcDbPolyline
 90
        7
 70
     0
 43
0.0
 10
-1.457499999423271
 20
0.4881101557715591
 10
-1.455092238706021
 20
0.5162123387929747
 10
-1.447136046210831
 20
0.5456929045843854
 10
-1.433797428565379
 20
0.5731313362391619
 10
-1.415523639873217
 20
0.5979356195792981
 10
-1.392433803014486
 20
0.6197528055456033
 10
-1.376679000011485
 20
0.6310592696648726
  0
LWPOLYLINE
  5
167
330
12D
100
AcDbEntity
  8
AM_9
100
AcDbPolyline
 90
        3
 70
     0
 43
0.0
 10
1.828560341196383
 20
0.5240806863987802
 10
1.832113652474625
 20
0.4991717065309166
 10
1.832499999363773
 20
0.4881387299977162
  0
LWPOLYLINE
  5
168
330
12D
100
AcDbEntity
  8
AM_9
100
AcDbPolyline
 90
       10
 70
     0
 43
0.0
 10
1.6275
 20
0.6661671216004318
 10
1.66160843538501
 20
0.6637774144538402
 10
1.694748002252064
 20
0.6567260809097473
 10
1.725947523479572
 20
0.6451211240031776
 10
1.754405193923415
 20
0.6292716526535126
 10
1.77954195531181
 20
0.6092504519323205
 10
1.800424449120014
 20
0.5856862682312745
 10
1.816499307750009
 20
0.5588790456255525
 10
1.827205549264893
 20
0.5296842227210451
 10
1.828560341196383
 20
0.5240806863987802
  0
LINE
  5
169
330
12D
100
AcDbEntity
  8
AM_9
100
AcDbLine
 10
0.9974999999999995
 20
-1.155
 30
0.0
 11
1.875
 21
-1.155
 31
0.0
  0
LINE
  5
16A
330
12D
100
AcDbEntity
  8
AM_9
100
AcDbLine
 10
1.875
 20
1.155
 30
0.0
 11
1.8325
 21
1.155
 31
0.0
  0
LINE
  5
16B
330
12D
100
AcDbEntity
  8
AM_9
100
AcDbLine
 10
1.4225
 20
1.154999999999999
 30
0.0
 11
0.9974999999999995
 21
1.155
 31
0.0
  0
LWPOLYLINE
  5
16C
330
12D
100
AcDbEntity
  8
AM_9
100
AcDbPolyline
 90
        8
 70
     0
 43
0.0
 10
1.517979831603033
 20
1.141925858926795
 10
1.493769013320945
 20
1.144501628132591
 10
1.469469404785717
 20
1.147594732047764
 10
1.449978500940255
 20
1.150440734079083
 10
1.435055624917102
 20
1.152837732510975
 10
1.426014060983806
 20
1.154381472313739
 10
1.422519874684364
 20
1.15499647262423
 10
1.422500000000512
 20
1.154999999999909
  0
LWPOLYLINE
  5
16D
330
12D
100
AcDbEntity
  8
AM_9
100
AcDbPolyline
 90
       14
 70
     0
 43
0.0
 10
1.828799069674824
 20
1.154348870771722
 10
1.824947675917633
 20
1.153683485504267
 10
1.812920443226721
 20
1.151686042620294
 10
1.796122884621411
 20
1.149101247592241
 10
1.774139899355452
 20
1.14608169869472
 10
1.748393103462161
 20
1.143072675933036
 10
1.718400303144283
 20
1.14029069324963
 10
1.686621906782521
 20
1.138198313063941
 10
1.652145425831918
 20
1.136928932262011
 10
1.618401700706359
 20
1.136698191715829
 10
1.583937555419073
 20
1.137496235852174
 10
1.551895739218879
 20
1.139173386385171
 10
1.521092745364522
 20
1.141631509655834
 10
1.517979831603033
 20
1.141925858926795
  0
LINE
  5
16E
330
12D
100
AcDbEntity
  8
AM_9
100
AcDbLine
 10
1.832499999999383
 20
1.15499999999989
 30
0.0
 11
1.828799069674824
 21
1.154348870771722
 31
0.0
  0
LINE
  5
16F
330
12D
100
AcDbEntity
  8
AM_9
100
AcDbLine
 10
1.621984723336789
 20
1.136675159523015
 30
0.0
 11
1.6275
 21
1.136661779070625
 31
0.0
  0
LINE
  5
170
330
12D
100
AcDbEntity
  8
AM_9
100
AcDbLine
 10
1.422500000000512
 20
1.154999999999909
 30
0.0
 11
1.425010445997044
 21
1.154557066359353
 31
0.0
  0
LWPOLYLINE
  5
171
330
12D
100
AcDbEntity
  8
AM_9
100
AcDbPolyline
 90
        8
 70
     0
 43
0.0
 10
-1.128287970164749
 20
0.631037990660685
 10
-1.125594806076585
 20
0.6292716526535128
 10
-1.10045804468819
 20
0.6092504519323209
 10
-1.079575550879986
 20
0.5856862682312747
 10
-1.063500692249991
 20
0.5588790456255526
 10
-1.052794450735106
 20
0.5296842227210452
 10
-1.047886347525375
 20
0.4991717065309168
 10
-1.047500000636228
 20
0.4881387299977162
  0
LWPOLYLINE
  5
172
330
12D
100
AcDbEntity
  8
AM_9
100
AcDbPolyline
 90
        5
 70
     0
 43
0.0
 10
-1.2525
 20
0.6661671216004321
 10
-1.21839156461499
 20
0.6637774144538405
 10
-1.185251997747935
 20
0.6567260809097476
 10
-1.154052476520428
 20
0.645121124003178
 10
-1.128287970164749
 20
0.631037990660685
  0
LINE
  5
173
330
12D
100
AcDbEntity
  8
AM_9
100
AcDbLine
 10
-1.5625
 20
-1.155
 30
0.0
 11
-0.6225000000000002
 21
-1.155
 31
0.0
  0
LINE
  5
174
330
12D
100
AcDbEntity
  8
AM_9
100
AcDbLine
 10
-0.6225000000000002
 20
1.155
 30
0.0
 11
-1.0475
 21
1.155
 31
0.0
  0
LINE
  5
175
330
12D
100
AcDbEntity
  8
AM_9
100
AcDbLine
 10
-1.4575
 20
1.155
 30
0.0
 11
-1.5625
 21
1.155
 31
0.0
  0
LWPOLYLINE
  5
176
330
12D
100
AcDbEntity
  8
AM_9
100
AcDbPolyline
 90
       21
 70
     0
 43
0.0
 10
-1.047500000000617
 20
1.154999999999891
 10
-1.048705001884483
 20
1.154786734101541
 10
-1.055052324082367
 20
1.153683485504267
 10
-1.067079556773278
 20
1.151686042620294
 10
-1.083877115378589
 20
1.149101247592242
 10
-1.105860100644548
 20
1.146081698694721
 10
-1.131606896537839
 20
1.143072675933037
 10
-1.161599696855717
 20
1.14029069324963
 10
-1.193378093217478
 20
1.138198313063941
 10
-1.227854574168082
 20
1.136928932262011
 10
-1.261598299293641
 20
1.13669819171583
 10
-1.296062444580927
 20
1.137496235852175
 10
-1.32810426078112
 20
1.139173386385172
 10
-1.358907254635478
 20
1.141631509655834
 10
-1.386230986679055
 20
1.144501628132592
 10
-1.410530595214283
 20
1.147594732047765
 10
-1.430021499059745
 20
1.150440734079083
 10
-1.444944375082898
 20
1.152837732510975
 10
-1.453985939016194
 20
1.15438147231374
 10
-1.457480125315636
 20
1.15499647262423
 10
-1.457499999999488
 20
1.154999999999909
  0
LINE
  5
177
330
12D
100
AcDbEntity
  8
AM_9
100
AcDbLine
 10
-1.258015276663211
 20
1.136675159523015
 30
0.0
 11
-1.2525
 21
1.136661779070626
 31
0.0
  0
LINE
  5
178
330
12D
100
AcDbEntity
  8
AM_9
100
AcDbLine
 10
-1.457499999999488
 20
1.154999999999909
 30
0.0
 11
-1.452268116672606
 21
1.154082882829011
 31
0.0
  0
LINE
  5
179
330
12D
100
AcDbEntity
  8
AM_9
100
AcDbLine
 10
-0.6225000000000002
 20
-1.75
 30
0.0
 11
0.9974999999999995
 21
-1.75
 31
0.0
  0
LINE
  5
17A
330
12D
100
AcDbEntity
  8
AM_9
100
AcDbLine
 10
0.9974999999999995
 20
1.75
 30
0.0
 11
-0.6225000000000002
 21
1.75
 31
0.0
  0
LINE
  5
17B
330
12D
100
AcDbEntity
  8
AM_9
100
AcDbLine
 10
-0.6225000000000002
 20
1.75
 30
0.0
 11
-0.6225000000000002
 21
-1.75
 31
0.0
  0
LINE
  5
17C
330
12D
100
AcDbEntity
  8
AM_9
100
AcDbLine
 10
0.9974999999999995
 20
1.75
 30
0.0
 11
0.9974999999999995
 21
-1.75
 31
0.0
  0
LINE
  5
17D
330
12D
100
AcDbEntity
  8
AM_7
100
AcDbLine
 10
1.6275
 20
-0.0592307692307692
 30
0.0
 11
1.6275
 21
1.243846153846154
 31
0.0
  0
LINE
  5
17E
330
12D
100
AcDbEntity
  8
AM_7
100
AcDbLine
 10
-1.2525
 20
-0.0592307692307692
 30
0.0
 11
-1.2525
 21
1.7481875
 31
0.0
  0
LWPOLYLINE
  5
17F
330
12D
100
AcDbEntity
  8
AM_4
100
AcDbPolyline
 90
        4
 70
     0
 43
0.0
 10
-1.2525
 20
0.5994357800748243
 10
-1.286021805768692
 20
0.5971775094625698
 10
-1.319543611537384
 20
0.5901882568264206
 10
-1.32296420098713
 20
0.5891858546283986
  0
LWPOLYLINE
  5
180
330
12D
100
AcDbEntity
  8
AM_4
100
AcDbPolyline
 90
        4
 70
     0
 43
0.0
 10
-1.183260233475517
 20
0.5895512142275284
 10
-1.200701215851632
 20
0.5939857860956218
 10
-1.226158351910812
 20
0.598045342244026
 10
-1.2525
 20
0.5994357800748243
  0
LINE
  5
181
330
12D
100
AcDbEntity
  8
AM_4
100
AcDbLine
 10
1.875
 20
-1.155
 30
0.0
 11
1.9375
 21
-1.155
 31
0.0
  0
LINE
  5
182
330
12D
100
AcDbEntity
  8
AM_4
100
AcDbLine
 10
1.9375
 20
1.155
 30
0.0
 11
1.875
 21
1.155
 31
0.0
  0
LINE
  5
183
330
12D
100
AcDbEntity
  8
AM_4
100
AcDbLine
 10
1.9375
 20
1.155
 30
0.0
 11
1.9375
 21
-1.155
 31
0.0
  0
ENDBLK
  5
130
330
12D
100
AcDbEntity
  8
0
100
AcDbBlockEnd
  0
BLOCK
  5
186
330
184
100
AcDbEntity
  8
0
100
AcDbBlockBegin
  2
6_023130H_0_in_023130_2
 70
     2
 10
0.0
 20
0.0
 30
0.0
  3
6_023130H_0_in_023130_2
  1

  0
ATTDEF
  5
188
330
184
100
AcDbEntity
  8
AM_6
100
AcDbText
 10
8.196875
 20
3.1875
 30
0.0
 40
0.5
  1
FC-E-Housing
100
AcDbAttributeDefinition
  3

  2
NN
 70
     8
280
     0
  0
ATTDEF
  5
189
330
184
100
AcDbEntity
  8
AM_6
100
AcDbText
 10
8.196875
 20
2.6875
 30
0.0
 40
0.5
  1
Type E Piloted Flange -Inch
100
AcDbAttributeDefinition
  3

  2
NT
 70
     8
280
     0
  0
ATTDEF
  5
18A
330
184
100
AcDbEntity
  8
AM_6
100
AcDbText
 10
8.196875
 20
2.1875
 30
0.0
 40
0.5
  1
023130H
100
AcDbAttributeDefinition
  3

  2
NB
 70
     8
280
     0
  0
ATTDEF
  5
18B
330
184
100
AcDbEntity
  8
AM_6
100
AcDbText
 10
8.196875
 20
1.6875
 30
0.0
 40
0.5
  1
$PN.H
100
AcDbAttributeDefinition
  3

  2
NBSYN
 70
     8
280
     0
  0
ATTDEF
  5
18C
330
184
100
AcDbEntity
  8
AM_6
100
AcDbText
 10
8.196875
 20
1.1875
 30
0.0
 40
0.5
  1
023130
100
AcDbAttributeDefinition
  3

  2
LINA
 70
     8
280
     0
  0
ATTDEF
  5
18D
330
184
100
AcDbEntity
  8
AM_6
100
AcDbText
 10
8.196875
 20
0.6875
 30
0.0
 40
0.5
  1
2
100
AcDbAttributeDefinition
  3

  2
SS
 70
     8
280
     0
  0
ATTDEF
  5
18E
330
184
100
AcDbEntity
  8
AM_6
100
AcDbText
 10
8.196875
 20
0.1875
 30
0.0
 40
0.5
  1
023130
100
AcDbAttributeDefinition
  3

  2
PN
 70
     8
280
     0
  0
ATTDEF
  5
18F
330
184
100
AcDbEntity
  8
AM_6
100
AcDbText
 10
8.196875
 20
-0.3125
 30
0.0
 40
0.5
  1
FC-E-200R
100
AcDbAttributeDefinition
  3

  2
DESCRIPTION
 70
     8
280
     0
  0
ATTDEF
  5
190
330
184
100
AcDbEntity
  8
AM_6
100
AcDbText
 10
8.196875
 20
-0.8125
 30
0.0
 40
0.5
  1
3-1/2
100
AcDbAttributeDefinition
  3

  2
A
 70
     8
280
     0
  0
ATTDEF
  5
191
330
184
100
AcDbEntity
  8
AM_6
100
AcDbText
 10
8.196875
 20
-1.3125
 30
0.0
 40
0.5
  1
6-3/8
100
AcDbAttributeDefinition
  3

  2
B
 70
     8
280
     0
  0
ATTDEF
  5
192
330
184
100
AcDbEntity
  8
AM_6
100
AcDbText
 10
8.196875
 20
-1.8125
 30
0.0
 40
0.5
  1
2-29/32
100
AcDbAttributeDefinition
  3

  2
C
 70
     8
280
     0
  0
ATTDEF
  5
193
330
184
100
AcDbEntity
  8
AM_6
100
AcDbText
 10
8.196875
 20
-2.3125
 30
0.0
 40
0.5
  1
5-3/8
100
AcDbAttributeDefinition
  3

  2
D
 70
     8
280
     0
  0
ATTDEF
  5
194
330
184
100
AcDbEntity
  8
AM_6
100
AcDbText
 10
8.196875
 20
-2.8125
 30
0.0
 40
0.5
  1
1-3/16
100
AcDbAttributeDefinition
  3

  2
E
 70
     8
280
     0
  0
ATTDEF
  5
195
330
184
100
AcDbEntity
  8
AM_6
100
AcDbText
 10
8.196875
 20
-3.3125
 30
0.0
 40
0.5
  1
7/16
100
AcDbAttributeDefinition
  3

  2
F
 70
     8
280
     0
  0
ATTDEF
  5
196
330
184
100
AcDbEntity
  8
AM_6
100
AcDbText
 10
8.196875
 20
-3.8125
 30
0.0
 40
0.5
  1
1-9/16
100
AcDbAttributeDefinition
  3

  2
G
 70
     8
280
     0
  0
ATTDEF
  5
197
330
184
100
AcDbEntity
  8
AM_6
100
AcDbText
 10
8.196875
 20
-4.3125
 30
0.0
 40
0.5
  1
9/16
100
AcDbAttributeDefinition
  3

  2
H
 70
     8
280
     0
  0
ATTDEF
  5
198
330
184
100
AcDbEntity
  8
AM_6
100
AcDbText
 10
8.196875
 20
-4.8125
 30
0.0
 40
0.5
  1
4-1/2
100
AcDbAttributeDefinition
  3

  2
K
 70
     8
280
     0
  0
ATTDEF
  5
199
330
184
100
AcDbEntity
  8
AM_6
100
AcDbText
 10
8.196875
 20
-5.3125
 30
0.0
 40
0.5
  1
3-7/16
100
AcDbAttributeDefinition
  3

  2
L
 70
     8
280
     0
  0
ATTDEF
  5
19A
330
184
100
AcDbEntity
  8
AM_6
100
AcDbText
 10
8.196875
 20
-5.8125
 30
0.0
 40
0.5
  1
1-1/32
100
AcDbAttributeDefinition
  3

  2
M
 70
     8
280
     0
  0
ATTDEF
  5
19B
330
184
100
AcDbEntity
  8
AM_6
100
AcDbText
 10
8.196875
 20
-6.3125
 30
0.0
 40
0.5
  1
baldor
100
AcDbAttributeDefinition
  3

  2
COMPANY
 70
     8
280
     0
  0
LINE
  5
19C
330
184
100
AcDbEntity
  8
AM_9
100
AcDbLine
 10
-0.5625
 20
-2.071875
 30
0.0
 11
-0.4921875000000001
 21
-2.071875
 31
0.0
  0
LINE
  5
19D
330
184
100
AcDbEntity
  8
AM_9
100
AcDbLine
 10
-0.5625
 20
2.010638211022809
 30
0.0
 11
-0.4921875000000001
 21
2.010638211022809
 31
0.0
  0
LINE
  5
19E
330
184
100
AcDbEntity
  8
AM_9
100
AcDbLine
 10
-0.4921874999999999
 20
-1.919857069224798
 30
0.0
 11
-0.5624999999999999
 21
-1.919857069224798
 31
0.0
  0
LINE
  5
19F
330
184
100
AcDbEntity
  8
AM_9
100
AcDbLine
 10
-0.4921874999999999
 20
-1.913390424464684
 30
0.0
 11
-0.5624999999999999
 21
-1.913390424464684
 31
0.0
  0
LINE
  5
1A0
330
184
100
AcDbEntity
  8
AM_9
100
AcDbLine
 10
-0.4921874999999999
 20
-1.904784927150547
 30
0.0
 11
-0.5624999999999999
 21
-1.904784927150547
 31
0.0
  0
LINE
  5
1A1
330
184
100
AcDbEntity
  8
AM_9
100
AcDbLine
 10
-0.4921874999999999
 20
1.919857069224798
 30
0.0
 11
-0.5624999999999999
 21
1.919857069224798
 31
0.0
  0
LINE
  5
1A2
330
184
100
AcDbEntity
  8
AM_9
100
AcDbLine
 10
-0.4921874999999999
 20
1.913390419861982
 30
0.0
 11
-0.5624999999999999
 21
1.913390419861982
 31
0.0
  0
LINE
  5
1A3
330
184
100
AcDbEntity
  8
AM_9
100
AcDbLine
 10
-0.5624999999999999
 20
1.904784927150547
 30
0.0
 11
-0.4921874999999999
 21
1.904784927150547
 31
0.0
  0
LINE
  5
1A4
330
184
100
AcDbEntity
  8
AM_9
100
AcDbLine
 10
-0.4921874999999999
 20
2.361175830886103
 30
0.0
 11
-0.4921874999999999
 21
2.141262465378619
 31
0.0
  0
LINE
  5
1A5
330
184
100
AcDbEntity
  8
AM_9
100
AcDbLine
 10
-0.4921874999999999
 20
-2.141262465378619
 30
0.0
 11
-0.4921874999999999
 21
-2.361175830886102
 31
0.0
  0
LINE
  5
1A6
330
184
100
AcDbEntity
  8
AM_9
100
AcDbLine
 10
-1.03125
 20
-1.75
 30
0.0
 11
1.875
 21
-1.75
 31
0.0
  0
LINE
  5
1A7
330
184
100
AcDbEntity
  8
AM_9
100
AcDbLine
 10
1.875
 20
1.75
 30
0.0
 11
-1.03125
 21
1.75
 31
0.0
  0
LINE
  5
1A8
330
184
100
AcDbEntity
  8
AM_9
100
AcDbLine
 10
-0.5624999999999999
 20
1.681599474438846
 30
0.0
 11
0.0000000000000001
 21
1.681599474438846
 31
0.0
  0
LINE
  5
1A9
330
184
100
AcDbEntity
  8
AM_9
100
AcDbLine
 10
0.0000000000000001
 20
2.119099474438846
 30
0.0
 11
-0.5624999999999999
 21
2.119099474438846
 31
0.0
  0
LINE
  5
1AA
330
184
100
AcDbEntity
  8
AM_9
100
AcDbLine
 10
-0.5624999999999999
 20
-2.119099474438846
 30
0.0
 11
0.0000000000000001
 21
-2.119099474438846
 31
0.0
  0
LINE
  5
1AB
330
184
100
AcDbEntity
  8
AM_9
100
AcDbLine
 10
0.0000000000000001
 20
-1.681599474438846
 30
0.0
 11
-0.5624999999999999
 21
-1.681599474438846
 31
0.0
  0
LINE
  5
1AC
330
184
100
AcDbEntity
  8
AM_9
100
AcDbLine
 10
-0.4921874999999999
 20
2.350682684406754
 30
0.0
 11
-0.5624999999999999
 21
2.350682684406754
 31
0.0
  0
LINE
  5
1AD
330
184
100
AcDbEntity
  8
AM_9
100
AcDbLine
 10
-0.4921874999999999
 20
-2.350682684406755
 30
0.0
 11
-0.5624999999999999
 21
-2.350682684406755
 31
0.0
  0
LINE
  5
1AE
330
184
100
AcDbEntity
  8
AM_7
100
AcDbLine
 10
3.196875
 20
0.0
 30
0.0
 11
-2.837500002384186
 21
0.0
 31
0.0
  0
LINE
  5
1AF
330
184
100
AcDbEntity
  8
AM_7
100
AcDbLine
 10
0.0309375014062501
 20
-1.900349474438846
 30
0.0
 11
-0.6496875295312499
 21
-1.900349474438846
 31
0.0
  0
LINE
  5
1B0
330
184
100
AcDbEntity
  8
AM_7
100
AcDbLine
 10
0.0309375014062499
 20
1.900349474438846
 30
0.0
 11
-0.6496875295312502
 21
1.900349474438846
 31
0.0
  0
LINE
  5
1B1
330
184
100
AcDbEntity
  8
AM_4
100
AcDbLine
 10
-1.000152958317965
 20
2.10375
 30
0.0
 11
-1.03125
 21
2.10375
 31
0.0
  0
LINE
  5
1B2
330
184
100
AcDbEntity
  8
AM_4
100
AcDbLine
 10
-0.4921875000000001
 20
2.728547534374812
 30
0.0
 11
-1.031249999973426
 21
2.065500637499999
 31
0.0
  0
LINE
  5
1B3
330
184
100
AcDbEntity
  8
AM_4
100
AcDbLine
 10
-0.4921874999999999
 20
-0.7947346162701305
 30
0.0
 11
-0.5624999999999999
 21
-0.7947346162701305
 31
0.0
  0
LINE
  5
1B4
330
184
100
AcDbEntity
  8
AM_4
100
AcDbLine
 10
-0.4921874999999999
 20
0.7947346092827863
 30
0.0
 11
-0.5624999999999999
 21
0.7947346092827863
 31
0.0
  0
LINE
  5
1B5
330
184
100
AcDbEntity
  8
AM_4
100
AcDbLine
 10
1.875
 20
2.025807915287447
 30
0.0
 11
1.875
 21
-2.025807915287447
 31
0.0
  0
ARC
  5
1B6
330
184
100
AcDbEntity
  8
AM_4
100
AcDbCircle
 10
1.818749999999999
 20
-2.025807915287446
 30
0.0
 40
0.0562500000000015
100
AcDbArc
 50
275.0000000000007
 51
0.0
  0
ARC
  5
1B7
330
184
100
AcDbEntity
  8
AM_4
100
AcDbCircle
 10
1.818749999999999
 20
2.025807915287446
 30
0.0
 40
0.056250000000001
100
AcDbArc
 50
0.0
 51
84.99999999999929
  0
LINE
  5
1B8
330
184
100
AcDbEntity
  8
AM_4
100
AcDbLine
 10
-0.5625
 20
2.043468635066367
 30
0.0
 11
-1.03125
 21
2.043468635066367
 31
0.0
  0
LINE
  5
1B9
330
184
100
AcDbEntity
  8
AM_4
100
AcDbLine
 10
-1.03125
 20
-2.10375
 30
0.0
 11
-0.5625
 21
-2.10375
 31
0.0
  0
LINE
  5
1BA
330
184
100
AcDbEntity
  8
AM_4
100
AcDbLine
 10
-1.03125
 20
-2.10375
 30
0.0
 11
-1.03125
 21
2.10375
 31
0.0
  0
LINE
  5
1BB
330
184
100
AcDbEntity
  8
AM_4
100
AcDbLine
 10
1.823652510529556
 20
2.081843867055108
 30
0.0
 11
1.1875
 21
2.1375
 31
0.0
  0
LINE
  5
1BC
330
184
100
AcDbEntity
  8
AM_4
100
AcDbLine
 10
1.1875
 20
-2.1375
 30
0.0
 11
1.823652510529556
 21
-2.081843867055108
 31
0.0
  0
LINE
  5
1BD
330
184
100
AcDbEntity
  8
AM_4
100
AcDbLine
 10
1.823652510529556
 20
2.081843867055108
 30
0.0
 11
1.823652510529556
 21
-2.081843867055108
 31
0.0
  0
LINE
  5
1BE
330
184
100
AcDbEntity
  8
AM_4
100
AcDbLine
 10
-0.5624999999999999
 20
-2.420349474438847
 30
0.0
 11
-0.5624999999999999
 21
2.420349474438847
 31
0.0
  0
LINE
  5
1BF
330
184
100
AcDbEntity
  8
AM_4
100
AcDbLine
 10
-0.4921874999999999
 20
2.420349474438847
 30
0.0
 11
-0.5624999999999999
 21
2.420349474438847
 31
0.0
  0
LINE
  5
1C0
330
184
100
AcDbEntity
  8
AM_4
100
AcDbLine
 10
-0.5624999999999999
 20
-2.420349474438847
 30
0.0
 11
-0.4921874999999999
 21
-2.420349474438847
 31
0.0
  0
LINE
  5
1C1
330
184
100
AcDbEntity
  8
AM_4
100
AcDbLine
 10
0.0
 20
-2.25
 30
0.0
 11
1.1875
 21
-2.25
 31
0.0
  0
LINE
  5
1C2
330
184
100
AcDbEntity
  8
AM_4
100
AcDbLine
 10
1.1875
 20
2.25
 30
0.0
 11
0.0
 21
2.25
 31
0.0
  0
LINE
  5
1C3
330
184
100
AcDbEntity
  8
AM_4
100
AcDbLine
 10
1.1875
 20
2.25
 30
0.0
 11
1.1875
 21
-2.25
 31
0.0
  0
LINE
  5
1C4
330
184
100
AcDbEntity
  8
AM_4
100
AcDbLine
 10
-0.4921874999999999
 20
0.8941376197415795
 30
0.0
 11
-0.5624999999999999
 21
0.8941376197415795
 31
0.0
  0
LINE
  5
1C5
330
184
100
AcDbEntity
  8
AM_4
100
AcDbLine
 10
-0.4921874999999999
 20
-0.8941376197415799
 30
0.0
 11
-0.5624999999999999
 21
-0.8941376197415799
 31
0.0
  0
LINE
  5
1C6
330
184
100
AcDbEntity
  8
AM_4
100
AcDbLine
 10
-0.4921874999999999
 20
-1.640349474438847
 30
0.0
 11
-0.5624999999999999
 21
-1.640349474438847
 31
0.0
  0
LINE
  5
1C7
330
184
100
AcDbEntity
  8
AM_4
100
AcDbLine
 10
-0.4921874999999999
 20
1.640349474438846
 30
0.0
 11
-0.5624999999999999
 21
1.640349474438846
 31
0.0
  0
LINE
  5
1C8
330
184
100
AcDbEntity
  8
AM_4
100
AcDbLine
 10
0.0
 20
3.046875
 30
0.0
 11
-0.140625
 21
3.1875
 31
0.0
  0
LINE
  5
1C9
330
184
100
AcDbEntity
  8
AM_4
100
AcDbLine
 10
-0.140625
 20
-3.1875
 30
0.0
 11
0.0
 21
-3.046875
 31
0.0
  0
LINE
  5
1CA
330
184
100
AcDbEntity
  8
AM_4
100
AcDbLine
 10
0.0
 20
3.046875
 30
0.0
 11
0.0
 21
-3.046875
 31
0.0
  0
LINE
  5
1CB
330
184
100
AcDbEntity
  8
AM_4
100
AcDbLine
 10
-0.4921874999999999
 20
2.361175830886103
 30
0.0
 11
-0.4921875000000001
 21
3.1875
 31
0.0
  0
LINE
  5
1CC
330
184
100
AcDbEntity
  8
AM_4
100
AcDbLine
 10
-0.5624999999999999
 20
2.361175830886103
 30
0.0
 11
-0.4921874999999999
 21
2.361175830886103
 31
0.0
  0
LINE
  5
1CD
330
184
100
AcDbEntity
  8
AM_4
100
AcDbLine
 10
-0.4921874999999999
 20
2.141262465378619
 30
0.0
 11
-0.5624999999999999
 21
2.141262465378619
 31
0.0
  0
LINE
  5
1CE
330
184
100
AcDbEntity
  8
AM_4
100
AcDbLine
 10
-0.4921874999999999
 20
-2.14126246537862
 30
0.0
 11
-0.4921874999999999
 21
2.141262465378619
 31
0.0
  0
LINE
  5
1CF
330
184
100
AcDbEntity
  8
AM_4
100
AcDbLine
 10
-0.5624999999999999
 20
-2.14126246537862
 30
0.0
 11
-0.4921874999999999
 21
-2.14126246537862
 31
0.0
  0
LINE
  5
1D0
330
184
100
AcDbEntity
  8
AM_4
100
AcDbLine
 10
-0.4921874999999999
 20
-2.361175830886102
 30
0.0
 11
-0.5624999999999999
 21
-2.361175830886102
 31
0.0
  0
LINE
  5
1D1
330
184
100
AcDbEntity
  8
AM_4
100
AcDbLine
 10
-0.4921875000000001
 20
-3.1875
 30
0.0
 11
-0.140625
 21
-3.1875
 31
0.0
  0
LINE
  5
1D2
330
184
100
AcDbEntity
  8
AM_4
100
AcDbLine
 10
-0.140625
 20
3.1875
 30
0.0
 11
-0.4921875000000001
 21
3.1875
 31
0.0
  0
LINE
  5
1D3
330
184
100
AcDbEntity
  8
AM_4
100
AcDbLine
 10
-0.140625
 20
3.1875
 30
0.0
 11
-0.140625
 21
-3.1875
 31
0.0
  0
LINE
  5
1D4
330
184
100
AcDbEntity
  8
AM_4
100
AcDbLine
 10
-0.4921875000000001
 20
-3.1875
 30
0.0
 11
-0.4921874999999999
 21
-2.361175830886102
 31
0.0
  0
ENDBLK
  5
187
330
184
100
AcDbEntity
  8
0
100
AcDbBlockEnd
  0
ENDSEC
  0
SECTION
  2
ENTITIES
  0
INSERT
  5
6F
330
1F
100
AcDbEntity
  8
0
100
AcDbBlockReference
  2
1_023130_2
 10
0.0
 20
0.0
 30
0.0
  0
POINT
  5
1D6
330
1F
100
AcDbEntity
  8
ConnectionPoints
100
AcDbPoint
 10
-0.7617187499867129
 20
2.397024085937406
 30
0.0
  0
POINT
  5
1D7
330
1F
100
AcDbEntity
  8
ConnectionPoints
100
AcDbPoint
 10
-1.5625
 20
0.0
 30
0.0000000000000001
  0
POINT
  5
1D8
330
1F
100
AcDbEntity
  8
ConnectionPoints
100
AcDbPoint
 10
-1.5625
 20
0.0
 30
0.0000000000000001
  0
POINT
  5
1D9
330
1F
100
AcDbEntity
  8
ConnectionPoints
100
AcDbPoint
 10
1.9375
 20
0.0
 30
-0.0000000000000001
  0
POINT
  5
1DA
330
1F
100
AcDbEntity
  8
ConnectionPoints
100
AcDbPoint
 10
0.1875
 20
0.0
 30
0.0
  0
POINT
  5
1DB
330
1F
100
AcDbEntity
  8
ConnectionPoints
100
AcDbPoint
 10
1.828125
 20
0.0
 30
-0.0000000000000001
  0
POINT
  5
1DC
330
1F
100
AcDbEntity
  8
ConnectionPoints
100
AcDbPoint
 10
-0.7617187499867129
 20
2.397024085937406
 30
0.0
  0
POINT
  5
1DD
330
1F
100
AcDbEntity
  8
ConnectionPoints
100
AcDbPoint
 10
0.1875
 20
0.0
 30
0.0
  0
ENDSEC
  0
SECTION
  2
OBJECTS
  0
DICTIONARY
  5
C
330
0
100
AcDbDictionary
281
     1
  3
ACAD_DETAILVIEWSTYLE
350
1E5
  3
ACAD_GROUP
350
D
  3
ACAD_LAYOUT
350
1A
  3
ACAD_MATERIAL
350
43
  3
ACAD_MLEADERSTYLE
350
6B
  3
ACAD_MLINESTYLE
350
17
  3
ACAD_PLOTSETTINGS
350
19
  3
ACAD_PLOTSTYLENAME
350
E
  3
ACAD_SCALELIST
350
47
  3
ACAD_SECTIONVIEWSTYLE
350
1E6
  3
ACAD_TABLESTYLE
350
69
  3
ACAD_VISUALSTYLE
350
2A
  3
ACDB_RECOMPOSE_DATA
350
1E2
  3
AcDbVariableDictionary
350
1DE
  0
SUN
  5
6D
330
29
100
AcDbSun
 90
        1
290
     0
 63
     7
421
 16777215
 40
1.0
291
     1
 91
  2455826
 92
 54000000
292
     0
 70
     2
 71
   256
280
     1
  0
DICTIONARY
  5
1E5
102
{ACAD_REACTORS
330
C
102
}
330
C
100
AcDbDictionary
281
     1
  0
DICTIONARY
  5
D
102
{ACAD_REACTORS
330
C
102
}
330
C
100
AcDbDictionary
281
     1
  0
DICTIONARY
  5
1A
102
{ACAD_REACTORS
330
C
102
}
330
C
100
AcDbDictionary
281
     1
  3
Layout1
350
1E
  3
Layout2
350
26
  3
Model
350
22
  0
DICTIONARY
  5
43
102
{ACAD_REACTORS
330
C
102
}
330
C
100
AcDbDictionary
281
     1
  3
ByBlock
350
45
  3
ByLayer
350
44
  3
Global
350
46
  0
DICTIONARY
  5
6B
102
{ACAD_REACTORS
330
C
102
}
330
C
100
AcDbDictionary
281
     1
  3
Standard
350
6C
  0
DICTIONARY
  5
17
102
{ACAD_REACTORS
330
C
102
}
330
C
100
AcDbDictionary
281
     1
  3
Standard
350
18
  0
DICTIONARY
  5
19
102
{ACAD_REACTORS
330
C
102
}
330
C
100
AcDbDictionary
281
     1
  0
ACDBDICTIONARYWDFLT
  5
E
102
{ACAD_REACTORS
330
C
102
}
330
C
100
AcDbDictionary
281
     1
  3
Normal
350
F
100
AcDbDictionaryWithDefault
340
F
  0
DICTIONARY
  5
47
102
{ACAD_REACTORS
330
C
102
}
330
C
100
AcDbDictionary
281
     1
  3
A0
350
48
  3
A1
350
49
  3
A2
350
4A
  3
A3
350
4B
  3
A4
350
4C
  3
A5
350
4D
  3
A6
350
4E
  3
A7
350
4F
  3
A8
350
50
  3
A9
350
51
  3
B0
350
52
  3
B1
350
53
  3
B2
350
54
  3
B3
350
55
  3
B4
350
56
  3
B5
350
57
  3
B6
350
58
  3
B7
350
59
  3
B8
350
5A
  3
B9
350
5B
  3
C0
350
5C
  3
C1
350
5D
  3
C2
350
5E
  3
C3
350
5F
  3
C4
350
60
  3
C5
350
61
  3
C6
350
62
  3
C7
350
63
  3
C8
350
64
  3
C9
350
65
  3
D0
350
66
  3
D1
350
67
  3
D2
350
68
  0
DICTIONARY
  5
1E6
102
{ACAD_REACTORS
330
C
102
}
330
C
100
AcDbDictionary
281
     1
  0
DICTIONARY
  5
69
102
{ACAD_REACTORS
330
C
102
}
330
C
100
AcDbDictionary
281
     1
  3
Standard
350
6A
  0
DICTIONARY
  5
2A
102
{ACAD_REACTORS
330
C
102
}
330
C
100
AcDbDictionary
281
     1
  3
2dWireframe
350
2F
  3
Basic
350
32
  3
Brighten
350
36
  3
ColorChange
350
3A
  3
Conceptual
350
34
  3
Dim
350
35
  3
EdgeColorOff
350
3D
  3
Facepattern
350
39
  3
Flat
350
2B
  3
FlatWithEdges
350
2C
  3
Gouraud
350
2D
  3
GouraudWithEdges
350
2E
  3
Hidden
350
31
  3
JitterOff
350
3B
  3
Linepattern
350
38
  3
OverhangOff
350
3C
  3
Realistic
350
33
  3
Shaded
350
42
  3
Shaded with edges
350
41
  3
Shades of Gray
350
3E
  3
Sketchy
350
3F
  3
Thicken
350
37
  3
Wireframe
350
30
  3
X-Ray
350
40
  0
XRECORD
  5
1E2
102
{ACAD_REACTORS
330
C
102
}
330
C
100
AcDbXrecord
280
     1
 90
        1
330
6A
  0
DICTIONARY
  5
1DE
102
{ACAD_REACTORS
330
C
102
}
330
C
100
AcDbDictionary
281
     1
  3
CANNOSCALE
350
1DF
  3
CMLEADERSTYLE
350
1E4
  3
CTABLESTYLE
350
1E3
  0
LAYOUT
  5
1E
102
{ACAD_REACTORS
330
1A
102
}
330
1A
100
AcDbPlotSettings
  1

  2
none_device
  4

  6

 40
0.0
 41
0.0
 42
0.0
 43
0.0
 44
0.0
 45
0.0
 46
0.0
 47
0.0
 48
0.0
 49
0.0
140
0.0
141
0.0
142
1.0
143
1.0
 70
   688
 72
     0
 73
     0
 74
     5
  7

 75
    16
 76
     0
 77
     2
 78
   300
147
1.0
148
0.0
149
0.0
100
AcDbLayout
  1
Layout1
 70
     1
 71
     1
 10
0.0
 20
0.0
 11
12.0
 21
9.0
 12
0.0
 22
0.0
 32
0.0
 14
1.000000000000000E+20
 24
1.000000000000000E+20
 34
1.000000000000000E+20
 15
-1.000000000000000E+20
 25
-1.000000000000000E+20
 35
-1.000000000000000E+20
146
0.0
 13
0.0
 23
0.0
 33
0.0
 16
1.0
 26
0.0
 36
0.0
 17
0.0
 27
1.0
 37
0.0
 76
     0
330
1B
  0
LAYOUT
  5
26
102
{ACAD_REACTORS
330
1A
102
}
330
1A
100
AcDbPlotSettings
  1

  2
none_device
  4

  6

 40
0.0
 41
0.0
 42
0.0
 43
0.0
 44
0.0
 45
0.0
 46
0.0
 47
0.0
 48
0.0
 49
0.0
140
0.0
141
0.0
142
1.0
143
1.0
 70
   688
 72
     0
 73
     0
 74
     5
  7

 75
    16
 76
     0
 77
     2
 78
   300
147
1.0
148
0.0
149
0.0
100
AcDbLayout
  1
Layout2
 70
     1
 71
     2
 10
0.0
 20
0.0
 11
0.0
 21
0.0
 12
0.0
 22
0.0
 32
0.0
 14
0.0
 24
0.0
 34
0.0
 15
0.0
 25
0.0
 35
0.0
146
0.0
 13
0.0
 23
0.0
 33
0.0
 16
1.0
 26
0.0
 36
0.0
 17
0.0
 27
1.0
 37
0.0
 76
     0
330
23
  0
LAYOUT
  5
22
102
{ACAD_REACTORS
330
1A
102
}
330
1A
100
AcDbPlotSettings
  1

  2
none_device
  4
Letter_(8.50_x_11.00_Inches)
  6

 40
6.35
 41
6.35
 42
6.35000508
 43
6.35000508
 44
215.9
 45
279.4
 46
0.0
 47
0.0
 48
0.0
 49
0.0
140
0.0
141
0.0
142
1.0
143
1.0
 70
  1712
 72
     0
 73
     0
 74
     0
  7

 75
     0
 76
     0
 77
     2
 78
   300
147
1.0
148
0.0
149
0.0
100
AcDbLayout
  1
Model
 70
     1
 71
     0
 10
0.0
 20
0.0
 11
12.0
 21
9.0
 12
0.0
 22
0.0
 32
0.0
 14
1.000000000000000E+20
 24
1.000000000000000E+20
 34
1.000000000000000E+20
 15
-1.000000000000000E+20
 25
-1.000000000000000E+20
 35
-1.000000000000000E+20
146
0.0
 13
0.0
 23
0.0
 33
0.0
 16
1.0
 26
0.0
 36
0.0
 17
0.0
 27
1.0
 37
0.0
 76
     0
330
1F
331
29
  0
MATERIAL
  5
45
102
{ACAD_REACTORS
330
43
102
}
330
43
100
AcDbMaterial
  1
ByBlock
 72
     1
 94
      127
  0
MATERIAL
  5
44
102
{ACAD_REACTORS
330
43
102
}
330
43
100
AcDbMaterial
  1
ByLayer
 72
     1
 94
      127
  0
MATERIAL
  5
46
102
{ACAD_REACTORS
330
43
102
}
330
43
100
AcDbMaterial
  1
Global
 72
     1
 94
      127
  0
MLEADERSTYLE
  5
6C
102
{ACAD_REACTORS
330
6B
102
}
330
6B
100
AcDbMLeaderStyle
179
     2
170
     2
171
     1
172
     0
 90
        2
 40
0.0
 41
0.0
173
     1
 91
-1056964608
340
14
 92
       -2
290
     1
 42
0.09
291
     1
 43
0.36
  3
Standard
341
0
 44
0.18
300

342
11
174
     1
178
     6
175
     1
176
     0
 93
-1056964608
 45
0.18
292
     0
297
     0
 46
0.18
343
0
 94
-1056964608
 47
1.0
 49
1.0
140
1.0
293
     1
141
0.0
294
     1
177
     0
142
1.0
295
     0
296
     0
143
0.125
271
     0
272
     9
273
     9
298
     0
  0
MLINESTYLE
  5
18
102
{ACAD_REACTORS
330
17
102
}
330
17
100
AcDbMlineStyle
  2
Standard
 70
     0
  3

 62
   256
 51
90.0
 52
90.0
 71
     2
 49
0.5
 62
   256
  6
BYLAYER
 49
-0.5
 62
   256
  6
BYLAYER
  0
ACDBPLACEHOLDER
  5
F
102
{ACAD_REACTORS
330
E
102
}
330
E
  0
SCALE
  5
48
102
{ACAD_REACTORS
330
47
102
}
330
47
100
AcDbScale
 70
     0
300
1:1
140
1.0
141
1.0
290
     1
  0
SCALE
  5
49
102
{ACAD_REACTORS
330
47
102
}
330
47
100
AcDbScale
 70
     0
300
1:2
140
1.0
141
2.0
290
     0
  0
SCALE
  5
4A
102
{ACAD_REACTORS
330
47
102
}
330
47
100
AcDbScale
 70
     0
300
1:4
140
1.0
141
4.0
290
     0
  0
SCALE
  5
4B
102
{ACAD_REACTORS
330
47
102
}
330
47
100
AcDbScale
 70
     0
300
1:5
140
1.0
141
5.0
290
     0
  0
SCALE
  5
4C
102
{ACAD_REACTORS
330
47
102
}
330
47
100
AcDbScale
 70
     0
300
1:8
140
1.0
141
8.0
290
     0
  0
SCALE
  5
4D
102
{ACAD_REACTORS
330
47
102
}
330
47
100
AcDbScale
 70
     0
300
1:10
140
1.0
141
10.0
290
     0
  0
SCALE
  5
4E
102
{ACAD_REACTORS
330
47
102
}
330
47
100
AcDbScale
 70
     0
300
1:16
140
1.0
141
16.0
290
     0
  0
SCALE
  5
4F
102
{ACAD_REACTORS
330
47
102
}
330
47
100
AcDbScale
 70
     0
300
1:20
140
1.0
141
20.0
290
     0
  0
SCALE
  5
50
102
{ACAD_REACTORS
330
47
102
}
330
47
100
AcDbScale
 70
     0
300
1:30
140
1.0
141
30.0
290
     0
  0
SCALE
  5
51
102
{ACAD_REACTORS
330
47
102
}
330
47
100
AcDbScale
 70
     0
300
1:40
140
1.0
141
40.0
290
     0
  0
SCALE
  5
52
102
{ACAD_REACTORS
330
47
102
}
330
47
100
AcDbScale
 70
     0
300
1:50
140
1.0
141
50.0
290
     0
  0
SCALE
  5
53
102
{ACAD_REACTORS
330
47
102
}
330
47
100
AcDbScale
 70
     0
300
1:100
140
1.0
141
100.0
290
     0
  0
SCALE
  5
54
102
{ACAD_REACTORS
330
47
102
}
330
47
100
AcDbScale
 70
     0
300
2:1
140
2.0
141
1.0
290
     0
  0
SCALE
  5
55
102
{ACAD_REACTORS
330
47
102
}
330
47
100
AcDbScale
 70
     0
300
4:1
140
4.0
141
1.0
290
     0
  0
SCALE
  5
56
102
{ACAD_REACTORS
330
47
102
}
330
47
100
AcDbScale
 70
     0
300
8:1
140
8.0
141
1.0
290
     0
  0
SCALE
  5
57
102
{ACAD_REACTORS
330
47
102
}
330
47
100
AcDbScale
 70
     0
300
10:1
140
10.0
141
1.0
290
     0
  0
SCALE
  5
58
102
{ACAD_REACTORS
330
47
102
}
330
47
100
AcDbScale
 70
     0
300
100:1
140
100.0
141
1.0
290
     0
  0
SCALE
  5
59
102
{ACAD_REACTORS
330
47
102
}
330
47
100
AcDbScale
 70
     0
300
1/128" = 1'-0"
140
0.0078125
141
12.0
290
     0
  0
SCALE
  5
5A
102
{ACAD_REACTORS
330
47
102
}
330
47
100
AcDbScale
 70
     0
300
1/64" = 1'-0"
140
0.015625
141
12.0
290
     0
  0
SCALE
  5
5B
102
{ACAD_REACTORS
330
47
102
}
330
47
100
AcDbScale
 70
     0
300
1/32" = 1'-0"
140
0.03125
141
12.0
290
     0
  0
SCALE
  5
5C
102
{ACAD_REACTORS
330
47
102
}
330
47
100
AcDbScale
 70
     0
300
1/16" = 1'-0"
140
0.0625
141
12.0
290
     0
  0
SCALE
  5
5D
102
{ACAD_REACTORS
330
47
102
}
330
47
100
AcDbScale
 70
     0
300
3/32" = 1'-0"
140
0.09375
141
12.0
290
     0
  0
SCALE
  5
5E
102
{ACAD_REACTORS
330
47
102
}
330
47
100
AcDbScale
 70
     0
300
1/8" = 1'-0"
140
0.125
141
12.0
290
     0
  0
SCALE
  5
5F
102
{ACAD_REACTORS
330
47
102
}
330
47
100
AcDbScale
 70
     0
300
3/16" = 1'-0"
140
0.1875
141
12.0
290
     0
  0
SCALE
  5
60
102
{ACAD_REACTORS
330
47
102
}
330
47
100
AcDbScale
 70
     0
300
1/4" = 1'-0"
140
0.25
141
12.0
290
     0
  0
SCALE
  5
61
102
{ACAD_REACTORS
330
47
102
}
330
47
100
AcDbScale
 70
     0
300
3/8" = 1'-0"
140
0.375
141
12.0
290
     0
  0
SCALE
  5
62
102
{ACAD_REACTORS
330
47
102
}
330
47
100
AcDbScale
 70
     0
300
1/2" = 1'-0"
140
0.5
141
12.0
290
     0
  0
SCALE
  5
63
102
{ACAD_REACTORS
330
47
102
}
330
47
100
AcDbScale
 70
     0
300
3/4" = 1'-0"
140
0.75
141
12.0
290
     0
  0
SCALE
  5
64
102
{ACAD_REACTORS
330
47
102
}
330
47
100
AcDbScale
 70
     0
300
1" = 1'-0"
140
1.0
141
12.0
290
     0
  0
SCALE
  5
65
102
{ACAD_REACTORS
330
47
102
}
330
47
100
AcDbScale
 70
     0
300
1-1/2" = 1'-0"
140
1.5
141
12.0
290
     0
  0
SCALE
  5
66
102
{ACAD_REACTORS
330
47
102
}
330
47
100
AcDbScale
 70
     0
300
3" = 1'-0"
140
3.0
141
12.0
290
     0
  0
SCALE
  5
67
102
{ACAD_REACTORS
330
47
102
}
330
47
100
AcDbScale
 70
     0
300
6" = 1'-0"
140
6.0
141
12.0
290
     0
  0
SCALE
  5
68
102
{ACAD_REACTORS
330
47
102
}
330
47
100
AcDbScale
 70
     0
300
1'-0" = 1'-0"
140
12.0
141
12.0
290
     0
  0
TABLESTYLE
  5
6A
102
{ACAD_REACTORS
330
69
102
}
102
{ACAD_XDICTIONARY
360
1E0
102
}
330
69
100
AcDbTableStyle
  3
Standard
 70
     0
 71
     0
 40
0.06
 41
0.06
280
     0
281
     0
  7
Standard
140
0.18
170
     2
 62
     0
 63
   257
283
     0
 90
        4
 91
        0
  1

274
    -2
284
     1
 64
     0
275
    -2
285
     1
 65
     0
276
    -2
286
     1
 66
     0
277
    -2
287
     1
 67
     0
278
    -2
288
     1
 68
     0
279
    -2
289
     1
 69
     0
  7
Standard
140
0.25
170
     5
 62
     0
 63
   257
283
     0
 90
        4
 91
        0
  1

274
    -2
284
     1
 64
     0
275
    -2
285
     1
 65
     0
276
    -2
286
     1
 66
     0
277
    -2
287
     1
 67
     0
278
    -2
288
     1
 68
     0
279
    -2
289
     1
 69
     0
  7
Standard
140
0.18
170
     5
 62
     0
 63
   257
283
     0
 90
        4
 91
        0
  1

274
    -2
284
     1
 64
     0
275
    -2
285
     1
 65
     0
276
    -2
286
     1
 66
     0
277
    -2
287
     1
 67
     0
278
    -2
288
     1
 68
     0
279
    -2
289
     1
 69
     0
  0
VISUALSTYLE
  5
2F
102
{ACAD_REACTORS
330
2A
102
}
330
2A
100
AcDbVisualStyle
  2
2dWireframe
 70
     4
177
     3
291
     0
 70
    58
 90
        0
176
     1
 90
        2
176
     1
 90
        0
176
     1
 90
        0
176
     1
 40
0.6
176
     1
 40
30.0
176
     1
 62
     7
420
 16777215
176
     1
 90
        1
176
     1
 90
        4
176
     1
 62
     7
176
     1
 62
   257
176
     1
 90
        1
176
     1
 90
        1
176
     1
 40
1.0
176
     1
 90
        0
176
     1
 62
   257
176
     1
 40
1.0
176
     1
 90
        1
176
     1
 90
        6
176
     1
 90
        2
176
     1
 62
     7
176
     1
 90
        5
176
     1
 90
        0
176
     1
 90
        0
176
     1
290
     0
176
     1
 90
        1
176
     1
 40
0.0
176
     1
 90
        0
176
     1
290
     1
176
     1
290
     1
176
     1
290
     0
176
     1
290
     0
176
     1
290
     0
176
     1
290
     0
176
     1
290
     0
176
     1
290
     0
176
     1
290
     0
176
     1
 90
       50
176
     1
 40
0.0
176
     1
 40
1.0
176
     1
 90
        0
176
     1
 62
    18
420
        0
176
     1
 90
       50
176
     1
 90
        3
176
     1
 62
     5
420
      255
176
     1
290
     0
176
     1
 90
       50
176
     1
 90
       50
176
     1
 90
       50
176
     1
290
     0
176
     1
 90
       50
176
     1
 62
   256
176
     0
 40
1.0
176
     0
 90
        2
176
     1
  1
strokes_ogs.tif
176
     1
290
     0
176
     1
 40
1.0
176
     1
 40
1.0
176
     1
  0
VISUALSTYLE
  5
32
102
{ACAD_REACTORS
330
2A
102
}
330
2A
100
AcDbVisualStyle
  2
Basic
 70
     7
177
     3
291
     1
 70
    58
 90
        1
176
     1
 90
        0
176
     1
 90
        1
176
     1
 90
        0
176
     1
 40
0.6
176
     1
 40
30.0
176
     1
 62
     7
420
 16777215
176
     1
 90
        0
176
     1
 90
        4
176
     1
 62
     7
176
     1
 62
   257
176
     1
 90
        1
176
     1
 90
        1
176
     1
 40
1.0
176
     1
 90
        8
176
     1
 62
     7
176
     1
 40
1.0
176
     1
 90
        1
176
     1
 90
        6
176
     1
 90
        2
176
     1
 62
     7
176
     1
 90
        5
176
     1
 90
        0
176
     1
 90
        0
176
     1
290
     0
176
     1
 90
        1
176
     1
 40
0.0
176
     1
 90
        0
176
     1
290
     0
176
     1
290
     1
176
     1
290
     1
176
     1
290
     0
176
     1
290
     0
176
     1
290
     0
176
     1
290
     0
176
     1
290
     0
176
     1
290
     0
176
     1
 90
       50
176
     1
 40
0.0
176
     1
 40
1.0
176
     1
 90
        0
176
     1
 62
    18
420
        0
176
     1
 90
       50
176
     1
 90
        3
176
     1
 62
     5
420
      255
176
     1
290
     0
176
     1
 90
       50
176
     1
 90
       50
176
     1
 90
       50
176
     1
290
     0
176
     1
 90
       50
176
     1
 62
   256
176
     0
 40
1.0
176
     0
 90
        2
176
     1
  1
strokes_ogs.tif
176
     1
290
     0
176
     1
 40
1.0
176
     1
 40
1.0
176
     1
  0
VISUALSTYLE
  5
36
102
{ACAD_REACTORS
330
2A
102
}
330
2A
100
AcDbVisualStyle
  2
Brighten
 70
    12
177
     3
291
     1
 70
    58
 90
        2
176
     1
 90
        2
176
     1
 90
        0
176
     1
 90
        0
176
     1
 40
0.6
176
     1
 40
30.0
176
     1
 62
     7
420
 16777215
176
     1
 90
        1
176
     1
 90
        4
176
     1
 62
     7
176
     1
 62
   257
176
     1
 90
        1
176
     1
 90
        1
176
     1
 40
1.0
176
     1
 90
        8
176
     1
 62
     7
176
     1
 40
1.0
176
     1
 90
        1
176
     1
 90
        6
176
     1
 90
        2
176
     1
 62
     7
176
     1
 90
        5
176
     1
 90
        0
176
     1
 90
        0
176
     1
290
     0
176
     1
 90
        1
176
     1
 40
50.0
176
     1
 90
        0
176
     1
290
     0
176
     1
290
     1
176
     1
290
     1
176
     1
290
     0
176
     1
290
     0
176
     1
290
     0
176
     1
290
     0
176
     1
290
     0
176
     1
290
     0
176
     1
 90
       50
176
     1
 40
0.0
176
     1
 40
1.0
176
     1
 90
        0
176
     1
 62
    18
420
        0
176
     1
 90
       50
176
     1
 90
        3
176
     1
 62
     5
420
      255
176
     1
290
     0
176
     1
 90
       50
176
     1
 90
       50
176
     1
 90
       50
176
     1
290
     0
176
     1
 90
       50
176
     1
 62
   256
176
     0
 40
1.0
176
     0
 90
        2
176
     1
  1
strokes_ogs.tif
176
     1
290
     0
176
     1
 40
1.0
176
     1
 40
1.0
176
     1
  0
VISUALSTYLE
  5
3A
102
{ACAD_REACTORS
330
2A
102
}
330
2A
100
AcDbVisualStyle
  2
ColorChange
 70
    16
177
     3
291
     1
 70
    58
 90
        2
176
     1
 90
        2
176
     1
 90
        3
176
     1
 90
        0
176
     1
 40
0.6
176
     1
 40
30.0
176
     1
 62
     8
420
  8421504
176
     1
 90
        1
176
     1
 90
        4
176
     1
 62
     7
176
     1
 62
   257
176
     1
 90
        1
176
     1
 90
        1
176
     1
 40
1.0
176
     1
 90
        8
176
     1
 62
     8
420
  8421504
176
     1
 40
1.0
176
     1
 90
        1
176
     1
 90
        6
176
     1
 90
        2
176
     1
 62
     7
176
     1
 90
        5
176
     1
 90
        0
176
     1
 90
        0
176
     1
290
     0
176
     1
 90
        1
176
     1
 40
0.0
176
     1
 90
        0
176
     1
290
     0
176
     1
290
     1
176
     1
290
     1
176
     1
290
     0
176
     1
290
     0
176
     1
290
     0
176
     1
290
     0
176
     1
290
     0
176
     1
290
     0
176
     1
 90
       50
176
     1
 40
0.0
176
     1
 40
1.0
176
     1
 90
        0
176
     1
 62
    18
420
        0
176
     1
 90
       50
176
     1
 90
        3
176
     1
 62
     5
420
      255
176
     1
290
     0
176
     1
 90
       50
176
     1
 90
       50
176
     1
 90
       50
176
     1
290
     0
176
     1
 90
       50
176
     1
 62
   256
176
     0
 40
1.0
176
     0
 90
        2
176
     1
  1
strokes_ogs.tif
176
     1
290
     0
176
     1
 40
1.0
176
     1
 40
1.0
176
     1
  0
VISUALSTYLE
  5
34
102
{ACAD_REACTORS
330
2A
102
}
330
2A
100
AcDbVisualStyle
  2
Conceptual
 70
     9
177
     3
291
     0
 70
    58
 90
        3
176
     1
 90
        2
176
     1
 90
        0
176
     1
 90
        0
176
     1
 40
0.6
176
     1
 40
30.0
176
     1
 62
     7
420
 16777215
176
     1
 90
        2
176
     1
 90
        2
176
     1
 62
     7
176
     1
 62
   257
176
     1
 90
        1
176
     1
 90
        1
176
     1
 40
179.0
176
     1
 90
        8
176
     1
 62
     7
176
     1
 40
1.0
176
     1
 90
        1
176
     1
 90
        6
176
     1
 90
        2
176
     1
 62
     7
176
     1
 90
        3
176
     1
 90
        0
176
     1
 90
        0
176
     1
290
     0
176
     1
 90
        1
176
     1
 40
0.0
176
     1
 90
        0
176
     1
290
     0
176
     1
290
     1
176
     1
290
     1
176
     1
290
     0
176
     1
290
     0
176
     1
290
     0
176
     1
290
     0
176
     1
290
     0
176
     1
290
     0
176
     1
 90
       50
176
     1
 40
0.0
176
     1
 40
1.0
176
     1
 90
        0
176
     1
 62
    18
420
        0
176
     1
 90
       50
176
     1
 90
        3
176
     1
 62
     5
420
      255
176
     1
290
     0
176
     1
 90
       50
176
     1
 90
       50
176
     1
 90
       50
176
     1
290
     0
176
     1
 90
       50
176
     1
 62
   256
176
     0
 40
1.0
176
     0
 90
        2
176
     1
  1
strokes_ogs.tif
176
     1
290
     0
176
     1
 40
1.0
176
     1
 40
1.0
176
     1
  0
VISUALSTYLE
  5
35
102
{ACAD_REACTORS
330
2A
102
}
330
2A
100
AcDbVisualStyle
  2
Dim
 70
    11
177
     3
291
     1
 70
    58
 90
        2
176
     1
 90
        2
176
     1
 90
        0
176
     1
 90
        0
176
     1
 40
0.6
176
     1
 40
30.0
176
     1
 62
     7
420
 16777215
176
     1
 90
        1
176
     1
 90
        4
176
     1
 62
     7
176
     1
 62
   257
176
     1
 90
        1
176
     1
 90
        1
176
     1
 40
1.0
176
     1
 90
        8
176
     1
 62
     7
176
     1
 40
1.0
176
     1
 90
        1
176
     1
 90
        6
176
     1
 90
        2
176
     1
 62
     7
176
     1
 90
        5
176
     1
 90
        0
176
     1
 90
        0
176
     1
290
     0
176
     1
 90
        1
176
     1
 40
-50.0
176
     1
 90
        0
176
     1
290
     0
176
     1
290
     1
176
     1
290
     1
176
     1
290
     0
176
     1
290
     0
176
     1
290
     0
176
     1
290
     0
176
     1
290
     0
176
     1
290
     0
176
     1
 90
       50
176
     1
 40
0.0
176
     1
 40
1.0
176
     1
 90
        0
176
     1
 62
    18
420
        0
176
     1
 90
       50
176
     1
 90
        3
176
     1
 62
     5
420
      255
176
     1
290
     0
176
     1
 90
       50
176
     1
 90
       50
176
     1
 90
       50
176
     1
290
     0
176
     1
 90
       50
176
     1
 62
   256
176
     0
 40
1.0
176
     0
 90
        2
176
     1
  1
strokes_ogs.tif
176
     1
290
     0
176
     1
 40
1.0
176
     1
 40
1.0
176
     1
  0
VISUALSTYLE
  5
3D
102
{ACAD_REACTORS
330
2A
102
}
330
2A
100
AcDbVisualStyle
  2
EdgeColorOff
 70
    22
177
     3
291
     1
 70
    58
 90
        2
176
     0
 90
        2
176
     0
 90
        0
176
     0
 90
        0
176
     0
 40
0.6
176
     0
 40
30.0
176
     0
 62
     7
420
 16777215
176
     0
 90
        1
176
     0
 90
        4
176
     0
 62
     7
176
     0
 62
   257
176
     0
 90
        1
176
     0
 90
        1
176
     0
 40
1.0
176
     0
 90
        8
176
     2
 62
     7
176
     0
 40
1.0
176
     0
 90
        1
176
     0
 90
        6
176
     0
 90
        2
176
     0
 62
     7
176
     0
 90
        5
176
     0
 90
        0
176
     0
 90
        0
176
     0
290
     0
176
     0
 90
        1
176
     0
 40
0.0
176
     0
 90
        0
176
     0
290
     0
176
     0
290
     1
176
     0
290
     1
176
     0
290
     0
176
     0
290
     0
176
     0
290
     0
176
     0
290
     0
176
     0
290
     0
176
     0
290
     0
176
     0
 90
       50
176
     0
 40
0.0
176
     0
 40
1.0
176
     0
 90
        0
176
     0
 62
    18
420
        0
176
     0
 90
       50
176
     0
 90
        3
176
     0
 62
     5
420
      255
176
     0
290
     0
176
     0
 90
       50
176
     0
 90
       50
176
     0
 90
       50
176
     0
290
     0
176
     0
 90
       50
176
     0
 62
   256
176
     0
 40
1.0
176
     0
 90
        2
176
     0
  1
strokes_ogs.tif
176
     0
290
     0
176
     0
 40
1.0
176
     0
 40
1.0
176
     0
  0
VISUALSTYLE
  5
39
102
{ACAD_REACTORS
330
2A
102
}
330
2A
100
AcDbVisualStyle
  2
Facepattern
 70
    15
177
     3
291
     1
 70
    58
 90
        2
176
     1
 90
        2
176
     1
 90
        0
176
     1
 90
        0
176
     1
 40
0.6
176
     1
 40
30.0
176
     1
 62
     7
420
 16777215
176
     1
 90
        1
176
     1
 90
        4
176
     1
 62
     7
176
     1
 62
   257
176
     1
 90
        1
176
     1
 90
        1
176
     1
 40
1.0
176
     1
 90
        8
176
     1
 62
     7
176
     1
 40
1.0
176
     1
 90
        1
176
     1
 90
        6
176
     1
 90
        2
176
     1
 62
     7
176
     1
 90
        5
176
     1
 90
        0
176
     1
 90
        0
176
     1
290
     0
176
     1
 90
        1
176
     1
 40
0.0
176
     1
 90
        0
176
     1
290
     0
176
     1
290
     1
176
     1
290
     1
176
     1
290
     0
176
     1
290
     0
176
     1
290
     0
176
     1
290
     0
176
     1
290
     0
176
     1
290
     0
176
     1
 90
       50
176
     1
 40
0.0
176
     1
 40
1.0
176
     1
 90
        0
176
     1
 62
    18
420
        0
176
     1
 90
       50
176
     1
 90
        3
176
     1
 62
     5
420
      255
176
     1
290
     0
176
     1
 90
       50
176
     1
 90
       50
176
     1
 90
       50
176
     1
290
     0
176
     1
 90
       50
176
     1
 62
   256
176
     0
 40
1.0
176
     0
 90
        2
176
     1
  1
strokes_ogs.tif
176
     1
290
     0
176
     1
 40
1.0
176
     1
 40
1.0
176
     1
  0
VISUALSTYLE
  5
2B
102
{ACAD_REACTORS
330
2A
102
}
330
2A
100
AcDbVisualStyle
  2
Flat
 70
     0
177
     3
291
     1
 70
    58
 90
        2
176
     1
 90
        1
176
     1
 90
        1
176
     1
 90
        2
176
     1
 40
0.6
176
     1
 40
30.0
176
     1
 62
     7
420
 16777215
176
     1
 90
        0
176
     1
 90
        0
176
     1
 62
     7
176
     1
 62
   257
176
     1
 90
        1
176
     1
 90
        1
176
     1
 40
1.0
176
     1
 90
        8
176
     1
 62
     7
176
     1
 40
1.0
176
     1
 90
        1
176
     1
 90
        6
176
     1
 90
        2
176
     1
 62
     7
176
     1
 90
        5
176
     1
 90
        0
176
     1
 90
        0
176
     1
290
     0
176
     1
 90
       13
176
     1
 40
0.0
176
     1
 90
        0
176
     1
290
     0
176
     1
290
     1
176
     1
290
     1
176
     1
290
     0
176
     1
290
     0
176
     1
290
     0
176
     1
290
     0
176
     1
290
     0
176
     1
290
     0
176
     1
 90
       50
176
     1
 40
0.0
176
     1
 40
1.0
176
     1
 90
        0
176
     1
 62
    18
420
        0
176
     1
 90
       50
176
     1
 90
        3
176
     1
 62
     5
420
      255
176
     1
290
     0
176
     1
 90
       50
176
     1
 90
       50
176
     1
 90
       50
176
     1
290
     0
176
     1
 90
       50
176
     1
 62
   256
176
     0
 40
1.0
176
     0
 90
        2
176
     1
  1
strokes_ogs.tif
176
     1
290
     0
176
     1
 40
1.0
176
     1
 40
1.0
176
     1
  0
VISUALSTYLE
  5
2C
102
{ACAD_REACTORS
330
2A
102
}
330
2A
100
AcDbVisualStyle
  2
FlatWithEdges
 70
     1
177
     3
291
     1
 70
    58
 90
        2
176
     1
 90
        1
176
     1
 90
        1
176
     1
 90
        2
176
     1
 40
0.6
176
     1
 40
30.0
176
     1
 62
     7
420
 16777215
176
     1
 90
        1
176
     1
 90
        0
176
     1
 62
     7
176
     1
 62
   257
176
     1
 90
        1
176
     1
 90
        1
176
     1
 40
1.0
176
     1
 90
        0
176
     1
 62
   257
176
     1
 40
1.0
176
     1
 90
        1
176
     1
 90
        6
176
     1
 90
        2
176
     1
 62
     7
176
     1
 90
        5
176
     1
 90
        0
176
     1
 90
        0
176
     1
290
     0
176
     1
 90
       13
176
     1
 40
0.0
176
     1
 90
        0
176
     1
290
     0
176
     1
290
     1
176
     1
290
     1
176
     1
290
     0
176
     1
290
     0
176
     1
290
     0
176
     1
290
     0
176
     1
290
     0
176
     1
290
     0
176
     1
 90
       50
176
     1
 40
0.0
176
     1
 40
1.0
176
     1
 90
        0
176
     1
 62
    18
420
        0
176
     1
 90
       50
176
     1
 90
        3
176
     1
 62
     5
420
      255
176
     1
290
     0
176
     1
 90
       50
176
     1
 90
       50
176
     1
 90
       50
176
     1
290
     0
176
     1
 90
       50
176
     1
 62
   256
176
     0
 40
1.0
176
     0
 90
        2
176
     1
  1
strokes_ogs.tif
176
     1
290
     0
176
     1
 40
1.0
176
     1
 40
1.0
176
     1
  0
VISUALSTYLE
  5
2D
102
{ACAD_REACTORS
330
2A
102
}
330
2A
100
AcDbVisualStyle
  2
Gouraud
 70
     2
177
     3
291
     1
 70
    58
 90
        2
176
     1
 90
        2
176
     1
 90
        1
176
     1
 90
        2
176
     1
 40
0.6
176
     1
 40
30.0
176
     1
 62
     7
420
 16777215
176
     1
 90
        0
176
     1
 90
        0
176
     1
 62
     7
176
     1
 62
   257
176
     1
 90
        1
176
     1
 90
        1
176
     1
 40
1.0
176
     1
 90
        0
176
     1
 62
     7
176
     1
 40
1.0
176
     1
 90
        1
176
     1
 90
        6
176
     1
 90
        2
176
     1
 62
     7
176
     1
 90
        5
176
     1
 90
        0
176
     1
 90
        0
176
     1
290
     0
176
     1
 90
       13
176
     1
 40
0.0
176
     1
 90
        0
176
     1
290
     0
176
     1
290
     1
176
     1
290
     1
176
     1
290
     0
176
     1
290
     0
176
     1
290
     0
176
     1
290
     0
176
     1
290
     0
176
     1
290
     0
176
     1
 90
       50
176
     1
 40
0.0
176
     1
 40
1.0
176
     1
 90
        0
176
     1
 62
    18
420
        0
176
     1
 90
       50
176
     1
 90
        3
176
     1
 62
     5
420
      255
176
     1
290
     0
176
     1
 90
       50
176
     1
 90
       50
176
     1
 90
       50
176
     1
290
     0
176
     1
 90
       50
176
     1
 62
   256
176
     0
 40
1.0
176
     0
 90
        2
176
     1
  1
strokes_ogs.tif
176
     1
290
     0
176
     1
 40
1.0
176
     1
 40
1.0
176
     1
  0
VISUALSTYLE
  5
2E
102
{ACAD_REACTORS
330
2A
102
}
330
2A
100
AcDbVisualStyle
  2
GouraudWithEdges
 70
     3
177
     3
291
     1
 70
    58
 90
        2
176
     1
 90
        2
176
     1
 90
        1
176
     1
 90
        2
176
     1
 40
0.6
176
     1
 40
30.0
176
     1
 62
     7
420
 16777215
176
     1
 90
        1
176
     1
 90
        0
176
     1
 62
     7
176
     1
 62
   257
176
     1
 90
        1
176
     1
 90
        1
176
     1
 40
1.0
176
     1
 90
        0
176
     1
 62
   257
176
     1
 40
1.0
176
     1
 90
        1
176
     1
 90
        6
176
     1
 90
        2
176
     1
 62
     7
176
     1
 90
        5
176
     1
 90
        0
176
     1
 90
        0
176
     1
290
     0
176
     1
 90
       13
176
     1
 40
0.0
176
     1
 90
        0
176
     1
290
     0
176
     1
290
     1
176
     1
290
     1
176
     1
290
     0
176
     1
290
     0
176
     1
290
     0
176
     1
290
     0
176
     1
290
     0
176
     1
290
     0
176
     1
 90
       50
176
     1
 40
0.0
176
     1
 40
1.0
176
     1
 90
        0
176
     1
 62
    18
420
        0
176
     1
 90
       50
176
     1
 90
        3
176
     1
 62
     5
420
      255
176
     1
290
     0
176
     1
 90
       50
176
     1
 90
       50
176
     1
 90
       50
176
     1
290
     0
176
     1
 90
       50
176
     1
 62
   256
176
     0
 40
1.0
176
     0
 90
        2
176
     1
  1
strokes_ogs.tif
176
     1
290
     0
176
     1
 40
1.0
176
     1
 40
1.0
176
     1
  0
VISUALSTYLE
  5
31
102
{ACAD_REACTORS
330
2A
102
}
330
2A
100
AcDbVisualStyle
  2
Hidden
 70
     6
177
     3
291
     0
 70
    58
 90
        1
176
     1
 90
        2
176
     1
 90
        2
176
     1
 90
        0
176
     1
 40
0.6
176
     1
 40
30.0
176
     1
 62
     7
420
 16777215
176
     1
 90
        2
176
     1
 90
        2
176
     1
 62
     7
176
     1
 62
   257
176
     1
 90
        2
176
     1
 90
        1
176
     1
 40
40.0
176
     1
 90
        0
176
     1
 62
   257
176
     1
 40
1.0
176
     1
 90
        1
176
     1
 90
        6
176
     1
 90
        2
176
     1
 62
     7
176
     1
 90
        3
176
     1
 90
        0
176
     1
 90
        0
176
     1
290
     0
176
     1
 90
        1
176
     1
 40
0.0
176
     1
 90
        0
176
     1
290
     0
176
     1
290
     1
176
     1
290
     1
176
     1
290
     0
176
     1
290
     0
176
     1
290
     0
176
     1
290
     0
176
     1
290
     0
176
     1
290
     0
176
     1
 90
       50
176
     1
 40
0.0
176
     1
 40
1.0
176
     1
 90
        0
176
     1
 62
    18
420
        0
176
     1
 90
       50
176
     1
 90
        3
176
     1
 62
     5
420
      255
176
     1
290
     0
176
     1
 90
       50
176
     1
 90
       50
176
     1
 90
       50
176
     1
290
     0
176
     1
 90
       50
176
     1
 62
   256
176
     0
 40
1.0
176
     0
 90
        2
176
     1
  1
strokes_ogs.tif
176
     1
290
     0
176
     1
 40
1.0
176
     1
 40
1.0
176
     1
  0
VISUALSTYLE
  5
3B
102
{ACAD_REACTORS
330
2A
102
}
330
2A
100
AcDbVisualStyle
  2
JitterOff
 70
    20
177
     3
291
     1
 70
    58
 90
        2
176
     0
 90
        2
176
     0
 90
        0
176
     0
 90
        0
176
     0
 40
0.6
176
     0
 40
30.0
176
     0
 62
     7
420
 16777215
176
     0
 90
        1
176
     0
 90
        4
176
     0
 62
     7
176
     0
 62
   257
176
     0
 90
        1
176
     0
 90
        1
176
     0
 40
1.0
176
     0
 90
       10
176
     2
 62
     7
176
     0
 40
1.0
176
     0
 90
        1
176
     0
 90
        6
176
     0
 90
        2
176
     0
 62
     7
176
     0
 90
        5
176
     0
 90
        0
176
     0
 90
        0
176
     0
290
     0
176
     0
 90
        1
176
     0
 40
0.0
176
     0
 90
        0
176
     0
290
     0
176
     0
290
     1
176
     0
290
     1
176
     0
290
     0
176
     0
290
     0
176
     0
290
     0
176
     0
290
     0
176
     0
290
     0
176
     0
290
     0
176
     0
 90
       50
176
     0
 40
0.0
176
     0
 40
1.0
176
     0
 90
        0
176
     0
 62
    18
420
        0
176
     0
 90
       50
176
     0
 90
        3
176
     0
 62
     5
420
      255
176
     0
290
     0
176
     0
 90
       50
176
     0
 90
       50
176
     0
 90
       50
176
     0
290
     0
176
     0
 90
       50
176
     0
 62
   256
176
     0
 40
1.0
176
     0
 90
        2
176
     0
  1
strokes_ogs.tif
176
     0
290
     0
176
     0
 40
1.0
176
     0
 40
1.0
176
     0
  0
VISUALSTYLE
  5
38
102
{ACAD_REACTORS
330
2A
102
}
330
2A
100
AcDbVisualStyle
  2
Linepattern
 70
    14
177
     3
291
     1
 70
    58
 90
        2
176
     1
 90
        2
176
     1
 90
        0
176
     1
 90
        0
176
     1
 40
0.6
176
     1
 40
30.0
176
     1
 62
     7
420
 16777215
176
     1
 90
        1
176
     1
 90
        4
176
     1
 62
     7
176
     1
 62
   257
176
     1
 90
        7
176
     1
 90
        7
176
     1
 40
1.0
176
     1
 90
        8
176
     1
 62
     7
176
     1
 40
1.0
176
     1
 90
        1
176
     1
 90
        6
176
     1
 90
        2
176
     1
 62
     7
176
     1
 90
        5
176
     1
 90
        0
176
     1
 90
        0
176
     1
290
     0
176
     1
 90
        1
176
     1
 40
0.0
176
     1
 90
        0
176
     1
290
     0
176
     1
290
     1
176
     1
290
     1
176
     1
290
     0
176
     1
290
     0
176
     1
290
     0
176
     1
290
     0
176
     1
290
     0
176
     1
290
     0
176
     1
 90
       50
176
     1
 40
0.0
176
     1
 40
1.0
176
     1
 90
        0
176
     1
 62
    18
420
        0
176
     1
 90
       50
176
     1
 90
        3
176
     1
 62
     5
420
      255
176
     1
290
     0
176
     1
 90
       50
176
     1
 90
       50
176
     1
 90
       50
176
     1
290
     0
176
     1
 90
       50
176
     1
 62
   256
176
     0
 40
1.0
176
     0
 90
        2
176
     1
  1
strokes_ogs.tif
176
     1
290
     0
176
     1
 40
1.0
176
     1
 40
1.0
176
     1
  0
VISUALSTYLE
  5
3C
102
{ACAD_REACTORS
330
2A
102
}
330
2A
100
AcDbVisualStyle
  2
OverhangOff
 70
    21
177
     3
291
     1
 70
    58
 90
        2
176
     0
 90
        2
176
     0
 90
        0
176
     0
 90
        0
176
     0
 40
0.6
176
     0
 40
30.0
176
     0
 62
     7
420
 16777215
176
     0
 90
        1
176
     0
 90
        4
176
     0
 62
     7
176
     0
 62
   257
176
     0
 90
        1
176
     0
 90
        1
176
     0
 40
1.0
176
     0
 90
        9
176
     2
 62
     7
176
     0
 40
1.0
176
     0
 90
        1
176
     0
 90
        6
176
     0
 90
        2
176
     0
 62
     7
176
     0
 90
        5
176
     0
 90
        0
176
     0
 90
        0
176
     0
290
     0
176
     0
 90
        1
176
     0
 40
0.0
176
     0
 90
        0
176
     0
290
     0
176
     0
290
     1
176
     0
290
     1
176
     0
290
     0
176
     0
290
     0
176
     0
290
     0
176
     0
290
     0
176
     0
290
     0
176
     0
290
     0
176
     0
 90
       50
176
     0
 40
0.0
176
     0
 40
1.0
176
     0
 90
        0
176
     0
 62
    18
420
        0
176
     0
 90
       50
176
     0
 90
        3
176
     0
 62
     5
420
      255
176
     0
290
     0
176
     0
 90
       50
176
     0
 90
       50
176
     0
 90
       50
176
     0
290
     0
176
     0
 90
       50
176
     0
 62
   256
176
     0
 40
1.0
176
     0
 90
        2
176
     0
  1
strokes_ogs.tif
176
     0
290
     0
176
     0
 40
1.0
176
     0
 40
1.0
176
     0
  0
VISUALSTYLE
  5
33
102
{ACAD_REACTORS
330
2A
102
}
330
2A
100
AcDbVisualStyle
  2
Realistic
 70
     8
177
     3
291
     0
 70
    58
 90
        2
176
     1
 90
        3
176
     1
 90
        0
176
     1
 90
        2
176
     1
 40
0.6
176
     1
 40
30.0
176
     1
 62
     7
420
 16777215
176
     1
 90
        0
176
     1
 90
        0
176
     1
 62
     7
176
     1
 62
   257
176
     1
 90
        1
176
     1
 90
        1
176
     1
 40
1.0
176
     1
 90
        8
176
     1
 62
   257
176
     1
 40
1.0
176
     1
 90
        1
176
     1
 90
        6
176
     1
 90
        2
176
     1
 62
     7
176
     1
 90
        3
176
     1
 90
        0
176
     1
 90
        0
176
     1
290
     0
176
     1
 90
       13
176
     1
 40
0.0
176
     1
 90
        0
176
     1
290
     0
176
     1
290
     1
176
     1
290
     1
176
     1
290
     0
176
     1
290
     0
176
     1
290
     0
176
     1
290
     0
176
     1
290
     0
176
     1
290
     0
176
     1
 90
       50
176
     1
 40
0.0
176
     1
 40
1.0
176
     1
 90
        0
176
     1
 62
    18
420
        0
176
     1
 90
       50
176
     1
 90
        3
176
     1
 62
     5
420
      255
176
     1
290
     0
176
     1
 90
       50
176
     1
 90
       50
176
     1
 90
       50
176
     1
290
     0
176
     1
 90
       50
176
     1
 62
   256
176
     0
 40
1.0
176
     0
 90
        2
176
     1
  1
strokes_ogs.tif
176
     1
290
     0
176
     1
 40
1.0
176
     1
 40
1.0
176
     1
  0
VISUALSTYLE
  5
42
102
{ACAD_REACTORS
330
2A
102
}
330
2A
100
AcDbVisualStyle
  2
Shaded
 70
    27
177
     3
291
     0
 70
    58
 90
        2
176
     1
 90
        2
176
     1
 90
        1
176
     1
 90
        2
176
     1
 40
0.6
176
     1
 40
30.0
176
     1
 62
     7
420
 16777215
176
     1
 90
        0
176
     1
 90
        4
176
     1
 62
     7
176
     1
 62
   257
176
     1
 90
        1
176
     1
 90
        1
176
     1
 40
1.0
176
     1
 90
        8
176
     1
 62
   257
176
     1
 40
1.0
176
     1
 90
        1
176
     1
 90
        6
176
     1
 90
        2
176
     1
 62
     8
420
  7895160
176
     1
 90
        3
176
     1
 90
        0
176
     1
 90
        0
176
     1
290
     0
176
     1
 90
        5
176
     1
 40
0.0
176
     1
 90
        0
176
     1
290
     0
176
     1
290
     1
176
     1
290
     1
176
     1
290
     0
176
     1
290
     0
176
     1
290
     0
176
     1
290
     0
176
     1
290
     0
176
     1
290
     0
176
     1
 90
       50
176
     1
 40
0.0
176
     1
 40
1.0
176
     1
 90
        0
176
     1
 62
    18
420
        0
176
     1
 90
       50
176
     1
 90
        3
176
     1
 62
     5
420
      255
176
     1
290
     0
176
     1
 90
       50
176
     1
 90
       50
176
     1
 90
       50
176
     1
290
     0
176
     1
 90
       50
176
     1
 62
   256
176
     0
 40
1.0
176
     0
 90
        2
176
     1
  1
strokes_ogs.tif
176
     1
290
     0
176
     1
 40
1.0
176
     1
 40
1.0
176
     1
  0
VISUALSTYLE
  5
41
102
{ACAD_REACTORS
330
2A
102
}
330
2A
100
AcDbVisualStyle
  2
Shaded with edges
 70
    26
177
     3
291
     0
 70
    58
 90
        2
176
     1
 90
        2
176
     1
 90
        1
176
     1
 90
        2
176
     1
 40
0.6
176
     1
 40
30.0
176
     1
 62
     7
420
 16777215
176
     1
 90
        1
176
     1
 90
       10
176
     1
 62
     7
176
     1
 62
   257
176
     1
 90
        2
176
     1
 90
        1
176
     1
 40
1.0
176
     1
 90
        8
176
     1
 62
   257
176
     1
 40
1.0
176
     1
 90
        1
176
     1
 90
        6
176
     1
 90
        2
176
     1
 62
     7
176
     1
 90
        3
176
     1
 90
        0
176
     1
 90
        0
176
     1
290
     0
176
     1
 90
        5
176
     1
 40
0.0
176
     1
 90
        0
176
     1
290
     0
176
     1
290
     1
176
     1
290
     1
176
     1
290
     0
176
     1
290
     0
176
     1
290
     0
176
     1
290
     0
176
     1
290
     0
176
     1
290
     0
176
     1
 90
       50
176
     1
 40
0.0
176
     1
 40
1.0
176
     1
 90
        0
176
     1
 62
    18
420
        0
176
     1
 90
       50
176
     1
 90
        3
176
     1
 62
     5
420
      255
176
     1
290
     0
176
     1
 90
       50
176
     1
 90
       50
176
     1
 90
       50
176
     1
290
     0
176
     1
 90
       50
176
     1
 62
   256
176
     0
 40
1.0
176
     0
 90
        2
176
     1
  1
strokes_ogs.tif
176
     1
290
     0
176
     1
 40
1.0
176
     1
 40
1.0
176
     1
  0
VISUALSTYLE
  5
3E
102
{ACAD_REACTORS
330
2A
102
}
330
2A
100
AcDbVisualStyle
  2
Shades of Gray
 70
    23
177
     3
291
     0
 70
    58
 90
        2
176
     1
 90
        2
176
     1
 90
        3
176
     1
 90
        0
176
     1
 40
0.6
176
     1
 40
30.0
176
     1
 62
     7
420
 16777215
176
     1
 90
        2
176
     1
 90
        2
176
     1
 62
     7
176
     1
 62
     7
176
     1
 90
        1
176
     1
 90
        1
176
     1
 40
40.0
176
     1
 90
        8
176
     1
 62
     7
176
     1
 40
1.0
176
     1
 90
        1
176
     1
 90
        6
176
     1
 90
        2
176
     1
 62
     7
176
     1
 90
        3
176
     1
 90
        0
176
     1
 90
        0
176
     1
290
     0
176
     1
 90
        1
176
     1
 40
0.0
176
     1
 90
        0
176
     1
290
     0
176
     1
290
     1
176
     1
290
     1
176
     1
290
     0
176
     1
290
     0
176
     1
290
     0
176
     1
290
     0
176
     1
290
     0
176
     1
290
     0
176
     1
 90
       50
176
     1
 40
0.0
176
     1
 40
1.0
176
     1
 90
        0
176
     1
 62
    18
420
        0
176
     1
 90
       50
176
     1
 90
        3
176
     1
 62
     5
420
      255
176
     1
290
     0
176
     1
 90
       50
176
     1
 90
       50
176
     1
 90
       50
176
     1
290
     0
176
     1
 90
       50
176
     1
 62
   256
176
     0
 40
1.0
176
     0
 90
        2
176
     1
  1
strokes_ogs.tif
176
     1
290
     0
176
     1
 40
1.0
176
     1
 40
1.0
176
     1
  0
VISUALSTYLE
  5
3F
102
{ACAD_REACTORS
330
2A
102
}
330
2A
100
AcDbVisualStyle
  2
Sketchy
 70
    24
177
     3
291
     0
 70
    58
 90
        1
176
     1
 90
        2
176
     1
 90
        2
176
     1
 90
        0
176
     1
 40
0.6
176
     1
 40
30.0
176
     1
 62
     7
420
 16777215
176
     1
 90
        2
176
     1
 90
        2
176
     1
 62
     7
176
     1
 62
     7
176
     1
 90
        1
176
     1
 90
        1
176
     1
 40
40.0
176
     1
 90
       11
176
     1
 62
     7
176
     1
 40
1.0
176
     1
 90
        1
176
     1
 90
        6
176
     1
 90
        2
176
     1
 62
     7
176
     1
 90
        6
176
     1
 90
        0
176
     1
 90
        0
176
     1
290
     0
176
     1
 90
        1
176
     1
 40
0.0
176
     1
 90
        0
176
     1
290
     0
176
     1
290
     1
176
     1
290
     1
176
     1
290
     0
176
     1
290
     0
176
     1
290
     0
176
     1
290
     0
176
     1
290
     0
176
     1
290
     0
176
     1
 90
       50
176
     1
 40
0.0
176
     1
 40
1.0
176
     1
 90
        0
176
     1
 62
    18
420
        0
176
     1
 90
       50
176
     1
 90
        3
176
     1
 62
     5
420
      255
176
     1
290
     0
176
     1
 90
       50
176
     1
 90
       50
176
     1
 90
       50
176
     1
290
     0
176
     1
 90
       50
176
     1
 62
   256
176
     0
 40
1.0
176
     0
 90
        2
176
     1
  1
strokes_ogs.tif
176
     1
290
     0
176
     1
 40
1.0
176
     1
 40
1.0
176
     1
  0
VISUALSTYLE
  5
37
102
{ACAD_REACTORS
330
2A
102
}
330
2A
100
AcDbVisualStyle
  2
Thicken
 70
    13
177
     3
291
     1
 70
    58
 90
        2
176
     1
 90
        2
176
     1
 90
        0
176
     1
 90
        0
176
     1
 40
0.6
176
     1
 40
30.0
176
     1
 62
     7
420
 16777215
176
     1
 90
        1
176
     1
 90
        4
176
     1
 62
     7
176
     1
 62
   257
176
     1
 90
        1
176
     1
 90
        1
176
     1
 40
1.0
176
     1
 90
       12
176
     1
 62
     7
176
     1
 40
1.0
176
     1
 90
        1
176
     1
 90
        6
176
     1
 90
        2
176
     1
 62
     7
176
     1
 90
        5
176
     1
 90
        0
176
     1
 90
        0
176
     1
290
     0
176
     1
 90
        1
176
     1
 40
0.0
176
     1
 90
        0
176
     1
290
     0
176
     1
290
     1
176
     1
290
     1
176
     1
290
     0
176
     1
290
     0
176
     1
290
     0
176
     1
290
     0
176
     1
290
     0
176
     1
290
     0
176
     1
 90
       50
176
     1
 40
0.0
176
     1
 40
1.0
176
     1
 90
        0
176
     1
 62
    18
420
        0
176
     1
 90
       50
176
     1
 90
        3
176
     1
 62
     5
420
      255
176
     1
290
     0
176
     1
 90
       50
176
     1
 90
       50
176
     1
 90
       50
176
     1
290
     0
176
     1
 90
       50
176
     1
 62
   256
176
     0
 40
1.0
176
     0
 90
        2
176
     1
  1
strokes_ogs.tif
176
     1
290
     0
176
     1
 40
1.0
176
     1
 40
1.0
176
     1
  0
VISUALSTYLE
  5
30
102
{ACAD_REACTORS
330
2A
102
}
330
2A
100
AcDbVisualStyle
  2
Wireframe
 70
     5
177
     3
291
     0
 70
    58
 90
        0
176
     1
 90
        2
176
     1
 90
        0
176
     1
 90
        0
176
     1
 40
0.6
176
     1
 40
30.0
176
     1
 62
     7
420
 16777215
176
     1
 90
        1
176
     1
 90
        4
176
     1
 62
     7
176
     1
 62
   257
176
     1
 90
        1
176
     1
 90
        1
176
     1
 40
1.0
176
     1
 90
        0
176
     1
 62
   257
176
     1
 40
1.0
176
     1
 90
        1
176
     1
 90
        6
176
     1
 90
        2
176
     1
 62
     7
176
     1
 90
        3
176
     1
 90
        0
176
     1
 90
        0
176
     1
290
     0
176
     1
 90
        1
176
     1
 40
0.0
176
     1
 90
        0
176
     1
290
     0
176
     1
290
     1
176
     1
290
     1
176
     1
290
     0
176
     1
290
     0
176
     1
290
     0
176
     1
290
     0
176
     1
290
     0
176
     1
290
     0
176
     1
 90
       50
176
     1
 40
0.0
176
     1
 40
1.0
176
     1
 90
        0
176
     1
 62
    18
420
        0
176
     1
 90
       50
176
     1
 90
        3
176
     1
 62
     5
420
      255
176
     1
290
     0
176
     1
 90
       50
176
     1
 90
       50
176
     1
 90
       50
176
     1
290
     0
176
     1
 90
       50
176
     1
 62
   256
176
     0
 40
1.0
176
     0
 90
        2
176
     1
  1
strokes_ogs.tif
176
     1
290
     0
176
     1
 40
1.0
176
     1
 40
1.0
176
     1
  0
VISUALSTYLE
  5
40
102
{ACAD_REACTORS
330
2A
102
}
330
2A
100
AcDbVisualStyle
  2
X-Ray
 70
    25
177
     3
291
     0
 70
    58
 90
        2
176
     1
 90
        2
176
     1
 90
        1
176
     1
 90
        1
176
     1
 40
0.5
176
     1
 40
30.0
176
     1
 62
     7
420
 16777215
176
     1
 90
        1
176
     1
 90
        0
176
     1
 62
     7
176
     1
 62
   257
176
     1
 90
        1
176
     1
 90
        1
176
     1
 40
1.0
176
     1
 90
        8
176
     1
 62
     7
176
     1
 40
1.0
176
     1
 90
        1
176
     1
 90
        6
176
     1
 90
        2
176
     1
 62
     7
176
     1
 90
        3
176
     1
 90
        0
176
     1
 90
        0
176
     1
290
     0
176
     1
 90
       13
176
     1
 40
0.0
176
     1
 90
        0
176
     1
290
     0
176
     1
290
     1
176
     1
290
     1
176
     1
290
     0
176
     1
290
     0
176
     1
290
     0
176
     1
290
     0
176
     1
290
     0
176
     1
290
     0
176
     1
 90
       50
176
     1
 40
0.0
176
     1
 40
1.0
176
     1
 90
        0
176
     1
 62
    18
420
        0
176
     1
 90
       50
176
     1
 90
        3
176
     1
 62
     5
420
      255
176
     1
290
     0
176
     1
 90
       50
176
     1
 90
       50
176
     1
 90
       50
176
     1
290
     0
176
     1
 90
       50
176
     1
 62
   256
176
     0
 40
1.0
176
     0
 90
        2
176
     1
  1
strokes_ogs.tif
176
     1
290
     0
176
     1
 40
1.0
176
     1
 40
1.0
176
     1
  0
DICTIONARYVAR
  5
1DF
102
{ACAD_REACTORS
330
1DE
102
}
330
1DE
100
DictionaryVariables
280
     0
  1
1:1
  0
DICTIONARYVAR
  5
1E4
102
{ACAD_REACTORS
330
1DE
102
}
330
1DE
100
DictionaryVariables
280
     0
  1
Standard
  0
DICTIONARYVAR
  5
1E3
102
{ACAD_REACTORS
330
1DE
102
}
330
1DE
100
DictionaryVariables
280
     0
  1
Standard
  0
DICTIONARY
  5
1E0
330
6A
100
AcDbDictionary
280
     1
281
     1
  3
ACAD_ROUNDTRIP_2008_TABLESTYLE_CELLSTYLEMAP
360
1E1
  0
CELLSTYLEMAP
  5
1E1
102
{ACAD_REACTORS
330
1E0
102
}
330
1E0
100
AcDbCellStyleMap
 90
        3
300
CELLSTYLE
  1
TABLEFORMAT_BEGIN
 90
        5
170
     1
 91
        0
 92
    32768
 62
   257
 93
        1
300
CONTENTFORMAT
  1
CONTENTFORMAT_BEGIN
 90
        0
 91
        0
 92
        4
 93
        0
300

 40
0.0
140
1.0
 94
        5
 62
     0
340
11
144
0.25
309
CONTENTFORMAT_END
171
     1
301
MARGIN
  1
CELLMARGIN_BEGIN
 40
0.06
 40
0.06
 40
0.06
 40
0.06
 40
0.06
 40
0.06
309
CELLMARGIN_END
 94
        6
 95
        1
302
GRIDFORMAT
  1
GRIDFORMAT_BEGIN
 90
        0
 91
        1
 62
     0
 92
       -2
340
14
 93
        0
 40
0.045
309
GRIDFORMAT_END
 95
        2
302
GRIDFORMAT
  1
GRIDFORMAT_BEGIN
 90
        0
 91
        1
 62
     0
 92
       -2
340
14
 93
        0
 40
0.045
309
GRIDFORMAT_END
 95
        4
302
GRIDFORMAT
  1
GRIDFORMAT_BEGIN
 90
        0
 91
        1
 62
     0
 92
       -2
340
14
 93
        0
 40
0.045
309
GRIDFORMAT_END
 95
        8
302
GRIDFORMAT
  1
GRIDFORMAT_BEGIN
 90
        0
 91
        1
 62
     0
 92
       -2
340
14
 93
        0
 40
0.045
309
GRIDFORMAT_END
 95
       16
302
GRIDFORMAT
  1
GRIDFORMAT_BEGIN
 90
        0
 91
        1
 62
     0
 92
       -2
340
14
 93
        0
 40
0.045
309
GRIDFORMAT_END
 95
       32
302
GRIDFORMAT
  1
GRIDFORMAT_BEGIN
 90
        0
 91
        1
 62
     0
 92
       -2
340
14
 93
        0
 40
0.045
309
GRIDFORMAT_END
309
TABLEFORMAT_END
  1
CELLSTYLE_BEGIN
 90
        1
 91
        1
300
_TITLE
309
CELLSTYLE_END
300
CELLSTYLE
  1
TABLEFORMAT_BEGIN
 90
        5
170
     1
 91
        0
 92
        0
 62
   257
 93
        1
300
CONTENTFORMAT
  1
CONTENTFORMAT_BEGIN
 90
        0
 91
        0
 92
        4
 93
        0
300

 40
0.0
140
1.0
 94
        5
 62
     0
340
11
144
0.18
309
CONTENTFORMAT_END
171
     1
301
MARGIN
  1
CELLMARGIN_BEGIN
 40
0.06
 40
0.06
 40
0.06
 40
0.06
 40
0.06
 40
0.06
309
CELLMARGIN_END
 94
        6
 95
        1
302
GRIDFORMAT
  1
GRIDFORMAT_BEGIN
 90
        0
 91
        1
 62
     0
 92
       -2
340
14
 93
        0
 40
0.045
309
GRIDFORMAT_END
 95
        2
302
GRIDFORMAT
  1
GRIDFORMAT_BEGIN
 90
        0
 91
        1
 62
     0
 92
       -2
340
14
 93
        0
 40
0.045
309
GRIDFORMAT_END
 95
        4
302
GRIDFORMAT
  1
GRIDFORMAT_BEGIN
 90
        0
 91
        1
 62
     0
 92
       -2
340
14
 93
        0
 40
0.045
309
GRIDFORMAT_END
 95
        8
302
GRIDFORMAT
  1
GRIDFORMAT_BEGIN
 90
        0
 91
        1
 62
     0
 92
       -2
340
14
 93
        0
 40
0.045
309
GRIDFORMAT_END
 95
       16
302
GRIDFORMAT
  1
GRIDFORMAT_BEGIN
 90
        0
 91
        1
 62
     0
 92
       -2
340
14
 93
        0
 40
0.045
309
GRIDFORMAT_END
 95
       32
302
GRIDFORMAT
  1
GRIDFORMAT_BEGIN
 90
        0
 91
        1
 62
     0
 92
       -2
340
14
 93
        0
 40
0.045
309
GRIDFORMAT_END
309
TABLEFORMAT_END
  1
CELLSTYLE_BEGIN
 90
        2
 91
        1
300
_HEADER
309
CELLSTYLE_END
300
CELLSTYLE
  1
TABLEFORMAT_BEGIN
 90
        5
170
     1
 91
        0
 92
        0
 62
   257
 93
        1
300
CONTENTFORMAT
  1
CONTENTFORMAT_BEGIN
 90
        0
 91
        0
 92
        4
 93
        0
300

 40
0.0
140
1.0
 94
        2
 62
     0
340
11
144
0.18
309
CONTENTFORMAT_END
171
     1
301
MARGIN
  1
CELLMARGIN_BEGIN
 40
0.06
 40
0.06
 40
0.06
 40
0.06
 40
0.06
 40
0.06
309
CELLMARGIN_END
 94
        6
 95
        1
302
GRIDFORMAT
  1
GRIDFORMAT_BEGIN
 90
        0
 91
        1
 62
     0
 92
       -2
340
14
 93
        0
 40
0.045
309
GRIDFORMAT_END
 95
        2
302
GRIDFORMAT
  1
GRIDFORMAT_BEGIN
 90
        0
 91
        1
 62
     0
 92
       -2
340
14
 93
        0
 40
0.045
309
GRIDFORMAT_END
 95
        4
302
GRIDFORMAT
  1
GRIDFORMAT_BEGIN
 90
        0
 91
        1
 62
     0
 92
       -2
340
14
 93
        0
 40
0.045
309
GRIDFORMAT_END
 95
        8
302
GRIDFORMAT
  1
GRIDFORMAT_BEGIN
 90
        0
 91
        1
 62
     0
 92
       -2
340
14
 93
        0
 40
0.045
309
GRIDFORMAT_END
 95
       16
302
GRIDFORMAT
  1
GRIDFORMAT_BEGIN
 90
        0
 91
        1
 62
     0
 92
       -2
340
14
 93
        0
 40
0.045
309
GRIDFORMAT_END
 95
       32
302
GRIDFORMAT
  1
GRIDFORMAT_BEGIN
 90
        0
 91
        1
 62
     0
 92
       -2
340
14
 93
        0
 40
0.045
309
GRIDFORMAT_END
309
TABLEFORMAT_END
  1
CELLSTYLE_BEGIN
 90
        3
 91
        2
300
_DATA
309
CELLSTYLE_END
  0
ENDSEC
  0
EOF