0
SECTION
  2
HEADER
  9
$ACADVER
  1
AC1027
  9
$ACADMAINTVER
 70
     8
  9
$DWGCODEPAGE
  3
ANSI_1252
  9
$REQUIREDVERSIONS
160
                 0
  9
$COMMENTS
  1
File was created by Cadenas
  9
$CUSTOMPROPERTYTAG
  1
NN
  9
$CUSTOMPROPERTY
  1
Flange Cartridge Expansion Inch Bore
  9
$CUSTOMPROPERTYTAG
  1
NT
  9
$CUSTOMPROPERTY
  1
Type E Piloted Flange Bearing -Inch
  9
$CUSTOMPROPERTYTAG
  1
NB
  9
$CUSTOMPROPERTY
  1
023125
  9
$CUSTOMPROPERTYTAG
  1
NBSYN
  9
$CUSTOMPROPERTY
  1
$PN.
  9
$CUSTOMPROPERTYTAG
  1
LINA
  9
$CUSTOMPROPERTY
  1
023125
  9
$CUSTOMPROPERTYTAG
  1
SS
  9
$CUSTOMPROPERTY
  1
1-5/8
  9
$CUSTOMPROPERTYTAG
  1
PN
  9
$CUSTOMPROPERTY
  1
023125
  9
$CUSTOMPROPERTYTAG
  1
DESCRIPTION
  9
$CUSTOMPROPERTY
  1
FC-E-110R
  9
$CUSTOMPROPERTYTAG
  1
A
  9
$CUSTOMPROPERTY
  1
3-3/8
  9
$CUSTOMPROPERTYTAG
  1
B
  9
$CUSTOMPROPERTY
  1
6-1/8
  9
$CUSTOMPROPERTYTAG
  1
C
  9
$CUSTOMPROPERTY
  1
2-25/32
  9
$CUSTOMPROPERTYTAG
  1
D
  9
$CUSTOMPROPERTY
  1
5-1/8
  9
$CUSTOMPROPERTYTAG
  1
E
  9
$CUSTOMPROPERTY
  1
1-1/16
  9
$CUSTOMPROPERTYTAG
  1
F
  9
$CUSTOMPROPERTY
  1
7/16
  9
$CUSTOMPROPERTYTAG
  1
G
  9
$CUSTOMPROPERTY
  1
1-9/16
  9
$CUSTOMPROPERTYTAG
  1
H
  9
$CUSTOMPROPERTY
  1
1/2
  9
$CUSTOMPROPERTYTAG
  1
K
  9
$CUSTOMPROPERTY
  1
4-1/4
  9
$CUSTOMPROPERTYTAG
  1
L
  9
$CUSTOMPROPERTY
  1
3-3/16
  9
$CUSTOMPROPERTYTAG
  1
M
  9
$CUSTOMPROPERTY
  1
1-1/32
  9
$CUSTOMPROPERTYTAG
  1
COMPANY
  9
$CUSTOMPROPERTY
  1
baldor
  9
$INSBASE
 10
0.0
 20
0.0
 30
0.0
  9
$EXTMIN
 10
1.000000000000000E+20
 20
1.000000000000000E+20
 30
1.000000000000000E+20
  9
$EXTMAX
 10
-1.000000000000000E+20
 20
-1.000000000000000E+20
 30
-1.000000000000000E+20
  9
$LIMMIN
 10
0.0
 20
0.0
  9
$LIMMAX
 10
12.0
 20
9.0
  9
$ORTHOMODE
 70
     0
  9
$REGENMODE
 70
     1
  9
$FILLMODE
 70
     1
  9
$QTEXTMODE
 70
     0
  9
$MIRRTEXT
 70
     1
  9
$LTSCALE
 40
1.0
  9
$ATTMODE
 70
     1
  9
$TEXTSIZE
 40
0.2
  9
$TRACEWID
 40
0.05
  9
$TEXTSTYLE
  7
Standard
  9
$CLAYER
  8
0
  9
$CELTYPE
  6
ByLayer
  9
$CECOLOR
 62
   256
  9
$CELTSCALE
 40
1.0
  9
$DISPSILH
 70
     0
  9
$DIMSCALE
 40
1.0
  9
$DIMASZ
 40
0.18
  9
$DIMEXO
 40
0.0625
  9
$DIMDLI
 40
0.38
  9
$DIMRND
 40
0.0
  9
$DIMDLE
 40
0.0
  9
$DIMEXE
 40
0.18
  9
$DIMTP
 40
0.0
  9
$DIMTM
 40
0.0
  9
$DIMTXT
 40
0.18
  9
$DIMCEN
 40
0.09
  9
$DIMTSZ
 40
0.0
  9
$DIMTOL
 70
     0
  9
$DIMLIM
 70
     0
  9
$DIMTIH
 70
     1
  9
$DIMTOH
 70
     1
  9
$DIMSE1
 70
     0
  9
$DIMSE2
 70
     0
  9
$DIMTAD
 70
     0
  9
$DIMZIN
 70
     0
  9
$DIMBLK
  1

  9
$DIMASO
 70
     1
  9
$DIMSHO
 70
     1
  9
$DIMPOST
  1

  9
$DIMAPOST
  1

  9
$DIMALT
 70
     0
  9
$DIMALTD
 70
     2
  9
$DIMALTF
 40
25.4
  9
$DIMLFAC
 40
1.0
  9
$DIMTOFL
 70
     0
  9
$DIMTVP
 40
0.0
  9
$DIMTIX
 70
     0
  9
$DIMSOXD
 70
     0
  9
$DIMSAH
 70
     0
  9
$DIMBLK1
  1

  9
$DIMBLK2
  1

  9
$DIMSTYLE
  2
Standard
  9
$DIMCLRD
 70
     0
  9
$DIMCLRE
 70
     0
  9
$DIMCLRT
 70
     0
  9
$DIMTFAC
 40
1.0
  9
$DIMGAP
 40
0.09
  9
$DIMJUST
 70
     0
  9
$DIMSD1
 70
     0
  9
$DIMSD2
 70
     0
  9
$DIMTOLJ
 70
     1
  9
$DIMTZIN
 70
     0
  9
$DIMALTZ
 70
     0
  9
$DIMALTTZ
 70
     0
  9
$DIMUPT
 70
     0
  9
$DIMDEC
 70
     4
  9
$DIMTDEC
 70
     4
  9
$DIMALTU
 70
     2
  9
$DIMALTTD
 70
     2
  9
$DIMTXSTY
  7
Standard
  9
$DIMAUNIT
 70
     0
  9
$DIMADEC
 70
     0
  9
$DIMALTRND
 40
0.0
  9
$DIMAZIN
 70
     0
  9
$DIMDSEP
 70
    46
  9
$DIMATFIT
 70
     3
  9
$DIMFRAC
 70
     0
  9
$DIMLDRBLK
  1

  9
$DIMLUNIT
 70
     2
  9
$DIMLWD
 70
    -2
  9
$DIMLWE
 70
    -2
  9
$DIMTMOVE
 70
     0
  9
$DIMFXL
 40
1.0
  9
$DIMFXLON
 70
     0
  9
$DIMJOGANG
 40
0.7853981633974483
  9
$DIMTFILL
 70
     0
  9
$DIMTFILLCLR
 70
     0
  9
$DIMARCSYM
 70
     0
  9
$DIMLTYPE
  6

  9
$DIMLTEX1
  6

  9
$DIMLTEX2
  6

  9
$DIMTXTDIRECTION
 70
     0
  9
$LUNITS
 70
     2
  9
$LUPREC
 70
     4
  9
$SKETCHINC
 40
0.1
  9
$FILLETRAD
 40
0.5
  9
$AUNITS
 70
     0
  9
$AUPREC
 70
     0
  9
$MENU
  1
.
  9
$ELEVATION
 40
0.0
  9
$PELEVATION
 40
0.0
  9
$THICKNESS
 40
0.0
  9
$LIMCHECK
 70
     0
  9
$CHAMFERA
 40
0.0
  9
$CHAMFERB
 40
0.0
  9
$CHAMFERC
 40
0.0
  9
$CHAMFERD
 40
0.0
  9
$SKPOLY
 70
     0
  9
$TDCREATE
 40
2458169.01698809
  9
$TDUCREATE
 40
2458168.975321424
  9
$TDUPDATE
 40
2458169.016988276
  9
$TDUUPDATE
 40
2458168.975321609
  9
$TDINDWG
 40
0.0000000116
  9
$TDUSRTIMER
 40
0.0000000116
  9
$USRTIMER
 70
     1
  9
$ANGBASE
 50
0.0
  9
$ANGDIR
 70
     0
  9
$PDMODE
 70
     0
  9
$PDSIZE
 40
0.0
  9
$PLINEWID
 40
0.0
  9
$SPLFRAME
 70
     0
  9
$SPLINETYPE
 70
     6
  9
$SPLINESEGS
 70
     8
  9
$HANDSEED
  5
1D2
  9
$SURFTAB1
 70
     6
  9
$SURFTAB2
 70
     6
  9
$SURFTYPE
 70
     6
  9
$SURFU
 70
     6
  9
$SURFV
 70
     6
  9
$UCSBASE
  2

  9
$UCSNAME
  2

  9
$UCSORG
 10
0.0
 20
0.0
 30
0.0
  9
$UCSXDIR
 10
1.0
 20
0.0
 30
0.0
  9
$UCSYDIR
 10
0.0
 20
1.0
 30
0.0
  9
$UCSORTHOREF
  2

  9
$UCSORTHOVIEW
 70
     0
  9
$UCSORGTOP
 10
0.0
 20
0.0
 30
0.0
  9
$UCSORGBOTTOM
 10
0.0
 20
0.0
 30
0.0
  9
$UCSORGLEFT
 10
0.0
 20
0.0
 30
0.0
  9
$UCSORGRIGHT
 10
0.0
 20
0.0
 30
0.0
  9
$UCSORGFRONT
 10
0.0
 20
0.0
 30
0.0
  9
$UCSORGBACK
 10
0.0
 20
0.0
 30
0.0
  9
$PUCSBASE
  2

  9
$PUCSNAME
  2

  9
$PUCSORG
 10
0.0
 20
0.0
 30
0.0
  9
$PUCSXDIR
 10
1.0
 20
0.0
 30
0.0
  9
$PUCSYDIR
 10
0.0
 20
1.0
 30
0.0
  9
$PUCSORTHOREF
  2

  9
$PUCSORTHOVIEW
 70
     0
  9
$PUCSORGTOP
 10
0.0
 20
0.0
 30
0.0
  9
$PUCSORGBOTTOM
 10
0.0
 20
0.0
 30
0.0
  9
$PUCSORGLEFT
 10
0.0
 20
0.0
 30
0.0
  9
$PUCSORGRIGHT
 10
0.0
 20
0.0
 30
0.0
  9
$PUCSORGFRONT
 10
0.0
 20
0.0
 30
0.0
  9
$PUCSORGBACK
 10
0.0
 20
0.0
 30
0.0
  9
$USERI1
 70
     0
  9
$USERI2
 70
     0
  9
$USERI3
 70
     0
  9
$USERI4
 70
     0
  9
$USERI5
 70
     0
  9
$USERR1
 40
0.0
  9
$USERR2
 40
0.0
  9
$USERR3
 40
0.0
  9
$USERR4
 40
0.0
  9
$USERR5
 40
0.0
  9
$WORLDVIEW
 70
     1
  9
$SHADEDGE
 70
     3
  9
$SHADEDIF
 70
    70
  9
$TILEMODE
 70
     1
  9
$MAXACTVP
 70
    64
  9
$PINSBASE
 10
0.0
 20
0.0
 30
0.0
  9
$PLIMCHECK
 70
     0
  9
$PEXTMIN
 10
1.000000000000000E+20
 20
1.000000000000000E+20
 30
1.000000000000000E+20
  9
$PEXTMAX
 10
-1.000000000000000E+20
 20
-1.000000000000000E+20
 30
-1.000000000000000E+20
  9
$PLIMMIN
 10
0.0
 20
0.0
  9
$PLIMMAX
 10
12.0
 20
9.0
  9
$UNITMODE
 70
     0
  9
$VISRETAIN
 70
     1
  9
$PLINEGEN
 70
     0
  9
$PSLTSCALE
 70
     1
  9
$TREEDEPTH
 70
  3020
  9
$CMLSTYLE
  2
Standard
  9
$CMLJUST
 70
     0
  9
$CMLSCALE
 40
1.0
  9
$PROXYGRAPHICS
 70
     1
  9
$MEASUREMENT
 70
     0
  9
$CELWEIGHT
370
    -1
  9
$ENDCAPS
280
     0
  9
$JOINSTYLE
280
     0
  9
$LWDISPLAY
290
     0
  9
$INSUNITS
 70
     1
  9
$HYPERLINKBASE
  1

  9
$STYLESHEET
  1

  9
$XEDIT
290
     1
  9
$CEPSNTYPE
380
     0
  9
$PSTYLEMODE
290
     1
  9
$FINGERPRINTGUID
  2
{1041719E-3391-4802-BBF3-01EADD444B72}
  9
$VERSIONGUID
  2
{FAEB1C32-E019-11D5-929B-00C0DF256EC4}
  9
$EXTNAMES
290
     1
  9
$PSVPSCALE
 40
0.0
  9
$OLESTARTUP
290
     0
  9
$SORTENTS
280
   127
  9
$INDEXCTL
280
     0
  9
$HIDETEXT
280
     1
  9
$XCLIPFRAME
280
     2
  9
$HALOGAP
280
     0
  9
$OBSCOLOR
 70
   257
  9
$OBSLTYPE
280
     0
  9
$INTERSECTIONDISPLAY
280
     0
  9
$INTERSECTIONCOLOR
 70
   257
  9
$DIMASSOC
280
     2
  9
$PROJECTNAME
  1

  9
$CAMERADISPLAY
290
     0
  9
$LENSLENGTH
 40
50.0
  9
$CAMERAHEIGHT
 40
0.0
  9
$STEPSPERSEC
 40
2.0
  9
$STEPSIZE
 40
6.0
  9
$3DDWFPREC
 40
2.0
  9
$PSOLWIDTH
 40
0.25
  9
$PSOLHEIGHT
 40
4.0
  9
$LOFTANG1
 40
1.570796326794897
  9
$LOFTANG2
 40
1.570796326794897
  9
$LOFTMAG1
 40
0.0
  9
$LOFTMAG2
 40
0.0
  9
$LOFTPARAM
 70
     7
  9
$LOFTNORMALS
280
     1
  9
$LATITUDE
 40
37.795
  9
$LONGITUDE
 40
-122.394
  9
$NORTHDIRECTION
 40
0.0
  9
$TIMEZONE
 70
 -8000
  9
$LIGHTGLYPHDISPLAY
280
     1
  9
$TILEMODELIGHTSYNCH
280
     1
  9
$CMATERIAL
347
44
  9
$SOLIDHIST
280
     0
  9
$SHOWHIST
280
     1
  9
$DWFFRAME
280
     2
  9
$DGNFRAME
280
     2
  9
$REALWORLDSCALE
290
     1
  9
$INTERFERECOLOR
 62
   256
  9
$CSHADOW
280
     0
  9
$SHADOWPLANELOCATION
 40
0.0
  0
ENDSEC
  0
SECTION
  2
CLASSES
  0
CLASS
  1
ACDBDICTIONARYWDFLT
  2
AcDbDictionaryWithDefault
  3
ObjectDBX Classes
 90
        0
 91
        4
280
     0
281
     0
  0
CLASS
  1
VISUALSTYLE
  2
AcDbVisualStyle
  3
ObjectDBX Classes
 90
     4095
 91
        4
280
     0
281
     0
  0
CLASS
  1
MATERIAL
  2
AcDbMaterial
  3
ObjectDBX Classes
 90
     1153
 91
        4
280
     0
281
     0
  0
CLASS
  1
SCALE
  2
AcDbScale
  3
ObjectDBX Classes
 90
     1153
 91
        4
280
     0
281
     0
  0
CLASS
  1
TABLESTYLE
  2
AcDbTableStyle
  3
ObjectDBX Classes
 90
     4095
 91
        4
280
     0
281
     0
  0
CLASS
  1
MLEADERSTYLE
  2
AcDbMLeaderStyle
  3
ACDB_MLEADERSTYLE_CLASS
 90
     4095
 91
        4
280
     0
281
     0
  0
CLASS
  1
SUN
  2
AcDbSun
  3
SCENEOE
 90
     1153
 91
        4
280
     0
281
     0
  0
CLASS
  1
DICTIONARYVAR
  2
AcDbDictionaryVar
  3
ObjectDBX Classes
 90
        0
 91
        4
280
     0
281
     0
  0
CLASS
  1
CELLSTYLEMAP
  2
AcDbCellStyleMap
  3
ObjectDBX Classes
 90
     1152
 91
        4
280
     0
281
     0
  0
ENDSEC
  0
SECTION
  2
TABLES
  0
TABLE
  2
VPORT
  5
8
330
0
100
AcDbSymbolTable
 70
     1
  0
VPORT
  5
29
330
8
100
AcDbSymbolTableRecord
100
AcDbViewportTableRecord
  2
*Active
 70
     0
 10
0.0
 20
0.0
 11
1.0
 21
1.0
 12
0.0
 22
0.1250000000000009
 13
0.0
 23
0.0
 14
0.5
 24
0.5
 15
0.5
 25
0.5
 16
0.0
 26
0.0
 36
1.0
 17
0.0
 27
0.0
 37
0.0
 40
5.946600116729734
 41
1.050600322430247
 42
50.0
 43
0.0
 44
0.0
 50
0.0
 51
0.0
 71
     0
 72
   100
 73
     1
 74
     3
 75
     0
 76
     0
 77
     0
 78
     0
281
     0
 65
     1
110
0.0
120
0.0
130
0.0
111
1.0
121
0.0
131
0.0
112
0.0
122
1.0
132
0.0
 79
     0
146
0.0
348
2F
 60
     3
 61
     5
292
     1
282
     1
141
0.0
142
0.0
 63
   250
361
6D
  0
ENDTAB
  0
TABLE
  2
LTYPE
  5
5
330
0
100
AcDbSymbolTable
 70
     3
  0
LTYPE
  5
14
330
5
100
AcDbSymbolTableRecord
100
AcDbLinetypeTableRecord
  2
ByBlock
 70
     0
  3

 72
    65
 73
     0
 40
0.0
  0
LTYPE
  5
15
330
5
100
AcDbSymbolTableRecord
100
AcDbLinetypeTableRecord
  2
ByLayer
 70
     0
  3

 72
    65
 73
     0
 40
0.0
  0
LTYPE
  5
16
330
5
100
AcDbSymbolTableRecord
100
AcDbLinetypeTableRecord
  2
Continuous
 70
     0
  3
Solid line
 72
    65
 73
     0
 40
0.0
  0
LTYPE
  5
9C
330
5
100
AcDbSymbolTableRecord
100
AcDbLinetypeTableRecord
  2
Dashed
 70
     0
  3

 72
    65
 73
     2
 40
2.0
 49
1.0
 74
     0
 49
-1.0
 74
     0
  0
LTYPE
  5
11C
330
5
100
AcDbSymbolTableRecord
100
AcDbLinetypeTableRecord
  2
Center
 70
     0
  3

 72
    65
 73
     4
 40
1.5
 49
0.45
 74
     0
 49
-0.5
 74
     0
 49
0.05
 74
     0
 49
-0.5
 74
     0
  0
ENDTAB
  0
TABLE
  2
LAYER
  5
2
330
0
100
AcDbSymbolTable
 70
     7
  0
LAYER
  5
10
330
2
100
AcDbSymbolTableRecord
100
AcDbLayerTableRecord
  2
0
 70
     0
 62
     7
  6
Continuous
370
    -3
390
F
347
46
348
0
  0
LAYER
  5
72
330
2
100
AcDbSymbolTableRecord
100
AcDbLayerTableRecord
  2
AM_6
 70
     0
 62
    -2
  6
Continuous
370
    35
390
F
347
46
348
0
  0
LAYER
  5
9D
330
2
100
AcDbSymbolTableRecord
100
AcDbLayerTableRecord
  2
AM_9
 70
     0
 62
     6
  6
Dashed
370
    25
390
F
347
46
348
0
  0
LAYER
  5
DC
330
2
100
AcDbSymbolTableRecord
100
AcDbLayerTableRecord
  2
AM_4
 70
     0
 62
     7
  6
Continuous
370
    50
390
F
347
46
348
0
  0
LAYER
  5
11D
330
2
100
AcDbSymbolTableRecord
100
AcDbLayerTableRecord
  2
AM_7
 70
     0
 62
     7
  6
Center
370
    25
390
F
347
46
348
0
  0
LAYER
  5
12B
330
2
100
AcDbSymbolTableRecord
100
AcDbLayerTableRecord
  2
AM_5
 70
     0
 62
     3
  6
Continuous
370
    25
390
F
347
46
348
0
  0
LAYER
  5
1C0
330
2
100
AcDbSymbolTableRecord
100
AcDbLayerTableRecord
  2
ConnectionPoints
 70
     0
 62
     7
  6
Continuous
370
    50
390
F
347
46
348
0
  0
ENDTAB
  0
TABLE
  2
STYLE
  5
3
330
0
100
AcDbSymbolTable
 70
     1
  0
STYLE
  5
11
330
3
100
AcDbSymbolTableRecord
100
AcDbTextStyleTableRecord
  2
Standard
 70
     0
 40
0.0
 41
1.0
 50
0.0
 71
     0
 42
0.2
  3
txt
  4

  0
ENDTAB
  0
TABLE
  2
VIEW
  5
6
330
0
100
AcDbSymbolTable
 70
     0
  0
ENDTAB
  0
TABLE
  2
UCS
  5
7
330
0
100
AcDbSymbolTable
 70
     0
  0
ENDTAB
  0
TABLE
  2
APPID
  5
9
330
0
100
AcDbSymbolTable
 70
     1
  0
APPID
  5
12
330
9
100
AcDbSymbolTableRecord
100
AcDbRegAppTableRecord
  2
ACAD
 70
     0
  0
ENDTAB
  0
TABLE
  2
DIMSTYLE
  5
A
330
0
100
AcDbSymbolTable
 70
     1
100
AcDbDimStyleTable
  0
DIMSTYLE
105
27
330
A
100
AcDbSymbolTableRecord
100
AcDbDimStyleTableRecord
  2
Standard
 70
     0
178
     0
340
11
  0
ENDTAB
  0
TABLE
  2
BLOCK_RECORD
  5
1
330
0
100
AcDbSymbolTable
 70
     7
  0
BLOCK_RECORD
  5
1F
330
1
100
AcDbSymbolTableRecord
100
AcDbBlockTableRecord
  2
*Model_Space
340
22
 70
     0
280
     1
281
     0
  0
BLOCK_RECORD
  5
1B
330
1
100
AcDbSymbolTableRecord
100
AcDbBlockTableRecord
  2
*Paper_Space
340
1E
 70
     0
280
     1
281
     0
  0
BLOCK_RECORD
  5
23
330
1
100
AcDbSymbolTableRecord
100
AcDbBlockTableRecord
  2
*Paper_Space0
340
26
 70
     0
280
     1
281
     0
  0
BLOCK_RECORD
  5
6E
330
1
100
AcDbSymbolTableRecord
100
AcDbBlockTableRecord
  2
1_023125_4
340
0
102
{BLKREFS
331
6F
102
}
 70
     0
280
     1
281
     0
  0
BLOCK_RECORD
  5
87
330
1
100
AcDbSymbolTableRecord
100
AcDbBlockTableRecord
  2
2_1_5_8D_0_in_023125_4
340
0
102
{BLKREFS
331
88
102
}
 70
     0
280
     1
281
     0
  0
BLOCK_RECORD
  5
AC
330
1
100
AcDbSymbolTableRecord
100
AcDbBlockTableRecord
  2
3_405015E_Inch_0_in_023125_4
340
0
102
{BLKREFS
331
AD
102
}
 70
     0
280
     1
281
     0
  0
BLOCK_RECORD
  5
F4
330
1
100
AcDbSymbolTableRecord
100
AcDbBlockTableRecord
  2
4_1_5_8C_0_in_023125_4
340
0
102
{BLKREFS
331
F5
102
}
 70
     0
280
     1
281
     0
  0
BLOCK_RECORD
  5
12D
330
1
100
AcDbSymbolTableRecord
100
AcDbBlockTableRecord
  2
5_1_5_8I_0_in_023125_4
340
0
102
{BLKREFS
331
12E
102
}
 70
     0
280
     1
281
     0
  0
BLOCK_RECORD
  5
168
330
1
100
AcDbSymbolTableRecord
100
AcDbBlockTableRecord
  2
6_023125H_0_in_023125_4
340
0
102
{BLKREFS
331
169
102
}
 70
     0
280
     1
281
     0
  0
ENDTAB
  0
ENDSEC
  0
SECTION
  2
BLOCKS
  0
BLOCK
  5
20
330
1F
100
AcDbEntity
  8
0
100
AcDbBlockBegin
  2
*Model_Space
 70
     0
 10
0.0
 20
0.0
 30
0.0
  3
*Model_Space
  1

  0
ENDBLK
  5
21
330
1F
100
AcDbEntity
  8
0
100
AcDbBlockEnd
  0
BLOCK
  5
1C
330
1B
100
AcDbEntity
 67
     1
  8
0
100
AcDbBlockBegin
  2
*Paper_Space
 70
     0
 10
0.0
 20
0.0
 30
0.0
  3
*Paper_Space
  1

  0
ENDBLK
  5
1D
330
1B
100
AcDbEntity
 67
     1
  8
0
100
AcDbBlockEnd
  0
BLOCK
  5
24
330
23
100
AcDbEntity
  8
0
100
AcDbBlockBegin
  2
*Paper_Space0
 70
     0
 10
0.0
 20
0.0
 30
0.0
  3
*Paper_Space0
  1

  0
ENDBLK
  5
25
330
23
100
AcDbEntity
  8
0
100
AcDbBlockEnd
  0
BLOCK
  5
70
330
6E
100
AcDbEntity
  8
0
100
AcDbBlockBegin
  2
1_023125_4
 70
     2
 10
0.0
 20
0.0
 30
0.0
  3
1_023125_4
  1

  0
ATTDEF
  5
73
330
6E
100
AcDbEntity
  8
AM_6
100
AcDbText
 10
8.0625
 20
3.040000057220459
 30
0.0
 40
0.5
  1
Flange Cartridge Expansion Inch Bore
100
AcDbAttributeDefinition
  3

  2
NN
 70
     8
280
     0
  0
ATTDEF
  5
74
330
6E
100
AcDbEntity
  8
AM_6
100
AcDbText
 10
8.0625
 20
2.540000057220459
 30
0.0
 40
0.5
  1
Type E Piloted Flange Bearing -Inch
100
AcDbAttributeDefinition
  3

  2
NT
 70
     8
280
     0
  0
ATTDEF
  5
75
330
6E
100
AcDbEntity
  8
AM_6
100
AcDbText
 10
8.0625
 20
2.040000057220459
 30
0.0
 40
0.5
  1
023125
100
AcDbAttributeDefinition
  3

  2
NB
 70
     8
280
     0
  0
ATTDEF
  5
76
330
6E
100
AcDbEntity
  8
AM_6
100
AcDbText
 10
8.0625
 20
1.540000057220459
 30
0.0
 40
0.5
  1
$PN.
100
AcDbAttributeDefinition
  3

  2
NBSYN
 70
     8
280
     0
  0
ATTDEF
  5
77
330
6E
100
AcDbEntity
  8
AM_6
100
AcDbText
 10
8.0625
 20
1.040000057220459
 30
0.0
 40
0.5
  1
023125
100
AcDbAttributeDefinition
  3

  2
LINA
 70
     8
280
     0
  0
ATTDEF
  5
78
330
6E
100
AcDbEntity
  8
AM_6
100
AcDbText
 10
8.0625
 20
0.5400000572204591
 30
0.0
 40
0.5
  1
1-5/8
100
AcDbAttributeDefinition
  3

  2
SS
 70
     8
280
     0
  0
ATTDEF
  5
79
330
6E
100
AcDbEntity
  8
AM_6
100
AcDbText
 10
8.0625
 20
0.0400000572204591
 30
0.0
 40
0.5
  1
023125
100
AcDbAttributeDefinition
  3

  2
PN
 70
     8
280
     0
  0
ATTDEF
  5
7A
330
6E
100
AcDbEntity
  8
AM_6
100
AcDbText
 10
8.0625
 20
-0.4599999427795409
 30
0.0
 40
0.5
  1
FC-E-110R
100
AcDbAttributeDefinition
  3

  2
DESCRIPTION
 70
     8
280
     0
  0
ATTDEF
  5
7B
330
6E
100
AcDbEntity
  8
AM_6
100
AcDbText
 10
8.0625
 20
-0.9599999427795409
 30
0.0
 40
0.5
  1
3-3/8
100
AcDbAttributeDefinition
  3

  2
A
 70
     8
280
     0
  0
ATTDEF
  5
7C
330
6E
100
AcDbEntity
  8
AM_6
100
AcDbText
 10
8.0625
 20
-1.459999942779541
 30
0.0
 40
0.5
  1
6-1/8
100
AcDbAttributeDefinition
  3

  2
B
 70
     8
280
     0
  0
ATTDEF
  5
7D
330
6E
100
AcDbEntity
  8
AM_6
100
AcDbText
 10
8.0625
 20
-1.959999942779541
 30
0.0
 40
0.5
  1
2-25/32
100
AcDbAttributeDefinition
  3

  2
C
 70
     8
280
     0
  0
ATTDEF
  5
7E
330
6E
100
AcDbEntity
  8
AM_6
100
AcDbText
 10
8.0625
 20
-2.459999942779541
 30
0.0
 40
0.5
  1
5-1/8
100
AcDbAttributeDefinition
  3

  2
D
 70
     8
280
     0
  0
ATTDEF
  5
7F
330
6E
100
AcDbEntity
  8
AM_6
100
AcDbText
 10
8.0625
 20
-2.959999942779541
 30
0.0
 40
0.5
  1
1-1/16
100
AcDbAttributeDefinition
  3

  2
E
 70
     8
280
     0
  0
ATTDEF
  5
80
330
6E
100
AcDbEntity
  8
AM_6
100
AcDbText
 10
8.0625
 20
-3.459999942779541
 30
0.0
 40
0.5
  1
7/16
100
AcDbAttributeDefinition
  3

  2
F
 70
     8
280
     0
  0
ATTDEF
  5
81
330
6E
100
AcDbEntity
  8
AM_6
100
AcDbText
 10
8.0625
 20
-3.959999942779541
 30
0.0
 40
0.5
  1
1-9/16
100
AcDbAttributeDefinition
  3

  2
G
 70
     8
280
     0
  0
ATTDEF
  5
82
330
6E
100
AcDbEntity
  8
AM_6
100
AcDbText
 10
8.0625
 20
-4.459999942779541
 30
0.0
 40
0.5
  1
1/2
100
AcDbAttributeDefinition
  3

  2
H
 70
     8
280
     0
  0
ATTDEF
  5
83
330
6E
100
AcDbEntity
  8
AM_6
100
AcDbText
 10
8.0625
 20
-4.959999942779541
 30
0.0
 40
0.5
  1
4-1/4
100
AcDbAttributeDefinition
  3

  2
K
 70
     8
280
     0
  0
ATTDEF
  5
84
330
6E
100
AcDbEntity
  8
AM_6
100
AcDbText
 10
8.0625
 20
-5.459999942779541
 30
0.0
 40
0.5
  1
3-3/16
100
AcDbAttributeDefinition
  3

  2
L
 70
     8
280
     0
  0
ATTDEF
  5
85
330
6E
100
AcDbEntity
  8
AM_6
100
AcDbText
 10
8.0625
 20
-5.959999942779541
 30
0.0
 40
0.5
  1
1-1/32
100
AcDbAttributeDefinition
  3

  2
M
 70
     8
280
     0
  0
ATTDEF
  5
86
330
6E
100
AcDbEntity
  8
AM_6
100
AcDbText
 10
8.0625
 20
-6.459999942779541
 30
0.0
 40
0.5
  1
baldor
100
AcDbAttributeDefinition
  3

  2
COMPANY
 70
     8
280
     0
  0
INSERT
  5
88
330
6E
100
AcDbEntity
  8
0
100
AcDbBlockReference
  2
2_1_5_8D_0_in_023125_4
 10
0.0
 20
0.0
 30
0.0
  0
INSERT
  5
AD
330
6E
100
AcDbEntity
  8
0
100
AcDbBlockReference
  2
3_405015E_Inch_0_in_023125_4
 10
0.0
 20
0.0
 30
0.0
  0
INSERT
  5
F5
330
6E
100
AcDbEntity
  8
0
100
AcDbBlockReference
  2
4_1_5_8C_0_in_023125_4
 10
0.0
 20
0.0
 30
0.0
  0
INSERT
  5
12E
330
6E
100
AcDbEntity
  8
0
100
AcDbBlockReference
  2
5_1_5_8I_0_in_023125_4
 10
0.0
 20
0.0
 30
0.0
  0
INSERT
  5
169
330
6E
100
AcDbEntity
  8
0
100
AcDbBlockReference
  2
6_023125H_0_in_023125_4
 10
0.0
 20
0.0
 30
0.0
  0
ENDBLK
  5
71
330
6E
100
AcDbEntity
  8
0
100
AcDbBlockEnd
  0
BLOCK
  5
89
330
87
100
AcDbEntity
  8
0
100
AcDbBlockBegin
  2
2_1_5_8D_0_in_023125_4
 70
     2
 10
0.0
 20
0.0
 30
0.0
  3
2_1_5_8D_0_in_023125_4
  1

  0
ATTDEF
  5
8B
330
87
100
AcDbEntity
  8
AM_6
100
AcDbText
 10
6.625
 20
1.703125
 30
0.0
 40
0.5
  1
E-Type Disc -Inch
100
AcDbAttributeDefinition
  3

  2
NN
 70
     8
280
     0
  0
ATTDEF
  5
8C
330
87
100
AcDbEntity
  8
AM_6
100
AcDbText
 10
6.625
 20
1.203125
 30
0.0
 40
0.5
  1
E-Type Bearings
100
AcDbAttributeDefinition
  3

  2
NT
 70
     8
280
     0
  0
ATTDEF
  5
8D
330
87
100
AcDbEntity
  8
AM_6
100
AcDbText
 10
6.625
 20
0.7031249999999998
 30
0.0
 40
0.5
  1
1-5/8D
100
AcDbAttributeDefinition
  3

  2
NB
 70
     8
280
     0
  0
ATTDEF
  5
8E
330
87
100
AcDbEntity
  8
AM_6
100
AcDbText
 10
6.625
 20
0.2031249999999998
 30
0.0
 40
0.5
  1
$BORE.D
100
AcDbAttributeDefinition
  3

  2
NBSYN
 70
     8
280
     0
  0
ATTDEF
  5
8F
330
87
100
AcDbEntity
  8
AM_6
100
AcDbText
 10
6.625
 20
-0.2968750000000002
 30
0.0
 40
0.5
  1
1-5/8D
100
AcDbAttributeDefinition
  3

  2
LINA
 70
     8
280
     0
  0
ATTDEF
  5
90
330
87
100
AcDbEntity
  8
AM_6
100
AcDbText
 10
6.625
 20
-0.7968750000000002
 30
0.0
 40
0.5
  1
1-5/8
100
AcDbAttributeDefinition
  3

  2
BORE
 70
     8
280
     0
  0
ATTDEF
  5
91
330
87
100
AcDbEntity
  8
AM_6
100
AcDbText
 10
6.625
 20
-1.296875
 30
0.0
 40
0.5
  1
1.625000
100
AcDbAttributeDefinition
  3

  2
BORE1
 70
     8
280
     0
  0
ATTDEF
  5
92
330
87
100
AcDbEntity
  8
AM_6
100
AcDbText
 10
6.625
 20
-1.796875
 30
0.0
 40
0.5
  1
3.38
100
AcDbAttributeDefinition
  3

  2
A
 70
     8
280
     0
  0
ATTDEF
  5
93
330
87
100
AcDbEntity
  8
AM_6
100
AcDbText
 10
6.625
 20
-2.296875
 30
0.0
 40
0.5
  1
1.50
100
AcDbAttributeDefinition
  3

  2
B
 70
     8
280
     0
  0
ATTDEF
  5
94
330
87
100
AcDbEntity
  8
AM_6
100
AcDbText
 10
6.625
 20
-2.796875
 30
0.0
 40
0.5
  1
2.06
100
AcDbAttributeDefinition
  3

  2
C
 70
     8
280
     0
  0
ATTDEF
  5
95
330
87
100
AcDbEntity
  8
AM_6
100
AcDbText
 10
6.625
 20
-3.296875
 30
0.0
 40
0.5
  1
3.25
100
AcDbAttributeDefinition
  3

  2
D
 70
     8
280
     0
  0
ATTDEF
  5
96
330
87
100
AcDbEntity
  8
AM_6
100
AcDbText
 10
6.625
 20
-3.796875
 30
0.0
 40
0.5
  1
0.35
100
AcDbAttributeDefinition
  3

  2
E
 70
     8
280
     0
  0
ATTDEF
  5
97
330
87
100
AcDbEntity
  8
AM_6
100
AcDbText
 10
6.625
 20
-4.296875
 30
0.0
 40
0.5
  1
0.28
100
AcDbAttributeDefinition
  3

  2
F
 70
     8
280
     0
  0
ATTDEF
  5
98
330
87
100
AcDbEntity
  8
AM_6
100
AcDbText
 10
6.625
 20
-4.796875
 30
0.0
 40
0.5
  1
5/16-18
100
AcDbAttributeDefinition
  3

  2
CS
 70
     8
280
     0
  0
ATTDEF
  5
99
330
87
100
AcDbEntity
  8
AM_6
100
AcDbText
 10
6.625
 20
-5.296875
 30
0.0
 40
0.5
  1
0.3125
100
AcDbAttributeDefinition
  3

  2
NDM
 70
     8
280
     0
  0
ATTDEF
  5
9A
330
87
100
AcDbEntity
  8
AM_6
100
AcDbText
 10
6.625
 20
-5.796875
 30
0.0
 40
0.5
  1
0.2520
100
AcDbAttributeDefinition
  3

  2
KDM
 70
     8
280
     0
  0
ATTDEF
  5
9B
330
87
100
AcDbEntity
  8
AM_6
100
AcDbText
 10
6.625
 20
-6.296875
 30
0.0
 40
0.5
  1
baldor
100
AcDbAttributeDefinition
  3

  2
COMPANY
 70
     8
280
     0
  0
LINE
  5
9E
330
87
100
AcDbEntity
  8
AM_9
100
AcDbLine
 10
1.03
 20
1.65625
 30
0.0
 11
1.03
 21
1.703125
 31
0.0
  0
LINE
  5
9F
330
87
100
AcDbEntity
  8
AM_9
100
AcDbLine
 10
-1.03
 20
1.703125
 30
0.0
 11
-1.03
 21
1.65625
 31
0.0
  0
ARC
  5
A0
330
87
100
AcDbEntity
  8
AM_9
100
AcDbCircle
 10
1.5546875
 20
1.6328125
 30
0.0
 40
0.0234375
100
AcDbArc
 50
0.0
 51
90.0
  0
ARC
  5
A1
330
87
100
AcDbEntity
  8
AM_9
100
AcDbCircle
 10
-1.5546875
 20
1.6328125
 30
0.0
 40
0.0234375
100
AcDbArc
 50
90.0
 51
180.0
  0
LINE
  5
A2
330
87
100
AcDbEntity
  8
AM_9
100
AcDbLine
 10
-1.578125
 20
1.6328125
 30
0.0
 11
1.578125
 21
1.6328125
 31
0.0
  0
LINE
  5
A3
330
87
100
AcDbEntity
  8
AM_9
100
AcDbLine
 10
1.578125
 20
1.42312499
 30
0.0
 11
1.578125
 21
1.6328125
 31
0.0
  0
LINE
  5
A4
330
87
100
AcDbEntity
  8
AM_9
100
AcDbLine
 10
-1.578125
 20
1.6328125
 30
0.0
 11
-1.578125
 21
1.42312499
 31
0.0
  0
LINE
  5
A5
330
87
100
AcDbEntity
  8
AM_9
100
AcDbLine
 10
-1.578125
 20
1.703125
 30
0.0
 11
1.578124999996239
 21
1.703125
 31
0.0
  0
ARC
  5
A6
330
87
100
AcDbEntity
  8
AM_9
100
AcDbCircle
 10
1.578125
 20
1.65625
 30
0.0
 40
0.0468749999999998
100
AcDbArc
 50
0.0
 51
90.0
  0
ARC
  5
A7
330
87
100
AcDbEntity
  8
AM_9
100
AcDbCircle
 10
-1.578125
 20
1.65625
 30
0.0
 40
0.046875
100
AcDbArc
 50
90.0
 51
180.0
  0
LINE
  5
A8
330
87
100
AcDbEntity
  8
AM_9
100
AcDbLine
 10
-1.625
 20
1.42312499
 30
0.0
 11
1.625
 21
1.42312499
 31
0.0
  0
LINE
  5
A9
330
87
100
AcDbEntity
  8
AM_9
100
AcDbLine
 10
-1.625
 20
1.65625
 30
0.0
 11
1.625
 21
1.65625
 31
0.0
  0
LINE
  5
AA
330
87
100
AcDbEntity
  8
AM_9
100
AcDbLine
 10
1.625
 20
1.42312499
 30
0.0
 11
1.625
 21
1.65625
 31
0.0
  0
LINE
  5
AB
330
87
100
AcDbEntity
  8
AM_9
100
AcDbLine
 10
-1.625
 20
1.65625
 30
0.0
 11
-1.625
 21
1.42312499
 31
0.0
  0
ENDBLK
  5
8A
330
87
100
AcDbEntity
  8
0
100
AcDbBlockEnd
  0
BLOCK
  5
AE
330
AC
100
AcDbEntity
  8
0
100
AcDbBlockBegin
  2
3_405015E_Inch_0_in_023125_4
 70
     2
 10
0.0
 20
0.0
 30
0.0
  3
3_405015E_Inch_0_in_023125_4
  1

  0
ATTDEF
  5
B0
330
AC
100
AcDbEntity
  8
AM_6
100
AcDbText
 10
5.218750000000001
 20
-0.4325090839550317
 30
0.0
 40
0.5
  1
405015E -Inch
100
AcDbAttributeDefinition
  3

  2
NN
 70
     8
280
     0
  0
ATTDEF
  5
B1
330
AC
100
AcDbEntity
  8
AM_6
100
AcDbText
 10
5.218750000000001
 20
-0.9325090839550317
 30
0.0
 40
0.5
  1
Grease Fitting
100
AcDbAttributeDefinition
  3

  2
NT
 70
     8
280
     0
  0
ATTDEF
  5
B2
330
AC
100
AcDbEntity
  8
AM_6
100
AcDbText
 10
5.218750000000001
 20
-1.432509083955032
 30
0.0
 40
0.5
  1
405015E-Inch
100
AcDbAttributeDefinition
  3

  2
NB
 70
     8
280
     0
  0
ATTDEF
  5
B3
330
AC
100
AcDbEntity
  8
AM_6
100
AcDbText
 10
5.218750000000001
 20
-1.932509083955032
 30
0.0
 40
0.5
  1
$MN.-Inch
100
AcDbAttributeDefinition
  3

  2
NBSYN
 70
     8
280
     0
  0
ATTDEF
  5
B4
330
AC
100
AcDbEntity
  8
AM_6
100
AcDbText
 10
5.218750000000001
 20
-2.432509083955032
 30
0.0
 40
0.5
  1
405015E
100
AcDbAttributeDefinition
  3

  2
LINA
 70
     8
280
     0
  0
ATTDEF
  5
B5
330
AC
100
AcDbEntity
  8
AM_6
100
AcDbText
 10
5.218750000000001
 20
-2.932509083955032
 30
0.0
 40
0.5
  1
405015E
100
AcDbAttributeDefinition
  3

  2
MN
 70
     8
280
     0
  0
ATTDEF
  5
B6
330
AC
100
AcDbEntity
  8
AM_6
100
AcDbText
 10
5.218750000000001
 20
-3.432509083955032
 30
0.0
 40
0.5
  1
1/8 x 27PTF
100
AcDbAttributeDefinition
  3

  2
T
 70
     8
280
     0
  0
ATTDEF
  5
B7
330
AC
100
AcDbEntity
  8
AM_6
100
AcDbText
 10
5.218750000000001
 20
-3.932509083955032
 30
0.0
 40
0.5
  1
baldor
100
AcDbAttributeDefinition
  3

  2
COMPANY
 70
     8
280
     0
  0
LWPOLYLINE
  5
B8
330
AC
100
AcDbEntity
  8
AM_9
100
AcDbPolyline
 90
        3
 70
     0
 43
0.0
 10
-0.0000000000000001
 20
-0.9193953883006903
 10
-0.0544416102741496
 20
-0.8924652597068281
 10
-0.109375
 20
-0.8683314702966443
  0
LWPOLYLINE
  5
B9
330
AC
100
AcDbEntity
  8
AM_9
100
AcDbPolyline
 90
        4
 70
     0
 43
0.0
 10
0.109375
 20
-0.8683314702966443
 10
0.0674595297570976
 20
-0.8864457561631295
 10
0.0255440595141952
 20
-0.9064319595065812
 10
-0.0000000000000001
 20
-0.9193953883006903
  0
ELLIPSE
  5
BA
330
AC
100
AcDbEntity
  8
AM_9
100
AcDbEllipse
 10
0.0
 20
-0.5469917029737541
 30
0.0
 11
0.161902872472269
 21
0.0
 31
0.0
210
0.0
220
0.0
230
1.0
 40
0.7071067811865478
 41
0.0
 42
6.283185307179586
  0
LINE
  5
BB
330
AC
100
AcDbEntity
  8
AM_9
100
AcDbLine
 10
-0.0000000000000001
 20
-0.9772825439502228
 30
0.0
 11
-0.0000000000000001
 21
-0.9193953883006903
 31
0.0
  0
LWPOLYLINE
  5
BC
330
AC
100
AcDbEntity
  8
AM_9
100
AcDbPolyline
 90
        3
 70
     0
 43
0.0
 10
0.21875
 20
-0.8300910747617204
 10
0.1643083897258504
 20
-0.847612334816901
 10
0.109375
 20
-0.8683314702966443
  0
LWPOLYLINE
  5
BD
330
AC
100
AcDbEntity
  8
AM_9
100
AcDbPolyline
 90
        3
 70
     0
 43
0.0
 10
-0.109375
 20
-0.939042148415299
 10
-0.0546875000000001
 20
-0.9596758510169818
 10
-0.0000000000000001
 20
-0.9772825439502228
  0
LINE
  5
BE
330
AC
100
AcDbEntity
  8
AM_9
100
AcDbLine
 10
0.0716620603537484
 20
-0.9536251141383715
 30
0.0
 11
0.109375
 21
-0.939042148415299
 31
0.0
  0
LINE
  5
BF
330
AC
100
AcDbEntity
  8
AM_9
100
AcDbLine
 10
-0.0000000000000001
 20
-0.9772825439502228
 30
0.0
 11
0.0129382000978767
 21
-0.9733512023720357
 31
0.0
  0
LWPOLYLINE
  5
C0
330
AC
100
AcDbEntity
  8
AM_9
100
AcDbPolyline
 90
        3
 70
     0
 43
0.0
 10
-0.109375
 20
-0.8683314702966443
 10
-0.1640625
 20
-0.8476977676949613
 10
-0.2187499999999999
 20
-0.8300910747617203
  0
LINE
  5
C1
330
AC
100
AcDbEntity
  8
AM_9
100
AcDbLine
 10
-0.1324311526473445
 20
-0.9293236888749699
 30
0.0
 11
-0.109375
 21
-0.939042148415299
 31
0.0
  0
LINE
  5
C2
330
AC
100
AcDbEntity
  8
AM_9
100
AcDbLine
 10
0.109375
 20
-0.939042148415299
 30
0.0
 11
0.1328538915686898
 21
-0.9291398318873436
 31
0.0
  0
LINE
  5
C3
330
AC
100
AcDbEntity
  8
AM_9
100
AcDbLine
 10
-0.1985206121313388
 20
-0.5685638644221809
 30
0.0
 11
-0.2056513978434625
 21
-0.7298282552228393
 31
0.0
  0
LINE
  5
C4
330
AC
100
AcDbEntity
  8
AM_9
100
AcDbLine
 10
0.2056513978434626
 20
-0.7298282552228393
 30
0.0
 11
0.1985206121313388
 21
-0.568563864422181
 31
0.0
  0
LINE
  5
C5
330
AC
100
AcDbEntity
  8
AM_9
100
AcDbLine
 10
-0.21875
 20
-0.6542814467043604
 30
0.0
 11
-0.21875
 21
-0.6514824476837803
 31
0.0
  0
LWPOLYLINE
  5
C6
330
AC
100
AcDbEntity
  8
AM_9
100
AcDbPolyline
 90
        3
 70
     0
 43
0.0
 10
-0.109375
 20
-0.6004185296797341
 10
-0.0546875
 20
-0.5797848270780511
 10
0.0000000000000001
 20
-0.5621781341448102
  0
LWPOLYLINE
  5
C7
330
AC
100
AcDbEntity
  8
AM_9
100
AcDbPolyline
 90
        4
 70
     0
 43
0.0
 10
-0.21875
 20
-0.6514824476837803
 10
-0.1932059404858048
 20
-0.638519018889671
 10
-0.1514139872822688
 20
-0.6185890871900358
 10
-0.109375
 20
-0.6004185296797341
  0
LINE
  5
C8
330
AC
100
AcDbEntity
  8
AM_9
100
AcDbLine
 10
0.0948683298050514
 20
-0.911151695284826
 30
0.0
 11
0.107354891002899
 21
-0.8925378288557605
 31
0.0
  0
LINE
  5
C9
330
AC
100
AcDbEntity
  8
AM_9
100
AcDbLine
 10
-0.107354891002899
 20
-0.8925378288557605
 30
0.0
 11
-0.0948683298050514
 21
-0.911151695284826
 31
0.0
  0
ELLIPSE
  5
CA
330
AC
100
AcDbEntity
  8
AM_9
100
AcDbEllipse
 10
0.0
 20
-0.8793318901314309
 30
0.0
 11
-0.1050000000000003
 21
1.285879139104725E-17
 31
0.0
210
0.0
220
0.0
230
1.0
 40
0.7071067811865474
 41
0.0
 42
3.141592653589793
  0
ELLIPSE
  5
CB
330
AC
100
AcDbEntity
  8
AM_9
100
AcDbEllipse
 10
0.0000000000001585
 20
-0.856529903756074
 30
0.0
 11
-0.118820090734725
 21
1.455126437926790E-17
 31
0.0
210
0.0
220
0.0
230
1.0
 40
0.7071067811858907
 41
0.3762206260980019
 42
2.765372027490811
  0
LINE
  5
CC
330
AC
100
AcDbEntity
  8
AM_9
100
AcDbLine
 10
-0.105
 20
-0.8806508810139697
 30
0.0
 11
-0.105
 21
-0.9005450935670277
 31
0.0
  0
LINE
  5
CD
330
AC
100
AcDbEntity
  8
AM_9
100
AcDbLine
 10
0.105
 20
-0.9005450935670277
 30
0.0
 11
0.105
 21
-0.8806508810139697
 31
0.0
  0
ELLIPSE
  5
CE
330
AC
100
AcDbEntity
  8
AM_9
100
AcDbEllipse
 10
0.0
 20
-0.9005450935670278
 30
0.0
 11
-0.1050000000000001
 21
1.564621938212798E-9
 31
0.0
210
0.0
220
0.0
230
1.0
 40
0.7071067811865464
 41
5.759586550020531
 42
9.948376754806926
  0
ELLIPSE
  5
CF
330
AC
100
AcDbEntity
  8
AM_9
100
AcDbEllipse
 10
0.0
 20
-0.805085678106845
 30
0.0
 11
-0.2187499999999989
 21
2.678914873134822E-17
 31
0.0
210
0.0
220
0.0
230
1.0
 40
0.7071067811865455
 41
0.9156936017146862
 42
2.225899051875107
  0
LINE
  5
D0
330
AC
100
AcDbEntity
  8
AM_9
100
AcDbLine
 10
0.0192743186691522
 20
-0.939435617075504
 30
0.0
 11
0.0279874918769157
 21
-0.9384227768845128
 31
0.0
  0
LINE
  5
D1
330
AC
100
AcDbEntity
  8
AM_9
100
AcDbLine
 10
-0.0279874918769157
 20
-0.9384227768845126
 30
0.0
 11
-0.0192743186691523
 21
-0.939435617075504
 31
0.0
  0
ELLIPSE
  5
D2
330
AC
100
AcDbEntity
  8
AM_9
100
AcDbEllipse
 10
0.0000000000000005
 20
-0.8180386005142266
 30
0.0
 11
-0.1725340532830049
 21
2.112932760969508E-17
 31
0.0
210
0.0
220
0.0
230
1.0
 40
0.707106781186572
 41
0.7772913431420303
 42
2.364301310447758
  0
ELLIPSE
  5
D3
330
AC
100
AcDbEntity
  8
AM_9
100
AcDbEllipse
 10
0.0000000000000001
 20
-0.805085678106844
 30
0.0
 11
-0.2137499999999999
 21
2.617682533177467E-17
 31
0.0
210
0.0
220
0.0
230
1.0
 40
0.7071067811865472
 41
0.9036552188403366
 42
2.237937434749453
  0
LINE
  5
D4
330
AC
100
AcDbEntity
  8
AM_9
100
AcDbLine
 10
0.0000000000000001
 20
-0.5741878934205316
 30
0.0
 11
0.0000000000000001
 21
-0.5621781341448102
 31
0.0
  0
LINE
  5
D5
330
AC
100
AcDbEntity
  8
AM_9
100
AcDbLine
 10
0.2187499999999999
 20
-0.6542814467043604
 30
0.0
 11
0.2187499999999999
 21
-0.6514824476837803
 31
0.0
  0
LWPOLYLINE
  5
D6
330
AC
100
AcDbEntity
  8
AM_9
100
AcDbPolyline
 90
        3
 70
     0
 43
0.0
 10
0.109375
 20
-0.6004185296797341
 10
0.1640625
 20
-0.6244369838475361
 10
0.2187499999999999
 20
-0.6514824476837803
  0
LWPOLYLINE
  5
D7
330
AC
100
AcDbEntity
  8
AM_9
100
AcDbPolyline
 90
        3
 70
     0
 43
0.0
 10
0.0000000000000001
 20
-0.5621781341448102
 10
0.0544416102741496
 20
-0.579699394199991
 10
0.109375
 20
-0.6004185296797341
  0
ELLIPSE
  5
D8
330
AC
100
AcDbEntity
  8
AM_9
100
AcDbEllipse
 10
0.0
 20
-0.9429715004382209
 30
0.0
 11
-0.135
 21
1.653273178848926E-17
 31
0.0
210
0.0
220
0.0
230
1.0
 40
0.7071067811865467
 41
0.4159140521025453
 42
2.725678601487248
  0
ELLIPSE
  5
D9
330
AC
100
AcDbEntity
  8
AM_9
100
AcDbEllipse
 10
0.0000000000000004
 20
-0.7343749999881889
 30
0.0
 11
-0.2187500000000004
 21
3.259629037943330E-9
 31
0.0
210
0.0
220
0.0
230
1.0
 40
0.7071067811865462
 41
0.0
 42
6.283185307179586
  0
ELLIPSE
  5
DA
330
AC
100
AcDbEntity
  8
AM_9
100
AcDbEllipse
 10
-0.0000000000000001
 20
-0.7343749999881889
 30
0.0
 11
-0.2057518972230696
 21
2.519734023527274E-17
 31
0.0
210
0.0
220
0.0
230
1.0
 40
0.7071067811865469
 41
0.0
 42
6.283185307179586
  0
ELLIPSE
  5
DB
330
AC
100
AcDbEntity
  8
AM_9
100
AcDbEllipse
 10
-0.000000000000002
 20
-0.572952954715211
 30
0.0
 11
-0.1986176267812184
 21
2.432364408918627E-17
 31
0.0
210
0.0
220
0.0
230
1.0
 40
0.7071067811865521
 41
0.0
 42
6.283185307179586
  0
LWPOLYLINE
  5
DD
330
AC
100
AcDbEntity
  8
AM_4
100
AcDbPolyline
 90
        3
 70
     0
 43
0.0
 10
-0.2187499999999999
 20
-0.8879782304112528
 10
-0.1643083897258504
 20
-0.9149083590051149
 10
-0.1324311526473445
 20
-0.9293236888749699
  0
LWPOLYLINE
  5
DE
330
AC
100
AcDbEntity
  8
AM_4
100
AcDbPolyline
 90
        3
 70
     0
 43
0.0
 10
0.1328538915686898
 20
-0.9291398318873436
 10
0.1640625
 20
-0.9150236942474969
 10
0.21875
 20
-0.8879782304112528
  0
LINE
  5
DF
330
AC
100
AcDbEntity
  8
AM_4
100
AcDbLine
 10
-0.2187499999999999
 20
-0.8879782304112528
 30
0.0
 11
-0.21875
 21
-0.6542814467043604
 31
0.0
  0
LWPOLYLINE
  5
E0
330
AC
100
AcDbEntity
  8
AM_4
100
AcDbPolyline
 90
        4
 70
     0
 43
0.0
 10
-0.109375
 20
-0.6711292077983888
 10
-0.1512904702429024
 20
-0.6872387600732112
 10
-0.1932059404858048
 20
-0.7014763948710672
 10
-0.21875
 20
-0.7093696033333127
  0
ELLIPSE
  5
E1
330
AC
100
AcDbEntity
  8
AM_4
100
AcDbEllipse
 10
0.0000000000000002
 20
-0.8565299037558256
 30
0.0
 11
-0.1188200907348973
 21
1.455126437928901E-17
 31
0.0
210
0.0
220
0.0
230
1.0
 40
0.7071067811865486
 41
2.76537202748887
 42
6.659405933280508
  0
ELLIPSE
  5
E2
330
AC
100
AcDbEntity
  8
AM_4
100
AcDbEllipse
 10
0.0
 20
-0.8793318901314312
 30
0.0
 11
-0.1050000000000001
 21
1.285879139104722E-17
 31
0.0
210
0.0
220
0.0
230
1.0
 40
0.7071067811865486
 41
3.141592653589793
 42
6.283185307179586
  0
LINE
  5
E3
330
AC
100
AcDbEntity
  8
AM_4
100
AcDbLine
 10
-0.105
 20
-0.8793318901314313
 30
0.0
 11
-0.105
 21
-0.8806508810139697
 31
0.0
  0
LINE
  5
E4
330
AC
100
AcDbEntity
  8
AM_4
100
AcDbLine
 10
0.105
 20
-0.8806508810139697
 30
0.0
 11
0.105
 21
-0.8793318901314313
 31
0.0
  0
LWPOLYLINE
  5
E5
330
AC
100
AcDbEntity
  8
AM_4
100
AcDbPolyline
 90
        3
 70
     0
 43
0.0
 10
0.0000000000000001
 20
-0.6200652897943426
 10
-0.0544416102741496
 20
-0.6469954183882047
 10
-0.109375
 20
-0.6711292077983888
  0
ELLIPSE
  5
E6
330
AC
100
AcDbEntity
  8
AM_4
100
AcDbEllipse
 10
0.0
 20
-0.8050856781068396
 30
0.0
 11
-0.2187499999999969
 21
2.678914873134798E-17
 31
0.0
210
0.0
220
0.0
230
1.0
 40
0.7071067811865382
 41
2.225899051875081
 42
7.198878908894298
  0
ELLIPSE
  5
E7
330
AC
100
AcDbEntity
  8
AM_4
100
AcDbEllipse
 10
-0.0000000000000002
 20
-0.8180386005142231
 30
0.0
 11
-0.1725340532830157
 21
2.112932760969640E-17
 31
0.0
210
0.0
220
0.0
230
1.0
 40
0.7071067811865477
 41
2.364301310447723
 42
7.060476650321657
  0
ELLIPSE
  5
E8
330
AC
100
AcDbEntity
  8
AM_4
100
AcDbEllipse
 10
-0.0000000000000001
 20
-0.8050856781068441
 30
0.0
 11
-0.2137500000000001
 21
2.617682533177469E-17
 31
0.0
210
0.0
220
0.0
230
1.0
 40
0.7071067811865471
 41
2.237937434749455
 42
7.186840526019924
  0
LINE
  5
E9
330
AC
100
AcDbEntity
  8
AM_4
100
AcDbLine
 10
0.0000000000000001
 20
-0.6200652897943426
 30
0.0
 11
0.0000000000000001
 21
-0.5741878934205316
 31
0.0
  0
LWPOLYLINE
  5
EA
330
AC
100
AcDbEntity
  8
AM_4
100
AcDbPolyline
 90
        3
 70
     0
 43
0.0
 10
0.109375
 20
-0.6711292077983888
 10
0.0546875000000001
 20
-0.6471107536305867
 10
0.0000000000000001
 20
-0.6200652897943426
  0
LWPOLYLINE
  5
EB
330
AC
100
AcDbEntity
  8
AM_4
100
AcDbPolyline
 90
        3
 70
     0
 43
0.0
 10
0.2187499999999999
 20
-0.7093696033333127
 10
0.1643083897258504
 20
-0.6918483432781319
 10
0.109375
 20
-0.6711292077983888
  0
LINE
  5
EC
330
AC
100
AcDbEntity
  8
AM_4
100
AcDbLine
 10
0.21875
 20
-0.8879782304112528
 30
0.0
 11
0.2187499999999999
 21
-0.6542814467043604
 31
0.0
  0
ELLIPSE
  5
ED
330
AC
100
AcDbEntity
  8
AM_4
100
AcDbEllipse
 10
0.0
 20
-0.9005450935670284
 30
0.0
 11
-0.1050000000000005
 21
1.285879139104726E-17
 31
0.0
210
0.0
220
0.0
230
1.0
 40
0.7071067811865497
 41
3.665191429188095
 42
5.759586531581282
  0
LINE
  5
EE
330
AC
100
AcDbEntity
  8
AM_4
100
AcDbLine
 10
-0.090932667397366
 20
-0.8634219875547341
 30
0.0
 11
-0.1169134295108992
 21
-0.8952417927081286
 31
0.0
  0
LINE
  5
EF
330
AC
100
AcDbEntity
  8
AM_4
100
AcDbLine
 10
0.1169134295108992
 20
-0.8952417927081288
 30
0.0
 11
0.0909326673973661
 21
-0.8634219875547341
 31
0.0
  0
LINE
  5
F0
330
AC
100
AcDbEntity
  8
AM_4
100
AcDbLine
 10
0.0939243440009287
 20
-1.028874060296919
 30
0.0
 11
0.1234908992236334
 21
-0.981539607787029
 31
0.0
  0
LINE
  5
F1
330
AC
100
AcDbEntity
  8
AM_4
100
AcDbLine
 10
-0.1234908992236335
 20
-0.981539607787029
 30
0.0
 11
-0.0939243440009287
 21
-1.028874060296919
 31
0.0
  0
ELLIPSE
  5
F2
330
AC
100
AcDbEntity
  8
AM_4
100
AcDbEllipse
 10
-0.0000000000000001
 20
-0.9429715004382202
 30
0.0
 11
-0.1350000000000001
 21
1.653273178848928E-17
 31
0.0
210
0.0
220
0.0
230
1.0
 40
0.7071067811865458
 41
2.725678601487241
 42
6.699099359282138
  0
ELLIPSE
  5
F3
330
AC
100
AcDbEntity
  8
AM_4
100
AcDbEllipse
 10
0.0
 20
-0.9995400429331442
 30
0.0
 11
-0.1026779019331874
 21
1.257441639456438E-17
 31
0.0
210
0.0
220
0.0
230
1.0
 40
0.7071067811865404
 41
0.0
 42
6.283185307179586
  0
ENDBLK
  5
AF
330
AC
100
AcDbEntity
  8
0
100
AcDbBlockEnd
  0
BLOCK
  5
F6
330
F4
100
AcDbEntity
  8
0
100
AcDbBlockBegin
  2
4_1_5_8C_0_in_023125_4
 70
     2
 10
0.0
 20
0.0
 30
0.0
  3
4_1_5_8C_0_in_023125_4
  1

  0
ATTDEF
  5
F8
330
F4
100
AcDbEntity
  8
AM_6
100
AcDbText
 10
6.59375
 20
-1.005
 30
0.0
 40
0.5
  1
E-Type Collar -Inch
100
AcDbAttributeDefinition
  3

  2
NN
 70
     8
280
     0
  0
ATTDEF
  5
F9
330
F4
100
AcDbEntity
  8
AM_6
100
AcDbText
 10
6.59375
 20
-1.505
 30
0.0
 40
0.5
  1
E-Type Bearings
100
AcDbAttributeDefinition
  3

  2
NT
 70
     8
280
     0
  0
ATTDEF
  5
FA
330
F4
100
AcDbEntity
  8
AM_6
100
AcDbText
 10
6.59375
 20
-2.005
 30
0.0
 40
0.5
  1
1-5/8C
100
AcDbAttributeDefinition
  3

  2
NB
 70
     8
280
     0
  0
ATTDEF
  5
FB
330
F4
100
AcDbEntity
  8
AM_6
100
AcDbText
 10
6.59375
 20
-2.505
 30
0.0
 40
0.5
  1
$BORE.C
100
AcDbAttributeDefinition
  3

  2
NBSYN
 70
     8
280
     0
  0
ATTDEF
  5
FC
330
F4
100
AcDbEntity
  8
AM_6
100
AcDbText
 10
6.59375
 20
-3.005
 30
0.0
 40
0.5
  1
1-5/8C
100
AcDbAttributeDefinition
  3

  2
LINA
 70
     8
280
     0
  0
ATTDEF
  5
FD
330
F4
100
AcDbEntity
  8
AM_6
100
AcDbText
 10
6.59375
 20
-3.505
 30
0.0
 40
0.5
  1
1-5/8
100
AcDbAttributeDefinition
  3

  2
BORE
 70
     8
280
     0
  0
ATTDEF
  5
FE
330
F4
100
AcDbEntity
  8
AM_6
100
AcDbText
 10
6.59375
 20
-4.005
 30
0.0
 40
0.5
  1
3.18750
100
AcDbAttributeDefinition
  3

  2
L
 70
     8
280
     0
  0
ATTDEF
  5
FF
330
F4
100
AcDbEntity
  8
AM_6
100
AcDbText
 10
6.59375
 20
-4.505
 30
0.0
 40
0.5
  1
3.38
100
AcDbAttributeDefinition
  3

  2
A
 70
     8
280
     0
  0
ATTDEF
  5
100
330
F4
100
AcDbEntity
  8
AM_6
100
AcDbText
 10
6.59375
 20
-5.005
 30
0.0
 40
0.5
  1
1.50
100
AcDbAttributeDefinition
  3

  2
B
 70
     8
280
     0
  0
ATTDEF
  5
101
330
F4
100
AcDbEntity
  8
AM_6
100
AcDbText
 10
6.59375
 20
-5.505
 30
0.0
 40
0.5
  1
2.06
100
AcDbAttributeDefinition
  3

  2
C
 70
     8
280
     0
  0
ATTDEF
  5
102
330
F4
100
AcDbEntity
  8
AM_6
100
AcDbText
 10
6.59375
 20
-6.005
 30
0.0
 40
0.5
  1
3.25
100
AcDbAttributeDefinition
  3

  2
D
 70
     8
280
     0
  0
ATTDEF
  5
103
330
F4
100
AcDbEntity
  8
AM_6
100
AcDbText
 10
6.59375
 20
-6.505
 30
0.0
 40
0.5
  1
0.35
100
AcDbAttributeDefinition
  3

  2
E
 70
     8
280
     0
  0
ATTDEF
  5
104
330
F4
100
AcDbEntity
  8
AM_6
100
AcDbText
 10
6.59375
 20
-7.005
 30
0.0
 40
0.5
  1
0.28
100
AcDbAttributeDefinition
  3

  2
F
 70
     8
280
     0
  0
ATTDEF
  5
105
330
F4
100
AcDbEntity
  8
AM_6
100
AcDbText
 10
6.59375
 20
-7.505
 30
0.0
 40
0.5
  1
5/16-18
100
AcDbAttributeDefinition
  3

  2
CS
 70
     8
280
     0
  0
ATTDEF
  5
106
330
F4
100
AcDbEntity
  8
AM_6
100
AcDbText
 10
6.59375
 20
-8.004999999999999
 30
0.0
 40
0.5
  1
0.3125
100
AcDbAttributeDefinition
  3

  2
NDM
 70
     8
280
     0
  0
ATTDEF
  5
107
330
F4
100
AcDbEntity
  8
AM_6
100
AcDbText
 10
6.59375
 20
-8.504999999999999
 30
0.0
 40
0.5
  1
0.2520
100
AcDbAttributeDefinition
  3

  2
KDM
 70
     8
280
     0
  0
ATTDEF
  5
108
330
F4
100
AcDbEntity
  8
AM_6
100
AcDbText
 10
6.59375
 20
-9.004999999999999
 30
0.0
 40
0.5
  1
baldor
100
AcDbAttributeDefinition
  3

  2
COMPANY
 70
     8
280
     0
  0
LINE
  5
109
330
F4
100
AcDbEntity
  8
AM_9
100
AcDbLine
 10
0.9667204080673119
 20
-1.173360626202661
 30
0.0
 11
0.9588186057002646
 21
-1.163504814107412
 31
0.0
  0
LINE
  5
10A
330
F4
100
AcDbEntity
  8
AM_9
100
AcDbLine
 10
0.9588039485709549
 20
-1.406513467533361
 30
0.0
 11
0.9667204080673119
 21
-1.396639373797338
 31
0.0
  0
LWPOLYLINE
  5
10B
330
F4
100
AcDbEntity
  8
AM_9
100
AcDbPolyline
 90
       25
 70
     0
 43
0.0
 10
0.9587681927256397
 20
-1.163441934688553
 10
0.9507830359024683
 20
-1.155605260310256
 10
0.9411861948580283
 20
-1.150691538561014
 10
0.9304615446755484
 20
-1.149759337983454
 10
0.9192537850760364
 20
-1.153033471004588
 10
0.9077846982770169
 20
-1.160600752480753
 10
0.8966001711739581
 20
-1.17224012113757
 10
0.8863394900795762
 20
-1.18747660116828
 10
0.8773099536379885
 20
-1.206069779287331
 10
0.8703783002532647
 20
-1.226401886865825
 10
0.8654291956609248
 20
-1.2487605724102
 10
0.8629620940377312
 20
-1.270539899785714
 10
0.8626208703802716
 20
-1.29277526370562
 10
0.8643096398213262
 20
-1.313528298899274
 10
0.8678149661738616
 20
-1.333490383472098
 10
0.8730221968277878
 20
-1.352283698131492
 10
0.8796242678615747
 20
-1.369326636269272
 10
0.8878597638570163
 20
-1.385118201389452
 10
0.8969912772847339
 20
-1.398246269160133
 10
0.9074231362706907
 20
-1.409094504743316
 10
0.9181139245863295
 20
-1.416404346588579
 10
0.9292472675127308
 20
-1.420086372368504
 10
0.9399411462321278
 20
-1.4196442526852
 10
0.9500774323464596
 20
-1.414904798856063
 10
0.9587685337061687
 20
-1.406557640018554
  0
LWPOLYLINE
  5
10C
330
F4
100
AcDbEntity
  8
AM_9
100
AcDbPolyline
 90
       12
 70
     0
 43
0.0
 10
0.963211097536533
 20
-1.400230731823715
 10
0.9671228985571823
 20
-1.393116433877428
 10
0.9737403141308678
 20
-1.376582906120251
 10
0.9787827345822123
 20
-1.357562102812569
 10
0.9824922755808618
 20
-1.336011188780093
 10
0.9846796929994062
 20
-1.314339595658369
 10
0.985658209908501
 20
-1.291704484274783
 10
0.98545879621318
 20
-1.270458653744419
 10
0.9842069558582295
 20
-1.249632304702638
 10
0.9819465546978772
 20
-1.230104663110747
 10
0.9786999673425223
 20
-1.212020782964523
 10
0.971538072778752
 20
-1.187116833062567
  0
LWPOLYLINE
  5
10D
330
F4
100
AcDbEntity
  8
AM_9
100
AcDbPolyline
 90
        3
 70
     0
 43
0.0
 10
0.9587685337061687
 20
-1.406557640018554
 10
0.9592213460049213
 20
-1.40598522440442
 10
0.963211097536533
 20
-1.400230731823715
  0
LINE
  5
10E
330
F4
100
AcDbEntity
  8
AM_9
100
AcDbLine
 10
0.9418501574182705
 20
-1.4112
 30
0.0
 11
1.41719348658921
 21
-1.4112
 31
0.0
  0
LINE
  5
10F
330
F4
100
AcDbEntity
  8
AM_9
100
AcDbLine
 10
1.41719348658921
 20
-1.1588
 30
0.0
 11
0.9418501574182705
 21
-1.1588
 31
0.0
  0
ELLIPSE
  5
110
330
F4
100
AcDbEntity
  8
AM_9
100
AcDbEllipse
 10
1.417193486589209
 20
-1.285
 30
0.0
 11
-2.318256390785945E-17
 21
-0.1262000000000003
 31
0.0
210
0.0
220
0.0
230
1.0
 40
0.4226182617406948
 41
3.440988769986289
 42
5.977300048589885
  0
LINE
  5
111
330
F4
100
AcDbEntity
  8
AM_9
100
AcDbLine
 10
1.392323235940168
 20
-1.396639373797338
 30
0.0
 11
1.412298093225979
 21
-1.421553745341148
 31
0.0
  0
LINE
  5
112
330
F4
100
AcDbEntity
  8
AM_9
100
AcDbLine
 10
1.412423210362353
 20
-1.148290197733011
 30
0.0
 11
1.392323235940168
 21
-1.173360626202661
 31
0.0
  0
LWPOLYLINE
  5
113
330
F4
100
AcDbEntity
  8
AM_9
100
AcDbPolyline
 90
       39
 70
     0
 43
0.0
 10
-0.1011837417154408
 20
-1.187667359787583
 10
-0.1154451229961465
 20
-1.202477477419786
 10
-0.1275895126737132
 20
-1.219654393636443
 10
-0.1375725029473159
 20
-1.240322012062167
 10
-0.1438745639902258
 20
-1.263214106283163
 10
-0.1457850944573374
 20
-1.284487530474031
 10
-0.1439354379935644
 20
-1.306438395267772
 10
-0.1387727767224051
 20
-1.326369843428373
 10
-0.130229636918921
 20
-1.345703936932307
 10
-0.1186768172277754
 20
-1.363475561672248
 10
-0.1041315660981357
 20
-1.379611883531862
 10
-0.0864699337885847
 20
-1.393897243092783
 10
-0.0662765237808752
 20
-1.405531134445214
 10
-0.0435455198347378
 20
-1.414196442012869
 10
-0.0190623504813151
 20
-1.419246449480167
 10
0.006242112885366
 20
-1.420291658032939
 10
0.0320838252594817
 20
-1.417075427349383
 10
0.0565610929496598
 20
-1.409747146372806
 10
0.0800977413472436
 20
-1.398033245786088
 10
0.1002674196002241
 20
-1.383147654098444
 10
0.1180164255137941
 20
-1.364328395851474
 10
0.1309257165826895
 20
-1.344403331636061
 10
0.1402989398493221
 20
-1.321688340667502
 10
0.1448503976764756
 20
-1.300267540522129
 10
0.1455701751135889
 20
-1.277656395295419
 10
0.1426543100415953
 20
-1.25717173964392
 10
0.1362208359348283
 20
-1.236898058575515
 10
0.126773481698521
 20
-1.218302805808237
 10
0.1142060426877189
 20
-1.201005404729402
 10
0.0985328443793694
 20
-1.18534745347145
 10
0.0801509260258044
 20
-1.171999373010244
 10
0.0589090895114281
 20
-1.161198321888069
 10
0.0356057842945722
 20
-1.153710214943634
 10
0.0108061051736483
 20
-1.149958311504049
 10
-0.0149793067815122
 20
-1.150304761947525
 10
-0.0401264711674594
 20
-1.154846552164755
 10
-0.0648396314262634
 20
-1.163793764097206
 10
-0.0837044041666546
 20
-1.174250141863335
 10
-0.1011837417154407
 20
-1.187667359787583
  0
LWPOLYLINE
  5
114
330
F4
100
AcDbEntity
  8
AM_9
100
AcDbPolyline
 90
        3
 70
     0
 43
0.0
 10
0.9644247942636388
 20
-1.17179979237067
 10
0.9594602770504526
 20
-1.164323037174168
 10
0.9587681927256397
 20
-1.163441934688553
  0
LWPOLYLINE
  5
115
330
F4
100
AcDbEntity
  8
AM_9
100
AcDbPolyline
 90
        3
 70
     0
 43
0.0
 10
0.971538072778752
 20
-1.187116833062567
 10
0.9659135475690981
 20
-1.174502989187922
 10
0.9644247942636388
 20
-1.17179979237067
  0
LINE
  5
116
330
F4
100
AcDbEntity
  8
AM_9
100
AcDbLine
 10
1.03
 20
-1.565
 30
0.0
 11
1.03
 21
-1.005
 31
0.0
  0
LINE
  5
117
330
F4
100
AcDbEntity
  8
AM_9
100
AcDbLine
 10
-1.03
 20
-1.005
 30
0.0
 11
-1.03
 21
-1.565
 31
0.0
  0
LINE
  5
118
330
F4
100
AcDbEntity
  8
AM_9
100
AcDbLine
 10
-1.59375
 20
-1.005
 30
0.0
 11
1.59375
 21
-1.005
 31
0.0
  0
LINE
  5
119
330
F4
100
AcDbEntity
  8
AM_9
100
AcDbLine
 10
1.59375
 20
-1.03125
 30
0.0
 11
1.59375
 21
-1.005
 31
0.0
  0
LINE
  5
11A
330
F4
100
AcDbEntity
  8
AM_9
100
AcDbLine
 10
-1.59375
 20
-1.005
 30
0.0
 11
-1.59375
 21
-1.03125
 31
0.0
  0
ELLIPSE
  5
11B
330
F4
100
AcDbEntity
  8
AM_9
100
AcDbEllipse
 10
0.9418501574182704
 20
-1.285
 30
0.0
 11
-2.318256390785937E-17
 21
-0.1261999999999999
 31
0.0
210
0.0
220
0.0
230
1.0
 40
0.4226182617406998
 41
0.0
 42
6.283185307179586
  0
LINE
  5
11E
330
F4
100
AcDbEntity
  8
AM_7
100
AcDbLine
 10
-0.13251
 20
-1.285
 30
0.0
 11
0.13251
 21
-1.285
 31
0.0
  0
ELLIPSE
  5
11F
330
F4
100
AcDbEntity
  8
AM_4
100
AcDbEllipse
 10
1.41719348658921
 20
-1.285
 30
0.0
 11
-2.318256390785941E-17
 21
-0.1262000000000001
 31
0.0
210
0.0
220
0.0
230
1.0
 40
0.4226182617406991
 41
5.977300048589879
 42
9.724174077165882
  0
LWPOLYLINE
  5
120
330
F4
100
AcDbEntity
  8
AM_4
100
AcDbPolyline
 90
       15
 70
     0
 43
0.0
 10
1.412469598125106
 20
-1.421767659278356
 10
1.408344249386117
 20
-1.416222479355882
 10
1.399283240159242
 20
-1.400853208639565
 10
1.391335558933705
 20
-1.382627433708658
 10
1.38451502484477
 20
-1.361071226220943
 10
1.379410316808001
 20
-1.337567664558427
 10
1.376129964065041
 20
-1.311697724623304
 10
1.375006443257807
 20
-1.285108152414684
 10
1.376163287507714
 20
-1.257917962225475
 10
1.379573665205638
 20
-1.231491165259019
 10
1.385149757490721
 20
-1.206587030362224
 10
1.392646066615423
 20
-1.183963648093419
 10
1.401585776636542
 20
-1.164785863312418
 10
1.411753716344935
 20
-1.149137214481603
 10
1.412474108674615
 20
-1.148226713401366
  0
LWPOLYLINE
  5
121
330
F4
100
AcDbEntity
  8
AM_4
100
AcDbPolyline
 90
        8
 70
     0
 43
0.0
 10
1.412474108674615
 20
-1.148226713401366
 10
1.422297646823276
 20
-1.138052410748301
 10
1.433237198584817
 20
-1.131147953907422
 10
1.443697960952229
 20
-1.128777463179808
 10
1.453848385772074
 20
-1.130560676893019
 10
1.463197458824012
 20
-1.136327242269759
 10
1.471760328143888
 20
-1.145810563615015
 10
1.482560010928953
 20
-1.165849510248892
  0
LINE
  5
122
330
F4
100
AcDbEntity
  8
AM_4
100
AcDbLine
 10
-1.500416666666667
 20
-1.565
 30
0.0
 11
1.500416661090452
 21
-1.565
 31
0.0
  0
ARC
  5
123
330
F4
100
AcDbEntity
  8
AM_4
100
AcDbCircle
 10
1.500416666666666
 20
-1.471666666666666
 30
0.0
 40
0.0933333333333337
100
AcDbArc
 50
270.0
 51
0.0
  0
ARC
  5
124
330
F4
100
AcDbEntity
  8
AM_4
100
AcDbCircle
 10
-1.500416666666666
 20
-1.471666666666666
 30
0.0
 40
0.0933333333333337
100
AcDbArc
 50
180.0
 51
270.0
  0
LINE
  5
125
330
F4
100
AcDbEntity
  8
AM_4
100
AcDbLine
 10
-1.59375
 20
-1.471666666666666
 30
0.0
 11
1.59375
 21
-1.471666666666666
 31
0.0
  0
LWPOLYLINE
  5
126
330
F4
100
AcDbEntity
  8
AM_4
100
AcDbPolyline
 90
       19
 70
     0
 43
0.0
 10
1.482560010928953
 20
-1.165849510248892
 10
1.488305712360381
 20
-1.182178609735321
 10
1.49301497603373
 20
-1.200647004987601
 10
1.497092622412375
 20
-1.223887287332711
 10
1.49977200700529
 20
-1.24872381104208
 10
1.50105607980982
 20
-1.275387277666545
 10
1.500844154857959
 20
-1.302313924642639
 10
1.499082651914847
 20
-1.329171625897947
 10
1.495777183424114
 20
-1.35476960305444
 10
1.490951543836946
 20
-1.378179726787317
 10
1.484630869172296
 20
-1.398862607660419
 10
1.477098626506997
 20
-1.415622498636584
 10
1.468316551018665
 20
-1.428566828964733
 10
1.458907386571153
 20
-1.436841925913577
 10
1.448733148524026
 20
-1.440879859576699
 10
1.438495084868227
 20
-1.440553023449874
 10
1.428106434541907
 20
-1.436183521067353
 10
1.417984585061841
 20
-1.427969767863824
 10
1.412469598125106
 20
-1.421767659278356
  0
LINE
  5
127
330
F4
100
AcDbEntity
  8
AM_4
100
AcDbLine
 10
1.59375
 20
-1.471666666666666
 30
0.0
 11
1.59375
 21
-1.03125
 31
0.0
  0
LINE
  5
128
330
F4
100
AcDbEntity
  8
AM_4
100
AcDbLine
 10
-1.59375
 20
-1.03125
 30
0.0
 11
-1.59375
 21
-1.471666666666666
 31
0.0
  0
LWPOLYLINE
  5
129
330
F4
100
AcDbEntity
  8
AM_4
100
AcDbPolyline
 90
       39
 70
     0
 43
0.0
 10
-0.1078408707958413
 20
-1.177035741360839
 10
-0.0915725948497263
 20
-1.161660374216307
 10
-0.0727605875675605
 20
-1.148605643806728
 10
-0.0501514217363862
 20
-1.137850842838766
 10
-0.0252416424697722
 20
-1.131004892053767
 10
-0.0013060493819306
 20
-1.12875599370405
 10
0.0233870515485721
 20
-1.130683727619191
 10
0.0462411705893544
 20
-1.13645172248989
 10
0.0684335563721543
 20
-1.146170150415563
 10
0.0885060115918031
 20
-1.159229446524596
 10
0.1066833832645648
 20
-1.175782669028554
 10
0.1221760824480097
 20
-1.195314577097021
 10
0.134655414533221
 20
-1.217667852795879
 10
0.143513142731111
 20
-1.24214403571168
 10
0.148404859236843
 20
-1.268444257258941
 10
0.1489264538258834
 20
-1.29521832858838
 10
0.1448859546051897
 20
-1.322461597008439
 10
0.1365215069072493
 20
-1.348084275756936
 10
0.1235432962336687
 20
-1.372609886466756
 10
0.1072941926797266
 20
-1.393559562986879
 10
0.0870216489086261
 20
-1.411901400593611
 10
0.0653826807023177
 20
-1.425433912963624
 10
0.0409349908565591
 20
-1.43524765109706
 10
0.0170963338170844
 20
-1.44021961892295
 10
-0.0079977517940663
 20
-1.441025087232003
 10
-0.0313992976286342
 20
-1.43774676590925
 10
-0.0545708938468402
 20
-1.430412890510342
 10
-0.0757157562579924
 20
-1.419618204764219
 10
-0.0953464980001579
 20
-1.405163171163253
 10
-0.1125268499456319
 20
-1.387589660610772
 10
-0.1270406324693655
 20
-1.366949076791517
 10
-0.1382476566515119
 20
-1.343825438722636
 10
-0.1457662842297963
 20
-1.318516886619148
 10
-0.1490907977091018
 20
-1.292129486913697
 10
-0.1479924054864416
 20
-1.264804746460741
 10
-0.1424479029791917
 20
-1.238416711546491
 10
-0.1322393461045042
 20
-1.21261475662862
 10
-0.1213875750378428
 20
-1.194149312092224
 10
-0.107840870875632
 20
-1.177035741310885
  0
CIRCLE
  5
12A
330
F4
100
AcDbEntity
  8
AM_4
100
AcDbCircle
 10
0.0
 20
-1.285
 30
0.0
 40
0.1262
  0
CIRCLE
  5
12C
330
F4
100
AcDbEntity
  8
AM_5
100
AcDbCircle
 10
0.0
 20
-1.285
 30
0.0
 40
0.15625
  0
ENDBLK
  5
F7
330
F4
100
AcDbEntity
  8
0
100
AcDbBlockEnd
  0
BLOCK
  5
12F
330
12D
100
AcDbEntity
  8
0
100
AcDbBlockBegin
  2
5_1_5_8I_0_in_023125_4
 70
     2
 10
0.0
 20
0.0
 30
0.0
  3
5_1_5_8I_0_in_023125_4
  1

  0
ATTDEF
  5
131
330
12D
100
AcDbEntity
  8
AM_6
100
AcDbText
 10
6.625
 20
1.815
 30
0.0
 40
0.5
  1
E-Type Insert -Inch
100
AcDbAttributeDefinition
  3

  2
NN
 70
     8
280
     0
  0
ATTDEF
  5
132
330
12D
100
AcDbEntity
  8
AM_6
100
AcDbText
 10
6.625
 20
1.315
 30
0.0
 40
0.5
  1
E-Type Bearings
100
AcDbAttributeDefinition
  3

  2
NT
 70
     8
280
     0
  0
ATTDEF
  5
133
330
12D
100
AcDbEntity
  8
AM_6
100
AcDbText
 10
6.625
 20
0.815
 30
0.0
 40
0.5
  1
1-5/8I
100
AcDbAttributeDefinition
  3

  2
NB
 70
     8
280
     0
  0
ATTDEF
  5
134
330
12D
100
AcDbEntity
  8
AM_6
100
AcDbText
 10
6.625
 20
0.3149999999999999
 30
0.0
 40
0.5
  1
$BORE.I
100
AcDbAttributeDefinition
  3

  2
NBSYN
 70
     8
280
     0
  0
ATTDEF
  5
135
330
12D
100
AcDbEntity
  8
AM_6
100
AcDbText
 10
6.625
 20
-0.1850000000000001
 30
0.0
 40
0.5
  1
1-5/8I
100
AcDbAttributeDefinition
  3

  2
LINA
 70
     8
280
     0
  0
ATTDEF
  5
136
330
12D
100
AcDbEntity
  8
AM_6
100
AcDbText
 10
6.625
 20
-0.685
 30
0.0
 40
0.5
  1
1-5/8
100
AcDbAttributeDefinition
  3

  2
BORE
 70
     8
280
     0
  0
ATTDEF
  5
137
330
12D
100
AcDbEntity
  8
AM_6
100
AcDbText
 10
6.625
 20
-1.185
 30
0.0
 40
0.5
  1
3.38
100
AcDbAttributeDefinition
  3

  2
A
 70
     8
280
     0
  0
ATTDEF
  5
138
330
12D
100
AcDbEntity
  8
AM_6
100
AcDbText
 10
6.625
 20
-1.685
 30
0.0
 40
0.5
  1
1.50
100
AcDbAttributeDefinition
  3

  2
B
 70
     8
280
     0
  0
ATTDEF
  5
139
330
12D
100
AcDbEntity
  8
AM_6
100
AcDbText
 10
6.625
 20
-2.185
 30
0.0
 40
0.5
  1
2.06
100
AcDbAttributeDefinition
  3

  2
C
 70
     8
280
     0
  0
ATTDEF
  5
13A
330
12D
100
AcDbEntity
  8
AM_6
100
AcDbText
 10
6.625
 20
-2.685
 30
0.0
 40
0.5
  1
3.25
100
AcDbAttributeDefinition
  3

  2
D
 70
     8
280
     0
  0
ATTDEF
  5
13B
330
12D
100
AcDbEntity
  8
AM_6
100
AcDbText
 10
6.625
 20
-3.185
 30
0.0
 40
0.5
  1
0.35
100
AcDbAttributeDefinition
  3

  2
E
 70
     8
280
     0
  0
ATTDEF
  5
13C
330
12D
100
AcDbEntity
  8
AM_6
100
AcDbText
 10
6.625
 20
-3.685
 30
0.0
 40
0.5
  1
0.28
100
AcDbAttributeDefinition
  3

  2
F
 70
     8
280
     0
  0
ATTDEF
  5
13D
330
12D
100
AcDbEntity
  8
AM_6
100
AcDbText
 10
6.625
 20
-4.185
 30
0.0
 40
0.5
  1
baldor
100
AcDbAttributeDefinition
  3

  2
COMPANY
 70
     8
280
     0
  0
LINE
  5
13E
330
12D
100
AcDbEntity
  8
AM_9
100
AcDbLine
 10
0.933406967096689
 20
-1.109999985
 30
0.0
 11
0.7363153930758423
 21
-1.109999985
 31
0.0
  0
LINE
  5
13F
330
12D
100
AcDbEntity
  8
AM_9
100
AcDbLine
 10
0.7362580497185808
 20
-1.459999995
 30
0.0
 11
0.9334721012774542
 21
-1.459999995
 31
0.0
  0
LWPOLYLINE
  5
140
330
12D
100
AcDbEntity
  8
AM_9
100
AcDbPolyline
 90
       21
 70
     0
 43
0.0
 10
0.7363700474216046
 20
-1.45999999459535
 10
0.7439350273799846
 20
-1.459037177068947
 10
0.754737973609477
 20
-1.453769800557712
 10
0.7644870869367244
 20
-1.443723037086314
 10
0.7725821594111495
 20
-1.429624207088116
 10
0.7793835398161886
 20
-1.411148971271251
 10
0.7846607124607297
 20
-1.389324814383771
 10
0.7886603251949891
 20
-1.363843297650983
 10
0.7912704425707724
 20
-1.336747513547259
 10
0.7927317284529617
 20
-1.307277136492469
 10
0.7930237811557207
 20
-1.278579168557998
 10
0.792218713443051
 20
-1.249224448060015
 10
0.7903557503480383
 20
-1.222012906937192
 10
0.7872533346109005
 20
-1.195813386231443
 10
0.78291263666227
 20
-1.172400809281279
 10
0.7770207497636128
 20
-1.151506153372695
 10
0.7696800557372491
 20
-1.134547516833196
 10
0.7605251854811149
 20
-1.121452949173565
 10
0.7502140598575553
 20
-1.113394110948561
 10
0.7382482903044217
 20
-1.110056792588434
 10
0.7363823954164275
 20
-1.109999985856827
  0
LWPOLYLINE
  5
141
330
12D
100
AcDbEntity
  8
AM_9
100
AcDbPolyline
 90
       11
 70
     0
 43
0.0
 10
0.7363823954164275
 20
-1.109999985856827
 10
0.7258782141611746
 20
-1.111663600909304
 10
0.7125362722706864
 20
-1.118134292772486
 10
0.6994703286784129
 20
-1.128874788999678
 10
0.6864227557051448
 20
-1.144177152416158
 10
0.6744237043666822
 20
-1.163175517334113
 10
0.6636149320746311
 20
-1.186166600347256
 10
0.6550228397977867
 20
-1.211603799009793
 10
0.6487776252242826
 20
-1.239991379528977
 10
0.6460693963425982
 20
-1.262095539561313
 10
0.6451336371546924
 20
-1.28499999
  0
LWPOLYLINE
  5
142
330
12D
100
AcDbEntity
  8
AM_9
100
AcDbPolyline
 90
       11
 70
     0
 43
0.0
 10
0.9930334456599413
 20
-1.318167447026607
 10
0.9927961127968477
 20
-1.322439832916952
 10
0.9904517085347827
 20
-1.350189392959298
 10
0.986764272738104
 20
-1.376128414503806
 10
0.981620023083993
 20
-1.399735947406816
 10
0.9750265886903533
 20
-1.420151782990281
 10
0.9668591854601607
 20
-1.436931204251622
 10
0.9572524579673861
 20
-1.44940907163009
 10
0.9463564324889124
 20
-1.457128049136432
 10
0.9343731424105852
 20
-1.459987662239814
 10
0.9335019628891394
 20
-1.459999994609255
  0
LWPOLYLINE
  5
143
330
12D
100
AcDbEntity
  8
AM_9
100
AcDbPolyline
 90
       10
 70
     0
 43
0.0
 10
0.9334910682432999
 20
-1.109999985566771
 10
0.9413906078551408
 20
-1.111040582583733
 10
0.9526098264372277
 20
-1.116614353994253
 10
0.9626452492260287
 20
-1.1267929839953
 10
0.9713534976058056
 20
-1.141420967717919
 10
0.978631853256608
 20
-1.159992807105194
 10
0.9845091840343067
 20
-1.182350544529248
 10
0.9889297833757936
 20
-1.207622801815771
 10
0.99192683880771
 20
-1.235179780743919
 10
0.9931440961666183
 20
-1.254038767394483
  0
LWPOLYLINE
  5
144
330
12D
100
AcDbEntity
  8
AM_9
100
AcDbPolyline
 90
       10
 70
     0
 43
0.0
 10
0.9335019628891394
 20
-1.459999994609255
 10
0.921756740980353
 20
-1.457885424062273
 10
0.9087646734514537
 20
-1.451022135288609
 10
0.895851361884348
 20
-1.439554491115448
 10
0.8834879434300219
 20
-1.423867174374054
 10
0.8720518127680634
 20
-1.404085393668289
 10
0.8621811596876167
 20
-1.380966529185131
 10
0.8543161662586588
 20
-1.35490986657823
 10
0.8488916617276124
 20
-1.326833074720056
 10
0.8459665277242596
 20
-1.28499999
  0
LINE
  5
145
330
12D
100
AcDbEntity
  8
AM_9
100
AcDbLine
 10
0.9334069670966894
 20
1.709999995
 30
0.0
 11
0.7363153930758425
 21
1.709999995
 31
0.0
  0
LINE
  5
146
330
12D
100
AcDbEntity
  8
AM_9
100
AcDbLine
 10
0.7362580497185808
 20
1.359999985
 30
0.0
 11
0.9334721012774546
 21
1.359999985
 31
0.0
  0
LWPOLYLINE
  5
147
330
12D
100
AcDbEntity
  8
AM_9
100
AcDbPolyline
 90
        4
 70
     0
 43
0.0
 10
0.7548362034616964
 20
1.703696926748662
 10
0.7502140598575553
 20
1.706605869051439
 10
0.7382482903044217
 20
1.709943187411566
 10
0.7363823954164275
 20
1.709999994143172
  0
LWPOLYLINE
  5
148
330
12D
100
AcDbEntity
  8
AM_9
100
AcDbPolyline
 90
       14
 70
     0
 43
0.0
 10
0.7829970556002631
 20
1.422772562723595
 10
0.7846607124607297
 20
1.430675165616229
 10
0.7886603251949891
 20
1.456156682349017
 10
0.7912704425707724
 20
1.483252466452741
 10
0.7927317284529617
 20
1.512722843507531
 10
0.7930237811557207
 20
1.541420811442002
 10
0.792218713443051
 20
1.570775531939985
 10
0.7903557503480383
 20
1.597987073062808
 10
0.7872533346109005
 20
1.624186593768556
 10
0.78291263666227
 20
1.647599170718721
 10
0.7770207497636128
 20
1.668493826627305
 10
0.7696800557372491
 20
1.685452463166804
 10
0.7605251854811149
 20
1.698547030826435
 10
0.7548362034616964
 20
1.703696926748662
  0
LWPOLYLINE
  5
149
330
12D
100
AcDbEntity
  8
AM_9
100
AcDbPolyline
 90
        7
 70
     0
 43
0.0
 10
0.7363700474216046
 20
1.35999998540465
 10
0.7439350273799846
 20
1.360962802931053
 10
0.754737973609477
 20
1.366230179442288
 10
0.7644870869367244
 20
1.376276942913685
 10
0.7725821594111495
 20
1.390375772911884
 10
0.7793835398161886
 20
1.408851008728749
 10
0.7829970556002631
 20
1.422772562723595
  0
LWPOLYLINE
  5
14A
330
12D
100
AcDbEntity
  8
AM_9
100
AcDbPolyline
 90
       11
 70
     0
 43
0.0
 10
0.7363823954164275
 20
1.709999994143172
 10
0.7258782141611746
 20
1.708336379090695
 10
0.7125362722706864
 20
1.701865687227514
 10
0.6994703286784129
 20
1.691125191000322
 10
0.6864227557051448
 20
1.675822827583841
 10
0.6744237043666822
 20
1.656824462665887
 10
0.6636149320746311
 20
1.633833379652744
 10
0.6550228397977867
 20
1.608396180990207
 10
0.6487776252242826
 20
1.580008600471023
 10
0.6460693963425982
 20
1.557904440438687
 10
0.6451336371546924
 20
1.53499999
  0
LWPOLYLINE
  5
14B
330
12D
100
AcDbEntity
  8
AM_9
100
AcDbPolyline
 90
        8
 70
     0
 43
0.0
 10
0.9823225193338307
 20
1.422948119517703
 10
0.9816200230839934
 20
1.420264032593184
 10
0.9750265886903537
 20
1.399848197009719
 10
0.9668591854601613
 20
1.383068775748378
 10
0.9572524579673867
 20
1.370590908369909
 10
0.946356432488913
 20
1.362871930863567
 10
0.9343731424105857
 20
1.360012317760186
 10
0.93350196288914
 20
1.359999985390745
  0
LWPOLYLINE
  5
14C
330
12D
100
AcDbEntity
  8
AM_9
100
AcDbPolyline
 90
       13
 70
     0
 43
0.0
 10
0.9528876652927037
 20
1.703198716512303
 10
0.9626452492260292
 20
1.6932069960047
 10
0.9713534976058061
 20
1.678579012282081
 10
0.9786318532566084
 20
1.660007172894806
 10
0.9845091840343072
 20
1.637649435470752
 10
0.9889297833757942
 20
1.612377178184229
 10
0.9919268388077105
 20
1.584820199256081
 10
0.9935511922526679
 20
1.555818684790949
 10
0.9938266480901627
 20
1.526569266549458
 10
0.9927961127968481
 20
1.497560147083048
 10
0.9904517085347833
 20
1.469810587040702
 10
0.9867642727381044
 20
1.443871565496194
 10
0.9823225193338307
 20
1.422948119517703
  0
LWPOLYLINE
  5
14D
330
12D
100
AcDbEntity
  8
AM_9
100
AcDbPolyline
 90
        4
 70
     0
 43
0.0
 10
0.9334910682433003
 20
1.709999994433229
 10
0.9413906078551412
 20
1.708959397416267
 10
0.9526098264372282
 20
1.703385626005747
 10
0.9528876652927037
 20
1.703198716512303
  0
LWPOLYLINE
  5
14E
330
12D
100
AcDbEntity
  8
AM_9
100
AcDbPolyline
 90
        5
 70
     0
 43
0.0
 10
0.8687814231071668
 20
1.422776492527836
 10
0.8621811596876171
 20
1.439033450814868
 10
0.8543161662586595
 20
1.46509011342177
 10
0.8488916617276129
 20
1.493166905279944
 10
0.8459665277242601
 20
1.53499999
  0
LWPOLYLINE
  5
14F
330
12D
100
AcDbEntity
  8
AM_9
100
AcDbPolyline
 90
        7
 70
     0
 43
0.0
 10
0.93350196288914
 20
1.359999985390745
 10
0.9217567409803534
 20
1.362114555937727
 10
0.9087646734514542
 20
1.368977844711391
 10
0.8958513618843487
 20
1.380445488884552
 10
0.8834879434300225
 20
1.396132805625946
 10
0.872051812768064
 20
1.415914586331711
 10
0.8687814231071668
 20
1.422776492527836
  0
LWPOLYLINE
  5
150
330
12D
100
AcDbEntity
  8
AM_9
100
AcDbPolyline
 90
       11
 70
     0
 43
0.0
 10
0.6451336371546924
 20
1.53499999
 10
0.6465929423061214
 20
1.506420086883961
 10
0.6510536250816316
 20
1.477840183767922
 10
0.6580095175231595
 20
1.451676169186973
 10
0.6674666625767587
 20
1.427137205238761
 10
0.6786130393609572
 20
1.405908926665857
 10
0.6914021086042295
 20
1.38775465711883
 10
0.7046939412727893
 20
1.374057467148584
 10
0.718559311868689
 20
1.364641847356539
 10
0.731463229297327
 20
1.360374926966625
 10
0.7363700474216046
 20
1.35999998540465
  0
LWPOLYLINE
  5
151
330
12D
100
AcDbEntity
  8
AM_9
100
AcDbPolyline
 90
       11
 70
     0
 43
0.0
 10
0.6451336371546924
 20
-1.28499999
 10
0.6465929423061214
 20
-1.313579893116039
 10
0.6510536250816316
 20
-1.342159796232078
 10
0.6580095175231595
 20
-1.368323810813027
 10
0.6674666625767587
 20
-1.392862774761239
 10
0.6786130393609572
 20
-1.414091053334143
 10
0.6914021086042295
 20
-1.43224532288117
 10
0.7046939412727893
 20
-1.445942512851416
 10
0.718559311868689
 20
-1.455358132643461
 10
0.731463229297327
 20
-1.459625053033375
 10
0.7363700474216046
 20
-1.45999999459535
  0
LINE
  5
152
330
12D
100
AcDbEntity
  8
AM_9
100
AcDbLine
 10
0.8125
 20
-1.565
 30
0.0
 11
0.8125
 21
1.815
 31
0.0
  0
LINE
  5
153
330
12D
100
AcDbEntity
  8
AM_9
100
AcDbLine
 10
-0.8125
 20
1.815
 30
0.0
 11
-0.8125
 21
-1.565
 31
0.0
  0
LWPOLYLINE
  5
154
330
12D
100
AcDbEntity
  8
AM_9
100
AcDbPolyline
 90
        5
 70
     0
 43
0.0
 10
-0.1342725223035635
 20
1.422768570583514
 10
-0.1463401008159713
 20
1.439033450814868
 10
-0.1602526325185529
 20
1.464685727429212
 10
-0.1699264392989056
 20
1.493166905279944
 10
-0.175000005
 20
1.53499999
  0
LWPOLYLINE
  5
155
330
12D
100
AcDbEntity
  8
AM_9
100
AcDbPolyline
 90
       13
 70
     0
 43
0.0
 10
0.1344451018662649
 20
1.422975366215005
 10
0.132398191321982
 20
1.420563454380173
 10
0.1111710151141572
 20
1.399848197009719
 10
0.0871896010224024
 20
1.383266752956976
 10
0.0599554470215202
 20
1.370590908369909
 10
0.0319026262633966
 20
1.362932491071533
 10
0.0020775740881092
 20
1.360012317760186
 10
-0.0265972567671945
 20
1.362032976721572
 10
-0.0553321698812545
 20
1.368977844711391
 10
-0.0816982224249435
 20
1.380240815142402
 10
-0.1064936939636449
 20
1.396132805625946
 10
-0.1279391838386944
 20
1.415599123216342
 10
-0.1342725223035635
 20
1.422768570583514
  0
LWPOLYLINE
  5
156
330
12D
100
AcDbEntity
  8
AM_9
100
AcDbPolyline
 90
       13
 70
     0
 43
0.0
 10
0.0482692517947513
 20
1.703211407808586
 10
0.0748033755991585
 20
1.6932069960047
 10
0.0996967156193428
 20
1.678824767575756
 10
0.1224671628425539
 20
1.660007172894806
 10
0.1414768910395146
 20
1.638001402863093
 10
0.1569642395537992
 20
1.612377178184229
 10
0.167632362379734
 20
1.58524332620481
 10
0.1737572550922732
 20
1.555818684790949
 10
0.1748167443500403
 20
1.52699326502329
 10
0.1709481205288726
 20
1.497560147083048
 10
0.1625538603812618
 20
1.470182984321326
 10
0.1494008433625931
 20
1.443871565496194
 10
0.1344451018662649
 20
1.422975366215005
  0
LWPOLYLINE
  5
157
330
12D
100
AcDbEntity
  8
AM_9
100
AcDbPolyline
 90
        6
 70
     0
 43
0.0
 10
-0.0468949920959216
 20
1.703599697788369
 10
-0.0394227875046923
 20
1.705501736546362
 10
-0.0107628719445046
 20
1.709668711691968
 10
0.0190558736714258
 20
1.708959397416267
 10
0.0472026512568565
 20
1.703513821670648
 10
0.0482692517947513
 20
1.703211407808586
  0
LWPOLYLINE
  5
158
330
12D
100
AcDbEntity
  8
AM_9
100
AcDbPolyline
 90
        9
 70
     0
 43
0.0
 10
-0.175000005
 20
1.53499999
 10
-0.1726263690378035
 20
1.56372521345995
 10
-0.1653010825696664
 20
1.592450436919901
 10
-0.1536562773408699
 20
1.618754095473975
 10
-0.1373710428496999
 20
1.643416770695545
 10
-0.1175946500573113
 20
1.664601301829389
 10
-0.0938853115346675
 20
1.682683943183948
 10
-0.0680387490798641
 20
1.696231904873102
 10
-0.0468949920959216
 20
1.703599697788369
  0
LWPOLYLINE
  5
159
330
12D
100
AcDbEntity
  8
AM_9
100
AcDbPolyline
 90
        4
 70
     0
 43
0.0
 10
0.912703476665594
 20
1.70359559701416
 10
0.9161522209719511
 20
1.705501736546362
 10
0.9290782495408499
 20
1.709676351199322
 10
0.9334910682433003
 20
1.709999994433229
  0
LWPOLYLINE
  5
15A
330
12D
100
AcDbEntity
  8
AM_9
100
AcDbPolyline
 90
        9
 70
     0
 43
0.0
 10
0.8459665277242601
 20
1.53499999
 10
0.8473908169837013
 20
1.564138790627999
 10
0.8515378109601575
 20
1.592450436919901
 10
0.8582320322721483
 20
1.619105988742582
 10
0.8671019490617248
 20
1.643416770695545
 10
0.8778622293213709
 20
1.66486842346946
 10
0.8899333206720903
 20
1.682683943183948
 10
0.9028958023103457
 20
1.696383448058633
 10
0.912703476665594
 20
1.70359559701416
  0
LINE
  5
15B
330
12D
100
AcDbEntity
  8
AM_9
100
AcDbLine
 10
1.03
 20
0.8750000000000002
 30
0.0
 11
1.03
 21
1.75
 31
0.0
  0
LINE
  5
15C
330
12D
100
AcDbEntity
  8
AM_9
100
AcDbLine
 10
-1.03
 20
1.75
 30
0.0
 11
-1.03
 21
0.8750000000000002
 31
0.0
  0
LWPOLYLINE
  5
15D
330
12D
100
AcDbEntity
  8
AM_9
100
AcDbPolyline
 90
       38
 70
     0
 43
0.0
 10
-0.175000005
 20
-1.28499999
 10
-0.1726263690378035
 20
-1.25627476654005
 10
-0.1653010825696664
 20
-1.227549543080099
 10
-0.1536562773408699
 20
-1.201245884526025
 10
-0.1373710428496999
 20
-1.176583209304455
 10
-0.1175946500573113
 20
-1.155398678170611
 10
-0.0938853115346675
 20
-1.137316036816052
 10
-0.0680387490798641
 20
-1.123768075126898
 10
-0.0394227875046923
 20
-1.114498243453638
 10
-0.0107628719445046
 20
-1.110331268308032
 10
0.0190558736714258
 20
-1.111040582583733
 10
0.0472026512568565
 20
-1.116486158329351
 10
0.0748033755991585
 20
-1.1267929839953
 10
0.0996967156193428
 20
-1.141175212424243
 10
0.1224671628425539
 20
-1.159992807105194
 10
0.1414768910395146
 20
-1.181998577136907
 10
0.156964239553799
 20
-1.207622801815771
 10
0.1676323623797339
 20
-1.23475665379519
 10
0.1737572550922732
 20
-1.264181295209051
 10
0.1748167443500403
 20
-1.293006714976709
 10
0.1709481205288727
 20
-1.322439832916952
 10
0.162553860381262
 20
-1.349816995678674
 10
0.1494008433625933
 20
-1.376128414503806
 10
0.132398191321982
 20
-1.399436525619827
 10
0.1111710151141572
 20
-1.420151782990281
 10
0.0871896010224024
 20
-1.436733227043024
 10
0.0599554470215204
 20
-1.44940907163009
 10
0.0319026262633967
 20
-1.457067488928467
 10
0.0020775740881093
 20
-1.459987662239814
 10
-0.0265972567671944
 20
-1.457967003278428
 10
-0.0553321698812544
 20
-1.451022135288609
 10
-0.0816982224249434
 20
-1.439759164857598
 10
-0.1064936939636448
 20
-1.423867174374054
 10
-0.1279391838386944
 20
-1.404400856783658
 10
-0.1463401008159712
 20
-1.380966529185131
 10
-0.1602526325185529
 20
-1.355314252570788
 10
-0.1699264392989056
 20
-1.326833074720056
 10
-0.175000005
 20
-1.28499999
  0
LWPOLYLINE
  5
15E
330
12D
100
AcDbEntity
  8
AM_9
100
AcDbPolyline
 90
       11
 70
     0
 43
0.0
 10
0.8459665277242596
 20
-1.28499999
 10
0.8473908169837009
 20
-1.255861189372001
 10
0.851537810960157
 20
-1.227549543080099
 10
0.858232032272148
 20
-1.200893991257417
 10
0.8671019490617243
 20
-1.176583209304455
 10
0.8778622293213704
 20
-1.15513155653054
 10
0.8899333206720896
 20
-1.137316036816052
 10
0.9028958023103453
 20
-1.123616531941367
 10
0.9161522209719506
 20
-1.114498243453638
 10
0.9290782495408496
 20
-1.110323628800678
 10
0.9334910682432999
 20
-1.109999985566771
  0
LINE
  5
15F
330
12D
100
AcDbEntity
  8
AM_9
100
AcDbLine
 10
1.03
 20
-1.565
 30
0.0
 11
1.03
 21
-0.6249999999999999
 31
0.0
  0
LINE
  5
160
330
12D
100
AcDbEntity
  8
AM_9
100
AcDbLine
 10
-1.03
 20
-0.6249999999999999
 30
0.0
 11
-1.03
 21
-1.565
 31
0.0
  0
LINE
  5
161
330
12D
100
AcDbEntity
  8
AM_9
100
AcDbLine
 10
-1.625
 20
0.8750000000000002
 30
0.0
 11
1.625
 21
0.8750000000000002
 31
0.0
  0
LINE
  5
162
330
12D
100
AcDbEntity
  8
AM_9
100
AcDbLine
 10
-1.625
 20
-0.6249999999999997
 30
0.0
 11
1.625
 21
-0.6249999999999997
 31
0.0
  0
LINE
  5
163
330
12D
100
AcDbEntity
  8
AM_9
100
AcDbLine
 10
1.625
 20
-0.6249999999999997
 30
0.0
 11
1.625
 21
0.8750000000000002
 31
0.0
  0
LINE
  5
164
330
12D
100
AcDbEntity
  8
AM_9
100
AcDbLine
 10
-1.625
 20
0.8750000000000002
 30
0.0
 11
-1.625
 21
-0.6249999999999997
 31
0.0
  0
LINE
  5
165
330
12D
100
AcDbEntity
  8
AM_4
100
AcDbLine
 10
-1.03
 20
1.815
 30
0.0
 11
1.03
 21
1.815
 31
0.0
  0
LINE
  5
166
330
12D
100
AcDbEntity
  8
AM_4
100
AcDbLine
 10
1.03
 20
1.75
 30
0.0
 11
1.03
 21
1.815
 31
0.0
  0
LINE
  5
167
330
12D
100
AcDbEntity
  8
AM_4
100
AcDbLine
 10
-1.03
 20
1.815
 30
0.0
 11
-1.03
 21
1.75
 31
0.0
  0
ENDBLK
  5
130
330
12D
100
AcDbEntity
  8
0
100
AcDbBlockEnd
  0
BLOCK
  5
16A
330
168
100
AcDbEntity
  8
0
100
AcDbBlockBegin
  2
6_023125H_0_in_023125_4
 70
     2
 10
0.0
 20
0.0
 30
0.0
  3
6_023125H_0_in_023125_4
  1

  0
ATTDEF
  5
16C
330
168
100
AcDbEntity
  8
AM_6
100
AcDbText
 10
8.0625
 20
3.040000057220459
 30
0.0
 40
0.5
  1
FC-E-Housing
100
AcDbAttributeDefinition
  3

  2
NN
 70
     8
280
     0
  0
ATTDEF
  5
16D
330
168
100
AcDbEntity
  8
AM_6
100
AcDbText
 10
8.0625
 20
2.540000057220459
 30
0.0
 40
0.5
  1
Type E Piloted Flange -Inch
100
AcDbAttributeDefinition
  3

  2
NT
 70
     8
280
     0
  0
ATTDEF
  5
16E
330
168
100
AcDbEntity
  8
AM_6
100
AcDbText
 10
8.0625
 20
2.040000057220459
 30
0.0
 40
0.5
  1
023125H
100
AcDbAttributeDefinition
  3

  2
NB
 70
     8
280
     0
  0
ATTDEF
  5
16F
330
168
100
AcDbEntity
  8
AM_6
100
AcDbText
 10
8.0625
 20
1.540000057220459
 30
0.0
 40
0.5
  1
$PN.H
100
AcDbAttributeDefinition
  3

  2
NBSYN
 70
     8
280
     0
  0
ATTDEF
  5
170
330
168
100
AcDbEntity
  8
AM_6
100
AcDbText
 10
8.0625
 20
1.040000057220459
 30
0.0
 40
0.5
  1
023125
100
AcDbAttributeDefinition
  3

  2
LINA
 70
     8
280
     0
  0
ATTDEF
  5
171
330
168
100
AcDbEntity
  8
AM_6
100
AcDbText
 10
8.0625
 20
0.5400000572204591
 30
0.0
 40
0.5
  1
1-5/8
100
AcDbAttributeDefinition
  3

  2
SS
 70
     8
280
     0
  0
ATTDEF
  5
172
330
168
100
AcDbEntity
  8
AM_6
100
AcDbText
 10
8.0625
 20
0.0400000572204591
 30
0.0
 40
0.5
  1
023125
100
AcDbAttributeDefinition
  3

  2
PN
 70
     8
280
     0
  0
ATTDEF
  5
173
330
168
100
AcDbEntity
  8
AM_6
100
AcDbText
 10
8.0625
 20
-0.4599999427795409
 30
0.0
 40
0.5
  1
FC-E-110R
100
AcDbAttributeDefinition
  3

  2
DESCRIPTION
 70
     8
280
     0
  0
ATTDEF
  5
174
330
168
100
AcDbEntity
  8
AM_6
100
AcDbText
 10
8.0625
 20
-0.9599999427795409
 30
0.0
 40
0.5
  1
3-3/8
100
AcDbAttributeDefinition
  3

  2
A
 70
     8
280
     0
  0
ATTDEF
  5
175
330
168
100
AcDbEntity
  8
AM_6
100
AcDbText
 10
8.0625
 20
-1.459999942779541
 30
0.0
 40
0.5
  1
6-1/8
100
AcDbAttributeDefinition
  3

  2
B
 70
     8
280
     0
  0
ATTDEF
  5
176
330
168
100
AcDbEntity
  8
AM_6
100
AcDbText
 10
8.0625
 20
-1.959999942779541
 30
0.0
 40
0.5
  1
2-25/32
100
AcDbAttributeDefinition
  3

  2
C
 70
     8
280
     0
  0
ATTDEF
  5
177
330
168
100
AcDbEntity
  8
AM_6
100
AcDbText
 10
8.0625
 20
-2.459999942779541
 30
0.0
 40
0.5
  1
5-1/8
100
AcDbAttributeDefinition
  3

  2
D
 70
     8
280
     0
  0
ATTDEF
  5
178
330
168
100
AcDbEntity
  8
AM_6
100
AcDbText
 10
8.0625
 20
-2.959999942779541
 30
0.0
 40
0.5
  1
1-1/16
100
AcDbAttributeDefinition
  3

  2
E
 70
     8
280
     0
  0
ATTDEF
  5
179
330
168
100
AcDbEntity
  8
AM_6
100
AcDbText
 10
8.0625
 20
-3.459999942779541
 30
0.0
 40
0.5
  1
7/16
100
AcDbAttributeDefinition
  3

  2
F
 70
     8
280
     0
  0
ATTDEF
  5
17A
330
168
100
AcDbEntity
  8
AM_6
100
AcDbText
 10
8.0625
 20
-3.959999942779541
 30
0.0
 40
0.5
  1
1-9/16
100
AcDbAttributeDefinition
  3

  2
G
 70
     8
280
     0
  0
ATTDEF
  5
17B
330
168
100
AcDbEntity
  8
AM_6
100
AcDbText
 10
8.0625
 20
-4.459999942779541
 30
0.0
 40
0.5
  1
1/2
100
AcDbAttributeDefinition
  3

  2
H
 70
     8
280
     0
  0
ATTDEF
  5
17C
330
168
100
AcDbEntity
  8
AM_6
100
AcDbText
 10
8.0625
 20
-4.959999942779541
 30
0.0
 40
0.5
  1
4-1/4
100
AcDbAttributeDefinition
  3

  2
K
 70
     8
280
     0
  0
ATTDEF
  5
17D
330
168
100
AcDbEntity
  8
AM_6
100
AcDbText
 10
8.0625
 20
-5.459999942779541
 30
0.0
 40
0.5
  1
3-3/16
100
AcDbAttributeDefinition
  3

  2
L
 70
     8
280
     0
  0
ATTDEF
  5
17E
330
168
100
AcDbEntity
  8
AM_6
100
AcDbText
 10
8.0625
 20
-5.959999942779541
 30
0.0
 40
0.5
  1
1-1/32
100
AcDbAttributeDefinition
  3

  2
M
 70
     8
280
     0
  0
ATTDEF
  5
17F
330
168
100
AcDbEntity
  8
AM_6
100
AcDbText
 10
8.0625
 20
-6.459999942779541
 30
0.0
 40
0.5
  1
baldor
100
AcDbAttributeDefinition
  3

  2
COMPANY
 70
     8
280
     0
  0
LINE
  5
180
330
168
100
AcDbEntity
  8
AM_9
100
AcDbLine
 10
-0.5000000000000001
 20
-0.5
 30
0.0
 11
0.5000000000000001
 21
-0.5
 31
0.0
  0
LINE
  5
181
330
168
100
AcDbEntity
  8
AM_9
100
AcDbLine
 10
-1.990625
 20
-0.4375
 30
0.0
 11
-1.990625
 21
-0.5
 31
0.0
  0
LINE
  5
182
330
168
100
AcDbEntity
  8
AM_9
100
AcDbLine
 10
1.990625
 20
-0.5
 30
0.0
 11
1.990625
 21
-0.4375
 31
0.0
  0
LINE
  5
183
330
168
100
AcDbEntity
  8
AM_9
100
AcDbLine
 10
-1.849936620525323
 20
-0.4374999999999999
 30
0.0
 11
-1.849936620525323
 21
-0.4999999999999999
 31
0.0
  0
LINE
  5
184
330
168
100
AcDbEntity
  8
AM_9
100
AcDbLine
 10
-1.843909486155587
 20
-0.4374999999999999
 30
0.0
 11
-1.843909486155587
 21
-0.4999999999999999
 31
0.0
  0
LINE
  5
185
330
168
100
AcDbEntity
  8
AM_9
100
AcDbLine
 10
-1.836539160903767
 20
-0.4999999999999999
 30
0.0
 11
-1.836539160903767
 21
-0.4374999999999999
 31
0.0
  0
LINE
  5
186
330
168
100
AcDbEntity
  8
AM_9
100
AcDbLine
 10
1.849936620525323
 20
-0.4374999999999999
 30
0.0
 11
1.849936620525323
 21
-0.4999999999999999
 31
0.0
  0
LINE
  5
187
330
168
100
AcDbEntity
  8
AM_9
100
AcDbLine
 10
1.843909485045889
 20
-0.4374999999999999
 30
0.0
 11
1.843909485045888
 21
-0.4999999999999999
 31
0.0
  0
LINE
  5
188
330
168
100
AcDbEntity
  8
AM_9
100
AcDbLine
 10
1.836539160903767
 20
-0.4374999999999999
 30
0.0
 11
1.836539160903767
 21
-0.4999999999999999
 31
0.0
  0
LINE
  5
189
330
168
100
AcDbEntity
  8
AM_9
100
AcDbLine
 10
-2.273073442996907
 20
-0.4374999999999998
 30
0.0
 11
-2.052326331932177
 21
-0.4374999999999999
 31
0.0
  0
LINE
  5
18A
330
168
100
AcDbEntity
  8
AM_9
100
AcDbLine
 10
2.052326331932178
 20
-0.4374999999999999
 30
0.0
 11
2.273073442996907
 21
-0.4374999999999998
 31
0.0
  0
LINE
  5
18B
330
168
100
AcDbEntity
  8
AM_9
100
AcDbLine
 10
1.625
 20
-1.03125
 30
0.0
 11
1.625
 21
1.75
 31
0.0
  0
LINE
  5
18C
330
168
100
AcDbEntity
  8
AM_9
100
AcDbLine
 10
-1.625
 20
1.75
 30
0.0
 11
-1.625
 21
-1.03125
 31
0.0
  0
LINE
  5
18D
330
168
100
AcDbEntity
  8
AM_9
100
AcDbLine
 10
0.0923672495586917
 20
-1.03125
 30
0.0
 11
-0.0923672495586917
 21
-1.03125
 31
0.0
  0
LINE
  5
18E
330
168
100
AcDbEntity
  8
AM_9
100
AcDbLine
 10
2.030711126790528
 20
-0.4999999999999998
 30
0.0
 11
2.030711126790528
 21
0.0000000000000001
 31
0.0
  0
LINE
  5
18F
330
168
100
AcDbEntity
  8
AM_9
100
AcDbLine
 10
1.593211126790528
 20
0.0000000000000001
 30
0.0
 11
1.593211126790528
 21
-0.4999999999999998
 31
0.0
  0
LINE
  5
190
330
168
100
AcDbEntity
  8
AM_9
100
AcDbLine
 10
-1.593211126790528
 20
-0.4999999999999998
 30
0.0
 11
-1.593211126790528
 21
0.0000000000000001
 31
0.0
  0
LINE
  5
191
330
168
100
AcDbEntity
  8
AM_9
100
AcDbLine
 10
-2.030711126790528
 20
0.0000000000000001
 30
0.0
 11
-2.030711126790528
 21
-0.4999999999999998
 31
0.0
  0
LINE
  5
192
330
168
100
AcDbEntity
  8
AM_9
100
AcDbLine
 10
-2.262294336758436
 20
-0.4374999999999999
 30
0.0
 11
-2.262294336758436
 21
-0.4999999999999999
 31
0.0
  0
LINE
  5
193
330
168
100
AcDbEntity
  8
AM_9
100
AcDbLine
 10
2.262294336758436
 20
-0.4374999999999999
 30
0.0
 11
2.262294336758436
 21
-0.4999999999999999
 31
0.0
  0
LWPOLYLINE
  5
194
330
168
100
AcDbEntity
  8
AM_9
100
AcDbPolyline
 90
        3
 70
     0
 43
0.0
 10
-0.1095927836238275
 20
-1.003789737634108
 10
0.0667286580271095
 20
-1.002268202610801
 10
0.1095927836238265
 20
-1.003789737634108
  0
LINE
  5
195
330
168
100
AcDbEntity
  8
AM_7
100
AcDbLine
 10
0.0
 20
3.040000057220459
 30
0.0
 11
0.0
 21
-2.790000057220459
 31
0.0
  0
LINE
  5
196
330
168
100
AcDbEntity
  8
AM_7
100
AcDbLine
 10
1.811961126790528
 20
0.0275000012499999
 30
0.0
 11
1.811961126790528
 21
-0.5775000262500001
 31
0.0
  0
LINE
  5
197
330
168
100
AcDbEntity
  8
AM_7
100
AcDbLine
 10
-1.811961126790528
 20
0.0275000012500001
 30
0.0
 11
-1.811961126790528
 21
-0.5775000262499999
 31
0.0
  0
LINE
  5
198
330
168
100
AcDbEntity
  8
AM_4
100
AcDbLine
 10
0.7500571294844401
 20
-0.4374999999999998
 30
0.0
 11
0.7500571294844401
 21
-0.4999999999999998
 31
0.0
  0
LINE
  5
199
330
168
100
AcDbEntity
  8
AM_4
100
AcDbLine
 10
-0.7500571322124773
 20
-0.4374999999999998
 30
0.0
 11
-0.7500571322124773
 21
-0.4999999999999998
 31
0.0
  0
LINE
  5
19A
330
168
100
AcDbEntity
  8
AM_4
100
AcDbLine
 10
2.02125
 20
-1.03125
 30
0.0
 11
2.02125
 21
-0.5
 31
0.0
  0
LINE
  5
19B
330
168
100
AcDbEntity
  8
AM_4
100
AcDbLine
 10
-2.02125
 20
-0.5
 30
0.0
 11
-2.02125
 21
-1.03125
 31
0.0
  0
LINE
  5
19C
330
168
100
AcDbEntity
  8
AM_4
100
AcDbLine
 10
-1.912784985125056
 20
1.75
 30
0.0
 11
1.912784985113996
 21
1.75
 31
0.0
  0
ARC
  5
19D
330
168
100
AcDbEntity
  8
AM_4
100
AcDbCircle
 10
1.912784985125055
 20
1.699999999999999
 30
0.0
 40
0.0500000000000006
100
AcDbArc
 50
5.000000000000429
 51
90.0
  0
ARC
  5
19E
330
168
100
AcDbEntity
  8
AM_4
100
AcDbCircle
 10
-1.912784985125055
 20
1.699999999999999
 30
0.0
 40
0.0500000000000007
100
AcDbArc
 50
90.0
 51
174.9999999999996
  0
LINE
  5
19F
330
168
100
AcDbEntity
  8
AM_4
100
AcDbLine
 10
-1.962594720029643
 20
1.704357787137383
 30
0.0
 11
1.962594720029643
 21
1.704357787137383
 31
0.0
  0
LINE
  5
1A0
330
168
100
AcDbEntity
  8
AM_4
100
AcDbLine
 10
-1.962594720029643
 20
1.704357787137383
 30
0.0
 11
-2.01875
 21
1.0625
 31
0.0
  0
LINE
  5
1A1
330
168
100
AcDbEntity
  8
AM_4
100
AcDbLine
 10
2.01875
 20
1.0625
 30
0.0
 11
1.962594720029643
 21
1.704357787137383
 31
0.0
  0
LINE
  5
1A2
330
168
100
AcDbEntity
  8
AM_4
100
AcDbLine
 10
-0.0923672495586917
 20
-1.03125
 30
0.0
 11
-2.02125
 21
-1.03125
 31
0.0
  0
LINE
  5
1A3
330
168
100
AcDbEntity
  8
AM_4
100
AcDbLine
 10
2.02125
 20
-1.03125
 30
0.0
 11
0.0923672495586917
 21
-1.03125
 31
0.0
  0
LINE
  5
1A4
330
168
100
AcDbEntity
  8
AM_4
100
AcDbLine
 10
-0.5000000000000001
 20
-0.4999999999999998
 30
0.0
 11
-2.331961126790527
 21
-0.4999999999999998
 31
0.0
  0
LINE
  5
1A5
330
168
100
AcDbEntity
  8
AM_4
100
AcDbLine
 10
-2.331961126790527
 20
-0.4374999999999998
 30
0.0
 11
-2.331961126790527
 21
-0.4999999999999998
 31
0.0
  0
LINE
  5
1A6
330
168
100
AcDbEntity
  8
AM_4
100
AcDbLine
 10
2.331961126790527
 20
-0.4999999999999998
 30
0.0
 11
2.331961126790527
 21
-0.4374999999999998
 31
0.0
  0
LINE
  5
1A7
330
168
100
AcDbEntity
  8
AM_4
100
AcDbLine
 10
2.331961126790527
 20
-0.4999999999999998
 30
0.0
 11
0.5000000000000001
 21
-0.4999999999999998
 31
0.0
  0
LINE
  5
1A8
330
168
100
AcDbEntity
  8
AM_4
100
AcDbLine
 10
-2.125
 20
1.0625
 30
0.0
 11
2.125
 21
1.0625
 31
0.0
  0
LINE
  5
1A9
330
168
100
AcDbEntity
  8
AM_4
100
AcDbLine
 10
2.125
 20
0.0
 30
0.0
 11
2.125
 21
1.0625
 31
0.0
  0
LINE
  5
1AA
330
168
100
AcDbEntity
  8
AM_4
100
AcDbLine
 10
-2.125
 20
1.0625
 30
0.0
 11
-2.125
 21
0.0
 31
0.0
  0
LINE
  5
1AB
330
168
100
AcDbEntity
  8
AM_4
100
AcDbLine
 10
-0.837736611381707
 20
-0.4374999999999998
 30
0.0
 11
-0.837736611381707
 21
-0.4999999999999998
 31
0.0
  0
LINE
  5
1AC
330
168
100
AcDbEntity
  8
AM_4
100
AcDbLine
 10
0.837736611381707
 20
-0.4374999999999998
 30
0.0
 11
0.837736611381707
 21
-0.4999999999999998
 31
0.0
  0
LINE
  5
1AD
330
168
100
AcDbEntity
  8
AM_4
100
AcDbLine
 10
-1.551961126790528
 20
-0.4374999999999998
 30
0.0
 11
-1.551961126790528
 21
-0.4999999999999998
 31
0.0
  0
LINE
  5
1AE
330
168
100
AcDbEntity
  8
AM_4
100
AcDbLine
 10
1.551961126790528
 20
-0.4374999999999998
 30
0.0
 11
1.551961126790528
 21
-0.4999999999999998
 31
0.0
  0
LWPOLYLINE
  5
1AF
330
168
100
AcDbEntity
  8
AM_4
100
AcDbPolyline
 90
        3
 70
     0
 43
0.0
 10
0.1095927836238261
 20
-1.003789737634108
 10
0.285080158017454
 20
-1.017799324791168
 10
0.3836780963287381
 20
-1.03125
  0
LWPOLYLINE
  5
1B0
330
168
100
AcDbEntity
  8
AM_4
100
AcDbPolyline
 90
        3
 70
     0
 43
0.0
 10
-0.3836780963287387
 20
-1.03125
 10
-0.2092574604735359
 20
-1.010202744196252
 10
-0.1095927836238275
 20
-1.003789737634108
  0
LINE
  5
1B1
330
168
100
AcDbEntity
  8
AM_4
100
AcDbLine
 10
0.5
 20
-0.4374999999999998
 30
0.0
 11
0.5
 21
-1.031249999976378
 31
0.0
  0
LINE
  5
1B2
330
168
100
AcDbEntity
  8
AM_4
100
AcDbLine
 10
-0.5
 20
-0.4374999999999998
 30
0.0
 11
-0.5
 21
-1.031249999976378
 31
0.0
  0
LINE
  5
1B3
330
168
100
AcDbEntity
  8
AM_4
100
AcDbLine
 10
-2.9375
 20
0.0
 30
0.0
 11
2.9375
 21
0.0
 31
0.0
  0
LINE
  5
1B4
330
168
100
AcDbEntity
  8
AM_4
100
AcDbLine
 10
-2.9375
 20
0.0
 30
0.0
 11
-3.0625
 21
-0.125
 31
0.0
  0
LINE
  5
1B5
330
168
100
AcDbEntity
  8
AM_4
100
AcDbLine
 10
3.0625
 20
-0.125
 30
0.0
 11
2.9375
 21
0.0
 31
0.0
  0
LINE
  5
1B6
330
168
100
AcDbEntity
  8
AM_4
100
AcDbLine
 10
-3.0625
 20
-0.125
 30
0.0
 11
3.0625
 21
-0.125
 31
0.0
  0
LINE
  5
1B7
330
168
100
AcDbEntity
  8
AM_4
100
AcDbLine
 10
-2.052326331932177
 20
-0.4374999999999998
 30
0.0
 11
-2.052326331932177
 21
-0.4999999999999998
 31
0.0
  0
LINE
  5
1B8
330
168
100
AcDbEntity
  8
AM_4
100
AcDbLine
 10
2.052326331932178
 20
-0.4374999999999998
 30
0.0
 11
-2.052326331932177
 21
-0.4374999999999998
 31
0.0
  0
LINE
  5
1B9
330
168
100
AcDbEntity
  8
AM_4
100
AcDbLine
 10
2.052326331932178
 20
-0.4999999999999998
 30
0.0
 11
2.052326331932178
 21
-0.4374999999999998
 31
0.0
  0
LINE
  5
1BA
330
168
100
AcDbEntity
  8
AM_4
100
AcDbLine
 10
2.273073442996907
 20
-0.4374999999999998
 30
0.0
 11
2.273073442996907
 21
-0.4999999999999998
 31
0.0
  0
LINE
  5
1BB
330
168
100
AcDbEntity
  8
AM_4
100
AcDbLine
 10
-2.273073442996907
 20
-0.4374999999999998
 30
0.0
 11
-3.0625
 21
-0.4375
 31
0.0
  0
LINE
  5
1BC
330
168
100
AcDbEntity
  8
AM_4
100
AcDbLine
 10
-2.273073442996907
 20
-0.4999999999999998
 30
0.0
 11
-2.273073442996907
 21
-0.4374999999999998
 31
0.0
  0
LINE
  5
1BD
330
168
100
AcDbEntity
  8
AM_4
100
AcDbLine
 10
3.0625
 20
-0.4375
 30
0.0
 11
3.0625
 21
-0.125
 31
0.0
  0
LINE
  5
1BE
330
168
100
AcDbEntity
  8
AM_4
100
AcDbLine
 10
-3.0625
 20
-0.125
 30
0.0
 11
-3.0625
 21
-0.4375
 31
0.0
  0
LINE
  5
1BF
330
168
100
AcDbEntity
  8
AM_4
100
AcDbLine
 10
3.0625
 20
-0.4375
 30
0.0
 11
2.273073442996907
 21
-0.4374999999999998
 31
0.0
  0
ENDBLK
  5
16B
330
168
100
AcDbEntity
  8
0
100
AcDbBlockEnd
  0
ENDSEC
  0
SECTION
  2
ENTITIES
  0
INSERT
  5
6F
330
1F
100
AcDbEntity
  8
0
100
AcDbBlockReference
  2
1_023125_4
 10
0.0
 20
0.0
 30
0.0
  0
POINT
  5
1C1
330
1F
100
AcDbEntity
  8
ConnectionPoints
100
AcDbPoint
 10
0.0
 20
-0.7343749999881891
 30
2.349656874550472
  0
POINT
  5
1C2
330
1F
100
AcDbEntity
  8
ConnectionPoints
100
AcDbPoint
 10
0.0
 20
-1.565
 30
0.0000000000000001
  0
POINT
  5
1C3
330
1F
100
AcDbEntity
  8
ConnectionPoints
100
AcDbPoint
 10
0.0
 20
-1.565
 30
0.0000000000000001
  0
POINT
  5
1C4
330
1F
100
AcDbEntity
  8
ConnectionPoints
100
AcDbPoint
 10
0.0
 20
1.815
 30
-0.0000000000000001
  0
POINT
  5
1C5
330
1F
100
AcDbEntity
  8
ConnectionPoints
100
AcDbPoint
 10
0.0
 20
0.125
 30
0.0
  0
POINT
  5
1C6
330
1F
100
AcDbEntity
  8
ConnectionPoints
100
AcDbPoint
 10
0.0
 20
1.703125
 30
-0.0000000000000001
  0
POINT
  5
1C7
330
1F
100
AcDbEntity
  8
ConnectionPoints
100
AcDbPoint
 10
0.0
 20
-0.7343749999881891
 30
2.349656874550472
  0
POINT
  5
1C8
330
1F
100
AcDbEntity
  8
ConnectionPoints
100
AcDbPoint
 10
0.0
 20
0.125
 30
0.0
  0
ENDSEC
  0
SECTION
  2
OBJECTS
  0
DICTIONARY
  5
C
330
0
100
AcDbDictionary
281
     1
  3
ACAD_DETAILVIEWSTYLE
350
1D0
  3
ACAD_GROUP
350
D
  3
ACAD_LAYOUT
350
1A
  3
ACAD_MATERIAL
350
43
  3
ACAD_MLEADERSTYLE
350
6B
  3
ACAD_MLINESTYLE
350
17
  3
ACAD_PLOTSETTINGS
350
19
  3
ACAD_PLOTSTYLENAME
350
E
  3
ACAD_SCALELIST
350
47
  3
ACAD_SECTIONVIEWSTYLE
350
1D1
  3
ACAD_TABLESTYLE
350
69
  3
ACAD_VISUALSTYLE
350
2A
  3
ACDB_RECOMPOSE_DATA
350
1CD
  3
AcDbVariableDictionary
350
1C9
  0
SUN
  5
6D
330
29
100
AcDbSun
 90
        1
290
     0
 63
     7
421
 16777215
 40
1.0
291
     1
 91
  2455826
 92
 54000000
292
     0
 70
     2
 71
   256
280
     1
  0
DICTIONARY
  5
1D0
102
{ACAD_REACTORS
330
C
102
}
330
C
100
AcDbDictionary
281
     1
  0
DICTIONARY
  5
D
102
{ACAD_REACTORS
330
C
102
}
330
C
100
AcDbDictionary
281
     1
  0
DICTIONARY
  5
1A
102
{ACAD_REACTORS
330
C
102
}
330
C
100
AcDbDictionary
281
     1
  3
Layout1
350
1E
  3
Layout2
350
26
  3
Model
350
22
  0
DICTIONARY
  5
43
102
{ACAD_REACTORS
330
C
102
}
330
C
100
AcDbDictionary
281
     1
  3
ByBlock
350
45
  3
ByLayer
350
44
  3
Global
350
46
  0
DICTIONARY
  5
6B
102
{ACAD_REACTORS
330
C
102
}
330
C
100
AcDbDictionary
281
     1
  3
Standard
350
6C
  0
DICTIONARY
  5
17
102
{ACAD_REACTORS
330
C
102
}
330
C
100
AcDbDictionary
281
     1
  3
Standard
350
18
  0
DICTIONARY
  5
19
102
{ACAD_REACTORS
330
C
102
}
330
C
100
AcDbDictionary
281
     1
  0
ACDBDICTIONARYWDFLT
  5
E
102
{ACAD_REACTORS
330
C
102
}
330
C
100
AcDbDictionary
281
     1
  3
Normal
350
F
100
AcDbDictionaryWithDefault
340
F
  0
DICTIONARY
  5
47
102
{ACAD_REACTORS
330
C
102
}
330
C
100
AcDbDictionary
281
     1
  3
A0
350
48
  3
A1
350
49
  3
A2
350
4A
  3
A3
350
4B
  3
A4
350
4C
  3
A5
350
4D
  3
A6
350
4E
  3
A7
350
4F
  3
A8
350
50
  3
A9
350
51
  3
B0
350
52
  3
B1
350
53
  3
B2
350
54
  3
B3
350
55
  3
B4
350
56
  3
B5
350
57
  3
B6
350
58
  3
B7
350
59
  3
B8
350
5A
  3
B9
350
5B
  3
C0
350
5C
  3
C1
350
5D
  3
C2
350
5E
  3
C3
350
5F
  3
C4
350
60
  3
C5
350
61
  3
C6
350
62
  3
C7
350
63
  3
C8
350
64
  3
C9
350
65
  3
D0
350
66
  3
D1
350
67
  3
D2
350
68
  0
DICTIONARY
  5
1D1
102
{ACAD_REACTORS
330
C
102
}
330
C
100
AcDbDictionary
281
     1
  0
DICTIONARY
  5
69
102
{ACAD_REACTORS
330
C
102
}
330
C
100
AcDbDictionary
281
     1
  3
Standard
350
6A
  0
DICTIONARY
  5
2A
102
{ACAD_REACTORS
330
C
102
}
330
C
100
AcDbDictionary
281
     1
  3
2dWireframe
350
2F
  3
Basic
350
32
  3
Brighten
350
36
  3
ColorChange
350
3A
  3
Conceptual
350
34
  3
Dim
350
35
  3
EdgeColorOff
350
3D
  3
Facepattern
350
39
  3
Flat
350
2B
  3
FlatWithEdges
350
2C
  3
Gouraud
350
2D
  3
GouraudWithEdges
350
2E
  3
Hidden
350
31
  3
JitterOff
350
3B
  3
Linepattern
350
38
  3
OverhangOff
350
3C
  3
Realistic
350
33
  3
Shaded
350
42
  3
Shaded with edges
350
41
  3
Shades of Gray
350
3E
  3
Sketchy
350
3F
  3
Thicken
350
37
  3
Wireframe
350
30
  3
X-Ray
350
40
  0
XRECORD
  5
1CD
102
{ACAD_REACTORS
330
C
102
}
330
C
100
AcDbXrecord
280
     1
 90
        1
330
6A
  0
DICTIONARY
  5
1C9
102
{ACAD_REACTORS
330
C
102
}
330
C
100
AcDbDictionary
281
     1
  3
CANNOSCALE
350
1CA
  3
CMLEADERSTYLE
350
1CF
  3
CTABLESTYLE
350
1CE
  0
LAYOUT
  5
1E
102
{ACAD_REACTORS
330
1A
102
}
330
1A
100
AcDbPlotSettings
  1

  2
none_device
  4

  6

 40
0.0
 41
0.0
 42
0.0
 43
0.0
 44
0.0
 45
0.0
 46
0.0
 47
0.0
 48
0.0
 49
0.0
140
0.0
141
0.0
142
1.0
143
1.0
 70
   688
 72
     0
 73
     0
 74
     5
  7

 75
    16
 76
     0
 77
     2
 78
   300
147
1.0
148
0.0
149
0.0
100
AcDbLayout
  1
Layout1
 70
     1
 71
     1
 10
0.0
 20
0.0
 11
12.0
 21
9.0
 12
0.0
 22
0.0
 32
0.0
 14
1.000000000000000E+20
 24
1.000000000000000E+20
 34
1.000000000000000E+20
 15
-1.000000000000000E+20
 25
-1.000000000000000E+20
 35
-1.000000000000000E+20
146
0.0
 13
0.0
 23
0.0
 33
0.0
 16
1.0
 26
0.0
 36
0.0
 17
0.0
 27
1.0
 37
0.0
 76
     0
330
1B
  0
LAYOUT
  5
26
102
{ACAD_REACTORS
330
1A
102
}
330
1A
100
AcDbPlotSettings
  1

  2
none_device
  4

  6

 40
0.0
 41
0.0
 42
0.0
 43
0.0
 44
0.0
 45
0.0
 46
0.0
 47
0.0
 48
0.0
 49
0.0
140
0.0
141
0.0
142
1.0
143
1.0
 70
   688
 72
     0
 73
     0
 74
     5
  7

 75
    16
 76
     0
 77
     2
 78
   300
147
1.0
148
0.0
149
0.0
100
AcDbLayout
  1
Layout2
 70
     1
 71
     2
 10
0.0
 20
0.0
 11
0.0
 21
0.0
 12
0.0
 22
0.0
 32
0.0
 14
0.0
 24
0.0
 34
0.0
 15
0.0
 25
0.0
 35
0.0
146
0.0
 13
0.0
 23
0.0
 33
0.0
 16
1.0
 26
0.0
 36
0.0
 17
0.0
 27
1.0
 37
0.0
 76
     0
330
23
  0
LAYOUT
  5
22
102
{ACAD_REACTORS
330
1A
102
}
330
1A
100
AcDbPlotSettings
  1

  2
none_device
  4
Letter_(8.50_x_11.00_Inches)
  6

 40
6.35
 41
6.35
 42
6.35000508
 43
6.35000508
 44
215.9
 45
279.4
 46
0.0
 47
0.0
 48
0.0
 49
0.0
140
0.0
141
0.0
142
1.0
143
1.0
 70
  1712
 72
     0
 73
     0
 74
     0
  7

 75
     0
 76
     0
 77
     2
 78
   300
147
1.0
148
0.0
149
0.0
100
AcDbLayout
  1
Model
 70
     1
 71
     0
 10
0.0
 20
0.0
 11
12.0
 21
9.0
 12
0.0
 22
0.0
 32
0.0
 14
1.000000000000000E+20
 24
1.000000000000000E+20
 34
1.000000000000000E+20
 15
-1.000000000000000E+20
 25
-1.000000000000000E+20
 35
-1.000000000000000E+20
146
0.0
 13
0.0
 23
0.0
 33
0.0
 16
1.0
 26
0.0
 36
0.0
 17
0.0
 27
1.0
 37
0.0
 76
     0
330
1F
331
29
  0
MATERIAL
  5
45
102
{ACAD_REACTORS
330
43
102
}
330
43
100
AcDbMaterial
  1
ByBlock
 72
     1
 94
      127
  0
MATERIAL
  5
44
102
{ACAD_REACTORS
330
43
102
}
330
43
100
AcDbMaterial
  1
ByLayer
 72
     1
 94
      127
  0
MATERIAL
  5
46
102
{ACAD_REACTORS
330
43
102
}
330
43
100
AcDbMaterial
  1
Global
 72
     1
 94
      127
  0
MLEADERSTYLE
  5
6C
102
{ACAD_REACTORS
330
6B
102
}
330
6B
100
AcDbMLeaderStyle
179
     2
170
     2
171
     1
172
     0
 90
        2
 40
0.0
 41
0.0
173
     1
 91
-1056964608
340
14
 92
       -2
290
     1
 42
0.09
291
     1
 43
0.36
  3
Standard
341
0
 44
0.18
300

342
11
174
     1
178
     6
175
     1
176
     0
 93
-1056964608
 45
0.18
292
     0
297
     0
 46
0.18
343
0
 94
-1056964608
 47
1.0
 49
1.0
140
1.0
293
     1
141
0.0
294
     1
177
     0
142
1.0
295
     0
296
     0
143
0.125
271
     0
272
     9
273
     9
298
     0
  0
MLINESTYLE
  5
18
102
{ACAD_REACTORS
330
17
102
}
330
17
100
AcDbMlineStyle
  2
Standard
 70
     0
  3

 62
   256
 51
90.0
 52
90.0
 71
     2
 49
0.5
 62
   256
  6
BYLAYER
 49
-0.5
 62
   256
  6
BYLAYER
  0
ACDBPLACEHOLDER
  5
F
102
{ACAD_REACTORS
330
E
102
}
330
E
  0
SCALE
  5
48
102
{ACAD_REACTORS
330
47
102
}
330
47
100
AcDbScale
 70
     0
300
1:1
140
1.0
141
1.0
290
     1
  0
SCALE
  5
49
102
{ACAD_REACTORS
330
47
102
}
330
47
100
AcDbScale
 70
     0
300
1:2
140
1.0
141
2.0
290
     0
  0
SCALE
  5
4A
102
{ACAD_REACTORS
330
47
102
}
330
47
100
AcDbScale
 70
     0
300
1:4
140
1.0
141
4.0
290
     0
  0
SCALE
  5
4B
102
{ACAD_REACTORS
330
47
102
}
330
47
100
AcDbScale
 70
     0
300
1:5
140
1.0
141
5.0
290
     0
  0
SCALE
  5
4C
102
{ACAD_REACTORS
330
47
102
}
330
47
100
AcDbScale
 70
     0
300
1:8
140
1.0
141
8.0
290
     0
  0
SCALE
  5
4D
102
{ACAD_REACTORS
330
47
102
}
330
47
100
AcDbScale
 70
     0
300
1:10
140
1.0
141
10.0
290
     0
  0
SCALE
  5
4E
102
{ACAD_REACTORS
330
47
102
}
330
47
100
AcDbScale
 70
     0
300
1:16
140
1.0
141
16.0
290
     0
  0
SCALE
  5
4F
102
{ACAD_REACTORS
330
47
102
}
330
47
100
AcDbScale
 70
     0
300
1:20
140
1.0
141
20.0
290
     0
  0
SCALE
  5
50
102
{ACAD_REACTORS
330
47
102
}
330
47
100
AcDbScale
 70
     0
300
1:30
140
1.0
141
30.0
290
     0
  0
SCALE
  5
51
102
{ACAD_REACTORS
330
47
102
}
330
47
100
AcDbScale
 70
     0
300
1:40
140
1.0
141
40.0
290
     0
  0
SCALE
  5
52
102
{ACAD_REACTORS
330
47
102
}
330
47
100
AcDbScale
 70
     0
300
1:50
140
1.0
141
50.0
290
     0
  0
SCALE
  5
53
102
{ACAD_REACTORS
330
47
102
}
330
47
100
AcDbScale
 70
     0
300
1:100
140
1.0
141
100.0
290
     0
  0
SCALE
  5
54
102
{ACAD_REACTORS
330
47
102
}
330
47
100
AcDbScale
 70
     0
300
2:1
140
2.0
141
1.0
290
     0
  0
SCALE
  5
55
102
{ACAD_REACTORS
330
47
102
}
330
47
100
AcDbScale
 70
     0
300
4:1
140
4.0
141
1.0
290
     0
  0
SCALE
  5
56
102
{ACAD_REACTORS
330
47
102
}
330
47
100
AcDbScale
 70
     0
300
8:1
140
8.0
141
1.0
290
     0
  0
SCALE
  5
57
102
{ACAD_REACTORS
330
47
102
}
330
47
100
AcDbScale
 70
     0
300
10:1
140
10.0
141
1.0
290
     0
  0
SCALE
  5
58
102
{ACAD_REACTORS
330
47
102
}
330
47
100
AcDbScale
 70
     0
300
100:1
140
100.0
141
1.0
290
     0
  0
SCALE
  5
59
102
{ACAD_REACTORS
330
47
102
}
330
47
100
AcDbScale
 70
     0
300
1/128" = 1'-0"
140
0.0078125
141
12.0
290
     0
  0
SCALE
  5
5A
102
{ACAD_REACTORS
330
47
102
}
330
47
100
AcDbScale
 70
     0
300
1/64" = 1'-0"
140
0.015625
141
12.0
290
     0
  0
SCALE
  5
5B
102
{ACAD_REACTORS
330
47
102
}
330
47
100
AcDbScale
 70
     0
300
1/32" = 1'-0"
140
0.03125
141
12.0
290
     0
  0
SCALE
  5
5C
102
{ACAD_REACTORS
330
47
102
}
330
47
100
AcDbScale
 70
     0
300
1/16" = 1'-0"
140
0.0625
141
12.0
290
     0
  0
SCALE
  5
5D
102
{ACAD_REACTORS
330
47
102
}
330
47
100
AcDbScale
 70
     0
300
3/32" = 1'-0"
140
0.09375
141
12.0
290
     0
  0
SCALE
  5
5E
102
{ACAD_REACTORS
330
47
102
}
330
47
100
AcDbScale
 70
     0
300
1/8" = 1'-0"
140
0.125
141
12.0
290
     0
  0
SCALE
  5
5F
102
{ACAD_REACTORS
330
47
102
}
330
47
100
AcDbScale
 70
     0
300
3/16" = 1'-0"
140
0.1875
141
12.0
290
     0
  0
SCALE
  5
60
102
{ACAD_REACTORS
330
47
102
}
330
47
100
AcDbScale
 70
     0
300
1/4" = 1'-0"
140
0.25
141
12.0
290
     0
  0
SCALE
  5
61
102
{ACAD_REACTORS
330
47
102
}
330
47
100
AcDbScale
 70
     0
300
3/8" = 1'-0"
140
0.375
141
12.0
290
     0
  0
SCALE
  5
62
102
{ACAD_REACTORS
330
47
102
}
330
47
100
AcDbScale
 70
     0
300
1/2" = 1'-0"
140
0.5
141
12.0
290
     0
  0
SCALE
  5
63
102
{ACAD_REACTORS
330
47
102
}
330
47
100
AcDbScale
 70
     0
300
3/4" = 1'-0"
140
0.75
141
12.0
290
     0
  0
SCALE
  5
64
102
{ACAD_REACTORS
330
47
102
}
330
47
100
AcDbScale
 70
     0
300
1" = 1'-0"
140
1.0
141
12.0
290
     0
  0
SCALE
  5
65
102
{ACAD_REACTORS
330
47
102
}
330
47
100
AcDbScale
 70
     0
300
1-1/2" = 1'-0"
140
1.5
141
12.0
290
     0
  0
SCALE
  5
66
102
{ACAD_REACTORS
330
47
102
}
330
47
100
AcDbScale
 70
     0
300
3" = 1'-0"
140
3.0
141
12.0
290
     0
  0
SCALE
  5
67
102
{ACAD_REACTORS
330
47
102
}
330
47
100
AcDbScale
 70
     0
300
6" = 1'-0"
140
6.0
141
12.0
290
     0
  0
SCALE
  5
68
102
{ACAD_REACTORS
330
47
102
}
330
47
100
AcDbScale
 70
     0
300
1'-0" = 1'-0"
140
12.0
141
12.0
290
     0
  0
TABLESTYLE
  5
6A
102
{ACAD_REACTORS
330
69
102
}
102
{ACAD_XDICTIONARY
360
1CB
102
}
330
69
100
AcDbTableStyle
  3
Standard
 70
     0
 71
     0
 40
0.06
 41
0.06
280
     0
281
     0
  7
Standard
140
0.18
170
     2
 62
     0
 63
   257
283
     0
 90
        4
 91
        0
  1

274
    -2
284
     1
 64
     0
275
    -2
285
     1
 65
     0
276
    -2
286
     1
 66
     0
277
    -2
287
     1
 67
     0
278
    -2
288
     1
 68
     0
279
    -2
289
     1
 69
     0
  7
Standard
140
0.25
170
     5
 62
     0
 63
   257
283
     0
 90
        4
 91
        0
  1

274
    -2
284
     1
 64
     0
275
    -2
285
     1
 65
     0
276
    -2
286
     1
 66
     0
277
    -2
287
     1
 67
     0
278
    -2
288
     1
 68
     0
279
    -2
289
     1
 69
     0
  7
Standard
140
0.18
170
     5
 62
     0
 63
   257
283
     0
 90
        4
 91
        0
  1

274
    -2
284
     1
 64
     0
275
    -2
285
     1
 65
     0
276
    -2
286
     1
 66
     0
277
    -2
287
     1
 67
     0
278
    -2
288
     1
 68
     0
279
    -2
289
     1
 69
     0
  0
VISUALSTYLE
  5
2F
102
{ACAD_REACTORS
330
2A
102
}
330
2A
100
AcDbVisualStyle
  2
2dWireframe
 70
     4
177
     3
291
     0
 70
    58
 90
        0
176
     1
 90
        2
176
     1
 90
        0
176
     1
 90
        0
176
     1
 40
0.6
176
     1
 40
30.0
176
     1
 62
     7
420
 16777215
176
     1
 90
        1
176
     1
 90
        4
176
     1
 62
     7
176
     1
 62
   257
176
     1
 90
        1
176
     1
 90
        1
176
     1
 40
1.0
176
     1
 90
        0
176
     1
 62
   257
176
     1
 40
1.0
176
     1
 90
        1
176
     1
 90
        6
176
     1
 90
        2
176
     1
 62
     7
176
     1
 90
        5
176
     1
 90
        0
176
     1
 90
        0
176
     1
290
     0
176
     1
 90
        1
176
     1
 40
0.0
176
     1
 90
        0
176
     1
290
     1
176
     1
290
     1
176
     1
290
     0
176
     1
290
     0
176
     1
290
     0
176
     1
290
     0
176
     1
290
     0
176
     1
290
     0
176
     1
290
     0
176
     1
 90
       50
176
     1
 40
0.0
176
     1
 40
1.0
176
     1
 90
        0
176
     1
 62
    18
420
        0
176
     1
 90
       50
176
     1
 90
        3
176
     1
 62
     5
420
      255
176
     1
290
     0
176
     1
 90
       50
176
     1
 90
       50
176
     1
 90
       50
176
     1
290
     0
176
     1
 90
       50
176
     1
 62
   256
176
     0
 40
1.0
176
     0
 90
        2
176
     1
  1
strokes_ogs.tif
176
     1
290
     0
176
     1
 40
1.0
176
     1
 40
1.0
176
     1
  0
VISUALSTYLE
  5
32
102
{ACAD_REACTORS
330
2A
102
}
330
2A
100
AcDbVisualStyle
  2
Basic
 70
     7
177
     3
291
     1
 70
    58
 90
        1
176
     1
 90
        0
176
     1
 90
        1
176
     1
 90
        0
176
     1
 40
0.6
176
     1
 40
30.0
176
     1
 62
     7
420
 16777215
176
     1
 90
        0
176
     1
 90
        4
176
     1
 62
     7
176
     1
 62
   257
176
     1
 90
        1
176
     1
 90
        1
176
     1
 40
1.0
176
     1
 90
        8
176
     1
 62
     7
176
     1
 40
1.0
176
     1
 90
        1
176
     1
 90
        6
176
     1
 90
        2
176
     1
 62
     7
176
     1
 90
        5
176
     1
 90
        0
176
     1
 90
        0
176
     1
290
     0
176
     1
 90
        1
176
     1
 40
0.0
176
     1
 90
        0
176
     1
290
     0
176
     1
290
     1
176
     1
290
     1
176
     1
290
     0
176
     1
290
     0
176
     1
290
     0
176
     1
290
     0
176
     1
290
     0
176
     1
290
     0
176
     1
 90
       50
176
     1
 40
0.0
176
     1
 40
1.0
176
     1
 90
        0
176
     1
 62
    18
420
        0
176
     1
 90
       50
176
     1
 90
        3
176
     1
 62
     5
420
      255
176
     1
290
     0
176
     1
 90
       50
176
     1
 90
       50
176
     1
 90
       50
176
     1
290
     0
176
     1
 90
       50
176
     1
 62
   256
176
     0
 40
1.0
176
     0
 90
        2
176
     1
  1
strokes_ogs.tif
176
     1
290
     0
176
     1
 40
1.0
176
     1
 40
1.0
176
     1
  0
VISUALSTYLE
  5
36
102
{ACAD_REACTORS
330
2A
102
}
330
2A
100
AcDbVisualStyle
  2
Brighten
 70
    12
177
     3
291
     1
 70
    58
 90
        2
176
     1
 90
        2
176
     1
 90
        0
176
     1
 90
        0
176
     1
 40
0.6
176
     1
 40
30.0
176
     1
 62
     7
420
 16777215
176
     1
 90
        1
176
     1
 90
        4
176
     1
 62
     7
176
     1
 62
   257
176
     1
 90
        1
176
     1
 90
        1
176
     1
 40
1.0
176
     1
 90
        8
176
     1
 62
     7
176
     1
 40
1.0
176
     1
 90
        1
176
     1
 90
        6
176
     1
 90
        2
176
     1
 62
     7
176
     1
 90
        5
176
     1
 90
        0
176
     1
 90
        0
176
     1
290
     0
176
     1
 90
        1
176
     1
 40
50.0
176
     1
 90
        0
176
     1
290
     0
176
     1
290
     1
176
     1
290
     1
176
     1
290
     0
176
     1
290
     0
176
     1
290
     0
176
     1
290
     0
176
     1
290
     0
176
     1
290
     0
176
     1
 90
       50
176
     1
 40
0.0
176
     1
 40
1.0
176
     1
 90
        0
176
     1
 62
    18
420
        0
176
     1
 90
       50
176
     1
 90
        3
176
     1
 62
     5
420
      255
176
     1
290
     0
176
     1
 90
       50
176
     1
 90
       50
176
     1
 90
       50
176
     1
290
     0
176
     1
 90
       50
176
     1
 62
   256
176
     0
 40
1.0
176
     0
 90
        2
176
     1
  1
strokes_ogs.tif
176
     1
290
     0
176
     1
 40
1.0
176
     1
 40
1.0
176
     1
  0
VISUALSTYLE
  5
3A
102
{ACAD_REACTORS
330
2A
102
}
330
2A
100
AcDbVisualStyle
  2
ColorChange
 70
    16
177
     3
291
     1
 70
    58
 90
        2
176
     1
 90
        2
176
     1
 90
        3
176
     1
 90
        0
176
     1
 40
0.6
176
     1
 40
30.0
176
     1
 62
     8
420
  8421504
176
     1
 90
        1
176
     1
 90
        4
176
     1
 62
     7
176
     1
 62
   257
176
     1
 90
        1
176
     1
 90
        1
176
     1
 40
1.0
176
     1
 90
        8
176
     1
 62
     8
420
  8421504
176
     1
 40
1.0
176
     1
 90
        1
176
     1
 90
        6
176
     1
 90
        2
176
     1
 62
     7
176
     1
 90
        5
176
     1
 90
        0
176
     1
 90
        0
176
     1
290
     0
176
     1
 90
        1
176
     1
 40
0.0
176
     1
 90
        0
176
     1
290
     0
176
     1
290
     1
176
     1
290
     1
176
     1
290
     0
176
     1
290
     0
176
     1
290
     0
176
     1
290
     0
176
     1
290
     0
176
     1
290
     0
176
     1
 90
       50
176
     1
 40
0.0
176
     1
 40
1.0
176
     1
 90
        0
176
     1
 62
    18
420
        0
176
     1
 90
       50
176
     1
 90
        3
176
     1
 62
     5
420
      255
176
     1
290
     0
176
     1
 90
       50
176
     1
 90
       50
176
     1
 90
       50
176
     1
290
     0
176
     1
 90
       50
176
     1
 62
   256
176
     0
 40
1.0
176
     0
 90
        2
176
     1
  1
strokes_ogs.tif
176
     1
290
     0
176
     1
 40
1.0
176
     1
 40
1.0
176
     1
  0
VISUALSTYLE
  5
34
102
{ACAD_REACTORS
330
2A
102
}
330
2A
100
AcDbVisualStyle
  2
Conceptual
 70
     9
177
     3
291
     0
 70
    58
 90
        3
176
     1
 90
        2
176
     1
 90
        0
176
     1
 90
        0
176
     1
 40
0.6
176
     1
 40
30.0
176
     1
 62
     7
420
 16777215
176
     1
 90
        2
176
     1
 90
        2
176
     1
 62
     7
176
     1
 62
   257
176
     1
 90
        1
176
     1
 90
        1
176
     1
 40
179.0
176
     1
 90
        8
176
     1
 62
     7
176
     1
 40
1.0
176
     1
 90
        1
176
     1
 90
        6
176
     1
 90
        2
176
     1
 62
     7
176
     1
 90
        3
176
     1
 90
        0
176
     1
 90
        0
176
     1
290
     0
176
     1
 90
        1
176
     1
 40
0.0
176
     1
 90
        0
176
     1
290
     0
176
     1
290
     1
176
     1
290
     1
176
     1
290
     0
176
     1
290
     0
176
     1
290
     0
176
     1
290
     0
176
     1
290
     0
176
     1
290
     0
176
     1
 90
       50
176
     1
 40
0.0
176
     1
 40
1.0
176
     1
 90
        0
176
     1
 62
    18
420
        0
176
     1
 90
       50
176
     1
 90
        3
176
     1
 62
     5
420
      255
176
     1
290
     0
176
     1
 90
       50
176
     1
 90
       50
176
     1
 90
       50
176
     1
290
     0
176
     1
 90
       50
176
     1
 62
   256
176
     0
 40
1.0
176
     0
 90
        2
176
     1
  1
strokes_ogs.tif
176
     1
290
     0
176
     1
 40
1.0
176
     1
 40
1.0
176
     1
  0
VISUALSTYLE
  5
35
102
{ACAD_REACTORS
330
2A
102
}
330
2A
100
AcDbVisualStyle
  2
Dim
 70
    11
177
     3
291
     1
 70
    58
 90
        2
176
     1
 90
        2
176
     1
 90
        0
176
     1
 90
        0
176
     1
 40
0.6
176
     1
 40
30.0
176
     1
 62
     7
420
 16777215
176
     1
 90
        1
176
     1
 90
        4
176
     1
 62
     7
176
     1
 62
   257
176
     1
 90
        1
176
     1
 90
        1
176
     1
 40
1.0
176
     1
 90
        8
176
     1
 62
     7
176
     1
 40
1.0
176
     1
 90
        1
176
     1
 90
        6
176
     1
 90
        2
176
     1
 62
     7
176
     1
 90
        5
176
     1
 90
        0
176
     1
 90
        0
176
     1
290
     0
176
     1
 90
        1
176
     1
 40
-50.0
176
     1
 90
        0
176
     1
290
     0
176
     1
290
     1
176
     1
290
     1
176
     1
290
     0
176
     1
290
     0
176
     1
290
     0
176
     1
290
     0
176
     1
290
     0
176
     1
290
     0
176
     1
 90
       50
176
     1
 40
0.0
176
     1
 40
1.0
176
     1
 90
        0
176
     1
 62
    18
420
        0
176
     1
 90
       50
176
     1
 90
        3
176
     1
 62
     5
420
      255
176
     1
290
     0
176
     1
 90
       50
176
     1
 90
       50
176
     1
 90
       50
176
     1
290
     0
176
     1
 90
       50
176
     1
 62
   256
176
     0
 40
1.0
176
     0
 90
        2
176
     1
  1
strokes_ogs.tif
176
     1
290
     0
176
     1
 40
1.0
176
     1
 40
1.0
176
     1
  0
VISUALSTYLE
  5
3D
102
{ACAD_REACTORS
330
2A
102
}
330
2A
100
AcDbVisualStyle
  2
EdgeColorOff
 70
    22
177
     3
291
     1
 70
    58
 90
        2
176
     0
 90
        2
176
     0
 90
        0
176
     0
 90
        0
176
     0
 40
0.6
176
     0
 40
30.0
176
     0
 62
     7
420
 16777215
176
     0
 90
        1
176
     0
 90
        4
176
     0
 62
     7
176
     0
 62
   257
176
     0
 90
        1
176
     0
 90
        1
176
     0
 40
1.0
176
     0
 90
        8
176
     2
 62
     7
176
     0
 40
1.0
176
     0
 90
        1
176
     0
 90
        6
176
     0
 90
        2
176
     0
 62
     7
176
     0
 90
        5
176
     0
 90
        0
176
     0
 90
        0
176
     0
290
     0
176
     0
 90
        1
176
     0
 40
0.0
176
     0
 90
        0
176
     0
290
     0
176
     0
290
     1
176
     0
290
     1
176
     0
290
     0
176
     0
290
     0
176
     0
290
     0
176
     0
290
     0
176
     0
290
     0
176
     0
290
     0
176
     0
 90
       50
176
     0
 40
0.0
176
     0
 40
1.0
176
     0
 90
        0
176
     0
 62
    18
420
        0
176
     0
 90
       50
176
     0
 90
        3
176
     0
 62
     5
420
      255
176
     0
290
     0
176
     0
 90
       50
176
     0
 90
       50
176
     0
 90
       50
176
     0
290
     0
176
     0
 90
       50
176
     0
 62
   256
176
     0
 40
1.0
176
     0
 90
        2
176
     0
  1
strokes_ogs.tif
176
     0
290
     0
176
     0
 40
1.0
176
     0
 40
1.0
176
     0
  0
VISUALSTYLE
  5
39
102
{ACAD_REACTORS
330
2A
102
}
330
2A
100
AcDbVisualStyle
  2
Facepattern
 70
    15
177
     3
291
     1
 70
    58
 90
        2
176
     1
 90
        2
176
     1
 90
        0
176
     1
 90
        0
176
     1
 40
0.6
176
     1
 40
30.0
176
     1
 62
     7
420
 16777215
176
     1
 90
        1
176
     1
 90
        4
176
     1
 62
     7
176
     1
 62
   257
176
     1
 90
        1
176
     1
 90
        1
176
     1
 40
1.0
176
     1
 90
        8
176
     1
 62
     7
176
     1
 40
1.0
176
     1
 90
        1
176
     1
 90
        6
176
     1
 90
        2
176
     1
 62
     7
176
     1
 90
        5
176
     1
 90
        0
176
     1
 90
        0
176
     1
290
     0
176
     1
 90
        1
176
     1
 40
0.0
176
     1
 90
        0
176
     1
290
     0
176
     1
290
     1
176
     1
290
     1
176
     1
290
     0
176
     1
290
     0
176
     1
290
     0
176
     1
290
     0
176
     1
290
     0
176
     1
290
     0
176
     1
 90
       50
176
     1
 40
0.0
176
     1
 40
1.0
176
     1
 90
        0
176
     1
 62
    18
420
        0
176
     1
 90
       50
176
     1
 90
        3
176
     1
 62
     5
420
      255
176
     1
290
     0
176
     1
 90
       50
176
     1
 90
       50
176
     1
 90
       50
176
     1
290
     0
176
     1
 90
       50
176
     1
 62
   256
176
     0
 40
1.0
176
     0
 90
        2
176
     1
  1
strokes_ogs.tif
176
     1
290
     0
176
     1
 40
1.0
176
     1
 40
1.0
176
     1
  0
VISUALSTYLE
  5
2B
102
{ACAD_REACTORS
330
2A
102
}
330
2A
100
AcDbVisualStyle
  2
Flat
 70
     0
177
     3
291
     1
 70
    58
 90
        2
176
     1
 90
        1
176
     1
 90
        1
176
     1
 90
        2
176
     1
 40
0.6
176
     1
 40
30.0
176
     1
 62
     7
420
 16777215
176
     1
 90
        0
176
     1
 90
        0
176
     1
 62
     7
176
     1
 62
   257
176
     1
 90
        1
176
     1
 90
        1
176
     1
 40
1.0
176
     1
 90
        8
176
     1
 62
     7
176
     1
 40
1.0
176
     1
 90
        1
176
     1
 90
        6
176
     1
 90
        2
176
     1
 62
     7
176
     1
 90
        5
176
     1
 90
        0
176
     1
 90
        0
176
     1
290
     0
176
     1
 90
       13
176
     1
 40
0.0
176
     1
 90
        0
176
     1
290
     0
176
     1
290
     1
176
     1
290
     1
176
     1
290
     0
176
     1
290
     0
176
     1
290
     0
176
     1
290
     0
176
     1
290
     0
176
     1
290
     0
176
     1
 90
       50
176
     1
 40
0.0
176
     1
 40
1.0
176
     1
 90
        0
176
     1
 62
    18
420
        0
176
     1
 90
       50
176
     1
 90
        3
176
     1
 62
     5
420
      255
176
     1
290
     0
176
     1
 90
       50
176
     1
 90
       50
176
     1
 90
       50
176
     1
290
     0
176
     1
 90
       50
176
     1
 62
   256
176
     0
 40
1.0
176
     0
 90
        2
176
     1
  1
strokes_ogs.tif
176
     1
290
     0
176
     1
 40
1.0
176
     1
 40
1.0
176
     1
  0
VISUALSTYLE
  5
2C
102
{ACAD_REACTORS
330
2A
102
}
330
2A
100
AcDbVisualStyle
  2
FlatWithEdges
 70
     1
177
     3
291
     1
 70
    58
 90
        2
176
     1
 90
        1
176
     1
 90
        1
176
     1
 90
        2
176
     1
 40
0.6
176
     1
 40
30.0
176
     1
 62
     7
420
 16777215
176
     1
 90
        1
176
     1
 90
        0
176
     1
 62
     7
176
     1
 62
   257
176
     1
 90
        1
176
     1
 90
        1
176
     1
 40
1.0
176
     1
 90
        0
176
     1
 62
   257
176
     1
 40
1.0
176
     1
 90
        1
176
     1
 90
        6
176
     1
 90
        2
176
     1
 62
     7
176
     1
 90
        5
176
     1
 90
        0
176
     1
 90
        0
176
     1
290
     0
176
     1
 90
       13
176
     1
 40
0.0
176
     1
 90
        0
176
     1
290
     0
176
     1
290
     1
176
     1
290
     1
176
     1
290
     0
176
     1
290
     0
176
     1
290
     0
176
     1
290
     0
176
     1
290
     0
176
     1
290
     0
176
     1
 90
       50
176
     1
 40
0.0
176
     1
 40
1.0
176
     1
 90
        0
176
     1
 62
    18
420
        0
176
     1
 90
       50
176
     1
 90
        3
176
     1
 62
     5
420
      255
176
     1
290
     0
176
     1
 90
       50
176
     1
 90
       50
176
     1
 90
       50
176
     1
290
     0
176
     1
 90
       50
176
     1
 62
   256
176
     0
 40
1.0
176
     0
 90
        2
176
     1
  1
strokes_ogs.tif
176
     1
290
     0
176
     1
 40
1.0
176
     1
 40
1.0
176
     1
  0
VISUALSTYLE
  5
2D
102
{ACAD_REACTORS
330
2A
102
}
330
2A
100
AcDbVisualStyle
  2
Gouraud
 70
     2
177
     3
291
     1
 70
    58
 90
        2
176
     1
 90
        2
176
     1
 90
        1
176
     1
 90
        2
176
     1
 40
0.6
176
     1
 40
30.0
176
     1
 62
     7
420
 16777215
176
     1
 90
        0
176
     1
 90
        0
176
     1
 62
     7
176
     1
 62
   257
176
     1
 90
        1
176
     1
 90
        1
176
     1
 40
1.0
176
     1
 90
        0
176
     1
 62
     7
176
     1
 40
1.0
176
     1
 90
        1
176
     1
 90
        6
176
     1
 90
        2
176
     1
 62
     7
176
     1
 90
        5
176
     1
 90
        0
176
     1
 90
        0
176
     1
290
     0
176
     1
 90
       13
176
     1
 40
0.0
176
     1
 90
        0
176
     1
290
     0
176
     1
290
     1
176
     1
290
     1
176
     1
290
     0
176
     1
290
     0
176
     1
290
     0
176
     1
290
     0
176
     1
290
     0
176
     1
290
     0
176
     1
 90
       50
176
     1
 40
0.0
176
     1
 40
1.0
176
     1
 90
        0
176
     1
 62
    18
420
        0
176
     1
 90
       50
176
     1
 90
        3
176
     1
 62
     5
420
      255
176
     1
290
     0
176
     1
 90
       50
176
     1
 90
       50
176
     1
 90
       50
176
     1
290
     0
176
     1
 90
       50
176
     1
 62
   256
176
     0
 40
1.0
176
     0
 90
        2
176
     1
  1
strokes_ogs.tif
176
     1
290
     0
176
     1
 40
1.0
176
     1
 40
1.0
176
     1
  0
VISUALSTYLE
  5
2E
102
{ACAD_REACTORS
330
2A
102
}
330
2A
100
AcDbVisualStyle
  2
GouraudWithEdges
 70
     3
177
     3
291
     1
 70
    58
 90
        2
176
     1
 90
        2
176
     1
 90
        1
176
     1
 90
        2
176
     1
 40
0.6
176
     1
 40
30.0
176
     1
 62
     7
420
 16777215
176
     1
 90
        1
176
     1
 90
        0
176
     1
 62
     7
176
     1
 62
   257
176
     1
 90
        1
176
     1
 90
        1
176
     1
 40
1.0
176
     1
 90
        0
176
     1
 62
   257
176
     1
 40
1.0
176
     1
 90
        1
176
     1
 90
        6
176
     1
 90
        2
176
     1
 62
     7
176
     1
 90
        5
176
     1
 90
        0
176
     1
 90
        0
176
     1
290
     0
176
     1
 90
       13
176
     1
 40
0.0
176
     1
 90
        0
176
     1
290
     0
176
     1
290
     1
176
     1
290
     1
176
     1
290
     0
176
     1
290
     0
176
     1
290
     0
176
     1
290
     0
176
     1
290
     0
176
     1
290
     0
176
     1
 90
       50
176
     1
 40
0.0
176
     1
 40
1.0
176
     1
 90
        0
176
     1
 62
    18
420
        0
176
     1
 90
       50
176
     1
 90
        3
176
     1
 62
     5
420
      255
176
     1
290
     0
176
     1
 90
       50
176
     1
 90
       50
176
     1
 90
       50
176
     1
290
     0
176
     1
 90
       50
176
     1
 62
   256
176
     0
 40
1.0
176
     0
 90
        2
176
     1
  1
strokes_ogs.tif
176
     1
290
     0
176
     1
 40
1.0
176
     1
 40
1.0
176
     1
  0
VISUALSTYLE
  5
31
102
{ACAD_REACTORS
330
2A
102
}
330
2A
100
AcDbVisualStyle
  2
Hidden
 70
     6
177
     3
291
     0
 70
    58
 90
        1
176
     1
 90
        2
176
     1
 90
        2
176
     1
 90
        0
176
     1
 40
0.6
176
     1
 40
30.0
176
     1
 62
     7
420
 16777215
176
     1
 90
        2
176
     1
 90
        2
176
     1
 62
     7
176
     1
 62
   257
176
     1
 90
        2
176
     1
 90
        1
176
     1
 40
40.0
176
     1
 90
        0
176
     1
 62
   257
176
     1
 40
1.0
176
     1
 90
        1
176
     1
 90
        6
176
     1
 90
        2
176
     1
 62
     7
176
     1
 90
        3
176
     1
 90
        0
176
     1
 90
        0
176
     1
290
     0
176
     1
 90
        1
176
     1
 40
0.0
176
     1
 90
        0
176
     1
290
     0
176
     1
290
     1
176
     1
290
     1
176
     1
290
     0
176
     1
290
     0
176
     1
290
     0
176
     1
290
     0
176
     1
290
     0
176
     1
290
     0
176
     1
 90
       50
176
     1
 40
0.0
176
     1
 40
1.0
176
     1
 90
        0
176
     1
 62
    18
420
        0
176
     1
 90
       50
176
     1
 90
        3
176
     1
 62
     5
420
      255
176
     1
290
     0
176
     1
 90
       50
176
     1
 90
       50
176
     1
 90
       50
176
     1
290
     0
176
     1
 90
       50
176
     1
 62
   256
176
     0
 40
1.0
176
     0
 90
        2
176
     1
  1
strokes_ogs.tif
176
     1
290
     0
176
     1
 40
1.0
176
     1
 40
1.0
176
     1
  0
VISUALSTYLE
  5
3B
102
{ACAD_REACTORS
330
2A
102
}
330
2A
100
AcDbVisualStyle
  2
JitterOff
 70
    20
177
     3
291
     1
 70
    58
 90
        2
176
     0
 90
        2
176
     0
 90
        0
176
     0
 90
        0
176
     0
 40
0.6
176
     0
 40
30.0
176
     0
 62
     7
420
 16777215
176
     0
 90
        1
176
     0
 90
        4
176
     0
 62
     7
176
     0
 62
   257
176
     0
 90
        1
176
     0
 90
        1
176
     0
 40
1.0
176
     0
 90
       10
176
     2
 62
     7
176
     0
 40
1.0
176
     0
 90
        1
176
     0
 90
        6
176
     0
 90
        2
176
     0
 62
     7
176
     0
 90
        5
176
     0
 90
        0
176
     0
 90
        0
176
     0
290
     0
176
     0
 90
        1
176
     0
 40
0.0
176
     0
 90
        0
176
     0
290
     0
176
     0
290
     1
176
     0
290
     1
176
     0
290
     0
176
     0
290
     0
176
     0
290
     0
176
     0
290
     0
176
     0
290
     0
176
     0
290
     0
176
     0
 90
       50
176
     0
 40
0.0
176
     0
 40
1.0
176
     0
 90
        0
176
     0
 62
    18
420
        0
176
     0
 90
       50
176
     0
 90
        3
176
     0
 62
     5
420
      255
176
     0
290
     0
176
     0
 90
       50
176
     0
 90
       50
176
     0
 90
       50
176
     0
290
     0
176
     0
 90
       50
176
     0
 62
   256
176
     0
 40
1.0
176
     0
 90
        2
176
     0
  1
strokes_ogs.tif
176
     0
290
     0
176
     0
 40
1.0
176
     0
 40
1.0
176
     0
  0
VISUALSTYLE
  5
38
102
{ACAD_REACTORS
330
2A
102
}
330
2A
100
AcDbVisualStyle
  2
Linepattern
 70
    14
177
     3
291
     1
 70
    58
 90
        2
176
     1
 90
        2
176
     1
 90
        0
176
     1
 90
        0
176
     1
 40
0.6
176
     1
 40
30.0
176
     1
 62
     7
420
 16777215
176
     1
 90
        1
176
     1
 90
        4
176
     1
 62
     7
176
     1
 62
   257
176
     1
 90
        7
176
     1
 90
        7
176
     1
 40
1.0
176
     1
 90
        8
176
     1
 62
     7
176
     1
 40
1.0
176
     1
 90
        1
176
     1
 90
        6
176
     1
 90
        2
176
     1
 62
     7
176
     1
 90
        5
176
     1
 90
        0
176
     1
 90
        0
176
     1
290
     0
176
     1
 90
        1
176
     1
 40
0.0
176
     1
 90
        0
176
     1
290
     0
176
     1
290
     1
176
     1
290
     1
176
     1
290
     0
176
     1
290
     0
176
     1
290
     0
176
     1
290
     0
176
     1
290
     0
176
     1
290
     0
176
     1
 90
       50
176
     1
 40
0.0
176
     1
 40
1.0
176
     1
 90
        0
176
     1
 62
    18
420
        0
176
     1
 90
       50
176
     1
 90
        3
176
     1
 62
     5
420
      255
176
     1
290
     0
176
     1
 90
       50
176
     1
 90
       50
176
     1
 90
       50
176
     1
290
     0
176
     1
 90
       50
176
     1
 62
   256
176
     0
 40
1.0
176
     0
 90
        2
176
     1
  1
strokes_ogs.tif
176
     1
290
     0
176
     1
 40
1.0
176
     1
 40
1.0
176
     1
  0
VISUALSTYLE
  5
3C
102
{ACAD_REACTORS
330
2A
102
}
330
2A
100
AcDbVisualStyle
  2
OverhangOff
 70
    21
177
     3
291
     1
 70
    58
 90
        2
176
     0
 90
        2
176
     0
 90
        0
176
     0
 90
        0
176
     0
 40
0.6
176
     0
 40
30.0
176
     0
 62
     7
420
 16777215
176
     0
 90
        1
176
     0
 90
        4
176
     0
 62
     7
176
     0
 62
   257
176
     0
 90
        1
176
     0
 90
        1
176
     0
 40
1.0
176
     0
 90
        9
176
     2
 62
     7
176
     0
 40
1.0
176
     0
 90
        1
176
     0
 90
        6
176
     0
 90
        2
176
     0
 62
     7
176
     0
 90
        5
176
     0
 90
        0
176
     0
 90
        0
176
     0
290
     0
176
     0
 90
        1
176
     0
 40
0.0
176
     0
 90
        0
176
     0
290
     0
176
     0
290
     1
176
     0
290
     1
176
     0
290
     0
176
     0
290
     0
176
     0
290
     0
176
     0
290
     0
176
     0
290
     0
176
     0
290
     0
176
     0
 90
       50
176
     0
 40
0.0
176
     0
 40
1.0
176
     0
 90
        0
176
     0
 62
    18
420
        0
176
     0
 90
       50
176
     0
 90
        3
176
     0
 62
     5
420
      255
176
     0
290
     0
176
     0
 90
       50
176
     0
 90
       50
176
     0
 90
       50
176
     0
290
     0
176
     0
 90
       50
176
     0
 62
   256
176
     0
 40
1.0
176
     0
 90
        2
176
     0
  1
strokes_ogs.tif
176
     0
290
     0
176
     0
 40
1.0
176
     0
 40
1.0
176
     0
  0
VISUALSTYLE
  5
33
102
{ACAD_REACTORS
330
2A
102
}
330
2A
100
AcDbVisualStyle
  2
Realistic
 70
     8
177
     3
291
     0
 70
    58
 90
        2
176
     1
 90
        3
176
     1
 90
        0
176
     1
 90
        2
176
     1
 40
0.6
176
     1
 40
30.0
176
     1
 62
     7
420
 16777215
176
     1
 90
        0
176
     1
 90
        0
176
     1
 62
     7
176
     1
 62
   257
176
     1
 90
        1
176
     1
 90
        1
176
     1
 40
1.0
176
     1
 90
        8
176
     1
 62
   257
176
     1
 40
1.0
176
     1
 90
        1
176
     1
 90
        6
176
     1
 90
        2
176
     1
 62
     7
176
     1
 90
        3
176
     1
 90
        0
176
     1
 90
        0
176
     1
290
     0
176
     1
 90
       13
176
     1
 40
0.0
176
     1
 90
        0
176
     1
290
     0
176
     1
290
     1
176
     1
290
     1
176
     1
290
     0
176
     1
290
     0
176
     1
290
     0
176
     1
290
     0
176
     1
290
     0
176
     1
290
     0
176
     1
 90
       50
176
     1
 40
0.0
176
     1
 40
1.0
176
     1
 90
        0
176
     1
 62
    18
420
        0
176
     1
 90
       50
176
     1
 90
        3
176
     1
 62
     5
420
      255
176
     1
290
     0
176
     1
 90
       50
176
     1
 90
       50
176
     1
 90
       50
176
     1
290
     0
176
     1
 90
       50
176
     1
 62
   256
176
     0
 40
1.0
176
     0
 90
        2
176
     1
  1
strokes_ogs.tif
176
     1
290
     0
176
     1
 40
1.0
176
     1
 40
1.0
176
     1
  0
VISUALSTYLE
  5
42
102
{ACAD_REACTORS
330
2A
102
}
330
2A
100
AcDbVisualStyle
  2
Shaded
 70
    27
177
     3
291
     0
 70
    58
 90
        2
176
     1
 90
        2
176
     1
 90
        1
176
     1
 90
        2
176
     1
 40
0.6
176
     1
 40
30.0
176
     1
 62
     7
420
 16777215
176
     1
 90
        0
176
     1
 90
        4
176
     1
 62
     7
176
     1
 62
   257
176
     1
 90
        1
176
     1
 90
        1
176
     1
 40
1.0
176
     1
 90
        8
176
     1
 62
   257
176
     1
 40
1.0
176
     1
 90
        1
176
     1
 90
        6
176
     1
 90
        2
176
     1
 62
     8
420
  7895160
176
     1
 90
        3
176
     1
 90
        0
176
     1
 90
        0
176
     1
290
     0
176
     1
 90
        5
176
     1
 40
0.0
176
     1
 90
        0
176
     1
290
     0
176
     1
290
     1
176
     1
290
     1
176
     1
290
     0
176
     1
290
     0
176
     1
290
     0
176
     1
290
     0
176
     1
290
     0
176
     1
290
     0
176
     1
 90
       50
176
     1
 40
0.0
176
     1
 40
1.0
176
     1
 90
        0
176
     1
 62
    18
420
        0
176
     1
 90
       50
176
     1
 90
        3
176
     1
 62
     5
420
      255
176
     1
290
     0
176
     1
 90
       50
176
     1
 90
       50
176
     1
 90
       50
176
     1
290
     0
176
     1
 90
       50
176
     1
 62
   256
176
     0
 40
1.0
176
     0
 90
        2
176
     1
  1
strokes_ogs.tif
176
     1
290
     0
176
     1
 40
1.0
176
     1
 40
1.0
176
     1
  0
VISUALSTYLE
  5
41
102
{ACAD_REACTORS
330
2A
102
}
330
2A
100
AcDbVisualStyle
  2
Shaded with edges
 70
    26
177
     3
291
     0
 70
    58
 90
        2
176
     1
 90
        2
176
     1
 90
        1
176
     1
 90
        2
176
     1
 40
0.6
176
     1
 40
30.0
176
     1
 62
     7
420
 16777215
176
     1
 90
        1
176
     1
 90
       10
176
     1
 62
     7
176
     1
 62
   257
176
     1
 90
        2
176
     1
 90
        1
176
     1
 40
1.0
176
     1
 90
        8
176
     1
 62
   257
176
     1
 40
1.0
176
     1
 90
        1
176
     1
 90
        6
176
     1
 90
        2
176
     1
 62
     7
176
     1
 90
        3
176
     1
 90
        0
176
     1
 90
        0
176
     1
290
     0
176
     1
 90
        5
176
     1
 40
0.0
176
     1
 90
        0
176
     1
290
     0
176
     1
290
     1
176
     1
290
     1
176
     1
290
     0
176
     1
290
     0
176
     1
290
     0
176
     1
290
     0
176
     1
290
     0
176
     1
290
     0
176
     1
 90
       50
176
     1
 40
0.0
176
     1
 40
1.0
176
     1
 90
        0
176
     1
 62
    18
420
        0
176
     1
 90
       50
176
     1
 90
        3
176
     1
 62
     5
420
      255
176
     1
290
     0
176
     1
 90
       50
176
     1
 90
       50
176
     1
 90
       50
176
     1
290
     0
176
     1
 90
       50
176
     1
 62
   256
176
     0
 40
1.0
176
     0
 90
        2
176
     1
  1
strokes_ogs.tif
176
     1
290
     0
176
     1
 40
1.0
176
     1
 40
1.0
176
     1
  0
VISUALSTYLE
  5
3E
102
{ACAD_REACTORS
330
2A
102
}
330
2A
100
AcDbVisualStyle
  2
Shades of Gray
 70
    23
177
     3
291
     0
 70
    58
 90
        2
176
     1
 90
        2
176
     1
 90
        3
176
     1
 90
        0
176
     1
 40
0.6
176
     1
 40
30.0
176
     1
 62
     7
420
 16777215
176
     1
 90
        2
176
     1
 90
        2
176
     1
 62
     7
176
     1
 62
     7
176
     1
 90
        1
176
     1
 90
        1
176
     1
 40
40.0
176
     1
 90
        8
176
     1
 62
     7
176
     1
 40
1.0
176
     1
 90
        1
176
     1
 90
        6
176
     1
 90
        2
176
     1
 62
     7
176
     1
 90
        3
176
     1
 90
        0
176
     1
 90
        0
176
     1
290
     0
176
     1
 90
        1
176
     1
 40
0.0
176
     1
 90
        0
176
     1
290
     0
176
     1
290
     1
176
     1
290
     1
176
     1
290
     0
176
     1
290
     0
176
     1
290
     0
176
     1
290
     0
176
     1
290
     0
176
     1
290
     0
176
     1
 90
       50
176
     1
 40
0.0
176
     1
 40
1.0
176
     1
 90
        0
176
     1
 62
    18
420
        0
176
     1
 90
       50
176
     1
 90
        3
176
     1
 62
     5
420
      255
176
     1
290
     0
176
     1
 90
       50
176
     1
 90
       50
176
     1
 90
       50
176
     1
290
     0
176
     1
 90
       50
176
     1
 62
   256
176
     0
 40
1.0
176
     0
 90
        2
176
     1
  1
strokes_ogs.tif
176
     1
290
     0
176
     1
 40
1.0
176
     1
 40
1.0
176
     1
  0
VISUALSTYLE
  5
3F
102
{ACAD_REACTORS
330
2A
102
}
330
2A
100
AcDbVisualStyle
  2
Sketchy
 70
    24
177
     3
291
     0
 70
    58
 90
        1
176
     1
 90
        2
176
     1
 90
        2
176
     1
 90
        0
176
     1
 40
0.6
176
     1
 40
30.0
176
     1
 62
     7
420
 16777215
176
     1
 90
        2
176
     1
 90
        2
176
     1
 62
     7
176
     1
 62
     7
176
     1
 90
        1
176
     1
 90
        1
176
     1
 40
40.0
176
     1
 90
       11
176
     1
 62
     7
176
     1
 40
1.0
176
     1
 90
        1
176
     1
 90
        6
176
     1
 90
        2
176
     1
 62
     7
176
     1
 90
        6
176
     1
 90
        0
176
     1
 90
        0
176
     1
290
     0
176
     1
 90
        1
176
     1
 40
0.0
176
     1
 90
        0
176
     1
290
     0
176
     1
290
     1
176
     1
290
     1
176
     1
290
     0
176
     1
290
     0
176
     1
290
     0
176
     1
290
     0
176
     1
290
     0
176
     1
290
     0
176
     1
 90
       50
176
     1
 40
0.0
176
     1
 40
1.0
176
     1
 90
        0
176
     1
 62
    18
420
        0
176
     1
 90
       50
176
     1
 90
        3
176
     1
 62
     5
420
      255
176
     1
290
     0
176
     1
 90
       50
176
     1
 90
       50
176
     1
 90
       50
176
     1
290
     0
176
     1
 90
       50
176
     1
 62
   256
176
     0
 40
1.0
176
     0
 90
        2
176
     1
  1
strokes_ogs.tif
176
     1
290
     0
176
     1
 40
1.0
176
     1
 40
1.0
176
     1
  0
VISUALSTYLE
  5
37
102
{ACAD_REACTORS
330
2A
102
}
330
2A
100
AcDbVisualStyle
  2
Thicken
 70
    13
177
     3
291
     1
 70
    58
 90
        2
176
     1
 90
        2
176
     1
 90
        0
176
     1
 90
        0
176
     1
 40
0.6
176
     1
 40
30.0
176
     1
 62
     7
420
 16777215
176
     1
 90
        1
176
     1
 90
        4
176
     1
 62
     7
176
     1
 62
   257
176
     1
 90
        1
176
     1
 90
        1
176
     1
 40
1.0
176
     1
 90
       12
176
     1
 62
     7
176
     1
 40
1.0
176
     1
 90
        1
176
     1
 90
        6
176
     1
 90
        2
176
     1
 62
     7
176
     1
 90
        5
176
     1
 90
        0
176
     1
 90
        0
176
     1
290
     0
176
     1
 90
        1
176
     1
 40
0.0
176
     1
 90
        0
176
     1
290
     0
176
     1
290
     1
176
     1
290
     1
176
     1
290
     0
176
     1
290
     0
176
     1
290
     0
176
     1
290
     0
176
     1
290
     0
176
     1
290
     0
176
     1
 90
       50
176
     1
 40
0.0
176
     1
 40
1.0
176
     1
 90
        0
176
     1
 62
    18
420
        0
176
     1
 90
       50
176
     1
 90
        3
176
     1
 62
     5
420
      255
176
     1
290
     0
176
     1
 90
       50
176
     1
 90
       50
176
     1
 90
       50
176
     1
290
     0
176
     1
 90
       50
176
     1
 62
   256
176
     0
 40
1.0
176
     0
 90
        2
176
     1
  1
strokes_ogs.tif
176
     1
290
     0
176
     1
 40
1.0
176
     1
 40
1.0
176
     1
  0
VISUALSTYLE
  5
30
102
{ACAD_REACTORS
330
2A
102
}
330
2A
100
AcDbVisualStyle
  2
Wireframe
 70
     5
177
     3
291
     0
 70
    58
 90
        0
176
     1
 90
        2
176
     1
 90
        0
176
     1
 90
        0
176
     1
 40
0.6
176
     1
 40
30.0
176
     1
 62
     7
420
 16777215
176
     1
 90
        1
176
     1
 90
        4
176
     1
 62
     7
176
     1
 62
   257
176
     1
 90
        1
176
     1
 90
        1
176
     1
 40
1.0
176
     1
 90
        0
176
     1
 62
   257
176
     1
 40
1.0
176
     1
 90
        1
176
     1
 90
        6
176
     1
 90
        2
176
     1
 62
     7
176
     1
 90
        3
176
     1
 90
        0
176
     1
 90
        0
176
     1
290
     0
176
     1
 90
        1
176
     1
 40
0.0
176
     1
 90
        0
176
     1
290
     0
176
     1
290
     1
176
     1
290
     1
176
     1
290
     0
176
     1
290
     0
176
     1
290
     0
176
     1
290
     0
176
     1
290
     0
176
     1
290
     0
176
     1
 90
       50
176
     1
 40
0.0
176
     1
 40
1.0
176
     1
 90
        0
176
     1
 62
    18
420
        0
176
     1
 90
       50
176
     1
 90
        3
176
     1
 62
     5
420
      255
176
     1
290
     0
176
     1
 90
       50
176
     1
 90
       50
176
     1
 90
       50
176
     1
290
     0
176
     1
 90
       50
176
     1
 62
   256
176
     0
 40
1.0
176
     0
 90
        2
176
     1
  1
strokes_ogs.tif
176
     1
290
     0
176
     1
 40
1.0
176
     1
 40
1.0
176
     1
  0
VISUALSTYLE
  5
40
102
{ACAD_REACTORS
330
2A
102
}
330
2A
100
AcDbVisualStyle
  2
X-Ray
 70
    25
177
     3
291
     0
 70
    58
 90
        2
176
     1
 90
        2
176
     1
 90
        1
176
     1
 90
        1
176
     1
 40
0.5
176
     1
 40
30.0
176
     1
 62
     7
420
 16777215
176
     1
 90
        1
176
     1
 90
        0
176
     1
 62
     7
176
     1
 62
   257
176
     1
 90
        1
176
     1
 90
        1
176
     1
 40
1.0
176
     1
 90
        8
176
     1
 62
     7
176
     1
 40
1.0
176
     1
 90
        1
176
     1
 90
        6
176
     1
 90
        2
176
     1
 62
     7
176
     1
 90
        3
176
     1
 90
        0
176
     1
 90
        0
176
     1
290
     0
176
     1
 90
       13
176
     1
 40
0.0
176
     1
 90
        0
176
     1
290
     0
176
     1
290
     1
176
     1
290
     1
176
     1
290
     0
176
     1
290
     0
176
     1
290
     0
176
     1
290
     0
176
     1
290
     0
176
     1
290
     0
176
     1
 90
       50
176
     1
 40
0.0
176
     1
 40
1.0
176
     1
 90
        0
176
     1
 62
    18
420
        0
176
     1
 90
       50
176
     1
 90
        3
176
     1
 62
     5
420
      255
176
     1
290
     0
176
     1
 90
       50
176
     1
 90
       50
176
     1
 90
       50
176
     1
290
     0
176
     1
 90
       50
176
     1
 62
   256
176
     0
 40
1.0
176
     0
 90
        2
176
     1
  1
strokes_ogs.tif
176
     1
290
     0
176
     1
 40
1.0
176
     1
 40
1.0
176
     1
  0
DICTIONARYVAR
  5
1CA
102
{ACAD_REACTORS
330
1C9
102
}
330
1C9
100
DictionaryVariables
280
     0
  1
1:1
  0
DICTIONARYVAR
  5
1CF
102
{ACAD_REACTORS
330
1C9
102
}
330
1C9
100
DictionaryVariables
280
     0
  1
Standard
  0
DICTIONARYVAR
  5
1CE
102
{ACAD_REACTORS
330
1C9
102
}
330
1C9
100
DictionaryVariables
280
     0
  1
Standard
  0
DICTIONARY
  5
1CB
330
6A
100
AcDbDictionary
280
     1
281
     1
  3
ACAD_ROUNDTRIP_2008_TABLESTYLE_CELLSTYLEMAP
360
1CC
  0
CELLSTYLEMAP
  5
1CC
102
{ACAD_REACTORS
330
1CB
102
}
330
1CB
100
AcDbCellStyleMap
 90
        3
300
CELLSTYLE
  1
TABLEFORMAT_BEGIN
 90
        5
170
     1
 91
        0
 92
    32768
 62
   257
 93
        1
300
CONTENTFORMAT
  1
CONTENTFORMAT_BEGIN
 90
        0
 91
        0
 92
        4
 93
        0
300

 40
0.0
140
1.0
 94
        5
 62
     0
340
11
144
0.25
309
CONTENTFORMAT_END
171
     1
301
MARGIN
  1
CELLMARGIN_BEGIN
 40
0.06
 40
0.06
 40
0.06
 40
0.06
 40
0.06
 40
0.06
309
CELLMARGIN_END
 94
        6
 95
        1
302
GRIDFORMAT
  1
GRIDFORMAT_BEGIN
 90
        0
 91
        1
 62
     0
 92
       -2
340
14
 93
        0
 40
0.045
309
GRIDFORMAT_END
 95
        2
302
GRIDFORMAT
  1
GRIDFORMAT_BEGIN
 90
        0
 91
        1
 62
     0
 92
       -2
340
14
 93
        0
 40
0.045
309
GRIDFORMAT_END
 95
        4
302
GRIDFORMAT
  1
GRIDFORMAT_BEGIN
 90
        0
 91
        1
 62
     0
 92
       -2
340
14
 93
        0
 40
0.045
309
GRIDFORMAT_END
 95
        8
302
GRIDFORMAT
  1
GRIDFORMAT_BEGIN
 90
        0
 91
        1
 62
     0
 92
       -2
340
14
 93
        0
 40
0.045
309
GRIDFORMAT_END
 95
       16
302
GRIDFORMAT
  1
GRIDFORMAT_BEGIN
 90
        0
 91
        1
 62
     0
 92
       -2
340
14
 93
        0
 40
0.045
309
GRIDFORMAT_END
 95
       32
302
GRIDFORMAT
  1
GRIDFORMAT_BEGIN
 90
        0
 91
        1
 62
     0
 92
       -2
340
14
 93
        0
 40
0.045
309
GRIDFORMAT_END
309
TABLEFORMAT_END
  1
CELLSTYLE_BEGIN
 90
        1
 91
        1
300
_TITLE
309
CELLSTYLE_END
300
CELLSTYLE
  1
TABLEFORMAT_BEGIN
 90
        5
170
     1
 91
        0
 92
        0
 62
   257
 93
        1
300
CONTENTFORMAT
  1
CONTENTFORMAT_BEGIN
 90
        0
 91
        0
 92
        4
 93
        0
300

 40
0.0
140
1.0
 94
        5
 62
     0
340
11
144
0.18
309
CONTENTFORMAT_END
171
     1
301
MARGIN
  1
CELLMARGIN_BEGIN
 40
0.06
 40
0.06
 40
0.06
 40
0.06
 40
0.06
 40
0.06
309
CELLMARGIN_END
 94
        6
 95
        1
302
GRIDFORMAT
  1
GRIDFORMAT_BEGIN
 90
        0
 91
        1
 62
     0
 92
       -2
340
14
 93
        0
 40
0.045
309
GRIDFORMAT_END
 95
        2
302
GRIDFORMAT
  1
GRIDFORMAT_BEGIN
 90
        0
 91
        1
 62
     0
 92
       -2
340
14
 93
        0
 40
0.045
309
GRIDFORMAT_END
 95
        4
302
GRIDFORMAT
  1
GRIDFORMAT_BEGIN
 90
        0
 91
        1
 62
     0
 92
       -2
340
14
 93
        0
 40
0.045
309
GRIDFORMAT_END
 95
        8
302
GRIDFORMAT
  1
GRIDFORMAT_BEGIN
 90
        0
 91
        1
 62
     0
 92
       -2
340
14
 93
        0
 40
0.045
309
GRIDFORMAT_END
 95
       16
302
GRIDFORMAT
  1
GRIDFORMAT_BEGIN
 90
        0
 91
        1
 62
     0
 92
       -2
340
14
 93
        0
 40
0.045
309
GRIDFORMAT_END
 95
       32
302
GRIDFORMAT
  1
GRIDFORMAT_BEGIN
 90
        0
 91
        1
 62
     0
 92
       -2
340
14
 93
        0
 40
0.045
309
GRIDFORMAT_END
309
TABLEFORMAT_END
  1
CELLSTYLE_BEGIN
 90
        2
 91
        1
300
_HEADER
309
CELLSTYLE_END
300
CELLSTYLE
  1
TABLEFORMAT_BEGIN
 90
        5
170
     1
 91
        0
 92
        0
 62
   257
 93
        1
300
CONTENTFORMAT
  1
CONTENTFORMAT_BEGIN
 90
        0
 91
        0
 92
        4
 93
        0
300

 40
0.0
140
1.0
 94
        2
 62
     0
340
11
144
0.18
309
CONTENTFORMAT_END
171
     1
301
MARGIN
  1
CELLMARGIN_BEGIN
 40
0.06
 40
0.06
 40
0.06
 40
0.06
 40
0.06
 40
0.06
309
CELLMARGIN_END
 94
        6
 95
        1
302
GRIDFORMAT
  1
GRIDFORMAT_BEGIN
 90
        0
 91
        1
 62
     0
 92
       -2
340
14
 93
        0
 40
0.045
309
GRIDFORMAT_END
 95
        2
302
GRIDFORMAT
  1
GRIDFORMAT_BEGIN
 90
        0
 91
        1
 62
     0
 92
       -2
340
14
 93
        0
 40
0.045
309
GRIDFORMAT_END
 95
        4
302
GRIDFORMAT
  1
GRIDFORMAT_BEGIN
 90
        0
 91
        1
 62
     0
 92
       -2
340
14
 93
        0
 40
0.045
309
GRIDFORMAT_END
 95
        8
302
GRIDFORMAT
  1
GRIDFORMAT_BEGIN
 90
        0
 91
        1
 62
     0
 92
       -2
340
14
 93
        0
 40
0.045
309
GRIDFORMAT_END
 95
       16
302
GRIDFORMAT
  1
GRIDFORMAT_BEGIN
 90
        0
 91
        1
 62
     0
 92
       -2
340
14
 93
        0
 40
0.045
309
GRIDFORMAT_END
 95
       32
302
GRIDFORMAT
  1
GRIDFORMAT_BEGIN
 90
        0
 91
        1
 62
     0
 92
       -2
340
14
 93
        0
 40
0.045
309
GRIDFORMAT_END
309
TABLEFORMAT_END
  1
CELLSTYLE_BEGIN
 90
        3
 91
        2
300
_DATA
309
CELLSTYLE_END
  0
ENDSEC
  0
EOF