0
SECTION
  2
HEADER
  9
$ACADVER
  1
AC1027
  9
$ACADMAINTVER
 70
     8
  9
$DWGCODEPAGE
  3
ANSI_1252
  9
$REQUIREDVERSIONS
160
                 0
  9
$COMMENTS
  1
File was created by Cadenas
  9
$CUSTOMPROPERTYTAG
  1
NN
  9
$CUSTOMPROPERTY
  1
Flange Cartridge Expansion Inch Bore
  9
$CUSTOMPROPERTYTAG
  1
NT
  9
$CUSTOMPROPERTY
  1
Type E Piloted Flange Bearing -Inch
  9
$CUSTOMPROPERTYTAG
  1
NB
  9
$CUSTOMPROPERTY
  1
023125
  9
$CUSTOMPROPERTYTAG
  1
NBSYN
  9
$CUSTOMPROPERTY
  1
$PN.
  9
$CUSTOMPROPERTYTAG
  1
LINA
  9
$CUSTOMPROPERTY
  1
023125
  9
$CUSTOMPROPERTYTAG
  1
SS
  9
$CUSTOMPROPERTY
  1
1-5/8
  9
$CUSTOMPROPERTYTAG
  1
PN
  9
$CUSTOMPROPERTY
  1
023125
  9
$CUSTOMPROPERTYTAG
  1
DESCRIPTION
  9
$CUSTOMPROPERTY
  1
FC-E-110R
  9
$CUSTOMPROPERTYTAG
  1
A
  9
$CUSTOMPROPERTY
  1
3-3/8
  9
$CUSTOMPROPERTYTAG
  1
B
  9
$CUSTOMPROPERTY
  1
6-1/8
  9
$CUSTOMPROPERTYTAG
  1
C
  9
$CUSTOMPROPERTY
  1
2-25/32
  9
$CUSTOMPROPERTYTAG
  1
D
  9
$CUSTOMPROPERTY
  1
5-1/8
  9
$CUSTOMPROPERTYTAG
  1
E
  9
$CUSTOMPROPERTY
  1
1-1/16
  9
$CUSTOMPROPERTYTAG
  1
F
  9
$CUSTOMPROPERTY
  1
7/16
  9
$CUSTOMPROPERTYTAG
  1
G
  9
$CUSTOMPROPERTY
  1
1-9/16
  9
$CUSTOMPROPERTYTAG
  1
H
  9
$CUSTOMPROPERTY
  1
1/2
  9
$CUSTOMPROPERTYTAG
  1
K
  9
$CUSTOMPROPERTY
  1
4-1/4
  9
$CUSTOMPROPERTYTAG
  1
L
  9
$CUSTOMPROPERTY
  1
3-3/16
  9
$CUSTOMPROPERTYTAG
  1
M
  9
$CUSTOMPROPERTY
  1
1-1/32
  9
$CUSTOMPROPERTYTAG
  1
COMPANY
  9
$CUSTOMPROPERTY
  1
baldor
  9
$INSBASE
 10
0.0
 20
0.0
 30
0.0
  9
$EXTMIN
 10
1.000000000000000E+20
 20
1.000000000000000E+20
 30
1.000000000000000E+20
  9
$EXTMAX
 10
-1.000000000000000E+20
 20
-1.000000000000000E+20
 30
-1.000000000000000E+20
  9
$LIMMIN
 10
0.0
 20
0.0
  9
$LIMMAX
 10
12.0
 20
9.0
  9
$ORTHOMODE
 70
     0
  9
$REGENMODE
 70
     1
  9
$FILLMODE
 70
     1
  9
$QTEXTMODE
 70
     0
  9
$MIRRTEXT
 70
     1
  9
$LTSCALE
 40
1.0
  9
$ATTMODE
 70
     1
  9
$TEXTSIZE
 40
0.2
  9
$TRACEWID
 40
0.05
  9
$TEXTSTYLE
  7
Standard
  9
$CLAYER
  8
0
  9
$CELTYPE
  6
ByLayer
  9
$CECOLOR
 62
   256
  9
$CELTSCALE
 40
1.0
  9
$DISPSILH
 70
     0
  9
$DIMSCALE
 40
1.0
  9
$DIMASZ
 40
0.18
  9
$DIMEXO
 40
0.0625
  9
$DIMDLI
 40
0.38
  9
$DIMRND
 40
0.0
  9
$DIMDLE
 40
0.0
  9
$DIMEXE
 40
0.18
  9
$DIMTP
 40
0.0
  9
$DIMTM
 40
0.0
  9
$DIMTXT
 40
0.18
  9
$DIMCEN
 40
0.09
  9
$DIMTSZ
 40
0.0
  9
$DIMTOL
 70
     0
  9
$DIMLIM
 70
     0
  9
$DIMTIH
 70
     1
  9
$DIMTOH
 70
     1
  9
$DIMSE1
 70
     0
  9
$DIMSE2
 70
     0
  9
$DIMTAD
 70
     0
  9
$DIMZIN
 70
     0
  9
$DIMBLK
  1

  9
$DIMASO
 70
     1
  9
$DIMSHO
 70
     1
  9
$DIMPOST
  1

  9
$DIMAPOST
  1

  9
$DIMALT
 70
     0
  9
$DIMALTD
 70
     2
  9
$DIMALTF
 40
25.4
  9
$DIMLFAC
 40
1.0
  9
$DIMTOFL
 70
     0
  9
$DIMTVP
 40
0.0
  9
$DIMTIX
 70
     0
  9
$DIMSOXD
 70
     0
  9
$DIMSAH
 70
     0
  9
$DIMBLK1
  1

  9
$DIMBLK2
  1

  9
$DIMSTYLE
  2
Standard
  9
$DIMCLRD
 70
     0
  9
$DIMCLRE
 70
     0
  9
$DIMCLRT
 70
     0
  9
$DIMTFAC
 40
1.0
  9
$DIMGAP
 40
0.09
  9
$DIMJUST
 70
     0
  9
$DIMSD1
 70
     0
  9
$DIMSD2
 70
     0
  9
$DIMTOLJ
 70
     1
  9
$DIMTZIN
 70
     0
  9
$DIMALTZ
 70
     0
  9
$DIMALTTZ
 70
     0
  9
$DIMUPT
 70
     0
  9
$DIMDEC
 70
     4
  9
$DIMTDEC
 70
     4
  9
$DIMALTU
 70
     2
  9
$DIMALTTD
 70
     2
  9
$DIMTXSTY
  7
Standard
  9
$DIMAUNIT
 70
     0
  9
$DIMADEC
 70
     0
  9
$DIMALTRND
 40
0.0
  9
$DIMAZIN
 70
     0
  9
$DIMDSEP
 70
    46
  9
$DIMATFIT
 70
     3
  9
$DIMFRAC
 70
     0
  9
$DIMLDRBLK
  1

  9
$DIMLUNIT
 70
     2
  9
$DIMLWD
 70
    -2
  9
$DIMLWE
 70
    -2
  9
$DIMTMOVE
 70
     0
  9
$DIMFXL
 40
1.0
  9
$DIMFXLON
 70
     0
  9
$DIMJOGANG
 40
0.7853981633974483
  9
$DIMTFILL
 70
     0
  9
$DIMTFILLCLR
 70
     0
  9
$DIMARCSYM
 70
     0
  9
$DIMLTYPE
  6

  9
$DIMLTEX1
  6

  9
$DIMLTEX2
  6

  9
$DIMTXTDIRECTION
 70
     0
  9
$LUNITS
 70
     2
  9
$LUPREC
 70
     4
  9
$SKETCHINC
 40
0.1
  9
$FILLETRAD
 40
0.5
  9
$AUNITS
 70
     0
  9
$AUPREC
 70
     0
  9
$MENU
  1
.
  9
$ELEVATION
 40
0.0
  9
$PELEVATION
 40
0.0
  9
$THICKNESS
 40
0.0
  9
$LIMCHECK
 70
     0
  9
$CHAMFERA
 40
0.0
  9
$CHAMFERB
 40
0.0
  9
$CHAMFERC
 40
0.0
  9
$CHAMFERD
 40
0.0
  9
$SKPOLY
 70
     0
  9
$TDCREATE
 40
2458169.016974884
  9
$TDUCREATE
 40
2458168.975308218
  9
$TDUPDATE
 40
2458169.016974884
  9
$TDUUPDATE
 40
2458168.975308218
  9
$TDINDWG
 40
0.0000000116
  9
$TDUSRTIMER
 40
0.0000000116
  9
$USRTIMER
 70
     1
  9
$ANGBASE
 50
0.0
  9
$ANGDIR
 70
     0
  9
$PDMODE
 70
     0
  9
$PDSIZE
 40
0.0
  9
$PLINEWID
 40
0.0
  9
$SPLFRAME
 70
     0
  9
$SPLINETYPE
 70
     6
  9
$SPLINESEGS
 70
     8
  9
$HANDSEED
  5
1A7
  9
$SURFTAB1
 70
     6
  9
$SURFTAB2
 70
     6
  9
$SURFTYPE
 70
     6
  9
$SURFU
 70
     6
  9
$SURFV
 70
     6
  9
$UCSBASE
  2

  9
$UCSNAME
  2

  9
$UCSORG
 10
0.0
 20
0.0
 30
0.0
  9
$UCSXDIR
 10
1.0
 20
0.0
 30
0.0
  9
$UCSYDIR
 10
0.0
 20
1.0
 30
0.0
  9
$UCSORTHOREF
  2

  9
$UCSORTHOVIEW
 70
     0
  9
$UCSORGTOP
 10
0.0
 20
0.0
 30
0.0
  9
$UCSORGBOTTOM
 10
0.0
 20
0.0
 30
0.0
  9
$UCSORGLEFT
 10
0.0
 20
0.0
 30
0.0
  9
$UCSORGRIGHT
 10
0.0
 20
0.0
 30
0.0
  9
$UCSORGFRONT
 10
0.0
 20
0.0
 30
0.0
  9
$UCSORGBACK
 10
0.0
 20
0.0
 30
0.0
  9
$PUCSBASE
  2

  9
$PUCSNAME
  2

  9
$PUCSORG
 10
0.0
 20
0.0
 30
0.0
  9
$PUCSXDIR
 10
1.0
 20
0.0
 30
0.0
  9
$PUCSYDIR
 10
0.0
 20
1.0
 30
0.0
  9
$PUCSORTHOREF
  2

  9
$PUCSORTHOVIEW
 70
     0
  9
$PUCSORGTOP
 10
0.0
 20
0.0
 30
0.0
  9
$PUCSORGBOTTOM
 10
0.0
 20
0.0
 30
0.0
  9
$PUCSORGLEFT
 10
0.0
 20
0.0
 30
0.0
  9
$PUCSORGRIGHT
 10
0.0
 20
0.0
 30
0.0
  9
$PUCSORGFRONT
 10
0.0
 20
0.0
 30
0.0
  9
$PUCSORGBACK
 10
0.0
 20
0.0
 30
0.0
  9
$USERI1
 70
     0
  9
$USERI2
 70
     0
  9
$USERI3
 70
     0
  9
$USERI4
 70
     0
  9
$USERI5
 70
     0
  9
$USERR1
 40
0.0
  9
$USERR2
 40
0.0
  9
$USERR3
 40
0.0
  9
$USERR4
 40
0.0
  9
$USERR5
 40
0.0
  9
$WORLDVIEW
 70
     1
  9
$SHADEDGE
 70
     3
  9
$SHADEDIF
 70
    70
  9
$TILEMODE
 70
     1
  9
$MAXACTVP
 70
    64
  9
$PINSBASE
 10
0.0
 20
0.0
 30
0.0
  9
$PLIMCHECK
 70
     0
  9
$PEXTMIN
 10
1.000000000000000E+20
 20
1.000000000000000E+20
 30
1.000000000000000E+20
  9
$PEXTMAX
 10
-1.000000000000000E+20
 20
-1.000000000000000E+20
 30
-1.000000000000000E+20
  9
$PLIMMIN
 10
0.0
 20
0.0
  9
$PLIMMAX
 10
12.0
 20
9.0
  9
$UNITMODE
 70
     0
  9
$VISRETAIN
 70
     1
  9
$PLINEGEN
 70
     0
  9
$PSLTSCALE
 70
     1
  9
$TREEDEPTH
 70
  3020
  9
$CMLSTYLE
  2
Standard
  9
$CMLJUST
 70
     0
  9
$CMLSCALE
 40
1.0
  9
$PROXYGRAPHICS
 70
     1
  9
$MEASUREMENT
 70
     0
  9
$CELWEIGHT
370
    -1
  9
$ENDCAPS
280
     0
  9
$JOINSTYLE
280
     0
  9
$LWDISPLAY
290
     0
  9
$INSUNITS
 70
     1
  9
$HYPERLINKBASE
  1

  9
$STYLESHEET
  1

  9
$XEDIT
290
     1
  9
$CEPSNTYPE
380
     0
  9
$PSTYLEMODE
290
     1
  9
$FINGERPRINTGUID
  2
{3BB9DAEC-598D-4E33-8066-D6DFB35355F8}
  9
$VERSIONGUID
  2
{FAEB1C32-E019-11D5-929B-00C0DF256EC4}
  9
$EXTNAMES
290
     1
  9
$PSVPSCALE
 40
0.0
  9
$OLESTARTUP
290
     0
  9
$SORTENTS
280
   127
  9
$INDEXCTL
280
     0
  9
$HIDETEXT
280
     1
  9
$XCLIPFRAME
280
     2
  9
$HALOGAP
280
     0
  9
$OBSCOLOR
 70
   257
  9
$OBSLTYPE
280
     0
  9
$INTERSECTIONDISPLAY
280
     0
  9
$INTERSECTIONCOLOR
 70
   257
  9
$DIMASSOC
280
     2
  9
$PROJECTNAME
  1

  9
$CAMERADISPLAY
290
     0
  9
$LENSLENGTH
 40
50.0
  9
$CAMERAHEIGHT
 40
0.0
  9
$STEPSPERSEC
 40
2.0
  9
$STEPSIZE
 40
6.0
  9
$3DDWFPREC
 40
2.0
  9
$PSOLWIDTH
 40
0.25
  9
$PSOLHEIGHT
 40
4.0
  9
$LOFTANG1
 40
1.570796326794897
  9
$LOFTANG2
 40
1.570796326794897
  9
$LOFTMAG1
 40
0.0
  9
$LOFTMAG2
 40
0.0
  9
$LOFTPARAM
 70
     7
  9
$LOFTNORMALS
280
     1
  9
$LATITUDE
 40
37.795
  9
$LONGITUDE
 40
-122.394
  9
$NORTHDIRECTION
 40
0.0
  9
$TIMEZONE
 70
 -8000
  9
$LIGHTGLYPHDISPLAY
280
     1
  9
$TILEMODELIGHTSYNCH
280
     1
  9
$CMATERIAL
347
44
  9
$SOLIDHIST
280
     0
  9
$SHOWHIST
280
     1
  9
$DWFFRAME
280
     2
  9
$DGNFRAME
280
     2
  9
$REALWORLDSCALE
290
     1
  9
$INTERFERECOLOR
 62
   256
  9
$CSHADOW
280
     0
  9
$SHADOWPLANELOCATION
 40
0.0
  0
ENDSEC
  0
SECTION
  2
CLASSES
  0
CLASS
  1
ACDBDICTIONARYWDFLT
  2
AcDbDictionaryWithDefault
  3
ObjectDBX Classes
 90
        0
 91
        4
280
     0
281
     0
  0
CLASS
  1
VISUALSTYLE
  2
AcDbVisualStyle
  3
ObjectDBX Classes
 90
     4095
 91
        4
280
     0
281
     0
  0
CLASS
  1
MATERIAL
  2
AcDbMaterial
  3
ObjectDBX Classes
 90
     1153
 91
        4
280
     0
281
     0
  0
CLASS
  1
SCALE
  2
AcDbScale
  3
ObjectDBX Classes
 90
     1153
 91
        4
280
     0
281
     0
  0
CLASS
  1
TABLESTYLE
  2
AcDbTableStyle
  3
ObjectDBX Classes
 90
     4095
 91
        4
280
     0
281
     0
  0
CLASS
  1
MLEADERSTYLE
  2
AcDbMLeaderStyle
  3
ACDB_MLEADERSTYLE_CLASS
 90
     4095
 91
        4
280
     0
281
     0
  0
CLASS
  1
SUN
  2
AcDbSun
  3
SCENEOE
 90
     1153
 91
        4
280
     0
281
     0
  0
CLASS
  1
DICTIONARYVAR
  2
AcDbDictionaryVar
  3
ObjectDBX Classes
 90
        0
 91
        4
280
     0
281
     0
  0
CLASS
  1
CELLSTYLEMAP
  2
AcDbCellStyleMap
  3
ObjectDBX Classes
 90
     1152
 91
        4
280
     0
281
     0
  0
ENDSEC
  0
SECTION
  2
TABLES
  0
TABLE
  2
VPORT
  5
8
330
0
100
AcDbSymbolTable
 70
     1
  0
VPORT
  5
29
330
8
100
AcDbSymbolTableRecord
100
AcDbViewportTableRecord
  2
*Active
 70
     0
 10
0.0
 20
0.0
 11
1.0
 21
1.0
 12
0.0
 22
0.0
 13
0.0
 23
0.0
 14
0.5
 24
0.5
 15
0.5
 25
0.5
 16
0.0
 26
0.0
 36
1.0
 17
0.0
 27
0.0
 37
0.0
 40
6.292125
 41
1.0
 42
50.0
 43
0.0
 44
0.0
 50
0.0
 51
0.0
 71
     0
 72
   100
 73
     1
 74
     3
 75
     0
 76
     0
 77
     0
 78
     0
281
     0
 65
     1
110
0.0
120
0.0
130
0.0
111
1.0
121
0.0
131
0.0
112
0.0
122
1.0
132
0.0
 79
     0
146
0.0
348
2F
 60
     3
 61
     5
292
     1
282
     1
141
0.0
142
0.0
 63
   250
361
6D
  0
ENDTAB
  0
TABLE
  2
LTYPE
  5
5
330
0
100
AcDbSymbolTable
 70
     3
  0
LTYPE
  5
14
330
5
100
AcDbSymbolTableRecord
100
AcDbLinetypeTableRecord
  2
ByBlock
 70
     0
  3

 72
    65
 73
     0
 40
0.0
  0
LTYPE
  5
15
330
5
100
AcDbSymbolTableRecord
100
AcDbLinetypeTableRecord
  2
ByLayer
 70
     0
  3

 72
    65
 73
     0
 40
0.0
  0
LTYPE
  5
16
330
5
100
AcDbSymbolTableRecord
100
AcDbLinetypeTableRecord
  2
Continuous
 70
     0
  3
Solid line
 72
    65
 73
     0
 40
0.0
  0
LTYPE
  5
9C
330
5
100
AcDbSymbolTableRecord
100
AcDbLinetypeTableRecord
  2
Dashed
 70
     0
  3

 72
    65
 73
     2
 40
2.0
 49
1.0
 74
     0
 49
-1.0
 74
     0
  0
LTYPE
  5
135
330
5
100
AcDbSymbolTableRecord
100
AcDbLinetypeTableRecord
  2
Center
 70
     0
  3

 72
    65
 73
     4
 40
1.5
 49
0.45
 74
     0
 49
-0.5
 74
     0
 49
0.05
 74
     0
 49
-0.5
 74
     0
  0
ENDTAB
  0
TABLE
  2
LAYER
  5
2
330
0
100
AcDbSymbolTable
 70
     7
  0
LAYER
  5
10
330
2
100
AcDbSymbolTableRecord
100
AcDbLayerTableRecord
  2
0
 70
     0
 62
     7
  6
Continuous
370
    -3
390
F
347
46
348
0
  0
LAYER
  5
72
330
2
100
AcDbSymbolTableRecord
100
AcDbLayerTableRecord
  2
AM_6
 70
     0
 62
    -2
  6
Continuous
370
    35
390
F
347
46
348
0
  0
LAYER
  5
9D
330
2
100
AcDbSymbolTableRecord
100
AcDbLayerTableRecord
  2
AM_9
 70
     0
 62
     6
  6
Dashed
370
    25
390
F
347
46
348
0
  0
LAYER
  5
D3
330
2
100
AcDbSymbolTableRecord
100
AcDbLayerTableRecord
  2
AM_4
 70
     0
 62
     7
  6
Continuous
370
    50
390
F
347
46
348
0
  0
LAYER
  5
118
330
2
100
AcDbSymbolTableRecord
100
AcDbLayerTableRecord
  2
AM_5
 70
     0
 62
     3
  6
Continuous
370
    25
390
F
347
46
348
0
  0
LAYER
  5
136
330
2
100
AcDbSymbolTableRecord
100
AcDbLayerTableRecord
  2
AM_7
 70
     0
 62
     7
  6
Center
370
    25
390
F
347
46
348
0
  0
LAYER
  5
195
330
2
100
AcDbSymbolTableRecord
100
AcDbLayerTableRecord
  2
ConnectionPoints
 70
     0
 62
     7
  6
Continuous
370
    50
390
F
347
46
348
0
  0
ENDTAB
  0
TABLE
  2
STYLE
  5
3
330
0
100
AcDbSymbolTable
 70
     1
  0
STYLE
  5
11
330
3
100
AcDbSymbolTableRecord
100
AcDbTextStyleTableRecord
  2
Standard
 70
     0
 40
0.0
 41
1.0
 50
0.0
 71
     0
 42
0.2
  3
txt
  4

  0
ENDTAB
  0
TABLE
  2
VIEW
  5
6
330
0
100
AcDbSymbolTable
 70
     0
  0
ENDTAB
  0
TABLE
  2
UCS
  5
7
330
0
100
AcDbSymbolTable
 70
     0
  0
ENDTAB
  0
TABLE
  2
APPID
  5
9
330
0
100
AcDbSymbolTable
 70
     1
  0
APPID
  5
12
330
9
100
AcDbSymbolTableRecord
100
AcDbRegAppTableRecord
  2
ACAD
 70
     0
  0
ENDTAB
  0
TABLE
  2
DIMSTYLE
  5
A
330
0
100
AcDbSymbolTable
 70
     1
100
AcDbDimStyleTable
  0
DIMSTYLE
105
27
330
A
100
AcDbSymbolTableRecord
100
AcDbDimStyleTableRecord
  2
Standard
 70
     0
178
     0
340
11
  0
ENDTAB
  0
TABLE
  2
BLOCK_RECORD
  5
1
330
0
100
AcDbSymbolTable
 70
     7
  0
BLOCK_RECORD
  5
1F
330
1
100
AcDbSymbolTableRecord
100
AcDbBlockTableRecord
  2
*Model_Space
340
22
 70
     0
280
     1
281
     0
  0
BLOCK_RECORD
  5
1B
330
1
100
AcDbSymbolTableRecord
100
AcDbBlockTableRecord
  2
*Paper_Space
340
1E
 70
     0
280
     1
281
     0
  0
BLOCK_RECORD
  5
23
330
1
100
AcDbSymbolTableRecord
100
AcDbBlockTableRecord
  2
*Paper_Space0
340
26
 70
     0
280
     1
281
     0
  0
BLOCK_RECORD
  5
6E
330
1
100
AcDbSymbolTableRecord
100
AcDbBlockTableRecord
  2
1_023125_0
340
0
102
{BLKREFS
331
6F
102
}
 70
     0
280
     1
281
     0
  0
BLOCK_RECORD
  5
87
330
1
100
AcDbSymbolTableRecord
100
AcDbBlockTableRecord
  2
2_1_5_8D_0_in_023125_0
340
0
102
{BLKREFS
331
88
102
}
 70
     0
280
     1
281
     0
  0
BLOCK_RECORD
  5
A0
330
1
100
AcDbSymbolTableRecord
100
AcDbBlockTableRecord
  2
3_405015E_Inch_0_in_023125_0
340
0
102
{BLKREFS
331
A1
102
}
 70
     0
280
     1
281
     0
  0
BLOCK_RECORD
  5
F3
330
1
100
AcDbSymbolTableRecord
100
AcDbBlockTableRecord
  2
4_1_5_8C_0_in_023125_0
340
0
102
{BLKREFS
331
F4
102
}
 70
     0
280
     1
281
     0
  0
BLOCK_RECORD
  5
120
330
1
100
AcDbSymbolTableRecord
100
AcDbBlockTableRecord
  2
5_1_5_8I_0_in_023125_0
340
0
102
{BLKREFS
331
121
102
}
 70
     0
280
     1
281
     0
  0
BLOCK_RECORD
  5
13A
330
1
100
AcDbSymbolTableRecord
100
AcDbBlockTableRecord
  2
6_023125H_0_in_023125_0
340
0
102
{BLKREFS
331
13B
102
}
 70
     0
280
     1
281
     0
  0
ENDTAB
  0
ENDSEC
  0
SECTION
  2
BLOCKS
  0
BLOCK
  5
20
330
1F
100
AcDbEntity
  8
0
100
AcDbBlockBegin
  2
*Model_Space
 70
     0
 10
0.0
 20
0.0
 30
0.0
  3
*Model_Space
  1

  0
ENDBLK
  5
21
330
1F
100
AcDbEntity
  8
0
100
AcDbBlockEnd
  0
BLOCK
  5
1C
330
1B
100
AcDbEntity
 67
     1
  8
0
100
AcDbBlockBegin
  2
*Paper_Space
 70
     0
 10
0.0
 20
0.0
 30
0.0
  3
*Paper_Space
  1

  0
ENDBLK
  5
1D
330
1B
100
AcDbEntity
 67
     1
  8
0
100
AcDbBlockEnd
  0
BLOCK
  5
24
330
23
100
AcDbEntity
  8
0
100
AcDbBlockBegin
  2
*Paper_Space0
 70
     0
 10
0.0
 20
0.0
 30
0.0
  3
*Paper_Space0
  1

  0
ENDBLK
  5
25
330
23
100
AcDbEntity
  8
0
100
AcDbBlockEnd
  0
BLOCK
  5
70
330
6E
100
AcDbEntity
  8
0
100
AcDbBlockBegin
  2
1_023125_0
 70
     2
 10
0.0
 20
0.0
 30
0.0
  3
1_023125_0
  1

  0
ATTDEF
  5
73
330
6E
100
AcDbEntity
  8
AM_6
100
AcDbText
 10
8.084375
 20
3.084375
 30
0.0
 40
0.5
  1
Flange Cartridge Expansion Inch Bore
100
AcDbAttributeDefinition
  3

  2
NN
 70
     8
280
     0
  0
ATTDEF
  5
74
330
6E
100
AcDbEntity
  8
AM_6
100
AcDbText
 10
8.084375
 20
2.584375
 30
0.0
 40
0.5
  1
Type E Piloted Flange Bearing -Inch
100
AcDbAttributeDefinition
  3

  2
NT
 70
     8
280
     0
  0
ATTDEF
  5
75
330
6E
100
AcDbEntity
  8
AM_6
100
AcDbText
 10
8.084375
 20
2.084375
 30
0.0
 40
0.5
  1
023125
100
AcDbAttributeDefinition
  3

  2
NB
 70
     8
280
     0
  0
ATTDEF
  5
76
330
6E
100
AcDbEntity
  8
AM_6
100
AcDbText
 10
8.084375
 20
1.584375
 30
0.0
 40
0.5
  1
$PN.
100
AcDbAttributeDefinition
  3

  2
NBSYN
 70
     8
280
     0
  0
ATTDEF
  5
77
330
6E
100
AcDbEntity
  8
AM_6
100
AcDbText
 10
8.084375
 20
1.084375
 30
0.0
 40
0.5
  1
023125
100
AcDbAttributeDefinition
  3

  2
LINA
 70
     8
280
     0
  0
ATTDEF
  5
78
330
6E
100
AcDbEntity
  8
AM_6
100
AcDbText
 10
8.084375
 20
0.5843750000000001
 30
0.0
 40
0.5
  1
1-5/8
100
AcDbAttributeDefinition
  3

  2
SS
 70
     8
280
     0
  0
ATTDEF
  5
79
330
6E
100
AcDbEntity
  8
AM_6
100
AcDbText
 10
8.084375
 20
0.0843750000000001
 30
0.0
 40
0.5
  1
023125
100
AcDbAttributeDefinition
  3

  2
PN
 70
     8
280
     0
  0
ATTDEF
  5
7A
330
6E
100
AcDbEntity
  8
AM_6
100
AcDbText
 10
8.084375
 20
-0.4156249999999999
 30
0.0
 40
0.5
  1
FC-E-110R
100
AcDbAttributeDefinition
  3

  2
DESCRIPTION
 70
     8
280
     0
  0
ATTDEF
  5
7B
330
6E
100
AcDbEntity
  8
AM_6
100
AcDbText
 10
8.084375
 20
-0.9156249999999999
 30
0.0
 40
0.5
  1
3-3/8
100
AcDbAttributeDefinition
  3

  2
A
 70
     8
280
     0
  0
ATTDEF
  5
7C
330
6E
100
AcDbEntity
  8
AM_6
100
AcDbText
 10
8.084375
 20
-1.415625
 30
0.0
 40
0.5
  1
6-1/8
100
AcDbAttributeDefinition
  3

  2
B
 70
     8
280
     0
  0
ATTDEF
  5
7D
330
6E
100
AcDbEntity
  8
AM_6
100
AcDbText
 10
8.084375
 20
-1.915625
 30
0.0
 40
0.5
  1
2-25/32
100
AcDbAttributeDefinition
  3

  2
C
 70
     8
280
     0
  0
ATTDEF
  5
7E
330
6E
100
AcDbEntity
  8
AM_6
100
AcDbText
 10
8.084375
 20
-2.415625
 30
0.0
 40
0.5
  1
5-1/8
100
AcDbAttributeDefinition
  3

  2
D
 70
     8
280
     0
  0
ATTDEF
  5
7F
330
6E
100
AcDbEntity
  8
AM_6
100
AcDbText
 10
8.084375
 20
-2.915625
 30
0.0
 40
0.5
  1
1-1/16
100
AcDbAttributeDefinition
  3

  2
E
 70
     8
280
     0
  0
ATTDEF
  5
80
330
6E
100
AcDbEntity
  8
AM_6
100
AcDbText
 10
8.084375
 20
-3.415625
 30
0.0
 40
0.5
  1
7/16
100
AcDbAttributeDefinition
  3

  2
F
 70
     8
280
     0
  0
ATTDEF
  5
81
330
6E
100
AcDbEntity
  8
AM_6
100
AcDbText
 10
8.084375
 20
-3.915625
 30
0.0
 40
0.5
  1
1-9/16
100
AcDbAttributeDefinition
  3

  2
G
 70
     8
280
     0
  0
ATTDEF
  5
82
330
6E
100
AcDbEntity
  8
AM_6
100
AcDbText
 10
8.084375
 20
-4.415625
 30
0.0
 40
0.5
  1
1/2
100
AcDbAttributeDefinition
  3

  2
H
 70
     8
280
     0
  0
ATTDEF
  5
83
330
6E
100
AcDbEntity
  8
AM_6
100
AcDbText
 10
8.084375
 20
-4.915625
 30
0.0
 40
0.5
  1
4-1/4
100
AcDbAttributeDefinition
  3

  2
K
 70
     8
280
     0
  0
ATTDEF
  5
84
330
6E
100
AcDbEntity
  8
AM_6
100
AcDbText
 10
8.084375
 20
-5.415625
 30
0.0
 40
0.5
  1
3-3/16
100
AcDbAttributeDefinition
  3

  2
L
 70
     8
280
     0
  0
ATTDEF
  5
85
330
6E
100
AcDbEntity
  8
AM_6
100
AcDbText
 10
8.084375
 20
-5.915625
 30
0.0
 40
0.5
  1
1-1/32
100
AcDbAttributeDefinition
  3

  2
M
 70
     8
280
     0
  0
ATTDEF
  5
86
330
6E
100
AcDbEntity
  8
AM_6
100
AcDbText
 10
8.084375
 20
-6.415625
 30
0.0
 40
0.5
  1
baldor
100
AcDbAttributeDefinition
  3

  2
COMPANY
 70
     8
280
     0
  0
INSERT
  5
88
330
6E
100
AcDbEntity
  8
0
100
AcDbBlockReference
  2
2_1_5_8D_0_in_023125_0
 10
0.0
 20
0.0
 30
0.0
  0
INSERT
  5
A1
330
6E
100
AcDbEntity
  8
0
100
AcDbBlockReference
  2
3_405015E_Inch_0_in_023125_0
 10
0.0
 20
0.0
 30
0.0
  0
INSERT
  5
F4
330
6E
100
AcDbEntity
  8
0
100
AcDbBlockReference
  2
4_1_5_8C_0_in_023125_0
 10
0.0
 20
0.0
 30
0.0
  0
INSERT
  5
121
330
6E
100
AcDbEntity
  8
0
100
AcDbBlockReference
  2
5_1_5_8I_0_in_023125_0
 10
0.0
 20
0.0
 30
0.0
  0
INSERT
  5
13B
330
6E
100
AcDbEntity
  8
0
100
AcDbBlockReference
  2
6_023125H_0_in_023125_0
 10
0.0
 20
0.0
 30
0.0
  0
ENDBLK
  5
71
330
6E
100
AcDbEntity
  8
0
100
AcDbBlockEnd
  0
BLOCK
  5
89
330
87
100
AcDbEntity
  8
0
100
AcDbBlockBegin
  2
2_1_5_8D_0_in_023125_0
 70
     2
 10
0.0
 20
0.0
 30
0.0
  3
2_1_5_8D_0_in_023125_0
  1

  0
ATTDEF
  5
8B
330
87
100
AcDbEntity
  8
AM_6
100
AcDbText
 10
6.578125
 20
1.578125
 30
0.0
 40
0.5
  1
E-Type Disc -Inch
100
AcDbAttributeDefinition
  3

  2
NN
 70
     8
280
     0
  0
ATTDEF
  5
8C
330
87
100
AcDbEntity
  8
AM_6
100
AcDbText
 10
6.578125
 20
1.078125
 30
0.0
 40
0.5
  1
E-Type Bearings
100
AcDbAttributeDefinition
  3

  2
NT
 70
     8
280
     0
  0
ATTDEF
  5
8D
330
87
100
AcDbEntity
  8
AM_6
100
AcDbText
 10
6.578125
 20
0.578125
 30
0.0
 40
0.5
  1
1-5/8D
100
AcDbAttributeDefinition
  3

  2
NB
 70
     8
280
     0
  0
ATTDEF
  5
8E
330
87
100
AcDbEntity
  8
AM_6
100
AcDbText
 10
6.578125
 20
0.078125
 30
0.0
 40
0.5
  1
$BORE.D
100
AcDbAttributeDefinition
  3

  2
NBSYN
 70
     8
280
     0
  0
ATTDEF
  5
8F
330
87
100
AcDbEntity
  8
AM_6
100
AcDbText
 10
6.578125
 20
-0.421875
 30
0.0
 40
0.5
  1
1-5/8D
100
AcDbAttributeDefinition
  3

  2
LINA
 70
     8
280
     0
  0
ATTDEF
  5
90
330
87
100
AcDbEntity
  8
AM_6
100
AcDbText
 10
6.578125
 20
-0.921875
 30
0.0
 40
0.5
  1
1-5/8
100
AcDbAttributeDefinition
  3

  2
BORE
 70
     8
280
     0
  0
ATTDEF
  5
91
330
87
100
AcDbEntity
  8
AM_6
100
AcDbText
 10
6.578125
 20
-1.421875
 30
0.0
 40
0.5
  1
1.625000
100
AcDbAttributeDefinition
  3

  2
BORE1
 70
     8
280
     0
  0
ATTDEF
  5
92
330
87
100
AcDbEntity
  8
AM_6
100
AcDbText
 10
6.578125
 20
-1.921875
 30
0.0
 40
0.5
  1
3.38
100
AcDbAttributeDefinition
  3

  2
A
 70
     8
280
     0
  0
ATTDEF
  5
93
330
87
100
AcDbEntity
  8
AM_6
100
AcDbText
 10
6.578125
 20
-2.421875
 30
0.0
 40
0.5
  1
1.50
100
AcDbAttributeDefinition
  3

  2
B
 70
     8
280
     0
  0
ATTDEF
  5
94
330
87
100
AcDbEntity
  8
AM_6
100
AcDbText
 10
6.578125
 20
-2.921875
 30
0.0
 40
0.5
  1
2.06
100
AcDbAttributeDefinition
  3

  2
C
 70
     8
280
     0
  0
ATTDEF
  5
95
330
87
100
AcDbEntity
  8
AM_6
100
AcDbText
 10
6.578125
 20
-3.421875
 30
0.0
 40
0.5
  1
3.25
100
AcDbAttributeDefinition
  3

  2
D
 70
     8
280
     0
  0
ATTDEF
  5
96
330
87
100
AcDbEntity
  8
AM_6
100
AcDbText
 10
6.578125
 20
-3.921875
 30
0.0
 40
0.5
  1
0.35
100
AcDbAttributeDefinition
  3

  2
E
 70
     8
280
     0
  0
ATTDEF
  5
97
330
87
100
AcDbEntity
  8
AM_6
100
AcDbText
 10
6.578125
 20
-4.421875
 30
0.0
 40
0.5
  1
0.28
100
AcDbAttributeDefinition
  3

  2
F
 70
     8
280
     0
  0
ATTDEF
  5
98
330
87
100
AcDbEntity
  8
AM_6
100
AcDbText
 10
6.578125
 20
-4.921875
 30
0.0
 40
0.5
  1
5/16-18
100
AcDbAttributeDefinition
  3

  2
CS
 70
     8
280
     0
  0
ATTDEF
  5
99
330
87
100
AcDbEntity
  8
AM_6
100
AcDbText
 10
6.578125
 20
-5.421875
 30
0.0
 40
0.5
  1
0.3125
100
AcDbAttributeDefinition
  3

  2
NDM
 70
     8
280
     0
  0
ATTDEF
  5
9A
330
87
100
AcDbEntity
  8
AM_6
100
AcDbText
 10
6.578125
 20
-5.921875
 30
0.0
 40
0.5
  1
0.2520
100
AcDbAttributeDefinition
  3

  2
KDM
 70
     8
280
     0
  0
ATTDEF
  5
9B
330
87
100
AcDbEntity
  8
AM_6
100
AcDbText
 10
6.578125
 20
-6.421875
 30
0.0
 40
0.5
  1
baldor
100
AcDbAttributeDefinition
  3

  2
COMPANY
 70
     8
280
     0
  0
CIRCLE
  5
9E
330
87
100
AcDbEntity
  8
AM_9
100
AcDbCircle
 10
0.0
 20
0.0
 30
0.0
 40
1.5546875
  0
CIRCLE
  5
9F
330
87
100
AcDbEntity
  8
AM_9
100
AcDbCircle
 10
0.0
 20
0.0
 30
0.0
 40
1.578125
  0
ENDBLK
  5
8A
330
87
100
AcDbEntity
  8
0
100
AcDbBlockEnd
  0
BLOCK
  5
A2
330
A0
100
AcDbEntity
  8
0
100
AcDbBlockBegin
  2
3_405015E_Inch_0_in_023125_0
 70
     2
 10
0.0
 20
0.0
 30
0.0
  3
3_405015E_Inch_0_in_023125_0
  1

  0
ATTDEF
  5
A4
330
A0
100
AcDbEntity
  8
AM_6
100
AcDbText
 10
5.21875
 20
2.687426158230392
 30
0.0
 40
0.5
  1
405015E -Inch
100
AcDbAttributeDefinition
  3

  2
NN
 70
     8
280
     0
  0
ATTDEF
  5
A5
330
A0
100
AcDbEntity
  8
AM_6
100
AcDbText
 10
5.21875
 20
2.187426158230392
 30
0.0
 40
0.5
  1
Grease Fitting
100
AcDbAttributeDefinition
  3

  2
NT
 70
     8
280
     0
  0
ATTDEF
  5
A6
330
A0
100
AcDbEntity
  8
AM_6
100
AcDbText
 10
5.21875
 20
1.687426158230392
 30
0.0
 40
0.5
  1
405015E-Inch
100
AcDbAttributeDefinition
  3

  2
NB
 70
     8
280
     0
  0
ATTDEF
  5
A7
330
A0
100
AcDbEntity
  8
AM_6
100
AcDbText
 10
5.21875
 20
1.187426158230392
 30
0.0
 40
0.5
  1
$MN.-Inch
100
AcDbAttributeDefinition
  3

  2
NBSYN
 70
     8
280
     0
  0
ATTDEF
  5
A8
330
A0
100
AcDbEntity
  8
AM_6
100
AcDbText
 10
5.21875
 20
0.6874261582303918
 30
0.0
 40
0.5
  1
405015E
100
AcDbAttributeDefinition
  3

  2
LINA
 70
     8
280
     0
  0
ATTDEF
  5
A9
330
A0
100
AcDbEntity
  8
AM_6
100
AcDbText
 10
5.21875
 20
0.1874261582303918
 30
0.0
 40
0.5
  1
405015E
100
AcDbAttributeDefinition
  3

  2
MN
 70
     8
280
     0
  0
ATTDEF
  5
AA
330
A0
100
AcDbEntity
  8
AM_6
100
AcDbText
 10
5.21875
 20
-0.3125738417696082
 30
0.0
 40
0.5
  1
1/8 x 27PTF
100
AcDbAttributeDefinition
  3

  2
T
 70
     8
280
     0
  0
ATTDEF
  5
AB
330
A0
100
AcDbEntity
  8
AM_6
100
AcDbText
 10
5.21875
 20
-0.8125738417696082
 30
0.0
 40
0.5
  1
baldor
100
AcDbAttributeDefinition
  3

  2
COMPANY
 70
     8
280
     0
  0
ELLIPSE
  5
AC
330
A0
100
AcDbEntity
  8
AM_9
100
AcDbEllipse
 10
0.0
 20
2.349656874550471
 30
0.0
 11
0.2187500000000023
 21
0.0
 31
0.0
210
0.0
220
0.0
230
1.0
 40
0.7071067811865459
 41
1.047197551196604
 42
2.094395102393189
  0
LWPOLYLINE
  5
AD
330
A0
100
AcDbEntity
  8
AM_9
100
AcDbPolyline
 90
        3
 70
     0
 43
0.0
 10
0.0000000000000001
 20
2.534677262862973
 10
0.0544416102741496
 20
2.507747134269111
 10
0.109375
 20
2.483613344858927
  0
LWPOLYLINE
  5
AE
330
A0
100
AcDbEntity
  8
AM_9
100
AcDbPolyline
 90
        3
 70
     0
 43
0.0
 10
-0.109375
 20
2.483613344858927
 10
-0.0546875
 20
2.507631799026729
 10
0.0000000000000001
 20
2.534677262862973
  0
ELLIPSE
  5
AF
330
A0
100
AcDbEntity
  8
AM_9
100
AcDbEllipse
 10
0.0
 20
2.162273577536037
 30
0.0
 11
-0.161902872472269
 21
1.982738345459263E-17
 31
0.0
210
0.0
220
0.0
230
1.0
 40
0.7071067811865478
 41
0.0
 42
6.283185307179586
  0
LINE
  5
B0
330
A0
100
AcDbEntity
  8
AM_9
100
AcDbLine
 10
0.0000000000000001
 20
2.592564418512506
 30
0.0
 11
0.0000000000000001
 21
2.534677262862973
 31
0.0
  0
LWPOLYLINE
  5
B1
330
A0
100
AcDbEntity
  8
AM_9
100
AcDbPolyline
 90
        4
 70
     0
 43
0.0
 10
-0.21875
 20
2.445372949324003
 10
-0.1932059404858048
 20
2.453266157786249
 10
-0.1514139872822688
 20
2.467459212987592
 10
-0.109375
 20
2.483613344858927
  0
LINE
  5
B2
330
A0
100
AcDbEntity
  8
AM_9
100
AcDbLine
 10
0.0134276343176755
 20
2.58848174504769
 30
0.0
 11
0.0000000000000001
 21
2.592564418512506
 31
0.0
  0
LINE
  5
B3
330
A0
100
AcDbEntity
  8
AM_9
100
AcDbLine
 10
0.109375
 20
2.554324022977581
 30
0.0
 11
0.0711909138020515
 21
2.569079087648904
 31
0.0
  0
LINE
  5
B4
330
A0
100
AcDbEntity
  8
AM_9
100
AcDbLine
 10
-0.0699290389491901
 20
2.569538832811146
 30
0.0
 11
-0.109375
 21
2.554324022977581
 31
0.0
  0
LINE
  5
B5
330
A0
100
AcDbEntity
  8
AM_9
100
AcDbLine
 10
0.0000000000000001
 20
2.592564418512506
 30
0.0
 11
-0.0109866827211503
 21
2.58923454070203
 31
0.0
  0
ELLIPSE
  5
B6
330
A0
100
AcDbEntity
  8
AM_9
100
AcDbEllipse
 10
-0.0000000000000005
 20
2.349656874550472
 30
0.0
 11
0.2187500000000006
 21
0.0
 31
0.0
210
0.0
220
0.0
230
1.0
 40
0.7071067811865493
 41
5.235987755982992
 42
7.330382858376183
  0
LWPOLYLINE
  5
B7
330
A0
100
AcDbEntity
  8
AM_9
100
AcDbPolyline
 90
        3
 70
     0
 43
0.0
 10
0.109375
 20
2.483613344858927
 10
0.1640625
 20
2.462979642257244
 10
0.2187499999999999
 20
2.445372949324003
  0
LINE
  5
B8
330
A0
100
AcDbEntity
  8
AM_9
100
AcDbLine
 10
0.1315792418306768
 20
2.544975461722749
 30
0.0
 11
0.109375
 21
2.554324022977581
 31
0.0
  0
LINE
  5
B9
330
A0
100
AcDbEntity
  8
AM_9
100
AcDbLine
 10
-0.109375
 20
2.554324022977581
 30
0.0
 11
-0.1318109208346748
 21
2.54487494831575
 31
0.0
  0
LINE
  5
BA
330
A0
100
AcDbEntity
  8
AM_9
100
AcDbLine
 10
0.1985206121313388
 20
2.183845738984464
 30
0.0
 11
0.2056306842994168
 21
2.344641688129923
 31
0.0
  0
LINE
  5
BB
330
A0
100
AcDbEntity
  8
AM_9
100
AcDbLine
 10
-0.2056306842994168
 20
2.344641688129923
 30
0.0
 11
-0.1985206121313388
 21
2.183845738984464
 31
0.0
  0
ELLIPSE
  5
BC
330
A0
100
AcDbEntity
  8
AM_9
100
AcDbEllipse
 10
0.0
 20
2.349656874550472
 30
0.0
 11
0.218750000000001
 21
3.259629011154191E-9
 31
0.0
210
0.0
220
0.0
230
1.0
 40
0.7071067811865417
 41
2.094395089222299
 42
5.235987742812095
  0
LINE
  5
BD
330
A0
100
AcDbEntity
  8
AM_9
100
AcDbLine
 10
-0.0948683298050514
 20
2.526433569847109
 30
0.0
 11
-0.107354891002899
 21
2.507819703418043
 31
0.0
  0
LINE
  5
BE
330
A0
100
AcDbEntity
  8
AM_9
100
AcDbLine
 10
0.107354891002899
 20
2.507819703418043
 30
0.0
 11
0.0948683298050514
 21
2.526433569847109
 31
0.0
  0
ELLIPSE
  5
BF
330
A0
100
AcDbEntity
  8
AM_9
100
AcDbEllipse
 10
0.0000000000000004
 20
2.494613764693713
 30
0.0
 11
0.1050000000000004
 21
0.0
 31
0.0
210
0.0
220
0.0
230
1.0
 40
0.7071067811865509
 41
2.698681609516148
 42
3.141592653589793
  0
ELLIPSE
  5
C0
330
A0
100
AcDbEntity
  8
AM_9
100
AcDbEllipse
 10
-0.0000000000000895
 20
2.494613764693816
 30
0.0
 11
0.1050000000001018
 21
1.564621925355522E-9
 31
0.0
210
0.0
220
0.0
230
1.0
 40
0.7071067811859187
 41
0.0000017304280906
 42
2.698681590378571
  0
ELLIPSE
  5
C1
330
A0
100
AcDbEntity
  8
AM_9
100
AcDbEllipse
 10
0.0000000000001894
 20
2.471811778317966
 30
0.0
 11
0.1188200907346921
 21
1.770557325105251E-9
 31
0.0
210
0.0
220
0.0
230
1.0
 40
0.7071067811872027
 41
0.3762206064516818
 42
0.5235987571609202
  0
ELLIPSE
  5
C2
330
A0
100
AcDbEntity
  8
AM_9
100
AcDbEllipse
 10
-0.0000000000000499
 20
2.471811778318072
 30
0.0
 11
0.1188200907348441
 21
0.0
 31
0.0
210
0.0
220
0.0
230
1.0
 40
0.7071067811866942
 41
-3.58450369766392
 42
-3.517813279691202
  0
LINE
  5
C3
330
A0
100
AcDbEntity
  8
AM_9
100
AcDbLine
 10
0.105
 20
2.495932755576252
 30
0.0
 11
0.105
 21
2.515826968129311
 31
0.0
  0
LINE
  5
C4
330
A0
100
AcDbEntity
  8
AM_9
100
AcDbLine
 10
-0.105
 20
2.515826968129311
 30
0.0
 11
-0.105
 21
2.495932755576252
 31
0.0
  0
ELLIPSE
  5
C5
330
A0
100
AcDbEntity
  8
AM_9
100
AcDbEllipse
 10
-0.0000000000000004
 20
2.515826968129309
 30
0.0
 11
0.1049999999999997
 21
0.0
 31
0.0
210
0.0
220
0.0
230
1.0
 40
0.7071067811865474
 41
3.141592653589793
 42
3.665191429188079
  0
ELLIPSE
  5
C6
330
A0
100
AcDbEntity
  8
AM_9
100
AcDbEllipse
 10
-0.0000000000000026
 20
2.515826968129317
 30
0.0
 11
0.1050000000000026
 21
1.564621925354043E-9
 31
0.0
210
0.0
220
0.0
230
1.0
 40
0.7071067811865321
 41
5.759586513141962
 42
9.424777945868218
  0
ELLIPSE
  5
C7
330
A0
100
AcDbEntity
  8
AM_9
100
AcDbEllipse
 10
-0.0000000000000034
 20
2.420367552669173
 30
0.0
 11
0.2187500000000074
 21
0.0
 31
0.0
210
0.0
220
0.0
230
1.0
 40
0.7071067811863485
 41
0.9156936017147341
 42
2.094395102393211
  0
ELLIPSE
  5
C8
330
A0
100
AcDbEntity
  8
AM_9
100
AcDbEllipse
 10
0.0000000000000027
 20
2.420367552669173
 30
0.0
 11
0.2187500000000069
 21
0.0
 31
0.0
210
0.0
220
0.0
230
1.0
 40
0.7071067811863484
 41
-4.188790204786351
 42
-4.057286255304531
  0
ELLIPSE
  5
C9
330
A0
100
AcDbEntity
  8
AM_9
100
AcDbEllipse
 10
-0.0000000000000012
 20
2.471811778318109
 30
0.0
 11
0.118820090734899
 21
0.0
 31
0.0
210
0.0
220
0.0
230
1.0
 40
0.7071067811865434
 41
0.5235987755982938
 42
1.733730595722516
  0
LINE
  5
CA
330
A0
100
AcDbEntity
  8
AM_9
100
AcDbLine
 10
-0.0192743186691525
 20
2.554717491637787
 30
0.0
 11
-0.027987491876916
 21
2.553704651446795
 31
0.0
  0
LINE
  5
CB
330
A0
100
AcDbEntity
  8
AM_9
100
AcDbLine
 10
0.0279874918769161
 20
2.553704651446795
 30
0.0
 11
0.0192743186691525
 21
2.554717491637787
 31
0.0
  0
ELLIPSE
  5
CC
330
A0
100
AcDbEntity
  8
AM_9
100
AcDbEllipse
 10
0.0000000000000017
 20
2.471811778318109
 30
0.0
 11
0.1188200907348996
 21
0.0
 31
0.0
210
0.0
220
0.0
230
1.0
 40
0.7071067811865395
 41
1.733730595722539
 42
2.698681609516159
  0
ELLIPSE
  5
CD
330
A0
100
AcDbEntity
  8
AM_9
100
AcDbEllipse
 10
0.0
 20
2.433320475076522
 30
0.0
 11
0.1725340532830033
 21
0.0
 31
0.0
210
0.0
220
0.0
230
1.0
 40
0.7071067811864993
 41
0.7772913431419868
 42
2.364301310447804
  0
ELLIPSE
  5
CE
330
A0
100
AcDbEntity
  8
AM_9
100
AcDbEllipse
 10
0.0
 20
2.420367552669126
 30
0.0
 11
0.2137500000000015
 21
0.0
 31
0.0
210
0.0
220
0.0
230
1.0
 40
0.7071067811865426
 41
0.9036552188402931
 42
2.2379374347495
  0
ELLIPSE
  5
CF
330
A0
100
AcDbEntity
  8
AM_9
100
AcDbEllipse
 10
0.0000000000000001
 20
2.558253375000503
 30
0.0
 11
0.135
 21
0.0
 31
0.0
210
0.0
220
0.0
230
1.0
 40
0.7071067811865479
 41
0.5235987755983018
 42
2.725678601487247
  0
ELLIPSE
  5
D0
330
A0
100
AcDbEntity
  8
AM_9
100
AcDbEllipse
 10
0.0000000000000459
 20
2.558253375000425
 30
0.0
 11
0.1349999999999481
 21
0.0
 31
0.0
210
0.0
220
0.0
230
1.0
 40
0.7071067811868791
 41
0.4159140521032594
 42
0.5235987755989768
  0
ELLIPSE
  5
D1
330
A0
100
AcDbEntity
  8
AM_9
100
AcDbEllipse
 10
0.0
 20
2.349656874550472
 30
0.0
 11
0.2057518972230696
 21
0.0
 31
0.0
210
0.0
220
0.0
230
1.0
 40
0.7071067811865464
 41
0.0
 42
6.283185307179586
  0
ELLIPSE
  5
D2
330
A0
100
AcDbEntity
  8
AM_9
100
AcDbEllipse
 10
0.0
 20
2.188234829277491
 30
0.0
 11
0.1986176267812153
 21
0.0
 31
0.0
210
0.0
220
0.0
230
1.0
 40
0.707106781186548
 41
0.0
 42
6.283185307179586
  0
LWPOLYLINE
  5
D4
330
A0
100
AcDbEntity
  8
AM_4
100
AcDbPolyline
 90
        3
 70
     0
 43
0.0
 10
0.2187499999999999
 20
2.503260104973536
 10
0.1643083897258504
 20
2.530190233567398
 10
0.1315792418306768
 20
2.544975461722749
  0
LWPOLYLINE
  5
D5
330
A0
100
AcDbEntity
  8
AM_4
100
AcDbPolyline
 90
        4
 70
     0
 43
0.0
 10
-0.1318109208346748
 20
2.54487494831575
 10
-0.1512904702429024
 20
2.536209737111096
 10
-0.1932059404858048
 20
2.516223533767645
 10
-0.21875
 20
2.503260104973536
  0
LINE
  5
D6
330
A0
100
AcDbEntity
  8
AM_4
100
AcDbLine
 10
0.2187499999999999
 20
2.503260104973536
 30
0.0
 11
0.21875
 21
2.266764322246063
 31
0.0
  0
LWPOLYLINE
  5
D7
330
A0
100
AcDbEntity
  8
AM_4
100
AcDbPolyline
 90
        3
 70
     0
 43
0.0
 10
0.109375
 20
2.286411082360672
 10
0.1640625
 20
2.307044784962355
 10
0.21875
 20
2.324651477895595
  0
LWPOLYLINE
  5
D8
330
A0
100
AcDbEntity
  8
AM_4
100
AcDbPolyline
 90
        4
 70
     0
 43
0.0
 10
0.109375
 20
2.215700404242017
 10
0.0674595297570976
 20
2.199590851967195
 10
0.0255440595141952
 20
2.185353217169339
 10
-0.0000000000000001
 20
2.177460008707093
  0
LWPOLYLINE
  5
D9
330
A0
100
AcDbEntity
  8
AM_4
100
AcDbPolyline
 90
        3
 70
     0
 43
0.0
 10
0.21875
 20
2.266764322246063
 10
0.1643083897258504
 20
2.239834193652201
 10
0.109375
 20
2.215700404242017
  0
ELLIPSE
  5
DA
330
A0
100
AcDbEntity
  8
AM_4
100
AcDbEllipse
 10
-0.0000000000000001
 20
2.471811778318109
 30
0.0
 11
0.1188200907348976
 21
0.0
 31
0.0
210
0.0
220
0.0
230
1.0
 40
0.7071067811865479
 41
2.76537202748887
 42
6.659405933280503
  0
LINE
  5
DB
330
A0
100
AcDbEntity
  8
AM_4
100
AcDbLine
 10
0.105
 20
2.494613764693714
 30
0.0
 11
0.105
 21
2.495932755576252
 31
0.0
  0
LINE
  5
DC
330
A0
100
AcDbEntity
  8
AM_4
100
AcDbLine
 10
-0.105
 20
2.495932755576252
 30
0.0
 11
-0.105
 21
2.494613764693714
 31
0.0
  0
ELLIPSE
  5
DD
330
A0
100
AcDbEntity
  8
AM_4
100
AcDbEllipse
 10
0.0
 20
2.494613764693714
 30
0.0
 11
0.1050000000000001
 21
1.564621925354006E-9
 31
0.0
210
0.0
220
0.0
230
1.0
 40
0.7071067811865485
 41
3.141592638688632
 42
6.283187037607677
  0
LWPOLYLINE
  5
DE
330
A0
100
AcDbEntity
  8
AM_4
100
AcDbPolyline
 90
        4
 70
     0
 43
0.0
 10
-0.0000000000000001
 20
2.235347164356626
 10
0.0255440595141951
 20
2.248310593150735
 10
0.0673360127177311
 20
2.26824052485037
 10
0.109375
 20
2.286411082360672
  0
ELLIPSE
  5
DF
330
A0
100
AcDbEntity
  8
AM_4
100
AcDbEllipse
 10
0.0
 20
2.420367552669126
 30
0.0
 11
0.2187499999999989
 21
0.0
 31
0.0
210
0.0
220
0.0
230
1.0
 40
0.7071067811865486
 41
3.141592653589793
 42
5.235987755982991
  0
ELLIPSE
  5
E0
330
A0
100
AcDbEntity
  8
AM_4
100
AcDbEllipse
 10
0.0000000000000001
 20
2.420367552669126
 30
0.0
 11
0.2187499999999998
 21
0.0
 31
0.0
210
0.0
220
0.0
230
1.0
 40
0.7071067811865457
 41
5.235987755982988
 42
6.283185307179586
  0
ELLIPSE
  5
E1
330
A0
100
AcDbEntity
  8
AM_4
100
AcDbEllipse
 10
-0.0000000000000007
 20
2.420367552669128
 30
0.0
 11
0.2187500000000006
 21
0.0
 31
0.0
210
0.0
220
0.0
230
1.0
 40
0.7071067811865451
 41
0.0
 42
0.9156936017147888
  0
ELLIPSE
  5
E2
330
A0
100
AcDbEntity
  8
AM_4
100
AcDbEllipse
 10
0.0000000000000008
 20
2.420367552669128
 30
0.0
 11
0.2187500000000008
 21
0.0
 31
0.0
210
0.0
220
0.0
230
1.0
 40
0.7071067811865445
 41
2.225899051875001
 42
3.141592653589793
  0
ELLIPSE
  5
E3
330
A0
100
AcDbEntity
  8
AM_4
100
AcDbEllipse
 10
0.0000000000000001
 20
2.433320475076505
 30
0.0
 11
0.1725340532830153
 21
0.0
 31
0.0
210
0.0
220
0.0
230
1.0
 40
0.7071067811865479
 41
2.36430131044774
 42
7.06047665032164
  0
ELLIPSE
  5
E4
330
A0
100
AcDbEntity
  8
AM_4
100
AcDbEllipse
 10
0.0000000000000002
 20
2.420367552669127
 30
0.0
 11
0.2137500000000001
 21
0.0
 31
0.0
210
0.0
220
0.0
230
1.0
 40
0.7071067811865472
 41
2.237937434749505
 42
7.186840526019874
  0
LINE
  5
E5
330
A0
100
AcDbEntity
  8
AM_4
100
AcDbLine
 10
-0.0000000000000001
 20
2.235347164356626
 30
0.0
 11
-0.0000000000000001
 21
2.177460008707093
 31
0.0
  0
LWPOLYLINE
  5
E6
330
A0
100
AcDbEntity
  8
AM_4
100
AcDbPolyline
 90
        3
 70
     0
 43
0.0
 10
-0.109375
 20
2.286411082360672
 10
-0.0546875000000001
 20
2.262392628192869
 10
-0.0000000000000001
 20
2.235347164356626
  0
LWPOLYLINE
  5
E7
330
A0
100
AcDbEntity
  8
AM_4
100
AcDbPolyline
 90
        3
 70
     0
 43
0.0
 10
-0.2187499999999999
 20
2.324651477895595
 10
-0.1643083897258504
 20
2.307130217840415
 10
-0.109375
 20
2.286411082360672
  0
LINE
  5
E8
330
A0
100
AcDbEntity
  8
AM_4
100
AcDbLine
 10
-0.21875
 20
2.503260104973536
 30
0.0
 11
-0.2187499999999999
 21
2.266764322246063
 31
0.0
  0
LWPOLYLINE
  5
E9
330
A0
100
AcDbEntity
  8
AM_4
100
AcDbPolyline
 90
        3
 70
     0
 43
0.0
 10
-0.109375
 20
2.215700404242017
 10
-0.1640625
 20
2.239718858409819
 10
-0.2187499999999999
 20
2.266764322246063
  0
LWPOLYLINE
  5
EA
330
A0
100
AcDbEntity
  8
AM_4
100
AcDbPolyline
 90
        3
 70
     0
 43
0.0
 10
-0.0000000000000001
 20
2.177460008707093
 10
-0.0544416102741496
 20
2.194981268762274
 10
-0.109375
 20
2.215700404242017
  0
LINE
  5
EB
330
A0
100
AcDbEntity
  8
AM_4
100
AcDbLine
 10
0.090932667397366
 20
2.478703862117017
 30
0.0
 11
0.1169134295108992
 21
2.510523667270411
 31
0.0
  0
LINE
  5
EC
330
A0
100
AcDbEntity
  8
AM_4
100
AcDbLine
 10
-0.1169134295108992
 20
2.510523667270411
 30
0.0
 11
-0.0909326673973661
 21
2.478703862117017
 31
0.0
  0
ELLIPSE
  5
ED
330
A0
100
AcDbEntity
  8
AM_4
100
AcDbEllipse
 10
0.0
 20
2.558253375000503
 30
0.0
 11
0.135
 21
0.0
 31
0.0
210
0.0
220
0.0
230
1.0
 40
0.7071067811865446
 41
2.725678601487246
 42
5.759586531581287
  0
ELLIPSE
  5
EE
330
A0
100
AcDbEntity
  8
AM_4
100
AcDbEllipse
 10
0.0000000000000001
 20
2.558253375000503
 30
0.0
 11
0.1349999999999999
 21
0.0
 31
0.0
210
0.0
220
0.0
230
1.0
 40
0.7071067811865455
 41
5.759586531581292
 42
6.699099359282139
  0
ELLIPSE
  5
EF
330
A0
100
AcDbEntity
  8
AM_4
100
AcDbEllipse
 10
0.0
 20
2.51582696812931
 30
0.0
 11
0.1049999999999997
 21
0.0
 31
0.0
210
0.0
220
0.0
230
1.0
 40
0.707106781186547
 41
3.665191429188088
 42
5.759586531581291
  0
LINE
  5
F0
330
A0
100
AcDbEntity
  8
AM_4
100
AcDbLine
 10
-0.0939243440009287
 20
2.644155934859202
 30
0.0
 11
-0.1234908992236335
 21
2.596821482349311
 31
0.0
  0
LINE
  5
F1
330
A0
100
AcDbEntity
  8
AM_4
100
AcDbLine
 10
0.1234908992236335
 20
2.596821482349311
 30
0.0
 11
0.0939243440009287
 21
2.644155934859202
 31
0.0
  0
ELLIPSE
  5
F2
330
A0
100
AcDbEntity
  8
AM_4
100
AcDbEllipse
 10
0.0
 20
2.614821917495427
 30
0.0
 11
0.1026779019331875
 21
0.0
 31
0.0
210
0.0
220
0.0
230
1.0
 40
0.7071067811865508
 41
0.0
 42
6.283185307179586
  0
ENDBLK
  5
A3
330
A0
100
AcDbEntity
  8
0
100
AcDbBlockEnd
  0
BLOCK
  5
F5
330
F3
100
AcDbEntity
  8
0
100
AcDbBlockBegin
  2
4_1_5_8C_0_in_023125_0
 70
     2
 10
0.0
 20
0.0
 30
0.0
  3
4_1_5_8C_0_in_023125_0
  1

  0
ATTDEF
  5
F7
330
F3
100
AcDbEntity
  8
AM_6
100
AcDbText
 10
6.59375
 20
1.59375
 30
0.0
 40
0.5
  1
E-Type Collar -Inch
100
AcDbAttributeDefinition
  3

  2
NN
 70
     8
280
     0
  0
ATTDEF
  5
F8
330
F3
100
AcDbEntity
  8
AM_6
100
AcDbText
 10
6.59375
 20
1.09375
 30
0.0
 40
0.5
  1
E-Type Bearings
100
AcDbAttributeDefinition
  3

  2
NT
 70
     8
280
     0
  0
ATTDEF
  5
F9
330
F3
100
AcDbEntity
  8
AM_6
100
AcDbText
 10
6.59375
 20
0.59375
 30
0.0
 40
0.5
  1
1-5/8C
100
AcDbAttributeDefinition
  3

  2
NB
 70
     8
280
     0
  0
ATTDEF
  5
FA
330
F3
100
AcDbEntity
  8
AM_6
100
AcDbText
 10
6.59375
 20
0.09375
 30
0.0
 40
0.5
  1
$BORE.C
100
AcDbAttributeDefinition
  3

  2
NBSYN
 70
     8
280
     0
  0
ATTDEF
  5
FB
330
F3
100
AcDbEntity
  8
AM_6
100
AcDbText
 10
6.59375
 20
-0.40625
 30
0.0
 40
0.5
  1
1-5/8C
100
AcDbAttributeDefinition
  3

  2
LINA
 70
     8
280
     0
  0
ATTDEF
  5
FC
330
F3
100
AcDbEntity
  8
AM_6
100
AcDbText
 10
6.59375
 20
-0.90625
 30
0.0
 40
0.5
  1
1-5/8
100
AcDbAttributeDefinition
  3

  2
BORE
 70
     8
280
     0
  0
ATTDEF
  5
FD
330
F3
100
AcDbEntity
  8
AM_6
100
AcDbText
 10
6.59375
 20
-1.40625
 30
0.0
 40
0.5
  1
3.18750
100
AcDbAttributeDefinition
  3

  2
L
 70
     8
280
     0
  0
ATTDEF
  5
FE
330
F3
100
AcDbEntity
  8
AM_6
100
AcDbText
 10
6.59375
 20
-1.90625
 30
0.0
 40
0.5
  1
3.38
100
AcDbAttributeDefinition
  3

  2
A
 70
     8
280
     0
  0
ATTDEF
  5
FF
330
F3
100
AcDbEntity
  8
AM_6
100
AcDbText
 10
6.59375
 20
-2.40625
 30
0.0
 40
0.5
  1
1.50
100
AcDbAttributeDefinition
  3

  2
B
 70
     8
280
     0
  0
ATTDEF
  5
100
330
F3
100
AcDbEntity
  8
AM_6
100
AcDbText
 10
6.59375
 20
-2.90625
 30
0.0
 40
0.5
  1
2.06
100
AcDbAttributeDefinition
  3

  2
C
 70
     8
280
     0
  0
ATTDEF
  5
101
330
F3
100
AcDbEntity
  8
AM_6
100
AcDbText
 10
6.59375
 20
-3.40625
 30
0.0
 40
0.5
  1
3.25
100
AcDbAttributeDefinition
  3

  2
D
 70
     8
280
     0
  0
ATTDEF
  5
102
330
F3
100
AcDbEntity
  8
AM_6
100
AcDbText
 10
6.59375
 20
-3.90625
 30
0.0
 40
0.5
  1
0.35
100
AcDbAttributeDefinition
  3

  2
E
 70
     8
280
     0
  0
ATTDEF
  5
103
330
F3
100
AcDbEntity
  8
AM_6
100
AcDbText
 10
6.59375
 20
-4.40625
 30
0.0
 40
0.5
  1
0.28
100
AcDbAttributeDefinition
  3

  2
F
 70
     8
280
     0
  0
ATTDEF
  5
104
330
F3
100
AcDbEntity
  8
AM_6
100
AcDbText
 10
6.59375
 20
-4.90625
 30
0.0
 40
0.5
  1
5/16-18
100
AcDbAttributeDefinition
  3

  2
CS
 70
     8
280
     0
  0
ATTDEF
  5
105
330
F3
100
AcDbEntity
  8
AM_6
100
AcDbText
 10
6.59375
 20
-5.40625
 30
0.0
 40
0.5
  1
0.3125
100
AcDbAttributeDefinition
  3

  2
NDM
 70
     8
280
     0
  0
ATTDEF
  5
106
330
F3
100
AcDbEntity
  8
AM_6
100
AcDbText
 10
6.59375
 20
-5.90625
 30
0.0
 40
0.5
  1
0.2520
100
AcDbAttributeDefinition
  3

  2
KDM
 70
     8
280
     0
  0
ATTDEF
  5
107
330
F3
100
AcDbEntity
  8
AM_6
100
AcDbText
 10
6.59375
 20
-6.40625
 30
0.0
 40
0.5
  1
baldor
100
AcDbAttributeDefinition
  3

  2
COMPANY
 70
     8
280
     0
  0
LINE
  5
108
330
F3
100
AcDbEntity
  8
AM_9
100
AcDbLine
 10
0.1262
 20
1.039216666666667
 30
0.0
 11
0.1262
 21
1.5637
 31
0.0
  0
LINE
  5
109
330
F3
100
AcDbEntity
  8
AM_9
100
AcDbLine
 10
-0.1262
 20
1.5637
 30
0.0
 11
-0.1262
 21
1.039216666666667
 31
0.0
  0
LINE
  5
10A
330
F3
100
AcDbEntity
  8
AM_9
100
AcDbLine
 10
0.9951845820499468
 20
0.3248158985146055
 30
0.0
 11
1.470527911220886
 21
0.5464721331599066
 31
0.0
  0
LINE
  5
10B
330
F3
100
AcDbEntity
  8
AM_9
100
AcDbLine
 10
1.363859061957533
 20
0.7752242186079569
 30
0.0
 11
0.8885157327865942
 21
0.5535679839626558
 31
0.0
  0
LINE
  5
10C
330
F3
100
AcDbEntity
  8
AM_9
100
AcDbLine
 10
-0.1262
 20
1.039216666666667
 30
0.0
 11
0.1262
 21
1.039216666666667
 31
0.0
  0
LINE
  5
10D
330
F3
100
AcDbEntity
  8
AM_9
100
AcDbLine
 10
-0.1262
 20
1.039216666666667
 30
0.0
 11
-0.1457609523153738
 21
1.019655714351293
 31
0.0
  0
LINE
  5
10E
330
F3
100
AcDbEntity
  8
AM_9
100
AcDbLine
 10
0.1455292993473216
 20
1.019887367319345
 30
0.0
 11
0.1262
 21
1.039216666666667
 31
0.0
  0
LINE
  5
10F
330
F3
100
AcDbEntity
  8
AM_9
100
AcDbLine
 10
0.8885157327865941
 20
0.5535679839626559
 30
0.0
 11
0.9951845820499468
 21
0.3248158985146053
 31
0.0
  0
LINE
  5
110
330
F3
100
AcDbEntity
  8
AM_9
100
AcDbLine
 10
0.8885157327865942
 20
0.5535679839626558
 30
0.0
 11
0.863350538066202
 21
0.5627273657803916
 31
0.0
  0
LINE
  5
111
330
F3
100
AcDbEntity
  8
AM_9
100
AcDbLine
 10
0.9859752822115682
 20
0.2995135551596728
 30
0.0
 11
0.9951845820499468
 21
0.3248158985146053
 31
0.0
  0
LINE
  5
112
330
F3
100
AcDbEntity
  8
AM_9
100
AcDbLine
 10
1.363859061957533
 20
0.7752242186079569
 30
0.0
 11
1.470527911220886
 21
0.5464721331599065
 31
0.0
  0
LINE
  5
113
330
F3
100
AcDbEntity
  8
AM_9
100
AcDbLine
 10
1.470527911220886
 20
0.5464721331599065
 30
0.0
 11
1.499986522224108
 21
0.5357500756119067
 31
0.0
  0
LINE
  5
114
330
F3
100
AcDbEntity
  8
AM_9
100
AcDbLine
 10
1.375002476459633
 20
0.8058404983280995
 30
0.0
 11
1.363859061957533
 21
0.7752242186079568
 31
0.0
  0
LINE
  5
115
330
F3
100
AcDbEntity
  8
AM_9
100
AcDbLine
 10
-0.1262
 20
1.5637
 30
0.0
 11
0.1262
 21
1.5637
 31
0.0
  0
LINE
  5
116
330
F3
100
AcDbEntity
  8
AM_9
100
AcDbLine
 10
0.1262
 20
1.5637
 30
0.0
 11
0.1490113714447205
 21
1.586511371444721
 31
0.0
  0
LINE
  5
117
330
F3
100
AcDbEntity
  8
AM_9
100
AcDbLine
 10
-0.1490462944244214
 20
1.586546294424421
 30
0.0
 11
-0.1262
 21
1.5637
 31
0.0
  0
LINE
  5
119
330
F3
100
AcDbEntity
  8
AM_5
100
AcDbLine
 10
-0.15625
 20
1.58607219255619
 30
0.0
 11
-0.15625
 21
1.018079533975612
 31
0.0
  0
LINE
  5
11A
330
F3
100
AcDbEntity
  8
AM_5
100
AcDbLine
 10
0.15625
 20
1.58607219255619
 30
0.0
 11
0.15625
 21
1.018079533975612
 31
0.0
  0
LINE
  5
11B
330
F3
100
AcDbEntity
  8
AM_5
100
AcDbLine
 10
1.503503682312952
 20
0.5286924812888807
 30
0.0
 11
0.9887275128617252
 21
0.2886484112380781
 31
0.0
  0
LINE
  5
11C
330
F3
100
AcDbEntity
  8
AM_5
100
AcDbLine
 10
1.371435475518983
 20
0.8119136647378334
 30
0.0
 11
0.8566593060677565
 21
0.5718695946870311
 31
0.0
  0
CIRCLE
  5
11D
330
F3
100
AcDbEntity
  8
AM_4
100
AcDbCircle
 10
0.0
 20
0.0
 30
0.0
 40
1.03
  0
CIRCLE
  5
11E
330
F3
100
AcDbEntity
  8
AM_4
100
AcDbCircle
 10
0.0
 20
0.0
 30
0.0
 40
1.500416666666667
  0
CIRCLE
  5
11F
330
F3
100
AcDbEntity
  8
AM_4
100
AcDbCircle
 10
0.0
 20
0.0
 30
0.0
 40
1.59375
  0
ENDBLK
  5
F6
330
F3
100
AcDbEntity
  8
0
100
AcDbBlockEnd
  0
BLOCK
  5
122
330
120
100
AcDbEntity
  8
0
100
AcDbBlockBegin
  2
5_1_5_8I_0_in_023125_0
 70
     2
 10
0.0
 20
0.0
 30
0.0
  3
5_1_5_8I_0_in_023125_0
  1

  0
ATTDEF
  5
124
330
120
100
AcDbEntity
  8
AM_6
100
AcDbText
 10
6.470918656948253
 20
1.03
 30
0.0
 40
0.5
  1
E-Type Insert -Inch
100
AcDbAttributeDefinition
  3

  2
NN
 70
     8
280
     0
  0
ATTDEF
  5
125
330
120
100
AcDbEntity
  8
AM_6
100
AcDbText
 10
6.470918656948253
 20
0.53
 30
0.0
 40
0.5
  1
E-Type Bearings
100
AcDbAttributeDefinition
  3

  2
NT
 70
     8
280
     0
  0
ATTDEF
  5
126
330
120
100
AcDbEntity
  8
AM_6
100
AcDbText
 10
6.470918656948253
 20
0.03
 30
0.0
 40
0.5
  1
1-5/8I
100
AcDbAttributeDefinition
  3

  2
NB
 70
     8
280
     0
  0
ATTDEF
  5
127
330
120
100
AcDbEntity
  8
AM_6
100
AcDbText
 10
6.470918656948253
 20
-0.47
 30
0.0
 40
0.5
  1
$BORE.I
100
AcDbAttributeDefinition
  3

  2
NBSYN
 70
     8
280
     0
  0
ATTDEF
  5
128
330
120
100
AcDbEntity
  8
AM_6
100
AcDbText
 10
6.470918656948253
 20
-0.97
 30
0.0
 40
0.5
  1
1-5/8I
100
AcDbAttributeDefinition
  3

  2
LINA
 70
     8
280
     0
  0
ATTDEF
  5
129
330
120
100
AcDbEntity
  8
AM_6
100
AcDbText
 10
6.470918656948253
 20
-1.47
 30
0.0
 40
0.5
  1
1-5/8
100
AcDbAttributeDefinition
  3

  2
BORE
 70
     8
280
     0
  0
ATTDEF
  5
12A
330
120
100
AcDbEntity
  8
AM_6
100
AcDbText
 10
6.470918656948253
 20
-1.97
 30
0.0
 40
0.5
  1
3.38
100
AcDbAttributeDefinition
  3

  2
A
 70
     8
280
     0
  0
ATTDEF
  5
12B
330
120
100
AcDbEntity
  8
AM_6
100
AcDbText
 10
6.470918656948253
 20
-2.47
 30
0.0
 40
0.5
  1
1.50
100
AcDbAttributeDefinition
  3

  2
B
 70
     8
280
     0
  0
ATTDEF
  5
12C
330
120
100
AcDbEntity
  8
AM_6
100
AcDbText
 10
6.470918656948253
 20
-2.97
 30
0.0
 40
0.5
  1
2.06
100
AcDbAttributeDefinition
  3

  2
C
 70
     8
280
     0
  0
ATTDEF
  5
12D
330
120
100
AcDbEntity
  8
AM_6
100
AcDbText
 10
6.470918656948253
 20
-3.47
 30
0.0
 40
0.5
  1
3.25
100
AcDbAttributeDefinition
  3

  2
D
 70
     8
280
     0
  0
ATTDEF
  5
12E
330
120
100
AcDbEntity
  8
AM_6
100
AcDbText
 10
6.470918656948253
 20
-3.97
 30
0.0
 40
0.5
  1
0.35
100
AcDbAttributeDefinition
  3

  2
E
 70
     8
280
     0
  0
ATTDEF
  5
12F
330
120
100
AcDbEntity
  8
AM_6
100
AcDbText
 10
6.470918656948253
 20
-4.47
 30
0.0
 40
0.5
  1
0.28
100
AcDbAttributeDefinition
  3

  2
F
 70
     8
280
     0
  0
ATTDEF
  5
130
330
120
100
AcDbEntity
  8
AM_6
100
AcDbText
 10
6.470918656948253
 20
-4.97
 30
0.0
 40
0.5
  1
baldor
100
AcDbAttributeDefinition
  3

  2
COMPANY
 70
     8
280
     0
  0
LINE
  5
131
330
120
100
AcDbEntity
  8
AM_9
100
AcDbLine
 10
-0.175000005
 20
1.015024629380982
 30
0.0
 11
-0.175000005
 21
0.7934300525251107
 31
0.0
  0
LINE
  5
132
330
120
100
AcDbEntity
  8
AM_9
100
AcDbLine
 10
0.175000005
 20
0.7935199911559961
 30
0.0
 11
0.175000005
 21
1.015106623269315
 31
0.0
  0
LINE
  5
133
330
120
100
AcDbEntity
  8
AM_9
100
AcDbLine
 10
0.8459665277242595
 20
0.5875718117559408
 30
0.0
 11
0.6451336371546924
 21
0.4939218968739469
 31
0.0
  0
LINE
  5
134
330
120
100
AcDbEntity
  8
AM_9
100
AcDbLine
 10
0.7931315450716467
 20
0.1767521720558897
 30
0.0
 11
0.9939651026128258
 21
0.2704023979518541
 31
0.0
  0
LINE
  5
137
330
120
100
AcDbEntity
  8
AM_7
100
AcDbLine
 10
-0.0478716420845
 20
-0.0223229133124575
 30
0.0
 11
1.470918656948253
 21
0.6859006342580356
 31
0.0
  0
CIRCLE
  5
138
330
120
100
AcDbEntity
  8
AM_4
100
AcDbCircle
 10
0.0
 20
0.0
 30
0.0
 40
0.8125
  0
CIRCLE
  5
139
330
120
100
AcDbEntity
  8
AM_4
100
AcDbCircle
 10
0.0
 20
0.0
 30
0.0
 40
1.03
  0
ENDBLK
  5
123
330
120
100
AcDbEntity
  8
0
100
AcDbBlockEnd
  0
BLOCK
  5
13C
330
13A
100
AcDbEntity
  8
0
100
AcDbBlockBegin
  2
6_023125H_0_in_023125_0
 70
     2
 10
0.0
 20
0.0
 30
0.0
  3
6_023125H_0_in_023125_0
  1

  0
ATTDEF
  5
13E
330
13A
100
AcDbEntity
  8
AM_6
100
AcDbText
 10
8.084375
 20
3.084375
 30
0.0
 40
0.5
  1
FC-E-Housing
100
AcDbAttributeDefinition
  3

  2
NN
 70
     8
280
     0
  0
ATTDEF
  5
13F
330
13A
100
AcDbEntity
  8
AM_6
100
AcDbText
 10
8.084375
 20
2.584375
 30
0.0
 40
0.5
  1
Type E Piloted Flange -Inch
100
AcDbAttributeDefinition
  3

  2
NT
 70
     8
280
     0
  0
ATTDEF
  5
140
330
13A
100
AcDbEntity
  8
AM_6
100
AcDbText
 10
8.084375
 20
2.084375
 30
0.0
 40
0.5
  1
023125H
100
AcDbAttributeDefinition
  3

  2
NB
 70
     8
280
     0
  0
ATTDEF
  5
141
330
13A
100
AcDbEntity
  8
AM_6
100
AcDbText
 10
8.084375
 20
1.584375
 30
0.0
 40
0.5
  1
$PN.H
100
AcDbAttributeDefinition
  3

  2
NBSYN
 70
     8
280
     0
  0
ATTDEF
  5
142
330
13A
100
AcDbEntity
  8
AM_6
100
AcDbText
 10
8.084375
 20
1.084375
 30
0.0
 40
0.5
  1
023125
100
AcDbAttributeDefinition
  3

  2
LINA
 70
     8
280
     0
  0
ATTDEF
  5
143
330
13A
100
AcDbEntity
  8
AM_6
100
AcDbText
 10
8.084375
 20
0.5843750000000001
 30
0.0
 40
0.5
  1
1-5/8
100
AcDbAttributeDefinition
  3

  2
SS
 70
     8
280
     0
  0
ATTDEF
  5
144
330
13A
100
AcDbEntity
  8
AM_6
100
AcDbText
 10
8.084375
 20
0.0843750000000001
 30
0.0
 40
0.5
  1
023125
100
AcDbAttributeDefinition
  3

  2
PN
 70
     8
280
     0
  0
ATTDEF
  5
145
330
13A
100
AcDbEntity
  8
AM_6
100
AcDbText
 10
8.084375
 20
-0.4156249999999999
 30
0.0
 40
0.5
  1
FC-E-110R
100
AcDbAttributeDefinition
  3

  2
DESCRIPTION
 70
     8
280
     0
  0
ATTDEF
  5
146
330
13A
100
AcDbEntity
  8
AM_6
100
AcDbText
 10
8.084375
 20
-0.9156249999999999
 30
0.0
 40
0.5
  1
3-3/8
100
AcDbAttributeDefinition
  3

  2
A
 70
     8
280
     0
  0
ATTDEF
  5
147
330
13A
100
AcDbEntity
  8
AM_6
100
AcDbText
 10
8.084375
 20
-1.415625
 30
0.0
 40
0.5
  1
6-1/8
100
AcDbAttributeDefinition
  3

  2
B
 70
     8
280
     0
  0
ATTDEF
  5
148
330
13A
100
AcDbEntity
  8
AM_6
100
AcDbText
 10
8.084375
 20
-1.915625
 30
0.0
 40
0.5
  1
2-25/32
100
AcDbAttributeDefinition
  3

  2
C
 70
     8
280
     0
  0
ATTDEF
  5
149
330
13A
100
AcDbEntity
  8
AM_6
100
AcDbText
 10
8.084375
 20
-2.415625
 30
0.0
 40
0.5
  1
5-1/8
100
AcDbAttributeDefinition
  3

  2
D
 70
     8
280
     0
  0
ATTDEF
  5
14A
330
13A
100
AcDbEntity
  8
AM_6
100
AcDbText
 10
8.084375
 20
-2.915625
 30
0.0
 40
0.5
  1
1-1/16
100
AcDbAttributeDefinition
  3

  2
E
 70
     8
280
     0
  0
ATTDEF
  5
14B
330
13A
100
AcDbEntity
  8
AM_6
100
AcDbText
 10
8.084375
 20
-3.415625
 30
0.0
 40
0.5
  1
7/16
100
AcDbAttributeDefinition
  3

  2
F
 70
     8
280
     0
  0
ATTDEF
  5
14C
330
13A
100
AcDbEntity
  8
AM_6
100
AcDbText
 10
8.084375
 20
-3.915625
 30
0.0
 40
0.5
  1
1-9/16
100
AcDbAttributeDefinition
  3

  2
G
 70
     8
280
     0
  0
ATTDEF
  5
14D
330
13A
100
AcDbEntity
  8
AM_6
100
AcDbText
 10
8.084375
 20
-4.415625
 30
0.0
 40
0.5
  1
1/2
100
AcDbAttributeDefinition
  3

  2
H
 70
     8
280
     0
  0
ATTDEF
  5
14E
330
13A
100
AcDbEntity
  8
AM_6
100
AcDbText
 10
8.084375
 20
-4.915625
 30
0.0
 40
0.5
  1
4-1/4
100
AcDbAttributeDefinition
  3

  2
K
 70
     8
280
     0
  0
ATTDEF
  5
14F
330
13A
100
AcDbEntity
  8
AM_6
100
AcDbText
 10
8.084375
 20
-5.415625
 30
0.0
 40
0.5
  1
3-3/16
100
AcDbAttributeDefinition
  3

  2
L
 70
     8
280
     0
  0
ATTDEF
  5
150
330
13A
100
AcDbEntity
  8
AM_6
100
AcDbText
 10
8.084375
 20
-5.915625
 30
0.0
 40
0.5
  1
1-1/32
100
AcDbAttributeDefinition
  3

  2
M
 70
     8
280
     0
  0
ATTDEF
  5
151
330
13A
100
AcDbEntity
  8
AM_6
100
AcDbText
 10
8.084375
 20
-6.415625
 30
0.0
 40
0.5
  1
baldor
100
AcDbAttributeDefinition
  3

  2
COMPANY
 70
     8
280
     0
  0
CIRCLE
  5
152
330
13A
100
AcDbEntity
  8
AM_9
100
AcDbCircle
 10
0.0
 20
0.0
 30
0.0
 40
1.912784985125056
  0
CIRCLE
  5
153
330
13A
100
AcDbEntity
  8
AM_9
100
AcDbCircle
 10
0.0
 20
0.0
 30
0.0
 40
1.962594720029643
  0
CIRCLE
  5
154
330
13A
100
AcDbEntity
  8
AM_9
100
AcDbCircle
 10
0.0
 20
0.0
 30
0.0
 40
2.01875
  0
CIRCLE
  5
155
330
13A
100
AcDbEntity
  8
AM_9
100
AcDbCircle
 10
0.0
 20
0.0
 30
0.0
 40
2.125
  0
CIRCLE
  5
156
330
13A
100
AcDbEntity
  8
AM_9
100
AcDbCircle
 10
0.0
 20
0.0
 30
0.0
 40
2.9375
  0
ARC
  5
157
330
13A
100
AcDbEntity
  8
AM_9
100
AcDbCircle
 10
-0.7877366113817068
 20
1.936539160903764
 30
0.0
 40
0.099999999999997
100
AcDbArc
 50
247.0582678872954
 51
292.1352854373955
  0
ARC
  5
158
330
13A
100
AcDbEntity
  8
AM_9
100
AcDbCircle
 10
1.93653916090377
 20
-0.7877366113817064
 30
0.0
 40
0.1000000000000023
100
AcDbArc
 50
157.864712875188
 51
202.9417321127035
  0
ARC
  5
159
330
13A
100
AcDbEntity
  8
AM_9
100
AcDbCircle
 10
0.0000000000000016
 20
-0.0000000000000002
 30
0.0
 40
1.990624999999999
100
AcDbArc
 50
337.8647146473734
 51
22.13528543739483
  0
ARC
  5
15A
330
13A
100
AcDbEntity
  8
AM_9
100
AcDbCircle
 10
1.936539160903769
 20
0.787736611381707
 30
0.0
 40
0.1000000000000021
100
AcDbArc
 50
157.0582678872967
 51
202.1352854373942
  0
ARC
  5
15B
330
13A
100
AcDbEntity
  8
AM_9
100
AcDbCircle
 10
0.0000000000000007
 20
0.0000000000000031
 30
0.0
 40
1.990625000000003
100
AcDbArc
 50
247.8647146473735
 51
292.1352854373948
  0
ARC
  5
15C
330
13A
100
AcDbEntity
  8
AM_9
100
AcDbCircle
 10
0.0000000000000088
 20
0.0000000000000269
 30
0.0
 40
1.990624999999972
100
AcDbArc
 50
67.86471464737342
 51
75.45280476804994
  0
ARC
  5
15D
330
13A
100
AcDbEntity
  8
AM_9
100
AcDbCircle
 10
0.7877366113817066
 20
1.93653916090377
 30
0.0
 40
0.1000000000000025
100
AcDbArc
 50
247.8647128751876
 51
292.9417321127035
  0
ARC
  5
15E
330
13A
100
AcDbEntity
  8
AM_9
100
AcDbCircle
 10
0.0000000000000028
 20
-0.0000000000000144
 30
0.0
 40
1.990625000000015
100
AcDbArc
 50
104.5471952319501
 51
112.1352854373947
  0
ARC
  5
15F
330
13A
100
AcDbEntity
  8
AM_9
100
AcDbCircle
 10
-1.936539160903765
 20
-0.7877366113817065
 30
0.0
 40
0.0999999999999986
100
AcDbArc
 50
337.0582678872956
 51
22.13528543739562
  0
ARC
  5
160
330
13A
100
AcDbEntity
  8
AM_9
100
AcDbCircle
 10
-0.0000000000000031
 20
0.0000000000000002
 30
0.0
 40
1.990624999999997
100
AcDbArc
 50
157.8647146473734
 51
202.1352854373948
  0
ARC
  5
161
330
13A
100
AcDbEntity
  8
AM_9
100
AcDbCircle
 10
-1.936539160903769
 20
0.787736611381706
 30
0.0
 40
0.1000000000000019
100
AcDbArc
 50
337.8647128751878
 51
22.94173211270363
  0
ARC
  5
162
330
13A
100
AcDbEntity
  8
AM_9
100
AcDbCircle
 10
0.7877366113817083
 20
-1.936539160903771
 30
0.0
 40
0.1000000000000037
100
AcDbArc
 50
67.0582678872975
 51
112.1352854373944
  0
ARC
  5
163
330
13A
100
AcDbEntity
  8
AM_9
100
AcDbCircle
 10
-0.7877366113817074
 20
-1.936539160903772
 30
0.0
 40
0.1000000000000045
100
AcDbArc
 50
67.86471287518789
 51
112.9417321127027
  0
LINE
  5
164
330
13A
100
AcDbEntity
  8
AM_9
100
AcDbLine
 10
-0.5
 20
1.926807694251037
 30
0.0
 11
-0.5000000000000001
 21
1.958430892959974
 31
0.0
  0
LINE
  5
165
330
13A
100
AcDbEntity
  8
AM_9
100
AcDbLine
 10
0.5
 20
1.926807694251037
 30
0.0
 11
0.5000000000000001
 21
1.958430892959974
 31
0.0
  0
LINE
  5
166
330
13A
100
AcDbEntity
  8
AM_7
100
AcDbLine
 10
-3.084375
 20
0.0
 30
0.0
 11
3.084375
 21
0.0
 31
0.0
  0
LINE
  5
167
330
13A
100
AcDbEntity
  8
AM_7
100
AcDbLine
 10
0.0
 20
-3.084375
 30
0.0
 11
0.0
 21
3.084375
 31
0.0
  0
LINE
  5
168
330
13A
100
AcDbEntity
  8
AM_7
100
AcDbLine
 10
-2.041648626790527
 20
1.811961126790528
 30
0.0
 11
-1.582273626790528
 21
1.811961126790528
 31
0.0
  0
LINE
  5
169
330
13A
100
AcDbEntity
  8
AM_7
100
AcDbLine
 10
-1.811961126790528
 20
1.582273626790528
 30
0.0
 11
-1.811961126790528
 21
2.041648626790528
 31
0.0
  0
LINE
  5
16A
330
13A
100
AcDbEntity
  8
AM_7
100
AcDbLine
 10
-2.041648626790527
 20
-1.811961126790528
 30
0.0
 11
-1.582273626790528
 21
-1.811961126790528
 31
0.0
  0
LINE
  5
16B
330
13A
100
AcDbEntity
  8
AM_7
100
AcDbLine
 10
-1.811961126790528
 20
-2.041648626790528
 30
0.0
 11
-1.811961126790528
 21
-1.582273626790528
 31
0.0
  0
LINE
  5
16C
330
13A
100
AcDbEntity
  8
AM_7
100
AcDbLine
 10
1.582273626790528
 20
1.811961126790528
 30
0.0
 11
2.041648626790528
 21
1.811961126790528
 31
0.0
  0
LINE
  5
16D
330
13A
100
AcDbEntity
  8
AM_7
100
AcDbLine
 10
1.811961126790528
 20
1.582273626790528
 30
0.0
 11
1.811961126790528
 21
2.041648626790527
 31
0.0
  0
LINE
  5
16E
330
13A
100
AcDbEntity
  8
AM_7
100
AcDbLine
 10
1.582273626790528
 20
-1.811961126790528
 30
0.0
 11
2.041648626790528
 21
-1.811961126790528
 31
0.0
  0
LINE
  5
16F
330
13A
100
AcDbEntity
  8
AM_7
100
AcDbLine
 10
1.811961126790528
 20
-2.041648626790527
 30
0.0
 11
1.811961126790528
 21
-1.582273626790528
 31
0.0
  0
LINE
  5
170
330
13A
100
AcDbEntity
  8
AM_4
100
AcDbLine
 10
-2.262294336758436
 20
1.551961126790528
 30
0.0
 11
-1.849936620525323
 21
0.8377366113817072
 31
0.0
  0
ARC
  5
171
330
13A
100
AcDbEntity
  8
AM_4
100
AcDbCircle
 10
-0.7877366113817472
 20
1.936539160903689
 30
0.0
 40
0.0999999999999127
100
AcDbArc
 50
239.9999999999978
 51
247.0582678873001
  0
LINE
  5
172
330
13A
100
AcDbEntity
  8
AM_4
100
AcDbLine
 10
-0.837736611381707
 20
1.849936620525323
 30
0.0
 11
-1.551961126790528
 21
2.262294336758436
 31
0.0
  0
ARC
  5
173
330
13A
100
AcDbEntity
  8
AM_4
100
AcDbCircle
 10
-1.811961126790527
 20
1.811961126790526
 30
0.0
 40
0.5200000000000005
100
AcDbArc
 50
60.00000000000023
 51
117.5317956692721
  0
ARC
  5
174
330
13A
100
AcDbEntity
  8
AM_4
100
AcDbCircle
 10
-1.811961126790528
 20
1.811961126790528
 30
0.0
 40
0.5199999999999995
100
AcDbArc
 50
152.4682043307279
 51
209.9999999999999
  0
ARC
  5
175
330
13A
100
AcDbEntity
  8
AM_4
100
AcDbCircle
 10
-1.936539160903721
 20
0.787736611381734
 30
0.0
 40
0.099999999999947
100
AcDbArc
 50
22.94173211269955
 51
29.9999999999998
  0
CIRCLE
  5
176
330
13A
100
AcDbEntity
  8
AM_4
100
AcDbCircle
 10
-1.811961126790528
 20
1.811961126790528
 30
0.0
 40
0.21875
  0
ARC
  5
177
330
13A
100
AcDbEntity
  8
AM_4
100
AcDbCircle
 10
-0.787736611381663
 20
-1.936539160903846
 30
0.0
 40
0.1000000000000908
100
AcDbArc
 50
112.9417321127094
 51
119.9999999999991
  0
ARC
  5
178
330
13A
100
AcDbEntity
  8
AM_4
100
AcDbCircle
 10
-1.936539160903689
 20
-0.7877366113817472
 30
0.0
 40
0.0999999999999127
100
AcDbArc
 50
329.9999999999977
 51
337.0582678873002
  0
LINE
  5
179
330
13A
100
AcDbEntity
  8
AM_4
100
AcDbLine
 10
-1.849936620525323
 20
-0.837736611381707
 30
0.0
 11
-2.262294336758436
 21
-1.551961126790528
 31
0.0
  0
ARC
  5
17A
330
13A
100
AcDbEntity
  8
AM_4
100
AcDbCircle
 10
-1.811961126790528
 20
-1.811961126790528
 30
0.0
 40
0.52
100
AcDbArc
 50
150.0000000000001
 51
207.5317956692718
  0
ARC
  5
17B
330
13A
100
AcDbEntity
  8
AM_4
100
AcDbCircle
 10
-1.811961126790528
 20
-1.811961126790527
 30
0.0
 40
0.5200000000000006
100
AcDbArc
 50
242.4682043307282
 51
299.9999999999998
  0
LINE
  5
17C
330
13A
100
AcDbEntity
  8
AM_4
100
AcDbLine
 10
-1.551961126790529
 20
-2.262294336758436
 30
0.0
 11
-0.837736611381707
 21
-1.849936620525323
 31
0.0
  0
CIRCLE
  5
17D
330
13A
100
AcDbEntity
  8
AM_4
100
AcDbCircle
 10
-1.811961126790528
 20
-1.811961126790528
 30
0.0
 40
0.21875
  0
ARC
  5
17E
330
13A
100
AcDbEntity
  8
AM_4
100
AcDbCircle
 10
1.93653916090383
 20
0.7877366113816738
 30
0.0
 40
0.1000000000000711
100
AcDbArc
 50
150.0000000000014
 51
157.0582678872927
  0
LINE
  5
17F
330
13A
100
AcDbEntity
  8
AM_4
100
AcDbLine
 10
1.849936620525323
 20
0.8377366113817072
 30
0.0
 11
2.262294336758436
 21
1.551961126790529
 31
0.0
  0
ARC
  5
180
330
13A
100
AcDbEntity
  8
AM_4
100
AcDbCircle
 10
1.811961126790529
 20
1.811961126790528
 30
0.0
 40
0.5199999999999988
100
AcDbArc
 50
330.0000000000002
 51
27.53179566927212
  0
ARC
  5
181
330
13A
100
AcDbEntity
  8
AM_4
100
AcDbCircle
 10
1.811961126790527
 20
1.811961126790526
 30
0.0
 40
0.5200000000000015
100
AcDbArc
 50
62.46820433072794
 51
119.9999999999998
  0
LINE
  5
182
330
13A
100
AcDbEntity
  8
AM_4
100
AcDbLine
 10
1.551961126790528
 20
2.262294336758436
 30
0.0
 11
0.837736611381707
 21
1.849936620525323
 31
0.0
  0
ARC
  5
183
330
13A
100
AcDbEntity
  8
AM_4
100
AcDbCircle
 10
0.7877366113816673
 20
1.936539160903849
 30
0.0
 40
0.1000000000000907
100
AcDbArc
 50
292.9417321127066
 51
299.9999999999963
  0
CIRCLE
  5
184
330
13A
100
AcDbEntity
  8
AM_4
100
AcDbCircle
 10
1.811961126790528
 20
1.811961126790528
 30
0.0
 40
0.21875
  0
ARC
  5
185
330
13A
100
AcDbEntity
  8
AM_4
100
AcDbCircle
 10
0.7877366113816294
 20
-1.936539160903912
 30
0.0
 40
0.1000000000001642
100
AcDbArc
 50
60.00000000000311
 51
67.0582678872874
  0
LINE
  5
186
330
13A
100
AcDbEntity
  8
AM_4
100
AcDbLine
 10
0.8377366113817069
 20
-1.849936620525323
 30
0.0
 11
1.551961126790528
 21
-2.262294336758436
 31
0.0
  0
ARC
  5
187
330
13A
100
AcDbEntity
  8
AM_4
100
AcDbCircle
 10
1.811961126790526
 20
-1.811961126790528
 30
0.0
 40
0.5199999999999995
100
AcDbArc
 50
240.0000000000002
 51
297.5317956692724
  0
ARC
  5
188
330
13A
100
AcDbEntity
  8
AM_4
100
AcDbCircle
 10
1.811961126790527
 20
-1.811961126790526
 30
0.0
 40
0.5199999999999999
100
AcDbArc
 50
332.4682043307276
 51
29.99999999999967
  0
LINE
  5
189
330
13A
100
AcDbEntity
  8
AM_4
100
AcDbLine
 10
2.262294336758436
 20
-1.551961126790529
 30
0.0
 11
1.849936620525323
 21
-0.8377366113817074
 31
0.0
  0
ARC
  5
18A
330
13A
100
AcDbEntity
  8
AM_4
100
AcDbCircle
 10
1.936539160903721
 20
-0.7877366113817342
 30
0.0
 40
0.099999999999947
100
AcDbArc
 50
202.9417321126996
 51
209.9999999999998
  0
CIRCLE
  5
18B
330
13A
100
AcDbEntity
  8
AM_4
100
AcDbCircle
 10
1.811961126790528
 20
-1.811961126790528
 30
0.0
 40
0.21875
  0
LINE
  5
18C
330
13A
100
AcDbEntity
  8
AM_4
100
AcDbLine
 10
0.5
 20
2.714813136600944
 30
0.0
 11
0.5
 21
1.958430892959974
 31
0.0
  0
LINE
  5
18D
330
13A
100
AcDbEntity
  8
AM_4
100
AcDbLine
 10
0.5
 20
2.714813136600944
 30
0.0
 11
-0.5
 21
2.714813136600944
 31
0.0
  0
LINE
  5
18E
330
13A
100
AcDbEntity
  8
AM_4
100
AcDbLine
 10
-0.5
 20
2.714813136600944
 30
0.0
 11
-0.5
 21
1.958430892959974
 31
0.0
  0
ARC
  5
18F
330
13A
100
AcDbEntity
  8
AM_4
100
AcDbCircle
 10
-0.0000000000000001
 20
0.0000000000000049
 30
0.0
 40
2.021249999999995
100
AcDbArc
 50
79.05759255484472
 51
100.9424074451553
  0
CIRCLE
  5
190
330
13A
100
AcDbEntity
  8
AM_4
100
AcDbCircle
 10
0.0
 20
0.0
 30
0.0
 40
1.625
  0
ARC
  5
191
330
13A
100
AcDbEntity
  8
AM_4
100
AcDbCircle
 10
0.0
 20
0.0
 30
0.0
 40
2.02125
100
AcDbArc
 50
104.3220358413096
 51
75.67796415869041
  0
LINE
  5
192
330
13A
100
AcDbEntity
  8
AM_4
100
AcDbLine
 10
0.5
 20
1.9845006125
 30
0.0
 11
0.3836780963287338
 21
1.984500612470946
 31
0.0
  0
LINE
  5
193
330
13A
100
AcDbEntity
  8
AM_4
100
AcDbLine
 10
-0.3836780963287338
 20
1.984500612470946
 30
0.0
 11
-0.5
 21
1.9845006125
 31
0.0
  0
CIRCLE
  5
194
330
13A
100
AcDbEntity
  8
AM_4
100
AcDbCircle
 10
-0.0000000000000007
 20
-0.0000000000000009
 30
0.0
 40
3.062499999999999
  0
ENDBLK
  5
13D
330
13A
100
AcDbEntity
  8
0
100
AcDbBlockEnd
  0
ENDSEC
  0
SECTION
  2
ENTITIES
  0
INSERT
  5
6F
330
1F
100
AcDbEntity
  8
0
100
AcDbBlockReference
  2
1_023125_0
 10
0.0
 20
0.0
 30
0.0
  0
POINT
  5
196
330
1F
100
AcDbEntity
  8
ConnectionPoints
100
AcDbPoint
 10
0.0
 20
2.349656874550472
 30
0.7343749999881892
  0
POINT
  5
197
330
1F
100
AcDbEntity
  8
ConnectionPoints
100
AcDbPoint
 10
0.0
 20
0.0
 30
1.565
  0
POINT
  5
198
330
1F
100
AcDbEntity
  8
ConnectionPoints
100
AcDbPoint
 10
0.0
 20
0.0
 30
1.565
  0
POINT
  5
199
330
1F
100
AcDbEntity
  8
ConnectionPoints
100
AcDbPoint
 10
0.0
 20
0.0
 30
-1.815
  0
POINT
  5
19A
330
1F
100
AcDbEntity
  8
ConnectionPoints
100
AcDbPoint
 10
0.0
 20
0.0
 30
-0.125
  0
POINT
  5
19B
330
1F
100
AcDbEntity
  8
ConnectionPoints
100
AcDbPoint
 10
0.0
 20
0.0
 30
-1.703125
  0
POINT
  5
19C
330
1F
100
AcDbEntity
  8
ConnectionPoints
100
AcDbPoint
 10
0.0
 20
2.349656874550472
 30
0.7343749999881892
  0
POINT
  5
19D
330
1F
100
AcDbEntity
  8
ConnectionPoints
100
AcDbPoint
 10
0.0
 20
0.0
 30
-0.125
  0
ENDSEC
  0
SECTION
  2
OBJECTS
  0
DICTIONARY
  5
C
330
0
100
AcDbDictionary
281
     1
  3
ACAD_DETAILVIEWSTYLE
350
1A5
  3
ACAD_GROUP
350
D
  3
ACAD_LAYOUT
350
1A
  3
ACAD_MATERIAL
350
43
  3
ACAD_MLEADERSTYLE
350
6B
  3
ACAD_MLINESTYLE
350
17
  3
ACAD_PLOTSETTINGS
350
19
  3
ACAD_PLOTSTYLENAME
350
E
  3
ACAD_SCALELIST
350
47
  3
ACAD_SECTIONVIEWSTYLE
350
1A6
  3
ACAD_TABLESTYLE
350
69
  3
ACAD_VISUALSTYLE
350
2A
  3
ACDB_RECOMPOSE_DATA
350
1A2
  3
AcDbVariableDictionary
350
19E
  0
SUN
  5
6D
330
29
100
AcDbSun
 90
        1
290
     0
 63
     7
421
 16777215
 40
1.0
291
     1
 91
  2455826
 92
 54000000
292
     0
 70
     2
 71
   256
280
     1
  0
DICTIONARY
  5
1A5
102
{ACAD_REACTORS
330
C
102
}
330
C
100
AcDbDictionary
281
     1
  0
DICTIONARY
  5
D
102
{ACAD_REACTORS
330
C
102
}
330
C
100
AcDbDictionary
281
     1
  0
DICTIONARY
  5
1A
102
{ACAD_REACTORS
330
C
102
}
330
C
100
AcDbDictionary
281
     1
  3
Layout1
350
1E
  3
Layout2
350
26
  3
Model
350
22
  0
DICTIONARY
  5
43
102
{ACAD_REACTORS
330
C
102
}
330
C
100
AcDbDictionary
281
     1
  3
ByBlock
350
45
  3
ByLayer
350
44
  3
Global
350
46
  0
DICTIONARY
  5
6B
102
{ACAD_REACTORS
330
C
102
}
330
C
100
AcDbDictionary
281
     1
  3
Standard
350
6C
  0
DICTIONARY
  5
17
102
{ACAD_REACTORS
330
C
102
}
330
C
100
AcDbDictionary
281
     1
  3
Standard
350
18
  0
DICTIONARY
  5
19
102
{ACAD_REACTORS
330
C
102
}
330
C
100
AcDbDictionary
281
     1
  0
ACDBDICTIONARYWDFLT
  5
E
102
{ACAD_REACTORS
330
C
102
}
330
C
100
AcDbDictionary
281
     1
  3
Normal
350
F
100
AcDbDictionaryWithDefault
340
F
  0
DICTIONARY
  5
47
102
{ACAD_REACTORS
330
C
102
}
330
C
100
AcDbDictionary
281
     1
  3
A0
350
48
  3
A1
350
49
  3
A2
350
4A
  3
A3
350
4B
  3
A4
350
4C
  3
A5
350
4D
  3
A6
350
4E
  3
A7
350
4F
  3
A8
350
50
  3
A9
350
51
  3
B0
350
52
  3
B1
350
53
  3
B2
350
54
  3
B3
350
55
  3
B4
350
56
  3
B5
350
57
  3
B6
350
58
  3
B7
350
59
  3
B8
350
5A
  3
B9
350
5B
  3
C0
350
5C
  3
C1
350
5D
  3
C2
350
5E
  3
C3
350
5F
  3
C4
350
60
  3
C5
350
61
  3
C6
350
62
  3
C7
350
63
  3
C8
350
64
  3
C9
350
65
  3
D0
350
66
  3
D1
350
67
  3
D2
350
68
  0
DICTIONARY
  5
1A6
102
{ACAD_REACTORS
330
C
102
}
330
C
100
AcDbDictionary
281
     1
  0
DICTIONARY
  5
69
102
{ACAD_REACTORS
330
C
102
}
330
C
100
AcDbDictionary
281
     1
  3
Standard
350
6A
  0
DICTIONARY
  5
2A
102
{ACAD_REACTORS
330
C
102
}
330
C
100
AcDbDictionary
281
     1
  3
2dWireframe
350
2F
  3
Basic
350
32
  3
Brighten
350
36
  3
ColorChange
350
3A
  3
Conceptual
350
34
  3
Dim
350
35
  3
EdgeColorOff
350
3D
  3
Facepattern
350
39
  3
Flat
350
2B
  3
FlatWithEdges
350
2C
  3
Gouraud
350
2D
  3
GouraudWithEdges
350
2E
  3
Hidden
350
31
  3
JitterOff
350
3B
  3
Linepattern
350
38
  3
OverhangOff
350
3C
  3
Realistic
350
33
  3
Shaded
350
42
  3
Shaded with edges
350
41
  3
Shades of Gray
350
3E
  3
Sketchy
350
3F
  3
Thicken
350
37
  3
Wireframe
350
30
  3
X-Ray
350
40
  0
XRECORD
  5
1A2
102
{ACAD_REACTORS
330
C
102
}
330
C
100
AcDbXrecord
280
     1
 90
        1
330
6A
  0
DICTIONARY
  5
19E
102
{ACAD_REACTORS
330
C
102
}
330
C
100
AcDbDictionary
281
     1
  3
CANNOSCALE
350
19F
  3
CMLEADERSTYLE
350
1A4
  3
CTABLESTYLE
350
1A3
  0
LAYOUT
  5
1E
102
{ACAD_REACTORS
330
1A
102
}
330
1A
100
AcDbPlotSettings
  1

  2
none_device
  4

  6

 40
0.0
 41
0.0
 42
0.0
 43
0.0
 44
0.0
 45
0.0
 46
0.0
 47
0.0
 48
0.0
 49
0.0
140
0.0
141
0.0
142
1.0
143
1.0
 70
   688
 72
     0
 73
     0
 74
     5
  7

 75
    16
 76
     0
 77
     2
 78
   300
147
1.0
148
0.0
149
0.0
100
AcDbLayout
  1
Layout1
 70
     1
 71
     1
 10
0.0
 20
0.0
 11
12.0
 21
9.0
 12
0.0
 22
0.0
 32
0.0
 14
1.000000000000000E+20
 24
1.000000000000000E+20
 34
1.000000000000000E+20
 15
-1.000000000000000E+20
 25
-1.000000000000000E+20
 35
-1.000000000000000E+20
146
0.0
 13
0.0
 23
0.0
 33
0.0
 16
1.0
 26
0.0
 36
0.0
 17
0.0
 27
1.0
 37
0.0
 76
     0
330
1B
  0
LAYOUT
  5
26
102
{ACAD_REACTORS
330
1A
102
}
330
1A
100
AcDbPlotSettings
  1

  2
none_device
  4

  6

 40
0.0
 41
0.0
 42
0.0
 43
0.0
 44
0.0
 45
0.0
 46
0.0
 47
0.0
 48
0.0
 49
0.0
140
0.0
141
0.0
142
1.0
143
1.0
 70
   688
 72
     0
 73
     0
 74
     5
  7

 75
    16
 76
     0
 77
     2
 78
   300
147
1.0
148
0.0
149
0.0
100
AcDbLayout
  1
Layout2
 70
     1
 71
     2
 10
0.0
 20
0.0
 11
0.0
 21
0.0
 12
0.0
 22
0.0
 32
0.0
 14
0.0
 24
0.0
 34
0.0
 15
0.0
 25
0.0
 35
0.0
146
0.0
 13
0.0
 23
0.0
 33
0.0
 16
1.0
 26
0.0
 36
0.0
 17
0.0
 27
1.0
 37
0.0
 76
     0
330
23
  0
LAYOUT
  5
22
102
{ACAD_REACTORS
330
1A
102
}
330
1A
100
AcDbPlotSettings
  1

  2
none_device
  4
Letter_(8.50_x_11.00_Inches)
  6

 40
6.35
 41
6.35
 42
6.35000508
 43
6.35000508
 44
215.9
 45
279.4
 46
0.0
 47
0.0
 48
0.0
 49
0.0
140
0.0
141
0.0
142
1.0
143
1.0
 70
  1712
 72
     0
 73
     0
 74
     0
  7

 75
     0
 76
     0
 77
     2
 78
   300
147
1.0
148
0.0
149
0.0
100
AcDbLayout
  1
Model
 70
     1
 71
     0
 10
0.0
 20
0.0
 11
12.0
 21
9.0
 12
0.0
 22
0.0
 32
0.0
 14
1.000000000000000E+20
 24
1.000000000000000E+20
 34
1.000000000000000E+20
 15
-1.000000000000000E+20
 25
-1.000000000000000E+20
 35
-1.000000000000000E+20
146
0.0
 13
0.0
 23
0.0
 33
0.0
 16
1.0
 26
0.0
 36
0.0
 17
0.0
 27
1.0
 37
0.0
 76
     0
330
1F
331
29
  0
MATERIAL
  5
45
102
{ACAD_REACTORS
330
43
102
}
330
43
100
AcDbMaterial
  1
ByBlock
 72
     1
 94
      127
  0
MATERIAL
  5
44
102
{ACAD_REACTORS
330
43
102
}
330
43
100
AcDbMaterial
  1
ByLayer
 72
     1
 94
      127
  0
MATERIAL
  5
46
102
{ACAD_REACTORS
330
43
102
}
330
43
100
AcDbMaterial
  1
Global
 72
     1
 94
      127
  0
MLEADERSTYLE
  5
6C
102
{ACAD_REACTORS
330
6B
102
}
330
6B
100
AcDbMLeaderStyle
179
     2
170
     2
171
     1
172
     0
 90
        2
 40
0.0
 41
0.0
173
     1
 91
-1056964608
340
14
 92
       -2
290
     1
 42
0.09
291
     1
 43
0.36
  3
Standard
341
0
 44
0.18
300

342
11
174
     1
178
     6
175
     1
176
     0
 93
-1056964608
 45
0.18
292
     0
297
     0
 46
0.18
343
0
 94
-1056964608
 47
1.0
 49
1.0
140
1.0
293
     1
141
0.0
294
     1
177
     0
142
1.0
295
     0
296
     0
143
0.125
271
     0
272
     9
273
     9
298
     0
  0
MLINESTYLE
  5
18
102
{ACAD_REACTORS
330
17
102
}
330
17
100
AcDbMlineStyle
  2
Standard
 70
     0
  3

 62
   256
 51
90.0
 52
90.0
 71
     2
 49
0.5
 62
   256
  6
BYLAYER
 49
-0.5
 62
   256
  6
BYLAYER
  0
ACDBPLACEHOLDER
  5
F
102
{ACAD_REACTORS
330
E
102
}
330
E
  0
SCALE
  5
48
102
{ACAD_REACTORS
330
47
102
}
330
47
100
AcDbScale
 70
     0
300
1:1
140
1.0
141
1.0
290
     1
  0
SCALE
  5
49
102
{ACAD_REACTORS
330
47
102
}
330
47
100
AcDbScale
 70
     0
300
1:2
140
1.0
141
2.0
290
     0
  0
SCALE
  5
4A
102
{ACAD_REACTORS
330
47
102
}
330
47
100
AcDbScale
 70
     0
300
1:4
140
1.0
141
4.0
290
     0
  0
SCALE
  5
4B
102
{ACAD_REACTORS
330
47
102
}
330
47
100
AcDbScale
 70
     0
300
1:5
140
1.0
141
5.0
290
     0
  0
SCALE
  5
4C
102
{ACAD_REACTORS
330
47
102
}
330
47
100
AcDbScale
 70
     0
300
1:8
140
1.0
141
8.0
290
     0
  0
SCALE
  5
4D
102
{ACAD_REACTORS
330
47
102
}
330
47
100
AcDbScale
 70
     0
300
1:10
140
1.0
141
10.0
290
     0
  0
SCALE
  5
4E
102
{ACAD_REACTORS
330
47
102
}
330
47
100
AcDbScale
 70
     0
300
1:16
140
1.0
141
16.0
290
     0
  0
SCALE
  5
4F
102
{ACAD_REACTORS
330
47
102
}
330
47
100
AcDbScale
 70
     0
300
1:20
140
1.0
141
20.0
290
     0
  0
SCALE
  5
50
102
{ACAD_REACTORS
330
47
102
}
330
47
100
AcDbScale
 70
     0
300
1:30
140
1.0
141
30.0
290
     0
  0
SCALE
  5
51
102
{ACAD_REACTORS
330
47
102
}
330
47
100
AcDbScale
 70
     0
300
1:40
140
1.0
141
40.0
290
     0
  0
SCALE
  5
52
102
{ACAD_REACTORS
330
47
102
}
330
47
100
AcDbScale
 70
     0
300
1:50
140
1.0
141
50.0
290
     0
  0
SCALE
  5
53
102
{ACAD_REACTORS
330
47
102
}
330
47
100
AcDbScale
 70
     0
300
1:100
140
1.0
141
100.0
290
     0
  0
SCALE
  5
54
102
{ACAD_REACTORS
330
47
102
}
330
47
100
AcDbScale
 70
     0
300
2:1
140
2.0
141
1.0
290
     0
  0
SCALE
  5
55
102
{ACAD_REACTORS
330
47
102
}
330
47
100
AcDbScale
 70
     0
300
4:1
140
4.0
141
1.0
290
     0
  0
SCALE
  5
56
102
{ACAD_REACTORS
330
47
102
}
330
47
100
AcDbScale
 70
     0
300
8:1
140
8.0
141
1.0
290
     0
  0
SCALE
  5
57
102
{ACAD_REACTORS
330
47
102
}
330
47
100
AcDbScale
 70
     0
300
10:1
140
10.0
141
1.0
290
     0
  0
SCALE
  5
58
102
{ACAD_REACTORS
330
47
102
}
330
47
100
AcDbScale
 70
     0
300
100:1
140
100.0
141
1.0
290
     0
  0
SCALE
  5
59
102
{ACAD_REACTORS
330
47
102
}
330
47
100
AcDbScale
 70
     0
300
1/128" = 1'-0"
140
0.0078125
141
12.0
290
     0
  0
SCALE
  5
5A
102
{ACAD_REACTORS
330
47
102
}
330
47
100
AcDbScale
 70
     0
300
1/64" = 1'-0"
140
0.015625
141
12.0
290
     0
  0
SCALE
  5
5B
102
{ACAD_REACTORS
330
47
102
}
330
47
100
AcDbScale
 70
     0
300
1/32" = 1'-0"
140
0.03125
141
12.0
290
     0
  0
SCALE
  5
5C
102
{ACAD_REACTORS
330
47
102
}
330
47
100
AcDbScale
 70
     0
300
1/16" = 1'-0"
140
0.0625
141
12.0
290
     0
  0
SCALE
  5
5D
102
{ACAD_REACTORS
330
47
102
}
330
47
100
AcDbScale
 70
     0
300
3/32" = 1'-0"
140
0.09375
141
12.0
290
     0
  0
SCALE
  5
5E
102
{ACAD_REACTORS
330
47
102
}
330
47
100
AcDbScale
 70
     0
300
1/8" = 1'-0"
140
0.125
141
12.0
290
     0
  0
SCALE
  5
5F
102
{ACAD_REACTORS
330
47
102
}
330
47
100
AcDbScale
 70
     0
300
3/16" = 1'-0"
140
0.1875
141
12.0
290
     0
  0
SCALE
  5
60
102
{ACAD_REACTORS
330
47
102
}
330
47
100
AcDbScale
 70
     0
300
1/4" = 1'-0"
140
0.25
141
12.0
290
     0
  0
SCALE
  5
61
102
{ACAD_REACTORS
330
47
102
}
330
47
100
AcDbScale
 70
     0
300
3/8" = 1'-0"
140
0.375
141
12.0
290
     0
  0
SCALE
  5
62
102
{ACAD_REACTORS
330
47
102
}
330
47
100
AcDbScale
 70
     0
300
1/2" = 1'-0"
140
0.5
141
12.0
290
     0
  0
SCALE
  5
63
102
{ACAD_REACTORS
330
47
102
}
330
47
100
AcDbScale
 70
     0
300
3/4" = 1'-0"
140
0.75
141
12.0
290
     0
  0
SCALE
  5
64
102
{ACAD_REACTORS
330
47
102
}
330
47
100
AcDbScale
 70
     0
300
1" = 1'-0"
140
1.0
141
12.0
290
     0
  0
SCALE
  5
65
102
{ACAD_REACTORS
330
47
102
}
330
47
100
AcDbScale
 70
     0
300
1-1/2" = 1'-0"
140
1.5
141
12.0
290
     0
  0
SCALE
  5
66
102
{ACAD_REACTORS
330
47
102
}
330
47
100
AcDbScale
 70
     0
300
3" = 1'-0"
140
3.0
141
12.0
290
     0
  0
SCALE
  5
67
102
{ACAD_REACTORS
330
47
102
}
330
47
100
AcDbScale
 70
     0
300
6" = 1'-0"
140
6.0
141
12.0
290
     0
  0
SCALE
  5
68
102
{ACAD_REACTORS
330
47
102
}
330
47
100
AcDbScale
 70
     0
300
1'-0" = 1'-0"
140
12.0
141
12.0
290
     0
  0
TABLESTYLE
  5
6A
102
{ACAD_REACTORS
330
69
102
}
102
{ACAD_XDICTIONARY
360
1A0
102
}
330
69
100
AcDbTableStyle
  3
Standard
 70
     0
 71
     0
 40
0.06
 41
0.06
280
     0
281
     0
  7
Standard
140
0.18
170
     2
 62
     0
 63
   257
283
     0
 90
        4
 91
        0
  1

274
    -2
284
     1
 64
     0
275
    -2
285
     1
 65
     0
276
    -2
286
     1
 66
     0
277
    -2
287
     1
 67
     0
278
    -2
288
     1
 68
     0
279
    -2
289
     1
 69
     0
  7
Standard
140
0.25
170
     5
 62
     0
 63
   257
283
     0
 90
        4
 91
        0
  1

274
    -2
284
     1
 64
     0
275
    -2
285
     1
 65
     0
276
    -2
286
     1
 66
     0
277
    -2
287
     1
 67
     0
278
    -2
288
     1
 68
     0
279
    -2
289
     1
 69
     0
  7
Standard
140
0.18
170
     5
 62
     0
 63
   257
283
     0
 90
        4
 91
        0
  1

274
    -2
284
     1
 64
     0
275
    -2
285
     1
 65
     0
276
    -2
286
     1
 66
     0
277
    -2
287
     1
 67
     0
278
    -2
288
     1
 68
     0
279
    -2
289
     1
 69
     0
  0
VISUALSTYLE
  5
2F
102
{ACAD_REACTORS
330
2A
102
}
330
2A
100
AcDbVisualStyle
  2
2dWireframe
 70
     4
177
     3
291
     0
 70
    58
 90
        0
176
     1
 90
        2
176
     1
 90
        0
176
     1
 90
        0
176
     1
 40
0.6
176
     1
 40
30.0
176
     1
 62
     7
420
 16777215
176
     1
 90
        1
176
     1
 90
        4
176
     1
 62
     7
176
     1
 62
   257
176
     1
 90
        1
176
     1
 90
        1
176
     1
 40
1.0
176
     1
 90
        0
176
     1
 62
   257
176
     1
 40
1.0
176
     1
 90
        1
176
     1
 90
        6
176
     1
 90
        2
176
     1
 62
     7
176
     1
 90
        5
176
     1
 90
        0
176
     1
 90
        0
176
     1
290
     0
176
     1
 90
        1
176
     1
 40
0.0
176
     1
 90
        0
176
     1
290
     1
176
     1
290
     1
176
     1
290
     0
176
     1
290
     0
176
     1
290
     0
176
     1
290
     0
176
     1
290
     0
176
     1
290
     0
176
     1
290
     0
176
     1
 90
       50
176
     1
 40
0.0
176
     1
 40
1.0
176
     1
 90
        0
176
     1
 62
    18
420
        0
176
     1
 90
       50
176
     1
 90
        3
176
     1
 62
     5
420
      255
176
     1
290
     0
176
     1
 90
       50
176
     1
 90
       50
176
     1
 90
       50
176
     1
290
     0
176
     1
 90
       50
176
     1
 62
   256
176
     0
 40
1.0
176
     0
 90
        2
176
     1
  1
strokes_ogs.tif
176
     1
290
     0
176
     1
 40
1.0
176
     1
 40
1.0
176
     1
  0
VISUALSTYLE
  5
32
102
{ACAD_REACTORS
330
2A
102
}
330
2A
100
AcDbVisualStyle
  2
Basic
 70
     7
177
     3
291
     1
 70
    58
 90
        1
176
     1
 90
        0
176
     1
 90
        1
176
     1
 90
        0
176
     1
 40
0.6
176
     1
 40
30.0
176
     1
 62
     7
420
 16777215
176
     1
 90
        0
176
     1
 90
        4
176
     1
 62
     7
176
     1
 62
   257
176
     1
 90
        1
176
     1
 90
        1
176
     1
 40
1.0
176
     1
 90
        8
176
     1
 62
     7
176
     1
 40
1.0
176
     1
 90
        1
176
     1
 90
        6
176
     1
 90
        2
176
     1
 62
     7
176
     1
 90
        5
176
     1
 90
        0
176
     1
 90
        0
176
     1
290
     0
176
     1
 90
        1
176
     1
 40
0.0
176
     1
 90
        0
176
     1
290
     0
176
     1
290
     1
176
     1
290
     1
176
     1
290
     0
176
     1
290
     0
176
     1
290
     0
176
     1
290
     0
176
     1
290
     0
176
     1
290
     0
176
     1
 90
       50
176
     1
 40
0.0
176
     1
 40
1.0
176
     1
 90
        0
176
     1
 62
    18
420
        0
176
     1
 90
       50
176
     1
 90
        3
176
     1
 62
     5
420
      255
176
     1
290
     0
176
     1
 90
       50
176
     1
 90
       50
176
     1
 90
       50
176
     1
290
     0
176
     1
 90
       50
176
     1
 62
   256
176
     0
 40
1.0
176
     0
 90
        2
176
     1
  1
strokes_ogs.tif
176
     1
290
     0
176
     1
 40
1.0
176
     1
 40
1.0
176
     1
  0
VISUALSTYLE
  5
36
102
{ACAD_REACTORS
330
2A
102
}
330
2A
100
AcDbVisualStyle
  2
Brighten
 70
    12
177
     3
291
     1
 70
    58
 90
        2
176
     1
 90
        2
176
     1
 90
        0
176
     1
 90
        0
176
     1
 40
0.6
176
     1
 40
30.0
176
     1
 62
     7
420
 16777215
176
     1
 90
        1
176
     1
 90
        4
176
     1
 62
     7
176
     1
 62
   257
176
     1
 90
        1
176
     1
 90
        1
176
     1
 40
1.0
176
     1
 90
        8
176
     1
 62
     7
176
     1
 40
1.0
176
     1
 90
        1
176
     1
 90
        6
176
     1
 90
        2
176
     1
 62
     7
176
     1
 90
        5
176
     1
 90
        0
176
     1
 90
        0
176
     1
290
     0
176
     1
 90
        1
176
     1
 40
50.0
176
     1
 90
        0
176
     1
290
     0
176
     1
290
     1
176
     1
290
     1
176
     1
290
     0
176
     1
290
     0
176
     1
290
     0
176
     1
290
     0
176
     1
290
     0
176
     1
290
     0
176
     1
 90
       50
176
     1
 40
0.0
176
     1
 40
1.0
176
     1
 90
        0
176
     1
 62
    18
420
        0
176
     1
 90
       50
176
     1
 90
        3
176
     1
 62
     5
420
      255
176
     1
290
     0
176
     1
 90
       50
176
     1
 90
       50
176
     1
 90
       50
176
     1
290
     0
176
     1
 90
       50
176
     1
 62
   256
176
     0
 40
1.0
176
     0
 90
        2
176
     1
  1
strokes_ogs.tif
176
     1
290
     0
176
     1
 40
1.0
176
     1
 40
1.0
176
     1
  0
VISUALSTYLE
  5
3A
102
{ACAD_REACTORS
330
2A
102
}
330
2A
100
AcDbVisualStyle
  2
ColorChange
 70
    16
177
     3
291
     1
 70
    58
 90
        2
176
     1
 90
        2
176
     1
 90
        3
176
     1
 90
        0
176
     1
 40
0.6
176
     1
 40
30.0
176
     1
 62
     8
420
  8421504
176
     1
 90
        1
176
     1
 90
        4
176
     1
 62
     7
176
     1
 62
   257
176
     1
 90
        1
176
     1
 90
        1
176
     1
 40
1.0
176
     1
 90
        8
176
     1
 62
     8
420
  8421504
176
     1
 40
1.0
176
     1
 90
        1
176
     1
 90
        6
176
     1
 90
        2
176
     1
 62
     7
176
     1
 90
        5
176
     1
 90
        0
176
     1
 90
        0
176
     1
290
     0
176
     1
 90
        1
176
     1
 40
0.0
176
     1
 90
        0
176
     1
290
     0
176
     1
290
     1
176
     1
290
     1
176
     1
290
     0
176
     1
290
     0
176
     1
290
     0
176
     1
290
     0
176
     1
290
     0
176
     1
290
     0
176
     1
 90
       50
176
     1
 40
0.0
176
     1
 40
1.0
176
     1
 90
        0
176
     1
 62
    18
420
        0
176
     1
 90
       50
176
     1
 90
        3
176
     1
 62
     5
420
      255
176
     1
290
     0
176
     1
 90
       50
176
     1
 90
       50
176
     1
 90
       50
176
     1
290
     0
176
     1
 90
       50
176
     1
 62
   256
176
     0
 40
1.0
176
     0
 90
        2
176
     1
  1
strokes_ogs.tif
176
     1
290
     0
176
     1
 40
1.0
176
     1
 40
1.0
176
     1
  0
VISUALSTYLE
  5
34
102
{ACAD_REACTORS
330
2A
102
}
330
2A
100
AcDbVisualStyle
  2
Conceptual
 70
     9
177
     3
291
     0
 70
    58
 90
        3
176
     1
 90
        2
176
     1
 90
        0
176
     1
 90
        0
176
     1
 40
0.6
176
     1
 40
30.0
176
     1
 62
     7
420
 16777215
176
     1
 90
        2
176
     1
 90
        2
176
     1
 62
     7
176
     1
 62
   257
176
     1
 90
        1
176
     1
 90
        1
176
     1
 40
179.0
176
     1
 90
        8
176
     1
 62
     7
176
     1
 40
1.0
176
     1
 90
        1
176
     1
 90
        6
176
     1
 90
        2
176
     1
 62
     7
176
     1
 90
        3
176
     1
 90
        0
176
     1
 90
        0
176
     1
290
     0
176
     1
 90
        1
176
     1
 40
0.0
176
     1
 90
        0
176
     1
290
     0
176
     1
290
     1
176
     1
290
     1
176
     1
290
     0
176
     1
290
     0
176
     1
290
     0
176
     1
290
     0
176
     1
290
     0
176
     1
290
     0
176
     1
 90
       50
176
     1
 40
0.0
176
     1
 40
1.0
176
     1
 90
        0
176
     1
 62
    18
420
        0
176
     1
 90
       50
176
     1
 90
        3
176
     1
 62
     5
420
      255
176
     1
290
     0
176
     1
 90
       50
176
     1
 90
       50
176
     1
 90
       50
176
     1
290
     0
176
     1
 90
       50
176
     1
 62
   256
176
     0
 40
1.0
176
     0
 90
        2
176
     1
  1
strokes_ogs.tif
176
     1
290
     0
176
     1
 40
1.0
176
     1
 40
1.0
176
     1
  0
VISUALSTYLE
  5
35
102
{ACAD_REACTORS
330
2A
102
}
330
2A
100
AcDbVisualStyle
  2
Dim
 70
    11
177
     3
291
     1
 70
    58
 90
        2
176
     1
 90
        2
176
     1
 90
        0
176
     1
 90
        0
176
     1
 40
0.6
176
     1
 40
30.0
176
     1
 62
     7
420
 16777215
176
     1
 90
        1
176
     1
 90
        4
176
     1
 62
     7
176
     1
 62
   257
176
     1
 90
        1
176
     1
 90
        1
176
     1
 40
1.0
176
     1
 90
        8
176
     1
 62
     7
176
     1
 40
1.0
176
     1
 90
        1
176
     1
 90
        6
176
     1
 90
        2
176
     1
 62
     7
176
     1
 90
        5
176
     1
 90
        0
176
     1
 90
        0
176
     1
290
     0
176
     1
 90
        1
176
     1
 40
-50.0
176
     1
 90
        0
176
     1
290
     0
176
     1
290
     1
176
     1
290
     1
176
     1
290
     0
176
     1
290
     0
176
     1
290
     0
176
     1
290
     0
176
     1
290
     0
176
     1
290
     0
176
     1
 90
       50
176
     1
 40
0.0
176
     1
 40
1.0
176
     1
 90
        0
176
     1
 62
    18
420
        0
176
     1
 90
       50
176
     1
 90
        3
176
     1
 62
     5
420
      255
176
     1
290
     0
176
     1
 90
       50
176
     1
 90
       50
176
     1
 90
       50
176
     1
290
     0
176
     1
 90
       50
176
     1
 62
   256
176
     0
 40
1.0
176
     0
 90
        2
176
     1
  1
strokes_ogs.tif
176
     1
290
     0
176
     1
 40
1.0
176
     1
 40
1.0
176
     1
  0
VISUALSTYLE
  5
3D
102
{ACAD_REACTORS
330
2A
102
}
330
2A
100
AcDbVisualStyle
  2
EdgeColorOff
 70
    22
177
     3
291
     1
 70
    58
 90
        2
176
     0
 90
        2
176
     0
 90
        0
176
     0
 90
        0
176
     0
 40
0.6
176
     0
 40
30.0
176
     0
 62
     7
420
 16777215
176
     0
 90
        1
176
     0
 90
        4
176
     0
 62
     7
176
     0
 62
   257
176
     0
 90
        1
176
     0
 90
        1
176
     0
 40
1.0
176
     0
 90
        8
176
     2
 62
     7
176
     0
 40
1.0
176
     0
 90
        1
176
     0
 90
        6
176
     0
 90
        2
176
     0
 62
     7
176
     0
 90
        5
176
     0
 90
        0
176
     0
 90
        0
176
     0
290
     0
176
     0
 90
        1
176
     0
 40
0.0
176
     0
 90
        0
176
     0
290
     0
176
     0
290
     1
176
     0
290
     1
176
     0
290
     0
176
     0
290
     0
176
     0
290
     0
176
     0
290
     0
176
     0
290
     0
176
     0
290
     0
176
     0
 90
       50
176
     0
 40
0.0
176
     0
 40
1.0
176
     0
 90
        0
176
     0
 62
    18
420
        0
176
     0
 90
       50
176
     0
 90
        3
176
     0
 62
     5
420
      255
176
     0
290
     0
176
     0
 90
       50
176
     0
 90
       50
176
     0
 90
       50
176
     0
290
     0
176
     0
 90
       50
176
     0
 62
   256
176
     0
 40
1.0
176
     0
 90
        2
176
     0
  1
strokes_ogs.tif
176
     0
290
     0
176
     0
 40
1.0
176
     0
 40
1.0
176
     0
  0
VISUALSTYLE
  5
39
102
{ACAD_REACTORS
330
2A
102
}
330
2A
100
AcDbVisualStyle
  2
Facepattern
 70
    15
177
     3
291
     1
 70
    58
 90
        2
176
     1
 90
        2
176
     1
 90
        0
176
     1
 90
        0
176
     1
 40
0.6
176
     1
 40
30.0
176
     1
 62
     7
420
 16777215
176
     1
 90
        1
176
     1
 90
        4
176
     1
 62
     7
176
     1
 62
   257
176
     1
 90
        1
176
     1
 90
        1
176
     1
 40
1.0
176
     1
 90
        8
176
     1
 62
     7
176
     1
 40
1.0
176
     1
 90
        1
176
     1
 90
        6
176
     1
 90
        2
176
     1
 62
     7
176
     1
 90
        5
176
     1
 90
        0
176
     1
 90
        0
176
     1
290
     0
176
     1
 90
        1
176
     1
 40
0.0
176
     1
 90
        0
176
     1
290
     0
176
     1
290
     1
176
     1
290
     1
176
     1
290
     0
176
     1
290
     0
176
     1
290
     0
176
     1
290
     0
176
     1
290
     0
176
     1
290
     0
176
     1
 90
       50
176
     1
 40
0.0
176
     1
 40
1.0
176
     1
 90
        0
176
     1
 62
    18
420
        0
176
     1
 90
       50
176
     1
 90
        3
176
     1
 62
     5
420
      255
176
     1
290
     0
176
     1
 90
       50
176
     1
 90
       50
176
     1
 90
       50
176
     1
290
     0
176
     1
 90
       50
176
     1
 62
   256
176
     0
 40
1.0
176
     0
 90
        2
176
     1
  1
strokes_ogs.tif
176
     1
290
     0
176
     1
 40
1.0
176
     1
 40
1.0
176
     1
  0
VISUALSTYLE
  5
2B
102
{ACAD_REACTORS
330
2A
102
}
330
2A
100
AcDbVisualStyle
  2
Flat
 70
     0
177
     3
291
     1
 70
    58
 90
        2
176
     1
 90
        1
176
     1
 90
        1
176
     1
 90
        2
176
     1
 40
0.6
176
     1
 40
30.0
176
     1
 62
     7
420
 16777215
176
     1
 90
        0
176
     1
 90
        0
176
     1
 62
     7
176
     1
 62
   257
176
     1
 90
        1
176
     1
 90
        1
176
     1
 40
1.0
176
     1
 90
        8
176
     1
 62
     7
176
     1
 40
1.0
176
     1
 90
        1
176
     1
 90
        6
176
     1
 90
        2
176
     1
 62
     7
176
     1
 90
        5
176
     1
 90
        0
176
     1
 90
        0
176
     1
290
     0
176
     1
 90
       13
176
     1
 40
0.0
176
     1
 90
        0
176
     1
290
     0
176
     1
290
     1
176
     1
290
     1
176
     1
290
     0
176
     1
290
     0
176
     1
290
     0
176
     1
290
     0
176
     1
290
     0
176
     1
290
     0
176
     1
 90
       50
176
     1
 40
0.0
176
     1
 40
1.0
176
     1
 90
        0
176
     1
 62
    18
420
        0
176
     1
 90
       50
176
     1
 90
        3
176
     1
 62
     5
420
      255
176
     1
290
     0
176
     1
 90
       50
176
     1
 90
       50
176
     1
 90
       50
176
     1
290
     0
176
     1
 90
       50
176
     1
 62
   256
176
     0
 40
1.0
176
     0
 90
        2
176
     1
  1
strokes_ogs.tif
176
     1
290
     0
176
     1
 40
1.0
176
     1
 40
1.0
176
     1
  0
VISUALSTYLE
  5
2C
102
{ACAD_REACTORS
330
2A
102
}
330
2A
100
AcDbVisualStyle
  2
FlatWithEdges
 70
     1
177
     3
291
     1
 70
    58
 90
        2
176
     1
 90
        1
176
     1
 90
        1
176
     1
 90
        2
176
     1
 40
0.6
176
     1
 40
30.0
176
     1
 62
     7
420
 16777215
176
     1
 90
        1
176
     1
 90
        0
176
     1
 62
     7
176
     1
 62
   257
176
     1
 90
        1
176
     1
 90
        1
176
     1
 40
1.0
176
     1
 90
        0
176
     1
 62
   257
176
     1
 40
1.0
176
     1
 90
        1
176
     1
 90
        6
176
     1
 90
        2
176
     1
 62
     7
176
     1
 90
        5
176
     1
 90
        0
176
     1
 90
        0
176
     1
290
     0
176
     1
 90
       13
176
     1
 40
0.0
176
     1
 90
        0
176
     1
290
     0
176
     1
290
     1
176
     1
290
     1
176
     1
290
     0
176
     1
290
     0
176
     1
290
     0
176
     1
290
     0
176
     1
290
     0
176
     1
290
     0
176
     1
 90
       50
176
     1
 40
0.0
176
     1
 40
1.0
176
     1
 90
        0
176
     1
 62
    18
420
        0
176
     1
 90
       50
176
     1
 90
        3
176
     1
 62
     5
420
      255
176
     1
290
     0
176
     1
 90
       50
176
     1
 90
       50
176
     1
 90
       50
176
     1
290
     0
176
     1
 90
       50
176
     1
 62
   256
176
     0
 40
1.0
176
     0
 90
        2
176
     1
  1
strokes_ogs.tif
176
     1
290
     0
176
     1
 40
1.0
176
     1
 40
1.0
176
     1
  0
VISUALSTYLE
  5
2D
102
{ACAD_REACTORS
330
2A
102
}
330
2A
100
AcDbVisualStyle
  2
Gouraud
 70
     2
177
     3
291
     1
 70
    58
 90
        2
176
     1
 90
        2
176
     1
 90
        1
176
     1
 90
        2
176
     1
 40
0.6
176
     1
 40
30.0
176
     1
 62
     7
420
 16777215
176
     1
 90
        0
176
     1
 90
        0
176
     1
 62
     7
176
     1
 62
   257
176
     1
 90
        1
176
     1
 90
        1
176
     1
 40
1.0
176
     1
 90
        0
176
     1
 62
     7
176
     1
 40
1.0
176
     1
 90
        1
176
     1
 90
        6
176
     1
 90
        2
176
     1
 62
     7
176
     1
 90
        5
176
     1
 90
        0
176
     1
 90
        0
176
     1
290
     0
176
     1
 90
       13
176
     1
 40
0.0
176
     1
 90
        0
176
     1
290
     0
176
     1
290
     1
176
     1
290
     1
176
     1
290
     0
176
     1
290
     0
176
     1
290
     0
176
     1
290
     0
176
     1
290
     0
176
     1
290
     0
176
     1
 90
       50
176
     1
 40
0.0
176
     1
 40
1.0
176
     1
 90
        0
176
     1
 62
    18
420
        0
176
     1
 90
       50
176
     1
 90
        3
176
     1
 62
     5
420
      255
176
     1
290
     0
176
     1
 90
       50
176
     1
 90
       50
176
     1
 90
       50
176
     1
290
     0
176
     1
 90
       50
176
     1
 62
   256
176
     0
 40
1.0
176
     0
 90
        2
176
     1
  1
strokes_ogs.tif
176
     1
290
     0
176
     1
 40
1.0
176
     1
 40
1.0
176
     1
  0
VISUALSTYLE
  5
2E
102
{ACAD_REACTORS
330
2A
102
}
330
2A
100
AcDbVisualStyle
  2
GouraudWithEdges
 70
     3
177
     3
291
     1
 70
    58
 90
        2
176
     1
 90
        2
176
     1
 90
        1
176
     1
 90
        2
176
     1
 40
0.6
176
     1
 40
30.0
176
     1
 62
     7
420
 16777215
176
     1
 90
        1
176
     1
 90
        0
176
     1
 62
     7
176
     1
 62
   257
176
     1
 90
        1
176
     1
 90
        1
176
     1
 40
1.0
176
     1
 90
        0
176
     1
 62
   257
176
     1
 40
1.0
176
     1
 90
        1
176
     1
 90
        6
176
     1
 90
        2
176
     1
 62
     7
176
     1
 90
        5
176
     1
 90
        0
176
     1
 90
        0
176
     1
290
     0
176
     1
 90
       13
176
     1
 40
0.0
176
     1
 90
        0
176
     1
290
     0
176
     1
290
     1
176
     1
290
     1
176
     1
290
     0
176
     1
290
     0
176
     1
290
     0
176
     1
290
     0
176
     1
290
     0
176
     1
290
     0
176
     1
 90
       50
176
     1
 40
0.0
176
     1
 40
1.0
176
     1
 90
        0
176
     1
 62
    18
420
        0
176
     1
 90
       50
176
     1
 90
        3
176
     1
 62
     5
420
      255
176
     1
290
     0
176
     1
 90
       50
176
     1
 90
       50
176
     1
 90
       50
176
     1
290
     0
176
     1
 90
       50
176
     1
 62
   256
176
     0
 40
1.0
176
     0
 90
        2
176
     1
  1
strokes_ogs.tif
176
     1
290
     0
176
     1
 40
1.0
176
     1
 40
1.0
176
     1
  0
VISUALSTYLE
  5
31
102
{ACAD_REACTORS
330
2A
102
}
330
2A
100
AcDbVisualStyle
  2
Hidden
 70
     6
177
     3
291
     0
 70
    58
 90
        1
176
     1
 90
        2
176
     1
 90
        2
176
     1
 90
        0
176
     1
 40
0.6
176
     1
 40
30.0
176
     1
 62
     7
420
 16777215
176
     1
 90
        2
176
     1
 90
        2
176
     1
 62
     7
176
     1
 62
   257
176
     1
 90
        2
176
     1
 90
        1
176
     1
 40
40.0
176
     1
 90
        0
176
     1
 62
   257
176
     1
 40
1.0
176
     1
 90
        1
176
     1
 90
        6
176
     1
 90
        2
176
     1
 62
     7
176
     1
 90
        3
176
     1
 90
        0
176
     1
 90
        0
176
     1
290
     0
176
     1
 90
        1
176
     1
 40
0.0
176
     1
 90
        0
176
     1
290
     0
176
     1
290
     1
176
     1
290
     1
176
     1
290
     0
176
     1
290
     0
176
     1
290
     0
176
     1
290
     0
176
     1
290
     0
176
     1
290
     0
176
     1
 90
       50
176
     1
 40
0.0
176
     1
 40
1.0
176
     1
 90
        0
176
     1
 62
    18
420
        0
176
     1
 90
       50
176
     1
 90
        3
176
     1
 62
     5
420
      255
176
     1
290
     0
176
     1
 90
       50
176
     1
 90
       50
176
     1
 90
       50
176
     1
290
     0
176
     1
 90
       50
176
     1
 62
   256
176
     0
 40
1.0
176
     0
 90
        2
176
     1
  1
strokes_ogs.tif
176
     1
290
     0
176
     1
 40
1.0
176
     1
 40
1.0
176
     1
  0
VISUALSTYLE
  5
3B
102
{ACAD_REACTORS
330
2A
102
}
330
2A
100
AcDbVisualStyle
  2
JitterOff
 70
    20
177
     3
291
     1
 70
    58
 90
        2
176
     0
 90
        2
176
     0
 90
        0
176
     0
 90
        0
176
     0
 40
0.6
176
     0
 40
30.0
176
     0
 62
     7
420
 16777215
176
     0
 90
        1
176
     0
 90
        4
176
     0
 62
     7
176
     0
 62
   257
176
     0
 90
        1
176
     0
 90
        1
176
     0
 40
1.0
176
     0
 90
       10
176
     2
 62
     7
176
     0
 40
1.0
176
     0
 90
        1
176
     0
 90
        6
176
     0
 90
        2
176
     0
 62
     7
176
     0
 90
        5
176
     0
 90
        0
176
     0
 90
        0
176
     0
290
     0
176
     0
 90
        1
176
     0
 40
0.0
176
     0
 90
        0
176
     0
290
     0
176
     0
290
     1
176
     0
290
     1
176
     0
290
     0
176
     0
290
     0
176
     0
290
     0
176
     0
290
     0
176
     0
290
     0
176
     0
290
     0
176
     0
 90
       50
176
     0
 40
0.0
176
     0
 40
1.0
176
     0
 90
        0
176
     0
 62
    18
420
        0
176
     0
 90
       50
176
     0
 90
        3
176
     0
 62
     5
420
      255
176
     0
290
     0
176
     0
 90
       50
176
     0
 90
       50
176
     0
 90
       50
176
     0
290
     0
176
     0
 90
       50
176
     0
 62
   256
176
     0
 40
1.0
176
     0
 90
        2
176
     0
  1
strokes_ogs.tif
176
     0
290
     0
176
     0
 40
1.0
176
     0
 40
1.0
176
     0
  0
VISUALSTYLE
  5
38
102
{ACAD_REACTORS
330
2A
102
}
330
2A
100
AcDbVisualStyle
  2
Linepattern
 70
    14
177
     3
291
     1
 70
    58
 90
        2
176
     1
 90
        2
176
     1
 90
        0
176
     1
 90
        0
176
     1
 40
0.6
176
     1
 40
30.0
176
     1
 62
     7
420
 16777215
176
     1
 90
        1
176
     1
 90
        4
176
     1
 62
     7
176
     1
 62
   257
176
     1
 90
        7
176
     1
 90
        7
176
     1
 40
1.0
176
     1
 90
        8
176
     1
 62
     7
176
     1
 40
1.0
176
     1
 90
        1
176
     1
 90
        6
176
     1
 90
        2
176
     1
 62
     7
176
     1
 90
        5
176
     1
 90
        0
176
     1
 90
        0
176
     1
290
     0
176
     1
 90
        1
176
     1
 40
0.0
176
     1
 90
        0
176
     1
290
     0
176
     1
290
     1
176
     1
290
     1
176
     1
290
     0
176
     1
290
     0
176
     1
290
     0
176
     1
290
     0
176
     1
290
     0
176
     1
290
     0
176
     1
 90
       50
176
     1
 40
0.0
176
     1
 40
1.0
176
     1
 90
        0
176
     1
 62
    18
420
        0
176
     1
 90
       50
176
     1
 90
        3
176
     1
 62
     5
420
      255
176
     1
290
     0
176
     1
 90
       50
176
     1
 90
       50
176
     1
 90
       50
176
     1
290
     0
176
     1
 90
       50
176
     1
 62
   256
176
     0
 40
1.0
176
     0
 90
        2
176
     1
  1
strokes_ogs.tif
176
     1
290
     0
176
     1
 40
1.0
176
     1
 40
1.0
176
     1
  0
VISUALSTYLE
  5
3C
102
{ACAD_REACTORS
330
2A
102
}
330
2A
100
AcDbVisualStyle
  2
OverhangOff
 70
    21
177
     3
291
     1
 70
    58
 90
        2
176
     0
 90
        2
176
     0
 90
        0
176
     0
 90
        0
176
     0
 40
0.6
176
     0
 40
30.0
176
     0
 62
     7
420
 16777215
176
     0
 90
        1
176
     0
 90
        4
176
     0
 62
     7
176
     0
 62
   257
176
     0
 90
        1
176
     0
 90
        1
176
     0
 40
1.0
176
     0
 90
        9
176
     2
 62
     7
176
     0
 40
1.0
176
     0
 90
        1
176
     0
 90
        6
176
     0
 90
        2
176
     0
 62
     7
176
     0
 90
        5
176
     0
 90
        0
176
     0
 90
        0
176
     0
290
     0
176
     0
 90
        1
176
     0
 40
0.0
176
     0
 90
        0
176
     0
290
     0
176
     0
290
     1
176
     0
290
     1
176
     0
290
     0
176
     0
290
     0
176
     0
290
     0
176
     0
290
     0
176
     0
290
     0
176
     0
290
     0
176
     0
 90
       50
176
     0
 40
0.0
176
     0
 40
1.0
176
     0
 90
        0
176
     0
 62
    18
420
        0
176
     0
 90
       50
176
     0
 90
        3
176
     0
 62
     5
420
      255
176
     0
290
     0
176
     0
 90
       50
176
     0
 90
       50
176
     0
 90
       50
176
     0
290
     0
176
     0
 90
       50
176
     0
 62
   256
176
     0
 40
1.0
176
     0
 90
        2
176
     0
  1
strokes_ogs.tif
176
     0
290
     0
176
     0
 40
1.0
176
     0
 40
1.0
176
     0
  0
VISUALSTYLE
  5
33
102
{ACAD_REACTORS
330
2A
102
}
330
2A
100
AcDbVisualStyle
  2
Realistic
 70
     8
177
     3
291
     0
 70
    58
 90
        2
176
     1
 90
        3
176
     1
 90
        0
176
     1
 90
        2
176
     1
 40
0.6
176
     1
 40
30.0
176
     1
 62
     7
420
 16777215
176
     1
 90
        0
176
     1
 90
        0
176
     1
 62
     7
176
     1
 62
   257
176
     1
 90
        1
176
     1
 90
        1
176
     1
 40
1.0
176
     1
 90
        8
176
     1
 62
   257
176
     1
 40
1.0
176
     1
 90
        1
176
     1
 90
        6
176
     1
 90
        2
176
     1
 62
     7
176
     1
 90
        3
176
     1
 90
        0
176
     1
 90
        0
176
     1
290
     0
176
     1
 90
       13
176
     1
 40
0.0
176
     1
 90
        0
176
     1
290
     0
176
     1
290
     1
176
     1
290
     1
176
     1
290
     0
176
     1
290
     0
176
     1
290
     0
176
     1
290
     0
176
     1
290
     0
176
     1
290
     0
176
     1
 90
       50
176
     1
 40
0.0
176
     1
 40
1.0
176
     1
 90
        0
176
     1
 62
    18
420
        0
176
     1
 90
       50
176
     1
 90
        3
176
     1
 62
     5
420
      255
176
     1
290
     0
176
     1
 90
       50
176
     1
 90
       50
176
     1
 90
       50
176
     1
290
     0
176
     1
 90
       50
176
     1
 62
   256
176
     0
 40
1.0
176
     0
 90
        2
176
     1
  1
strokes_ogs.tif
176
     1
290
     0
176
     1
 40
1.0
176
     1
 40
1.0
176
     1
  0
VISUALSTYLE
  5
42
102
{ACAD_REACTORS
330
2A
102
}
330
2A
100
AcDbVisualStyle
  2
Shaded
 70
    27
177
     3
291
     0
 70
    58
 90
        2
176
     1
 90
        2
176
     1
 90
        1
176
     1
 90
        2
176
     1
 40
0.6
176
     1
 40
30.0
176
     1
 62
     7
420
 16777215
176
     1
 90
        0
176
     1
 90
        4
176
     1
 62
     7
176
     1
 62
   257
176
     1
 90
        1
176
     1
 90
        1
176
     1
 40
1.0
176
     1
 90
        8
176
     1
 62
   257
176
     1
 40
1.0
176
     1
 90
        1
176
     1
 90
        6
176
     1
 90
        2
176
     1
 62
     8
420
  7895160
176
     1
 90
        3
176
     1
 90
        0
176
     1
 90
        0
176
     1
290
     0
176
     1
 90
        5
176
     1
 40
0.0
176
     1
 90
        0
176
     1
290
     0
176
     1
290
     1
176
     1
290
     1
176
     1
290
     0
176
     1
290
     0
176
     1
290
     0
176
     1
290
     0
176
     1
290
     0
176
     1
290
     0
176
     1
 90
       50
176
     1
 40
0.0
176
     1
 40
1.0
176
     1
 90
        0
176
     1
 62
    18
420
        0
176
     1
 90
       50
176
     1
 90
        3
176
     1
 62
     5
420
      255
176
     1
290
     0
176
     1
 90
       50
176
     1
 90
       50
176
     1
 90
       50
176
     1
290
     0
176
     1
 90
       50
176
     1
 62
   256
176
     0
 40
1.0
176
     0
 90
        2
176
     1
  1
strokes_ogs.tif
176
     1
290
     0
176
     1
 40
1.0
176
     1
 40
1.0
176
     1
  0
VISUALSTYLE
  5
41
102
{ACAD_REACTORS
330
2A
102
}
330
2A
100
AcDbVisualStyle
  2
Shaded with edges
 70
    26
177
     3
291
     0
 70
    58
 90
        2
176
     1
 90
        2
176
     1
 90
        1
176
     1
 90
        2
176
     1
 40
0.6
176
     1
 40
30.0
176
     1
 62
     7
420
 16777215
176
     1
 90
        1
176
     1
 90
       10
176
     1
 62
     7
176
     1
 62
   257
176
     1
 90
        2
176
     1
 90
        1
176
     1
 40
1.0
176
     1
 90
        8
176
     1
 62
   257
176
     1
 40
1.0
176
     1
 90
        1
176
     1
 90
        6
176
     1
 90
        2
176
     1
 62
     7
176
     1
 90
        3
176
     1
 90
        0
176
     1
 90
        0
176
     1
290
     0
176
     1
 90
        5
176
     1
 40
0.0
176
     1
 90
        0
176
     1
290
     0
176
     1
290
     1
176
     1
290
     1
176
     1
290
     0
176
     1
290
     0
176
     1
290
     0
176
     1
290
     0
176
     1
290
     0
176
     1
290
     0
176
     1
 90
       50
176
     1
 40
0.0
176
     1
 40
1.0
176
     1
 90
        0
176
     1
 62
    18
420
        0
176
     1
 90
       50
176
     1
 90
        3
176
     1
 62
     5
420
      255
176
     1
290
     0
176
     1
 90
       50
176
     1
 90
       50
176
     1
 90
       50
176
     1
290
     0
176
     1
 90
       50
176
     1
 62
   256
176
     0
 40
1.0
176
     0
 90
        2
176
     1
  1
strokes_ogs.tif
176
     1
290
     0
176
     1
 40
1.0
176
     1
 40
1.0
176
     1
  0
VISUALSTYLE
  5
3E
102
{ACAD_REACTORS
330
2A
102
}
330
2A
100
AcDbVisualStyle
  2
Shades of Gray
 70
    23
177
     3
291
     0
 70
    58
 90
        2
176
     1
 90
        2
176
     1
 90
        3
176
     1
 90
        0
176
     1
 40
0.6
176
     1
 40
30.0
176
     1
 62
     7
420
 16777215
176
     1
 90
        2
176
     1
 90
        2
176
     1
 62
     7
176
     1
 62
     7
176
     1
 90
        1
176
     1
 90
        1
176
     1
 40
40.0
176
     1
 90
        8
176
     1
 62
     7
176
     1
 40
1.0
176
     1
 90
        1
176
     1
 90
        6
176
     1
 90
        2
176
     1
 62
     7
176
     1
 90
        3
176
     1
 90
        0
176
     1
 90
        0
176
     1
290
     0
176
     1
 90
        1
176
     1
 40
0.0
176
     1
 90
        0
176
     1
290
     0
176
     1
290
     1
176
     1
290
     1
176
     1
290
     0
176
     1
290
     0
176
     1
290
     0
176
     1
290
     0
176
     1
290
     0
176
     1
290
     0
176
     1
 90
       50
176
     1
 40
0.0
176
     1
 40
1.0
176
     1
 90
        0
176
     1
 62
    18
420
        0
176
     1
 90
       50
176
     1
 90
        3
176
     1
 62
     5
420
      255
176
     1
290
     0
176
     1
 90
       50
176
     1
 90
       50
176
     1
 90
       50
176
     1
290
     0
176
     1
 90
       50
176
     1
 62
   256
176
     0
 40
1.0
176
     0
 90
        2
176
     1
  1
strokes_ogs.tif
176
     1
290
     0
176
     1
 40
1.0
176
     1
 40
1.0
176
     1
  0
VISUALSTYLE
  5
3F
102
{ACAD_REACTORS
330
2A
102
}
330
2A
100
AcDbVisualStyle
  2
Sketchy
 70
    24
177
     3
291
     0
 70
    58
 90
        1
176
     1
 90
        2
176
     1
 90
        2
176
     1
 90
        0
176
     1
 40
0.6
176
     1
 40
30.0
176
     1
 62
     7
420
 16777215
176
     1
 90
        2
176
     1
 90
        2
176
     1
 62
     7
176
     1
 62
     7
176
     1
 90
        1
176
     1
 90
        1
176
     1
 40
40.0
176
     1
 90
       11
176
     1
 62
     7
176
     1
 40
1.0
176
     1
 90
        1
176
     1
 90
        6
176
     1
 90
        2
176
     1
 62
     7
176
     1
 90
        6
176
     1
 90
        0
176
     1
 90
        0
176
     1
290
     0
176
     1
 90
        1
176
     1
 40
0.0
176
     1
 90
        0
176
     1
290
     0
176
     1
290
     1
176
     1
290
     1
176
     1
290
     0
176
     1
290
     0
176
     1
290
     0
176
     1
290
     0
176
     1
290
     0
176
     1
290
     0
176
     1
 90
       50
176
     1
 40
0.0
176
     1
 40
1.0
176
     1
 90
        0
176
     1
 62
    18
420
        0
176
     1
 90
       50
176
     1
 90
        3
176
     1
 62
     5
420
      255
176
     1
290
     0
176
     1
 90
       50
176
     1
 90
       50
176
     1
 90
       50
176
     1
290
     0
176
     1
 90
       50
176
     1
 62
   256
176
     0
 40
1.0
176
     0
 90
        2
176
     1
  1
strokes_ogs.tif
176
     1
290
     0
176
     1
 40
1.0
176
     1
 40
1.0
176
     1
  0
VISUALSTYLE
  5
37
102
{ACAD_REACTORS
330
2A
102
}
330
2A
100
AcDbVisualStyle
  2
Thicken
 70
    13
177
     3
291
     1
 70
    58
 90
        2
176
     1
 90
        2
176
     1
 90
        0
176
     1
 90
        0
176
     1
 40
0.6
176
     1
 40
30.0
176
     1
 62
     7
420
 16777215
176
     1
 90
        1
176
     1
 90
        4
176
     1
 62
     7
176
     1
 62
   257
176
     1
 90
        1
176
     1
 90
        1
176
     1
 40
1.0
176
     1
 90
       12
176
     1
 62
     7
176
     1
 40
1.0
176
     1
 90
        1
176
     1
 90
        6
176
     1
 90
        2
176
     1
 62
     7
176
     1
 90
        5
176
     1
 90
        0
176
     1
 90
        0
176
     1
290
     0
176
     1
 90
        1
176
     1
 40
0.0
176
     1
 90
        0
176
     1
290
     0
176
     1
290
     1
176
     1
290
     1
176
     1
290
     0
176
     1
290
     0
176
     1
290
     0
176
     1
290
     0
176
     1
290
     0
176
     1
290
     0
176
     1
 90
       50
176
     1
 40
0.0
176
     1
 40
1.0
176
     1
 90
        0
176
     1
 62
    18
420
        0
176
     1
 90
       50
176
     1
 90
        3
176
     1
 62
     5
420
      255
176
     1
290
     0
176
     1
 90
       50
176
     1
 90
       50
176
     1
 90
       50
176
     1
290
     0
176
     1
 90
       50
176
     1
 62
   256
176
     0
 40
1.0
176
     0
 90
        2
176
     1
  1
strokes_ogs.tif
176
     1
290
     0
176
     1
 40
1.0
176
     1
 40
1.0
176
     1
  0
VISUALSTYLE
  5
30
102
{ACAD_REACTORS
330
2A
102
}
330
2A
100
AcDbVisualStyle
  2
Wireframe
 70
     5
177
     3
291
     0
 70
    58
 90
        0
176
     1
 90
        2
176
     1
 90
        0
176
     1
 90
        0
176
     1
 40
0.6
176
     1
 40
30.0
176
     1
 62
     7
420
 16777215
176
     1
 90
        1
176
     1
 90
        4
176
     1
 62
     7
176
     1
 62
   257
176
     1
 90
        1
176
     1
 90
        1
176
     1
 40
1.0
176
     1
 90
        0
176
     1
 62
   257
176
     1
 40
1.0
176
     1
 90
        1
176
     1
 90
        6
176
     1
 90
        2
176
     1
 62
     7
176
     1
 90
        3
176
     1
 90
        0
176
     1
 90
        0
176
     1
290
     0
176
     1
 90
        1
176
     1
 40
0.0
176
     1
 90
        0
176
     1
290
     0
176
     1
290
     1
176
     1
290
     1
176
     1
290
     0
176
     1
290
     0
176
     1
290
     0
176
     1
290
     0
176
     1
290
     0
176
     1
290
     0
176
     1
 90
       50
176
     1
 40
0.0
176
     1
 40
1.0
176
     1
 90
        0
176
     1
 62
    18
420
        0
176
     1
 90
       50
176
     1
 90
        3
176
     1
 62
     5
420
      255
176
     1
290
     0
176
     1
 90
       50
176
     1
 90
       50
176
     1
 90
       50
176
     1
290
     0
176
     1
 90
       50
176
     1
 62
   256
176
     0
 40
1.0
176
     0
 90
        2
176
     1
  1
strokes_ogs.tif
176
     1
290
     0
176
     1
 40
1.0
176
     1
 40
1.0
176
     1
  0
VISUALSTYLE
  5
40
102
{ACAD_REACTORS
330
2A
102
}
330
2A
100
AcDbVisualStyle
  2
X-Ray
 70
    25
177
     3
291
     0
 70
    58
 90
        2
176
     1
 90
        2
176
     1
 90
        1
176
     1
 90
        1
176
     1
 40
0.5
176
     1
 40
30.0
176
     1
 62
     7
420
 16777215
176
     1
 90
        1
176
     1
 90
        0
176
     1
 62
     7
176
     1
 62
   257
176
     1
 90
        1
176
     1
 90
        1
176
     1
 40
1.0
176
     1
 90
        8
176
     1
 62
     7
176
     1
 40
1.0
176
     1
 90
        1
176
     1
 90
        6
176
     1
 90
        2
176
     1
 62
     7
176
     1
 90
        3
176
     1
 90
        0
176
     1
 90
        0
176
     1
290
     0
176
     1
 90
       13
176
     1
 40
0.0
176
     1
 90
        0
176
     1
290
     0
176
     1
290
     1
176
     1
290
     1
176
     1
290
     0
176
     1
290
     0
176
     1
290
     0
176
     1
290
     0
176
     1
290
     0
176
     1
290
     0
176
     1
 90
       50
176
     1
 40
0.0
176
     1
 40
1.0
176
     1
 90
        0
176
     1
 62
    18
420
        0
176
     1
 90
       50
176
     1
 90
        3
176
     1
 62
     5
420
      255
176
     1
290
     0
176
     1
 90
       50
176
     1
 90
       50
176
     1
 90
       50
176
     1
290
     0
176
     1
 90
       50
176
     1
 62
   256
176
     0
 40
1.0
176
     0
 90
        2
176
     1
  1
strokes_ogs.tif
176
     1
290
     0
176
     1
 40
1.0
176
     1
 40
1.0
176
     1
  0
DICTIONARYVAR
  5
19F
102
{ACAD_REACTORS
330
19E
102
}
330
19E
100
DictionaryVariables
280
     0
  1
1:1
  0
DICTIONARYVAR
  5
1A4
102
{ACAD_REACTORS
330
19E
102
}
330
19E
100
DictionaryVariables
280
     0
  1
Standard
  0
DICTIONARYVAR
  5
1A3
102
{ACAD_REACTORS
330
19E
102
}
330
19E
100
DictionaryVariables
280
     0
  1
Standard
  0
DICTIONARY
  5
1A0
330
6A
100
AcDbDictionary
280
     1
281
     1
  3
ACAD_ROUNDTRIP_2008_TABLESTYLE_CELLSTYLEMAP
360
1A1
  0
CELLSTYLEMAP
  5
1A1
102
{ACAD_REACTORS
330
1A0
102
}
330
1A0
100
AcDbCellStyleMap
 90
        3
300
CELLSTYLE
  1
TABLEFORMAT_BEGIN
 90
        5
170
     1
 91
        0
 92
    32768
 62
   257
 93
        1
300
CONTENTFORMAT
  1
CONTENTFORMAT_BEGIN
 90
        0
 91
        0
 92
        4
 93
        0
300

 40
0.0
140
1.0
 94
        5
 62
     0
340
11
144
0.25
309
CONTENTFORMAT_END
171
     1
301
MARGIN
  1
CELLMARGIN_BEGIN
 40
0.06
 40
0.06
 40
0.06
 40
0.06
 40
0.06
 40
0.06
309
CELLMARGIN_END
 94
        6
 95
        1
302
GRIDFORMAT
  1
GRIDFORMAT_BEGIN
 90
        0
 91
        1
 62
     0
 92
       -2
340
14
 93
        0
 40
0.045
309
GRIDFORMAT_END
 95
        2
302
GRIDFORMAT
  1
GRIDFORMAT_BEGIN
 90
        0
 91
        1
 62
     0
 92
       -2
340
14
 93
        0
 40
0.045
309
GRIDFORMAT_END
 95
        4
302
GRIDFORMAT
  1
GRIDFORMAT_BEGIN
 90
        0
 91
        1
 62
     0
 92
       -2
340
14
 93
        0
 40
0.045
309
GRIDFORMAT_END
 95
        8
302
GRIDFORMAT
  1
GRIDFORMAT_BEGIN
 90
        0
 91
        1
 62
     0
 92
       -2
340
14
 93
        0
 40
0.045
309
GRIDFORMAT_END
 95
       16
302
GRIDFORMAT
  1
GRIDFORMAT_BEGIN
 90
        0
 91
        1
 62
     0
 92
       -2
340
14
 93
        0
 40
0.045
309
GRIDFORMAT_END
 95
       32
302
GRIDFORMAT
  1
GRIDFORMAT_BEGIN
 90
        0
 91
        1
 62
     0
 92
       -2
340
14
 93
        0
 40
0.045
309
GRIDFORMAT_END
309
TABLEFORMAT_END
  1
CELLSTYLE_BEGIN
 90
        1
 91
        1
300
_TITLE
309
CELLSTYLE_END
300
CELLSTYLE
  1
TABLEFORMAT_BEGIN
 90
        5
170
     1
 91
        0
 92
        0
 62
   257
 93
        1
300
CONTENTFORMAT
  1
CONTENTFORMAT_BEGIN
 90
        0
 91
        0
 92
        4
 93
        0
300

 40
0.0
140
1.0
 94
        5
 62
     0
340
11
144
0.18
309
CONTENTFORMAT_END
171
     1
301
MARGIN
  1
CELLMARGIN_BEGIN
 40
0.06
 40
0.06
 40
0.06
 40
0.06
 40
0.06
 40
0.06
309
CELLMARGIN_END
 94
        6
 95
        1
302
GRIDFORMAT
  1
GRIDFORMAT_BEGIN
 90
        0
 91
        1
 62
     0
 92
       -2
340
14
 93
        0
 40
0.045
309
GRIDFORMAT_END
 95
        2
302
GRIDFORMAT
  1
GRIDFORMAT_BEGIN
 90
        0
 91
        1
 62
     0
 92
       -2
340
14
 93
        0
 40
0.045
309
GRIDFORMAT_END
 95
        4
302
GRIDFORMAT
  1
GRIDFORMAT_BEGIN
 90
        0
 91
        1
 62
     0
 92
       -2
340
14
 93
        0
 40
0.045
309
GRIDFORMAT_END
 95
        8
302
GRIDFORMAT
  1
GRIDFORMAT_BEGIN
 90
        0
 91
        1
 62
     0
 92
       -2
340
14
 93
        0
 40
0.045
309
GRIDFORMAT_END
 95
       16
302
GRIDFORMAT
  1
GRIDFORMAT_BEGIN
 90
        0
 91
        1
 62
     0
 92
       -2
340
14
 93
        0
 40
0.045
309
GRIDFORMAT_END
 95
       32
302
GRIDFORMAT
  1
GRIDFORMAT_BEGIN
 90
        0
 91
        1
 62
     0
 92
       -2
340
14
 93
        0
 40
0.045
309
GRIDFORMAT_END
309
TABLEFORMAT_END
  1
CELLSTYLE_BEGIN
 90
        2
 91
        1
300
_HEADER
309
CELLSTYLE_END
300
CELLSTYLE
  1
TABLEFORMAT_BEGIN
 90
        5
170
     1
 91
        0
 92
        0
 62
   257
 93
        1
300
CONTENTFORMAT
  1
CONTENTFORMAT_BEGIN
 90
        0
 91
        0
 92
        4
 93
        0
300

 40
0.0
140
1.0
 94
        2
 62
     0
340
11
144
0.18
309
CONTENTFORMAT_END
171
     1
301
MARGIN
  1
CELLMARGIN_BEGIN
 40
0.06
 40
0.06
 40
0.06
 40
0.06
 40
0.06
 40
0.06
309
CELLMARGIN_END
 94
        6
 95
        1
302
GRIDFORMAT
  1
GRIDFORMAT_BEGIN
 90
        0
 91
        1
 62
     0
 92
       -2
340
14
 93
        0
 40
0.045
309
GRIDFORMAT_END
 95
        2
302
GRIDFORMAT
  1
GRIDFORMAT_BEGIN
 90
        0
 91
        1
 62
     0
 92
       -2
340
14
 93
        0
 40
0.045
309
GRIDFORMAT_END
 95
        4
302
GRIDFORMAT
  1
GRIDFORMAT_BEGIN
 90
        0
 91
        1
 62
     0
 92
       -2
340
14
 93
        0
 40
0.045
309
GRIDFORMAT_END
 95
        8
302
GRIDFORMAT
  1
GRIDFORMAT_BEGIN
 90
        0
 91
        1
 62
     0
 92
       -2
340
14
 93
        0
 40
0.045
309
GRIDFORMAT_END
 95
       16
302
GRIDFORMAT
  1
GRIDFORMAT_BEGIN
 90
        0
 91
        1
 62
     0
 92
       -2
340
14
 93
        0
 40
0.045
309
GRIDFORMAT_END
 95
       32
302
GRIDFORMAT
  1
GRIDFORMAT_BEGIN
 90
        0
 91
        1
 62
     0
 92
       -2
340
14
 93
        0
 40
0.045
309
GRIDFORMAT_END
309
TABLEFORMAT_END
  1
CELLSTYLE_BEGIN
 90
        3
 91
        2
300
_DATA
309
CELLSTYLE_END
  0
ENDSEC
  0
EOF