0
SECTION
  2
HEADER
  9
$ACADVER
  1
AC1027
  9
$ACADMAINTVER
 70
     8
  9
$DWGCODEPAGE
  3
ANSI_1252
  9
$REQUIREDVERSIONS
160
                 0
  9
$COMMENTS
  1
File was created by Cadenas
  9
$CUSTOMPROPERTYTAG
  1
NN
  9
$CUSTOMPROPERTY
  1
Four-Bolt Flange Expansion
  9
$CUSTOMPROPERTYTAG
  1
NT
  9
$CUSTOMPROPERTY
  1
Type E 4-Bolt Flange Bearing -Inch
  9
$CUSTOMPROPERTYTAG
  1
NB
  9
$CUSTOMPROPERTY
  1
023114
  9
$CUSTOMPROPERTYTAG
  1
NBSYN
  9
$CUSTOMPROPERTY
  1
$PN.
  9
$CUSTOMPROPERTYTAG
  1
LINA
  9
$CUSTOMPROPERTY
  1
023114
  9
$CUSTOMPROPERTYTAG
  1
SS
  9
$CUSTOMPROPERTY
  1
3-7/16
  9
$CUSTOMPROPERTYTAG
  1
PN
  9
$CUSTOMPROPERTY
  1
023114
  9
$CUSTOMPROPERTYTAG
  1
DESCRIPTION
  9
$CUSTOMPROPERTY
  1
F4B-E-307R
  9
$CUSTOMPROPERTYTAG
  1
A
  9
$CUSTOMPROPERTY
  1
5-1/4
  9
$CUSTOMPROPERTYTAG
  1
B
  9
$CUSTOMPROPERTY
  1
9-1/4
  9
$CUSTOMPROPERTYTAG
  1
C
  9
$CUSTOMPROPERTY
  1
4-1/2
  9
$CUSTOMPROPERTYTAG
  1
D
  9
$CUSTOMPROPERTY
  1
7
  9
$CUSTOMPROPERTYTAG
  1
E
  9
$CUSTOMPROPERTY
  1
1/4
  9
$CUSTOMPROPERTYTAG
  1
F
  9
$CUSTOMPROPERTY
  1
3/4
  9
$CUSTOMPROPERTYTAG
  1
H
  9
$CUSTOMPROPERTY
  1
1-7/8
  9
$CUSTOMPROPERTYTAG
  1
J
  9
$CUSTOMPROPERTY
  1
7-1/4
  9
$CUSTOMPROPERTYTAG
  1
L
  9
$CUSTOMPROPERTY
  1
5-17/32
  9
$CUSTOMPROPERTYTAG
  1
COMPANY
  9
$CUSTOMPROPERTY
  1
baldor
  9
$INSBASE
 10
0.0
 20
0.0
 30
0.0
  9
$EXTMIN
 10
1.000000000000000E+20
 20
1.000000000000000E+20
 30
1.000000000000000E+20
  9
$EXTMAX
 10
-1.000000000000000E+20
 20
-1.000000000000000E+20
 30
-1.000000000000000E+20
  9
$LIMMIN
 10
0.0
 20
0.0
  9
$LIMMAX
 10
12.0
 20
9.0
  9
$ORTHOMODE
 70
     0
  9
$REGENMODE
 70
     1
  9
$FILLMODE
 70
     1
  9
$QTEXTMODE
 70
     0
  9
$MIRRTEXT
 70
     1
  9
$LTSCALE
 40
1.0
  9
$ATTMODE
 70
     1
  9
$TEXTSIZE
 40
0.2
  9
$TRACEWID
 40
0.05
  9
$TEXTSTYLE
  7
Standard
  9
$CLAYER
  8
0
  9
$CELTYPE
  6
ByLayer
  9
$CECOLOR
 62
   256
  9
$CELTSCALE
 40
1.0
  9
$DISPSILH
 70
     0
  9
$DIMSCALE
 40
1.0
  9
$DIMASZ
 40
0.18
  9
$DIMEXO
 40
0.0625
  9
$DIMDLI
 40
0.38
  9
$DIMRND
 40
0.0
  9
$DIMDLE
 40
0.0
  9
$DIMEXE
 40
0.18
  9
$DIMTP
 40
0.0
  9
$DIMTM
 40
0.0
  9
$DIMTXT
 40
0.18
  9
$DIMCEN
 40
0.09
  9
$DIMTSZ
 40
0.0
  9
$DIMTOL
 70
     0
  9
$DIMLIM
 70
     0
  9
$DIMTIH
 70
     1
  9
$DIMTOH
 70
     1
  9
$DIMSE1
 70
     0
  9
$DIMSE2
 70
     0
  9
$DIMTAD
 70
     0
  9
$DIMZIN
 70
     0
  9
$DIMBLK
  1

  9
$DIMASO
 70
     1
  9
$DIMSHO
 70
     1
  9
$DIMPOST
  1

  9
$DIMAPOST
  1

  9
$DIMALT
 70
     0
  9
$DIMALTD
 70
     2
  9
$DIMALTF
 40
25.4
  9
$DIMLFAC
 40
1.0
  9
$DIMTOFL
 70
     0
  9
$DIMTVP
 40
0.0
  9
$DIMTIX
 70
     0
  9
$DIMSOXD
 70
     0
  9
$DIMSAH
 70
     0
  9
$DIMBLK1
  1

  9
$DIMBLK2
  1

  9
$DIMSTYLE
  2
Standard
  9
$DIMCLRD
 70
     0
  9
$DIMCLRE
 70
     0
  9
$DIMCLRT
 70
     0
  9
$DIMTFAC
 40
1.0
  9
$DIMGAP
 40
0.09
  9
$DIMJUST
 70
     0
  9
$DIMSD1
 70
     0
  9
$DIMSD2
 70
     0
  9
$DIMTOLJ
 70
     1
  9
$DIMTZIN
 70
     0
  9
$DIMALTZ
 70
     0
  9
$DIMALTTZ
 70
     0
  9
$DIMUPT
 70
     0
  9
$DIMDEC
 70
     4
  9
$DIMTDEC
 70
     4
  9
$DIMALTU
 70
     2
  9
$DIMALTTD
 70
     2
  9
$DIMTXSTY
  7
Standard
  9
$DIMAUNIT
 70
     0
  9
$DIMADEC
 70
     0
  9
$DIMALTRND
 40
0.0
  9
$DIMAZIN
 70
     0
  9
$DIMDSEP
 70
    46
  9
$DIMATFIT
 70
     3
  9
$DIMFRAC
 70
     0
  9
$DIMLDRBLK
  1

  9
$DIMLUNIT
 70
     2
  9
$DIMLWD
 70
    -2
  9
$DIMLWE
 70
    -2
  9
$DIMTMOVE
 70
     0
  9
$DIMFXL
 40
1.0
  9
$DIMFXLON
 70
     0
  9
$DIMJOGANG
 40
0.7853981633974483
  9
$DIMTFILL
 70
     0
  9
$DIMTFILLCLR
 70
     0
  9
$DIMARCSYM
 70
     0
  9
$DIMLTYPE
  6

  9
$DIMLTEX1
  6

  9
$DIMLTEX2
  6

  9
$DIMTXTDIRECTION
 70
     0
  9
$LUNITS
 70
     2
  9
$LUPREC
 70
     4
  9
$SKETCHINC
 40
0.1
  9
$FILLETRAD
 40
0.5
  9
$AUNITS
 70
     0
  9
$AUPREC
 70
     0
  9
$MENU
  1
.
  9
$ELEVATION
 40
0.0
  9
$PELEVATION
 40
0.0
  9
$THICKNESS
 40
0.0
  9
$LIMCHECK
 70
     0
  9
$CHAMFERA
 40
0.0
  9
$CHAMFERB
 40
0.0
  9
$CHAMFERC
 40
0.0
  9
$CHAMFERD
 40
0.0
  9
$SKPOLY
 70
     0
  9
$TDCREATE
 40
2458169.017295382
  9
$TDUCREATE
 40
2458168.975628715
  9
$TDUPDATE
 40
2458169.017295556
  9
$TDUUPDATE
 40
2458168.975628889
  9
$TDINDWG
 40
0.0000000116
  9
$TDUSRTIMER
 40
0.0000000116
  9
$USRTIMER
 70
     1
  9
$ANGBASE
 50
0.0
  9
$ANGDIR
 70
     0
  9
$PDMODE
 70
     0
  9
$PDSIZE
 40
0.0
  9
$PLINEWID
 40
0.0
  9
$SPLFRAME
 70
     0
  9
$SPLINETYPE
 70
     6
  9
$SPLINESEGS
 70
     8
  9
$HANDSEED
  5
1DB
  9
$SURFTAB1
 70
     6
  9
$SURFTAB2
 70
     6
  9
$SURFTYPE
 70
     6
  9
$SURFU
 70
     6
  9
$SURFV
 70
     6
  9
$UCSBASE
  2

  9
$UCSNAME
  2

  9
$UCSORG
 10
0.0
 20
0.0
 30
0.0
  9
$UCSXDIR
 10
1.0
 20
0.0
 30
0.0
  9
$UCSYDIR
 10
0.0
 20
1.0
 30
0.0
  9
$UCSORTHOREF
  2

  9
$UCSORTHOVIEW
 70
     0
  9
$UCSORGTOP
 10
0.0
 20
0.0
 30
0.0
  9
$UCSORGBOTTOM
 10
0.0
 20
0.0
 30
0.0
  9
$UCSORGLEFT
 10
0.0
 20
0.0
 30
0.0
  9
$UCSORGRIGHT
 10
0.0
 20
0.0
 30
0.0
  9
$UCSORGFRONT
 10
0.0
 20
0.0
 30
0.0
  9
$UCSORGBACK
 10
0.0
 20
0.0
 30
0.0
  9
$PUCSBASE
  2

  9
$PUCSNAME
  2

  9
$PUCSORG
 10
0.0
 20
0.0
 30
0.0
  9
$PUCSXDIR
 10
1.0
 20
0.0
 30
0.0
  9
$PUCSYDIR
 10
0.0
 20
1.0
 30
0.0
  9
$PUCSORTHOREF
  2

  9
$PUCSORTHOVIEW
 70
     0
  9
$PUCSORGTOP
 10
0.0
 20
0.0
 30
0.0
  9
$PUCSORGBOTTOM
 10
0.0
 20
0.0
 30
0.0
  9
$PUCSORGLEFT
 10
0.0
 20
0.0
 30
0.0
  9
$PUCSORGRIGHT
 10
0.0
 20
0.0
 30
0.0
  9
$PUCSORGFRONT
 10
0.0
 20
0.0
 30
0.0
  9
$PUCSORGBACK
 10
0.0
 20
0.0
 30
0.0
  9
$USERI1
 70
     0
  9
$USERI2
 70
     0
  9
$USERI3
 70
     0
  9
$USERI4
 70
     0
  9
$USERI5
 70
     0
  9
$USERR1
 40
0.0
  9
$USERR2
 40
0.0
  9
$USERR3
 40
0.0
  9
$USERR4
 40
0.0
  9
$USERR5
 40
0.0
  9
$WORLDVIEW
 70
     1
  9
$SHADEDGE
 70
     3
  9
$SHADEDIF
 70
    70
  9
$TILEMODE
 70
     1
  9
$MAXACTVP
 70
    64
  9
$PINSBASE
 10
0.0
 20
0.0
 30
0.0
  9
$PLIMCHECK
 70
     0
  9
$PEXTMIN
 10
1.000000000000000E+20
 20
1.000000000000000E+20
 30
1.000000000000000E+20
  9
$PEXTMAX
 10
-1.000000000000000E+20
 20
-1.000000000000000E+20
 30
-1.000000000000000E+20
  9
$PLIMMIN
 10
0.0
 20
0.0
  9
$PLIMMAX
 10
12.0
 20
9.0
  9
$UNITMODE
 70
     0
  9
$VISRETAIN
 70
     1
  9
$PLINEGEN
 70
     0
  9
$PSLTSCALE
 70
     1
  9
$TREEDEPTH
 70
  3020
  9
$CMLSTYLE
  2
Standard
  9
$CMLJUST
 70
     0
  9
$CMLSCALE
 40
1.0
  9
$PROXYGRAPHICS
 70
     1
  9
$MEASUREMENT
 70
     0
  9
$CELWEIGHT
370
    -1
  9
$ENDCAPS
280
     0
  9
$JOINSTYLE
280
     0
  9
$LWDISPLAY
290
     0
  9
$INSUNITS
 70
     1
  9
$HYPERLINKBASE
  1

  9
$STYLESHEET
  1

  9
$XEDIT
290
     1
  9
$CEPSNTYPE
380
     0
  9
$PSTYLEMODE
290
     1
  9
$FINGERPRINTGUID
  2
{03D3D4AF-1232-4566-97D2-B65698E5C24A}
  9
$VERSIONGUID
  2
{FAEB1C32-E019-11D5-929B-00C0DF256EC4}
  9
$EXTNAMES
290
     1
  9
$PSVPSCALE
 40
0.0
  9
$OLESTARTUP
290
     0
  9
$SORTENTS
280
   127
  9
$INDEXCTL
280
     0
  9
$HIDETEXT
280
     1
  9
$XCLIPFRAME
280
     2
  9
$HALOGAP
280
     0
  9
$OBSCOLOR
 70
   257
  9
$OBSLTYPE
280
     0
  9
$INTERSECTIONDISPLAY
280
     0
  9
$INTERSECTIONCOLOR
 70
   257
  9
$DIMASSOC
280
     2
  9
$PROJECTNAME
  1

  9
$CAMERADISPLAY
290
     0
  9
$LENSLENGTH
 40
50.0
  9
$CAMERAHEIGHT
 40
0.0
  9
$STEPSPERSEC
 40
2.0
  9
$STEPSIZE
 40
6.0
  9
$3DDWFPREC
 40
2.0
  9
$PSOLWIDTH
 40
0.25
  9
$PSOLHEIGHT
 40
4.0
  9
$LOFTANG1
 40
1.570796326794897
  9
$LOFTANG2
 40
1.570796326794897
  9
$LOFTMAG1
 40
0.0
  9
$LOFTMAG2
 40
0.0
  9
$LOFTPARAM
 70
     7
  9
$LOFTNORMALS
280
     1
  9
$LATITUDE
 40
37.795
  9
$LONGITUDE
 40
-122.394
  9
$NORTHDIRECTION
 40
0.0
  9
$TIMEZONE
 70
 -8000
  9
$LIGHTGLYPHDISPLAY
280
     1
  9
$TILEMODELIGHTSYNCH
280
     1
  9
$CMATERIAL
347
44
  9
$SOLIDHIST
280
     0
  9
$SHOWHIST
280
     1
  9
$DWFFRAME
280
     2
  9
$DGNFRAME
280
     2
  9
$REALWORLDSCALE
290
     1
  9
$INTERFERECOLOR
 62
   256
  9
$CSHADOW
280
     0
  9
$SHADOWPLANELOCATION
 40
0.0
  0
ENDSEC
  0
SECTION
  2
CLASSES
  0
CLASS
  1
ACDBDICTIONARYWDFLT
  2
AcDbDictionaryWithDefault
  3
ObjectDBX Classes
 90
        0
 91
        4
280
     0
281
     0
  0
CLASS
  1
VISUALSTYLE
  2
AcDbVisualStyle
  3
ObjectDBX Classes
 90
     4095
 91
        4
280
     0
281
     0
  0
CLASS
  1
MATERIAL
  2
AcDbMaterial
  3
ObjectDBX Classes
 90
     1153
 91
        4
280
     0
281
     0
  0
CLASS
  1
SCALE
  2
AcDbScale
  3
ObjectDBX Classes
 90
     1153
 91
        4
280
     0
281
     0
  0
CLASS
  1
TABLESTYLE
  2
AcDbTableStyle
  3
ObjectDBX Classes
 90
     4095
 91
        4
280
     0
281
     0
  0
CLASS
  1
MLEADERSTYLE
  2
AcDbMLeaderStyle
  3
ACDB_MLEADERSTYLE_CLASS
 90
     4095
 91
        4
280
     0
281
     0
  0
CLASS
  1
SUN
  2
AcDbSun
  3
SCENEOE
 90
     1153
 91
        4
280
     0
281
     0
  0
CLASS
  1
DICTIONARYVAR
  2
AcDbDictionaryVar
  3
ObjectDBX Classes
 90
        0
 91
        4
280
     0
281
     0
  0
CLASS
  1
CELLSTYLEMAP
  2
AcDbCellStyleMap
  3
ObjectDBX Classes
 90
     1152
 91
        4
280
     0
281
     0
  0
ENDSEC
  0
SECTION
  2
TABLES
  0
TABLE
  2
VPORT
  5
8
330
0
100
AcDbSymbolTable
 70
     1
  0
VPORT
  5
29
330
8
100
AcDbSymbolTableRecord
100
AcDbViewportTableRecord
  2
*Active
 70
     0
 10
0.0
 20
0.0
 11
1.0
 21
1.0
 12
-2.699999999999999
 22
0.0
 13
0.0
 23
0.0
 14
0.5
 24
0.5
 15
0.5
 25
0.5
 16
0.0
 26
0.0
 36
1.0
 17
0.0
 27
0.0
 37
0.0
 40
9.435
 41
0.6421621621621619
 42
50.0
 43
0.0
 44
0.0
 50
0.0
 51
0.0
 71
     0
 72
   100
 73
     1
 74
     3
 75
     0
 76
     0
 77
     0
 78
     0
281
     0
 65
     1
110
0.0
120
0.0
130
0.0
111
1.0
121
0.0
131
0.0
112
0.0
122
1.0
132
0.0
 79
     0
146
0.0
348
2F
 60
     3
 61
     5
292
     1
282
     1
141
0.0
142
0.0
 63
   250
361
6D
  0
ENDTAB
  0
TABLE
  2
LTYPE
  5
5
330
0
100
AcDbSymbolTable
 70
     3
  0
LTYPE
  5
14
330
5
100
AcDbSymbolTableRecord
100
AcDbLinetypeTableRecord
  2
ByBlock
 70
     0
  3

 72
    65
 73
     0
 40
0.0
  0
LTYPE
  5
15
330
5
100
AcDbSymbolTableRecord
100
AcDbLinetypeTableRecord
  2
ByLayer
 70
     0
  3

 72
    65
 73
     0
 40
0.0
  0
LTYPE
  5
16
330
5
100
AcDbSymbolTableRecord
100
AcDbLinetypeTableRecord
  2
Continuous
 70
     0
  3
Solid line
 72
    65
 73
     0
 40
0.0
  0
LTYPE
  5
9A
330
5
100
AcDbSymbolTableRecord
100
AcDbLinetypeTableRecord
  2
Dashed
 70
     0
  3

 72
    65
 73
     2
 40
2.0
 49
1.0
 74
     0
 49
-1.0
 74
     0
  0
LTYPE
  5
13F
330
5
100
AcDbSymbolTableRecord
100
AcDbLinetypeTableRecord
  2
Center
 70
     0
  3

 72
    65
 73
     4
 40
1.5
 49
0.45
 74
     0
 49
-0.5
 74
     0
 49
0.05
 74
     0
 49
-0.5
 74
     0
  0
ENDTAB
  0
TABLE
  2
LAYER
  5
2
330
0
100
AcDbSymbolTable
 70
     7
  0
LAYER
  5
10
330
2
100
AcDbSymbolTableRecord
100
AcDbLayerTableRecord
  2
0
 70
     0
 62
     7
  6
Continuous
370
    -3
390
F
347
46
348
0
  0
LAYER
  5
72
330
2
100
AcDbSymbolTableRecord
100
AcDbLayerTableRecord
  2
AM_6
 70
     0
 62
    -2
  6
Continuous
370
    35
390
F
347
46
348
0
  0
LAYER
  5
9B
330
2
100
AcDbSymbolTableRecord
100
AcDbLayerTableRecord
  2
AM_9
 70
     0
 62
     6
  6
Dashed
370
    25
390
F
347
46
348
0
  0
LAYER
  5
B8
330
2
100
AcDbSymbolTableRecord
100
AcDbLayerTableRecord
  2
AM_5
 70
     0
 62
     3
  6
Continuous
370
    25
390
F
347
46
348
0
  0
LAYER
  5
BB
330
2
100
AcDbSymbolTableRecord
100
AcDbLayerTableRecord
  2
AM_4
 70
     0
 62
     7
  6
Continuous
370
    50
390
F
347
46
348
0
  0
LAYER
  5
140
330
2
100
AcDbSymbolTableRecord
100
AcDbLayerTableRecord
  2
AM_7
 70
     0
 62
     7
  6
Center
370
    25
390
F
347
46
348
0
  0
LAYER
  5
1CA
330
2
100
AcDbSymbolTableRecord
100
AcDbLayerTableRecord
  2
ConnectionPoints
 70
     0
 62
     7
  6
Continuous
370
    50
390
F
347
46
348
0
  0
ENDTAB
  0
TABLE
  2
STYLE
  5
3
330
0
100
AcDbSymbolTable
 70
     1
  0
STYLE
  5
11
330
3
100
AcDbSymbolTableRecord
100
AcDbTextStyleTableRecord
  2
Standard
 70
     0
 40
0.0
 41
1.0
 50
0.0
 71
     0
 42
0.2
  3
txt
  4

  0
ENDTAB
  0
TABLE
  2
VIEW
  5
6
330
0
100
AcDbSymbolTable
 70
     0
  0
ENDTAB
  0
TABLE
  2
UCS
  5
7
330
0
100
AcDbSymbolTable
 70
     0
  0
ENDTAB
  0
TABLE
  2
APPID
  5
9
330
0
100
AcDbSymbolTable
 70
     1
  0
APPID
  5
12
330
9
100
AcDbSymbolTableRecord
100
AcDbRegAppTableRecord
  2
ACAD
 70
     0
  0
ENDTAB
  0
TABLE
  2
DIMSTYLE
  5
A
330
0
100
AcDbSymbolTable
 70
     1
100
AcDbDimStyleTable
  0
DIMSTYLE
105
27
330
A
100
AcDbSymbolTableRecord
100
AcDbDimStyleTableRecord
  2
Standard
 70
     0
178
     0
340
11
  0
ENDTAB
  0
TABLE
  2
BLOCK_RECORD
  5
1
330
0
100
AcDbSymbolTable
 70
     7
  0
BLOCK_RECORD
  5
1F
330
1
100
AcDbSymbolTableRecord
100
AcDbBlockTableRecord
  2
*Model_Space
340
22
 70
     0
280
     1
281
     0
  0
BLOCK_RECORD
  5
1B
330
1
100
AcDbSymbolTableRecord
100
AcDbBlockTableRecord
  2
*Paper_Space
340
1E
 70
     0
280
     1
281
     0
  0
BLOCK_RECORD
  5
23
330
1
100
AcDbSymbolTableRecord
100
AcDbBlockTableRecord
  2
*Paper_Space0
340
26
 70
     0
280
     1
281
     0
  0
BLOCK_RECORD
  5
6E
330
1
100
AcDbSymbolTableRecord
100
AcDbBlockTableRecord
  2
1_023114_2
340
0
102
{BLKREFS
331
6F
102
}
 70
     0
280
     1
281
     0
  0
BLOCK_RECORD
  5
85
330
1
100
AcDbSymbolTableRecord
100
AcDbBlockTableRecord
  2
2_3_7_16C_1_0_in_023114_2
340
0
102
{BLKREFS
331
86
102
}
 70
     0
280
     1
281
     0
  0
BLOCK_RECORD
  5
C1
330
1
100
AcDbSymbolTableRecord
100
AcDbBlockTableRecord
  2
3_3_7_16C_2_0_in_023114_2
340
0
102
{BLKREFS
331
C2
102
}
 70
     0
280
     1
281
     0
  0
BLOCK_RECORD
  5
FE
330
1
100
AcDbSymbolTableRecord
100
AcDbBlockTableRecord
  2
4_3_7_16I_0_in_023114_2
340
0
102
{BLKREFS
331
FF
102
}
 70
     0
280
     1
281
     0
  0
BLOCK_RECORD
  5
143
330
1
100
AcDbSymbolTableRecord
100
AcDbBlockTableRecord
  2
5_405015E_Inch_0_in_023114_2
340
0
102
{BLKREFS
331
144
102
}
 70
     0
280
     1
281
     0
  0
BLOCK_RECORD
  5
179
330
1
100
AcDbSymbolTableRecord
100
AcDbBlockTableRecord
  2
6_023114H_0_in_023114_2
340
0
102
{BLKREFS
331
17A
102
}
 70
     0
280
     1
281
     0
  0
ENDTAB
  0
ENDSEC
  0
SECTION
  2
BLOCKS
  0
BLOCK
  5
20
330
1F
100
AcDbEntity
  8
0
100
AcDbBlockBegin
  2
*Model_Space
 70
     0
 10
0.0
 20
0.0
 30
0.0
  3
*Model_Space
  1

  0
ENDBLK
  5
21
330
1F
100
AcDbEntity
  8
0
100
AcDbBlockEnd
  0
BLOCK
  5
1C
330
1B
100
AcDbEntity
 67
     1
  8
0
100
AcDbBlockBegin
  2
*Paper_Space
 70
     0
 10
0.0
 20
0.0
 30
0.0
  3
*Paper_Space
  1

  0
ENDBLK
  5
1D
330
1B
100
AcDbEntity
 67
     1
  8
0
100
AcDbBlockEnd
  0
BLOCK
  5
24
330
23
100
AcDbEntity
  8
0
100
AcDbBlockBegin
  2
*Paper_Space0
 70
     0
 10
0.0
 20
0.0
 30
0.0
  3
*Paper_Space0
  1

  0
ENDBLK
  5
25
330
23
100
AcDbEntity
  8
0
100
AcDbBlockEnd
  0
BLOCK
  5
70
330
6E
100
AcDbEntity
  8
0
100
AcDbBlockBegin
  2
1_023114_2
 70
     2
 10
0.0
 20
0.0
 30
0.0
  3
1_023114_2
  1

  0
ATTDEF
  5
73
330
6E
100
AcDbEntity
  8
AM_6
100
AcDbText
 10
5.27
 20
4.625
 30
0.0
 40
0.5
  1
Four-Bolt Flange Expansion
100
AcDbAttributeDefinition
  3

  2
NN
 70
     8
280
     0
  0
ATTDEF
  5
74
330
6E
100
AcDbEntity
  8
AM_6
100
AcDbText
 10
5.27
 20
4.125
 30
0.0
 40
0.5
  1
Type E 4-Bolt Flange Bearing -Inch
100
AcDbAttributeDefinition
  3

  2
NT
 70
     8
280
     0
  0
ATTDEF
  5
75
330
6E
100
AcDbEntity
  8
AM_6
100
AcDbText
 10
5.27
 20
3.625
 30
0.0
 40
0.5
  1
023114
100
AcDbAttributeDefinition
  3

  2
NB
 70
     8
280
     0
  0
ATTDEF
  5
76
330
6E
100
AcDbEntity
  8
AM_6
100
AcDbText
 10
5.27
 20
3.125
 30
0.0
 40
0.5
  1
$PN.
100
AcDbAttributeDefinition
  3

  2
NBSYN
 70
     8
280
     0
  0
ATTDEF
  5
77
330
6E
100
AcDbEntity
  8
AM_6
100
AcDbText
 10
5.27
 20
2.625
 30
0.0
 40
0.5
  1
023114
100
AcDbAttributeDefinition
  3

  2
LINA
 70
     8
280
     0
  0
ATTDEF
  5
78
330
6E
100
AcDbEntity
  8
AM_6
100
AcDbText
 10
5.27
 20
2.125
 30
0.0
 40
0.5
  1
3-7/16
100
AcDbAttributeDefinition
  3

  2
SS
 70
     8
280
     0
  0
ATTDEF
  5
79
330
6E
100
AcDbEntity
  8
AM_6
100
AcDbText
 10
5.27
 20
1.625
 30
0.0
 40
0.5
  1
023114
100
AcDbAttributeDefinition
  3

  2
PN
 70
     8
280
     0
  0
ATTDEF
  5
7A
330
6E
100
AcDbEntity
  8
AM_6
100
AcDbText
 10
5.27
 20
1.125
 30
0.0
 40
0.5
  1
F4B-E-307R
100
AcDbAttributeDefinition
  3

  2
DESCRIPTION
 70
     8
280
     0
  0
ATTDEF
  5
7B
330
6E
100
AcDbEntity
  8
AM_6
100
AcDbText
 10
5.27
 20
0.625
 30
0.0
 40
0.5
  1
5-1/4
100
AcDbAttributeDefinition
  3

  2
A
 70
     8
280
     0
  0
ATTDEF
  5
7C
330
6E
100
AcDbEntity
  8
AM_6
100
AcDbText
 10
5.27
 20
0.125
 30
0.0
 40
0.5
  1
9-1/4
100
AcDbAttributeDefinition
  3

  2
B
 70
     8
280
     0
  0
ATTDEF
  5
7D
330
6E
100
AcDbEntity
  8
AM_6
100
AcDbText
 10
5.27
 20
-0.375
 30
0.0
 40
0.5
  1
4-1/2
100
AcDbAttributeDefinition
  3

  2
C
 70
     8
280
     0
  0
ATTDEF
  5
7E
330
6E
100
AcDbEntity
  8
AM_6
100
AcDbText
 10
5.27
 20
-0.875
 30
0.0
 40
0.5
  1
7
100
AcDbAttributeDefinition
  3

  2
D
 70
     8
280
     0
  0
ATTDEF
  5
7F
330
6E
100
AcDbEntity
  8
AM_6
100
AcDbText
 10
5.27
 20
-1.375
 30
0.0
 40
0.5
  1
1/4
100
AcDbAttributeDefinition
  3

  2
E
 70
     8
280
     0
  0
ATTDEF
  5
80
330
6E
100
AcDbEntity
  8
AM_6
100
AcDbText
 10
5.27
 20
-1.875
 30
0.0
 40
0.5
  1
3/4
100
AcDbAttributeDefinition
  3

  2
F
 70
     8
280
     0
  0
ATTDEF
  5
81
330
6E
100
AcDbEntity
  8
AM_6
100
AcDbText
 10
5.27
 20
-2.375
 30
0.0
 40
0.5
  1
1-7/8
100
AcDbAttributeDefinition
  3

  2
H
 70
     8
280
     0
  0
ATTDEF
  5
82
330
6E
100
AcDbEntity
  8
AM_6
100
AcDbText
 10
5.27
 20
-2.875
 30
0.0
 40
0.5
  1
7-1/4
100
AcDbAttributeDefinition
  3

  2
J
 70
     8
280
     0
  0
ATTDEF
  5
83
330
6E
100
AcDbEntity
  8
AM_6
100
AcDbText
 10
5.27
 20
-3.375
 30
0.0
 40
0.5
  1
5-17/32
100
AcDbAttributeDefinition
  3

  2
L
 70
     8
280
     0
  0
ATTDEF
  5
84
330
6E
100
AcDbEntity
  8
AM_6
100
AcDbText
 10
5.27
 20
-3.875
 30
0.0
 40
0.5
  1
baldor
100
AcDbAttributeDefinition
  3

  2
COMPANY
 70
     8
280
     0
  0
INSERT
  5
86
330
6E
100
AcDbEntity
  8
0
100
AcDbBlockReference
  2
2_3_7_16C_1_0_in_023114_2
 10
0.0
 20
0.0
 30
0.0
  0
INSERT
  5
C2
330
6E
100
AcDbEntity
  8
0
100
AcDbBlockReference
  2
3_3_7_16C_2_0_in_023114_2
 10
0.0
 20
0.0
 30
0.0
  0
INSERT
  5
FF
330
6E
100
AcDbEntity
  8
0
100
AcDbBlockReference
  2
4_3_7_16I_0_in_023114_2
 10
0.0
 20
0.0
 30
0.0
  0
INSERT
  5
144
330
6E
100
AcDbEntity
  8
0
100
AcDbBlockReference
  2
5_405015E_Inch_0_in_023114_2
 10
0.0
 20
0.0
 30
0.0
  0
INSERT
  5
17A
330
6E
100
AcDbEntity
  8
0
100
AcDbBlockReference
  2
6_023114H_0_in_023114_2
 10
0.0
 20
0.0
 30
0.0
  0
ENDBLK
  5
71
330
6E
100
AcDbEntity
  8
0
100
AcDbBlockEnd
  0
BLOCK
  5
87
330
85
100
AcDbEntity
  8
0
100
AcDbBlockBegin
  2
2_3_7_16C_1_0_in_023114_2
 70
     2
 10
0.0
 20
0.0
 30
0.0
  3
2_3_7_16C_1_0_in_023114_2
  1

  0
ATTDEF
  5
89
330
85
100
AcDbEntity
  8
AM_6
100
AcDbText
 10
4.75
 20
2.765625
 30
0.0
 40
0.5
  1
E-Type Collar -Inch
100
AcDbAttributeDefinition
  3

  2
NN
 70
     8
280
     0
  0
ATTDEF
  5
8A
330
85
100
AcDbEntity
  8
AM_6
100
AcDbText
 10
4.75
 20
2.265625
 30
0.0
 40
0.5
  1
E-Type Bearings
100
AcDbAttributeDefinition
  3

  2
NT
 70
     8
280
     0
  0
ATTDEF
  5
8B
330
85
100
AcDbEntity
  8
AM_6
100
AcDbText
 10
4.75
 20
1.765625
 30
0.0
 40
0.5
  1
3-7/16C
100
AcDbAttributeDefinition
  3

  2
NB
 70
     8
280
     0
  0
ATTDEF
  5
8C
330
85
100
AcDbEntity
  8
AM_6
100
AcDbText
 10
4.75
 20
1.265625
 30
0.0
 40
0.5
  1
$BORE.C
100
AcDbAttributeDefinition
  3

  2
NBSYN
 70
     8
280
     0
  0
ATTDEF
  5
8D
330
85
100
AcDbEntity
  8
AM_6
100
AcDbText
 10
4.75
 20
0.765625
 30
0.0
 40
0.5
  1
3-7/16C
100
AcDbAttributeDefinition
  3

  2
LINA
 70
     8
280
     0
  0
ATTDEF
  5
8E
330
85
100
AcDbEntity
  8
AM_6
100
AcDbText
 10
4.75
 20
0.265625
 30
0.0
 40
0.5
  1
3-7/16
100
AcDbAttributeDefinition
  3

  2
BORE
 70
     8
280
     0
  0
ATTDEF
  5
8F
330
85
100
AcDbEntity
  8
AM_6
100
AcDbText
 10
4.75
 20
-0.234375
 30
0.0
 40
0.5
  1
5.53125
100
AcDbAttributeDefinition
  3

  2
L
 70
     8
280
     0
  0
ATTDEF
  5
90
330
85
100
AcDbEntity
  8
AM_6
100
AcDbText
 10
4.75
 20
-0.734375
 30
0.0
 40
0.5
  1
5.00
100
AcDbAttributeDefinition
  3

  2
A
 70
     8
280
     0
  0
ATTDEF
  5
91
330
85
100
AcDbEntity
  8
AM_6
100
AcDbText
 10
4.75
 20
-1.234375
 30
0.0
 40
0.5
  1
2.25
100
AcDbAttributeDefinition
  3

  2
B
 70
     8
280
     0
  0
ATTDEF
  5
92
330
85
100
AcDbEntity
  8
AM_6
100
AcDbText
 10
4.75
 20
-1.734375
 30
0.0
 40
0.5
  1
4.24
100
AcDbAttributeDefinition
  3

  2
C
 70
     8
280
     0
  0
ATTDEF
  5
93
330
85
100
AcDbEntity
  8
AM_6
100
AcDbText
 10
4.75
 20
-2.234375
 30
0.0
 40
0.5
  1
5.84
100
AcDbAttributeDefinition
  3

  2
D
 70
     8
280
     0
  0
ATTDEF
  5
94
330
85
100
AcDbEntity
  8
AM_6
100
AcDbText
 10
4.75
 20
-2.734375
 30
0.0
 40
0.5
  1
0.54
100
AcDbAttributeDefinition
  3

  2
E
 70
     8
280
     0
  0
ATTDEF
  5
95
330
85
100
AcDbEntity
  8
AM_6
100
AcDbText
 10
4.75
 20
-3.234375
 30
0.0
 40
0.5
  1
0.44
100
AcDbAttributeDefinition
  3

  2
F
 70
     8
280
     0
  0
ATTDEF
  5
96
330
85
100
AcDbEntity
  8
AM_6
100
AcDbText
 10
4.75
 20
-3.734375
 30
0.0
 40
0.5
  1
1/2-13
100
AcDbAttributeDefinition
  3

  2
CS
 70
     8
280
     0
  0
ATTDEF
  5
97
330
85
100
AcDbEntity
  8
AM_6
100
AcDbText
 10
4.75
 20
-4.234375
 30
0.0
 40
0.5
  1
0.5000
100
AcDbAttributeDefinition
  3

  2
NDM
 70
     8
280
     0
  0
ATTDEF
  5
98
330
85
100
AcDbEntity
  8
AM_6
100
AcDbText
 10
4.75
 20
-4.734375
 30
0.0
 40
0.5
  1
0.4170
100
AcDbAttributeDefinition
  3

  2
KDM
 70
     8
280
     0
  0
ATTDEF
  5
99
330
85
100
AcDbEntity
  8
AM_6
100
AcDbText
 10
4.75
 20
-5.234375
 30
0.0
 40
0.5
  1
baldor
100
AcDbAttributeDefinition
  3

  2
COMPANY
 70
     8
280
     0
  0
LINE
  5
9C
330
85
100
AcDbEntity
  8
AM_9
100
AcDbLine
 10
-0.8983499999999999
 20
2.128316666666667
 30
0.0
 11
-0.9062959921028899
 21
2.120370674563777
 31
0.0
  0
LINE
  5
9D
330
85
100
AcDbEntity
  8
AM_9
100
AcDbLine
 10
-0.4735653378060704
 20
2.120232004472737
 30
0.0
 11
-0.4816499999999999
 21
2.128316666666667
 31
0.0
  0
LINE
  5
9E
330
85
100
AcDbEntity
  8
AM_9
100
AcDbLine
 10
-0.4816499999999999
 20
2.723975
 30
0.0
 11
-0.4404480283413159
 21
2.765176971658684
 31
0.0
  0
LINE
  5
9F
330
85
100
AcDbEntity
  8
AM_9
100
AcDbLine
 10
-0.9398464440370877
 20
2.765471444037088
 30
0.0
 11
-0.8983499999999999
 21
2.723975
 31
0.0
  0
LINE
  5
A0
330
85
100
AcDbEntity
  8
AM_9
100
AcDbLine
 10
-0.8983499999999999
 20
2.723975
 30
0.0
 11
-0.4816499999999999
 21
2.723975
 31
0.0
  0
LINE
  5
A1
330
85
100
AcDbEntity
  8
AM_9
100
AcDbLine
 10
-0.8983499999999999
 20
2.128316666666667
 30
0.0
 11
-0.4816499999999999
 21
2.128316666666667
 31
0.0
  0
LINE
  5
A2
330
85
100
AcDbEntity
  8
AM_9
100
AcDbLine
 10
-0.4816499999999999
 20
2.128316666666667
 30
0.0
 11
-0.4816499999999999
 21
2.723975
 31
0.0
  0
LINE
  5
A3
330
85
100
AcDbEntity
  8
AM_9
100
AcDbLine
 10
-0.8983499999999999
 20
2.723975
 30
0.0
 11
-0.8983499999999999
 21
2.128316666666667
 31
0.0
  0
ELLIPSE
  5
A4
330
85
100
AcDbEntity
  8
AM_9
100
AcDbEllipse
 10
-0.6899999999999995
 20
0.8994654901004265
 30
0.0
 11
0.2083500000000002
 21
3.104656934738163E-9
 31
0.0
210
0.0
220
0.0
230
1.0
 40
0.9063077870366489
 41
2.411993625274982
 42
3.141592638688632
  0
ELLIPSE
  5
A5
330
85
100
AcDbEntity
  8
AM_9
100
AcDbEllipse
 10
-0.6899999999999988
 20
0.8994654901004269
 30
0.0
 11
0.2083499999999991
 21
0.0
 31
0.0
210
0.0
220
0.0
230
1.0
 40
0.9063077870366493
 41
3.141592653589793
 42
7.012784320357556
  0
LINE
  5
A6
330
85
100
AcDbEntity
  8
AM_9
100
AcDbLine
 10
-0.4816499999999997
 20
0.8994654901004264
 30
0.0
 11
-0.4816499999999997
 21
1.151201579525122
 31
0.0
  0
LINE
  5
A7
330
85
100
AcDbEntity
  8
AM_9
100
AcDbLine
 10
-0.8983499999999998
 20
1.151201579525122
 30
0.0
 11
-0.8983499999999998
 21
0.8994654901004264
 31
0.0
  0
LWPOLYLINE
  5
A8
330
85
100
AcDbEntity
  8
AM_9
100
AcDbPolyline
 90
       39
 70
     0
 43
0.0
 10
-0.844935277275389
 20
0.7483987821969755
 10
-0.8210782398582054
 20
0.7274292358583373
 10
-0.7935151742530904
 20
0.7095949449734664
 10
-0.760512762469332
 20
0.6949870803460508
 10
-0.7241570680252823
 20
0.6858245990301043
 10
-0.6896711149492004
 20
0.6830881594991708
 10
-0.65414967917391
 20
0.6861044799784605
 10
-0.6215008074990688
 20
0.6943001094787286
 10
-0.5898594635438797
 20
0.7077918515840104
 10
-0.5610947961302342
 20
0.7258017956032093
 10
-0.5350764141177387
 20
0.7483869084803636
 10
-0.512653820750384
 20
0.7751006938724035
 10
-0.4946006988409077
 20
0.8054047623124793
 10
-0.4816744865832325
 20
0.8385998014471733
 10
-0.4745501360296032
 20
0.873958963058352
 10
-0.4738170438268552
 20
0.9097679429622361
 10
-0.4797936836110505
 20
0.945879750119934
 10
-0.4921384042325284
 20
0.9795596553970423
 10
-0.5112896610431901
 20
1.011523036723774
 10
-0.5352369359976872
 20
1.038555704167196
 10
-0.5651485246077512
 20
1.062033341879488
 10
-0.5968637432972776
 20
1.079072472128792
 10
-0.6327264506459166
 20
1.091279797005784
 10
-0.6672278502695939
 20
1.097225761392619
 10
-0.7035159046816172
 20
1.097936221231976
 10
-0.7370067060758194
 20
1.093607513004777
 10
-0.7701097685482022
 20
1.084282170590916
 10
-0.8003639851416069
 20
1.070651951144068
 10
-0.8284183678168636
 20
1.052461071366766
 10
-0.8532271541599347
 20
1.030081436202219
 10
-0.8741836947941592
 20
1.003702108954144
 10
-0.8905464845279498
 20
0.9736657200777641
 10
-0.9015339686535384
 20
0.9405521551685684
 10
-0.9064333180790226
 20
0.9055552754850519
 10
-0.9048386027740203
 20
0.868998059770677
 10
-0.8967000343681022
 20
0.8333395112467853
 10
-0.8816882929563421
 20
0.7981768857503359
 10
-0.8653849864466456
 20
0.7723897937705569
 10
-0.844935277275389
 20
0.7483987821969755
  0
LINE
  5
A9
330
85
100
AcDbEntity
  8
AM_9
100
AcDbLine
 10
-0.2499999999999999
 20
2.12
 30
0.0
 11
-0.4738599718572902
 21
2.12
 31
0.0
  0
LINE
  5
AA
330
85
100
AcDbEntity
  8
AM_9
100
AcDbLine
 10
-0.9058285725352372
 20
2.12
 30
0.0
 11
-1.13
 21
2.12
 31
0.0
  0
LINE
  5
AB
330
85
100
AcDbEntity
  8
AM_9
100
AcDbLine
 10
-1.13
 20
-2.12
 30
0.0
 11
-0.2499999999999999
 21
-2.12
 31
0.0
  0
LWPOLYLINE
  5
AC
330
85
100
AcDbEntity
  8
AM_9
100
AcDbPolyline
 90
       21
 70
     0
 43
0.0
 10
-0.906666666666657
 20
2.119999999999999
 10
-0.9059531614643785
 20
2.119916144858298
 10
-0.8996283562004459
 20
2.11921147804162
 10
-0.8866353549651901
 20
2.117820875176238
 10
-0.8673697770413464
 20
2.115923561821402
 10
-0.8426700363597385
 20
2.11377132797401
 10
-0.812945154367578
 20
2.111601576047704
 10
-0.7805067403102711
 20
2.109768711052761
 10
-0.7451194787183777
 20
2.108395193366658
 10
-0.7100496556397768
 20
2.107698986855625
 10
-0.6743717361418167
 20
2.107651886081991
 10
-0.6404874121164369
 20
2.108243073320195
 10
-0.6079773921801795
 20
2.109375880893753
 10
-0.5774829468465436
 20
2.110952595816538
 10
-0.5499791304432838
 20
2.112790925911175
 10
-0.525101358094284
 20
2.114796856122356
 10
-0.5046809859888317
 20
2.116683896521471
 10
-0.4884656586699871
 20
2.118334448538115
 10
-0.4779883398319803
 20
2.119475643529774
 10
-0.4734751288035208
 20
2.119981152308442
 10
-0.4733333333335863
 20
2.119999999999971
  0
LINE
  5
AD
330
85
100
AcDbEntity
  8
AM_9
100
AcDbLine
 10
-0.2499999999999998
 20
1.793092496242408
 30
0.0
 11
-0.2499999999999999
 21
2.618958333333333
 31
0.0
  0
LINE
  5
AE
330
85
100
AcDbEntity
  8
AM_9
100
AcDbLine
 10
-0.2499999999999999
 20
-2.618958333333333
 30
0.0
 11
-0.2499999999999998
 21
-1.793092496242408
 31
0.0
  0
ARC
  5
AF
330
85
100
AcDbEntity
  8
AM_9
100
AcDbCircle
 10
-0.3966666666666667
 20
2.618958333333333
 30
0.0
 40
0.1466666666666667
100
AcDbArc
 50
0.0
 51
90.0
  0
ARC
  5
B0
330
85
100
AcDbEntity
  8
AM_9
100
AcDbCircle
 10
-0.3966666666666667
 20
-2.618958333333333
 30
0.0
 40
0.1466666666666665
100
AcDbArc
 50
270.0
 51
0.0
  0
LINE
  5
B1
330
85
100
AcDbEntity
  8
AM_9
100
AcDbLine
 10
-0.3966666666666664
 20
1.793092496242409
 30
0.0
 11
-0.3966666666666666
 21
2.765625
 31
0.0
  0
LINE
  5
B2
330
85
100
AcDbEntity
  8
AM_9
100
AcDbLine
 10
-0.3966666666666666
 20
-2.765625
 30
0.0
 11
-0.3966666666666664
 21
-1.793092496242409
 31
0.0
  0
LINE
  5
B3
330
85
100
AcDbEntity
  8
AM_9
100
AcDbLine
 10
-1.13
 20
-2.765625
 30
0.0
 11
-1.13
 21
2.765625
 31
0.0
  0
LINE
  5
B4
330
85
100
AcDbEntity
  8
AM_9
100
AcDbLine
 10
-0.3966666666666666
 20
2.765625
 30
0.0
 11
-0.4408269179907609
 21
2.765625
 31
0.0
  0
LINE
  5
B5
330
85
100
AcDbEntity
  8
AM_9
100
AcDbLine
 10
-0.9397172570625881
 20
2.765625
 30
0.0
 11
-1.13
 21
2.765625
 31
0.0
  0
LINE
  5
B6
330
85
100
AcDbEntity
  8
AM_9
100
AcDbLine
 10
-1.13
 20
-2.765625
 30
0.0
 11
-0.3966666666666666
 21
-2.765625
 31
0.0
  0
LWPOLYLINE
  5
B7
330
85
100
AcDbEntity
  8
AM_9
100
AcDbPolyline
 90
       21
 70
     0
 43
0.0
 10
-0.4400000000000092
 20
2.765624999999999
 10
-0.4410625898417289
 20
2.765535395502092
 10
-0.4479973652596759
 20
2.764972469202632
 10
-0.4611441741028952
 20
2.763944599637083
 10
-0.4800072384644247
 20
2.762570625116763
 10
-0.5046743481483303
 20
2.760950460165633
 10
-0.533956411312228
 20
2.759286221362292
 10
-0.5684945023265371
 20
2.757691791415301
 10
-0.6061628309830372
 20
2.756399457974291
 10
-0.6475164469497797
 20
2.755531719341481
 10
-0.6900181189077155
 20
2.755226449220588
 10
-0.7334199173634806
 20
2.755545488299534
 10
-0.7755977103083429
 20
2.756449220209827
 10
-0.8153371776759081
 20
2.757850013407725
 10
-0.8514375551864676
 20
2.75957132793095
 10
-0.8820841853268817
 20
2.761374653407461
 10
-0.9071088959787758
 20
2.763075490813503
 10
-0.924918689549727
 20
2.764410729341622
 10
-0.9360522203100496
 20
2.765300271995515
 10
-0.9399494625377157
 20
2.765618988135126
 10
-0.9399999999999537
 20
2.765624999999996
  0
LINE
  5
B9
330
85
100
AcDbEntity
  8
AM_5
100
AcDbLine
 10
-0.4399999999999999
 20
2.765625
 30
0.0
 11
-0.4399999999999999
 21
2.12
 31
0.0
  0
LINE
  5
BA
330
85
100
AcDbEntity
  8
AM_5
100
AcDbLine
 10
-0.9399999999999998
 20
2.765625
 30
0.0
 11
-0.9399999999999998
 21
2.12
 31
0.0
  0
ELLIPSE
  5
BC
330
85
100
AcDbEntity
  8
AM_4
100
AcDbEllipse
 10
-0.6899999999999998
 20
0.8994654901004263
 30
0.0
 11
0.2083499999999998
 21
3.104656934738158E-9
 31
0.0
210
0.0
220
0.0
230
1.0
 40
0.9063077870366506
 41
0.7295989980411237
 42
2.411993625274982
  0
LINE
  5
BD
330
85
100
AcDbEntity
  8
AM_4
100
AcDbLine
 10
-0.2499999999999998
 20
-1.793092496242408
 30
0.0
 11
-0.2499999999999998
 21
1.793092496242408
 31
0.0
  0
LINE
  5
BE
330
85
100
AcDbEntity
  8
AM_4
100
AcDbLine
 10
-0.3966666666666664
 20
-1.793092496242409
 30
0.0
 11
-0.3966666666666664
 21
1.793092496242409
 31
0.0
  0
LWPOLYLINE
  5
BF
330
85
100
AcDbEntity
  8
AM_4
100
AcDbPolyline
 90
       39
 70
     0
 43
0.0
 10
-0.8631234685193321
 20
1.009920393434852
 10
-0.8876730301342296
 20
1.034281646724805
 10
-0.9084880604322375
 20
1.062293019937824
 10
-0.9256071452835344
 20
1.095746943637121
 10
-0.9364671345177272
 20
1.132330917001837
 10
-0.9399944791077478
 20
1.167361417824522
 10
-0.9368100899148244
 20
1.203244853558882
 10
-0.9274375857507765
 20
1.236296810508027
 10
-0.9116891959964581
 20
1.268180941124355
 10
-0.8905761098947345
 20
1.296797244505886
 10
-0.8638256129171779
 20
1.322549234092799
 10
-0.8323799236165824
 20
1.344286693966815
 10
-0.7964077622681818
 20
1.361680028300106
 10
-0.7571743076942258
 20
1.373882179404277
 10
-0.7150459258878487
 20
1.380511711506275
 10
-0.6722817083198553
 20
1.381036895483242
 10
-0.6288067013828604
 20
1.375210149819714
 10
-0.58798810228637
 20
1.363368594668319
 10
-0.5489606373587538
 20
1.345061793002242
 10
-0.5156454540244736
 20
1.322116212193978
 10
-0.4865190874612347
 20
1.293417472057396
 10
-0.4650097210824826
 20
1.262582426337788
 10
-0.4494504466345037
 20
1.227577205772122
 10
-0.4415803117895902
 20
1.193107294973628
 10
-0.4403943471367973
 20
1.156607286556538
 10
-0.4457692171240582
 20
1.12225670778314
 10
-0.4576822793043662
 20
1.088044259213894
 10
-0.4751699184407844
 20
1.056661562940828
 10
-0.498566721465626
 20
1.02739043471235
 10
-0.526912002495681
 20
1.001754665273658
 10
-0.5601880560450824
 20
0.9800525742764797
 10
-0.5973127175097473
 20
0.963359939491121
 10
-0.6379175332767404
 20
0.9522196376875413
 10
-0.6801106575962719
 20
0.9474334877258646
 10
-0.7237635391402687
 20
0.9493293922784635
 10
-0.7658294060260502
 20
0.9579071577430688
 10
-0.8069153391066207
 20
0.9734629993144969
 10
-0.8360941142803819
 20
0.9897450527977065
 10
-0.8631234685555857
 20
1.00992039330854
  0
ELLIPSE
  5
C0
330
85
100
AcDbEntity
  8
AM_4
100
AcDbEllipse
 10
-0.6899999999999997
 20
1.151201579525122
 30
0.0
 11
0.20835
 21
0.0
 31
0.0
210
0.0
220
0.0
230
1.0
 40
0.9063077870366504
 41
0.0
 42
6.283185307179586
  0
ENDBLK
  5
88
330
85
100
AcDbEntity
  8
0
100
AcDbBlockEnd
  0
BLOCK
  5
C3
330
C1
100
AcDbEntity
  8
0
100
AcDbBlockBegin
  2
3_3_7_16C_2_0_in_023114_2
 70
     2
 10
0.0
 20
0.0
 30
0.0
  3
3_3_7_16C_2_0_in_023114_2
  1

  0
ATTDEF
  5
C5
330
C1
100
AcDbEntity
  8
AM_6
100
AcDbText
 10
0.6300000000000008
 20
2.765625
 30
0.0
 40
0.5
  1
E-Type Collar -Inch
100
AcDbAttributeDefinition
  3

  2
NN
 70
     8
280
     0
  0
ATTDEF
  5
C6
330
C1
100
AcDbEntity
  8
AM_6
100
AcDbText
 10
0.6300000000000008
 20
2.265625
 30
0.0
 40
0.5
  1
E-Type Bearings
100
AcDbAttributeDefinition
  3

  2
NT
 70
     8
280
     0
  0
ATTDEF
  5
C7
330
C1
100
AcDbEntity
  8
AM_6
100
AcDbText
 10
0.6300000000000008
 20
1.765625
 30
0.0
 40
0.5
  1
3-7/16C
100
AcDbAttributeDefinition
  3

  2
NB
 70
     8
280
     0
  0
ATTDEF
  5
C8
330
C1
100
AcDbEntity
  8
AM_6
100
AcDbText
 10
0.6300000000000008
 20
1.265625
 30
0.0
 40
0.5
  1
$BORE.C
100
AcDbAttributeDefinition
  3

  2
NBSYN
 70
     8
280
     0
  0
ATTDEF
  5
C9
330
C1
100
AcDbEntity
  8
AM_6
100
AcDbText
 10
0.6300000000000008
 20
0.7656250000000004
 30
0.0
 40
0.5
  1
3-7/16C
100
AcDbAttributeDefinition
  3

  2
LINA
 70
     8
280
     0
  0
ATTDEF
  5
CA
330
C1
100
AcDbEntity
  8
AM_6
100
AcDbText
 10
0.6300000000000008
 20
0.2656250000000004
 30
0.0
 40
0.5
  1
3-7/16
100
AcDbAttributeDefinition
  3

  2
BORE
 70
     8
280
     0
  0
ATTDEF
  5
CB
330
C1
100
AcDbEntity
  8
AM_6
100
AcDbText
 10
0.6300000000000008
 20
-0.2343749999999996
 30
0.0
 40
0.5
  1
5.53125
100
AcDbAttributeDefinition
  3

  2
L
 70
     8
280
     0
  0
ATTDEF
  5
CC
330
C1
100
AcDbEntity
  8
AM_6
100
AcDbText
 10
0.6300000000000008
 20
-0.7343749999999996
 30
0.0
 40
0.5
  1
5.00
100
AcDbAttributeDefinition
  3

  2
A
 70
     8
280
     0
  0
ATTDEF
  5
CD
330
C1
100
AcDbEntity
  8
AM_6
100
AcDbText
 10
0.6300000000000008
 20
-1.234375
 30
0.0
 40
0.5
  1
2.25
100
AcDbAttributeDefinition
  3

  2
B
 70
     8
280
     0
  0
ATTDEF
  5
CE
330
C1
100
AcDbEntity
  8
AM_6
100
AcDbText
 10
0.6300000000000008
 20
-1.734375
 30
0.0
 40
0.5
  1
4.24
100
AcDbAttributeDefinition
  3

  2
C
 70
     8
280
     0
  0
ATTDEF
  5
CF
330
C1
100
AcDbEntity
  8
AM_6
100
AcDbText
 10
0.6300000000000008
 20
-2.234375
 30
0.0
 40
0.5
  1
5.84
100
AcDbAttributeDefinition
  3

  2
D
 70
     8
280
     0
  0
ATTDEF
  5
D0
330
C1
100
AcDbEntity
  8
AM_6
100
AcDbText
 10
0.6300000000000008
 20
-2.734375
 30
0.0
 40
0.5
  1
0.54
100
AcDbAttributeDefinition
  3

  2
E
 70
     8
280
     0
  0
ATTDEF
  5
D1
330
C1
100
AcDbEntity
  8
AM_6
100
AcDbText
 10
0.6300000000000008
 20
-3.234375
 30
0.0
 40
0.5
  1
0.44
100
AcDbAttributeDefinition
  3

  2
F
 70
     8
280
     0
  0
ATTDEF
  5
D2
330
C1
100
AcDbEntity
  8
AM_6
100
AcDbText
 10
0.6300000000000008
 20
-3.734375
 30
0.0
 40
0.5
  1
1/2-13
100
AcDbAttributeDefinition
  3

  2
CS
 70
     8
280
     0
  0
ATTDEF
  5
D3
330
C1
100
AcDbEntity
  8
AM_6
100
AcDbText
 10
0.6300000000000008
 20
-4.234375
 30
0.0
 40
0.5
  1
0.5000
100
AcDbAttributeDefinition
  3

  2
NDM
 70
     8
280
     0
  0
ATTDEF
  5
D4
330
C1
100
AcDbEntity
  8
AM_6
100
AcDbText
 10
0.6300000000000008
 20
-4.734375
 30
0.0
 40
0.5
  1
0.4170
100
AcDbAttributeDefinition
  3

  2
KDM
 70
     8
280
     0
  0
ATTDEF
  5
D5
330
C1
100
AcDbEntity
  8
AM_6
100
AcDbText
 10
0.6300000000000008
 20
-5.234375
 30
0.0
 40
0.5
  1
baldor
100
AcDbAttributeDefinition
  3

  2
COMPANY
 70
     8
280
     0
  0
LINE
  5
D6
330
C1
100
AcDbEntity
  8
AM_9
100
AcDbLine
 10
-4.60165
 20
2.128316666666667
 30
0.0
 11
-4.60165
 21
2.723975
 31
0.0
  0
LINE
  5
D7
330
C1
100
AcDbEntity
  8
AM_9
100
AcDbLine
 10
-5.01835
 20
2.723975
 30
0.0
 11
-5.01835
 21
2.128316666666667
 31
0.0
  0
LINE
  5
D8
330
C1
100
AcDbEntity
  8
AM_9
100
AcDbLine
 10
-5.01835
 20
2.128316666666667
 30
0.0
 11
-4.60165
 21
2.128316666666667
 31
0.0
  0
LINE
  5
D9
330
C1
100
AcDbEntity
  8
AM_9
100
AcDbLine
 10
-5.01835
 20
2.128316666666667
 30
0.0
 11
-5.02632665512292
 21
2.120340011543747
 31
0.0
  0
LINE
  5
DA
330
C1
100
AcDbEntity
  8
AM_9
100
AcDbLine
 10
-4.593622808238082
 20
2.120289474904749
 30
0.0
 11
-4.60165
 21
2.128316666666667
 31
0.0
  0
LINE
  5
DB
330
C1
100
AcDbEntity
  8
AM_9
100
AcDbLine
 10
-5.01835
 20
2.723975
 30
0.0
 11
-4.60165
 21
2.723975
 31
0.0
  0
LINE
  5
DC
330
C1
100
AcDbEntity
  8
AM_9
100
AcDbLine
 10
-4.60165
 20
2.723975
 30
0.0
 11
-4.56
 21
2.765625
 31
0.0
  0
LINE
  5
DD
330
C1
100
AcDbEntity
  8
AM_9
100
AcDbLine
 10
-5.06
 20
2.765625
 30
0.0
 11
-5.01835
 21
2.723975
 31
0.0
  0
LWPOLYLINE
  5
DE
330
C1
100
AcDbEntity
  8
AM_9
100
AcDbPolyline
 90
       38
 70
     0
 43
0.0
 10
-4.648527269720325
 20
0.7553325821002994
 10
-4.629156530532244
 20
0.7801819617212915
 10
-4.613735721553157
 20
0.8071919897255869
 10
-4.60098130894933
 20
0.841075323147585
 10
-4.594320148061696
 20
0.8761460700674862
 10
-4.594046838535621
 20
0.9124668146907514
 10
-4.600371643799554
 20
0.948016730488352
 10
-4.613364645034809
 20
0.9820358871958395
 10
-4.632630222958653
 20
1.013322024561616
 10
-4.657329963640261
 20
1.040470903864965
 10
-4.687054845632422
 20
1.06325611250384
 10
-4.719493259689728
 20
1.080173263803238
 10
-4.754880521281622
 20
1.091808745021455
 10
-4.789950344360223
 20
1.097450383710986
 10
-4.825628263858183
 20
1.097806206079551
 10
-4.859512587883563
 20
1.093065402581919
 10
-4.89202260781982
 20
1.083575345219365
 10
-4.922517053153456
 20
1.069446891839833
 10
-4.950020869556715
 20
1.051221507161746
 10
-4.974898641905716
 20
1.02826015568347
 10
-4.995319014011169
 20
1.001973630145817
 10
-5.011534341330012
 20
0.9713080817300328
 10
-5.02201166016802
 20
0.9384603132853394
 10
-5.026524871196479
 20
0.9028705789295719
 10
-5.024525336237964
 20
0.866782636017469
 10
-5.015792464651589
 20
0.8306666761628062
 10
-5.000581458022958
 20
0.7961441815955926
 10
-4.979361093349507
 20
0.7646092471893663
 10
-4.95260832287007
 20
0.7368045473401853
 10
-4.922130238998792
 20
0.714583459955741
 10
-4.887961439144591
 20
0.6977227203400462
 10
-4.853226657961343
 20
0.6875147685228971
 10
-4.817142861238747
 20
0.6832069106349892
 10
-4.782581780542766
 20
0.6848709731065872
 10
-4.748801935484985
 20
0.6919918567810912
 10
-4.716994881265922
 20
0.7042439095664906
 10
-4.687677427931418
 20
0.7211192011086273
 10
-4.648527269720325
 20
0.7553325821002994
  0
LINE
  5
DF
330
C1
100
AcDbEntity
  8
AM_9
100
AcDbLine
 10
-5.25
 20
-2.12
 30
0.0
 11
-4.369999999999999
 21
-2.12
 31
0.0
  0
LINE
  5
E0
330
C1
100
AcDbEntity
  8
AM_9
100
AcDbLine
 10
-4.369999999999999
 20
2.12
 30
0.0
 11
-4.593987010698912
 21
2.12
 31
0.0
  0
LINE
  5
E1
330
C1
100
AcDbEntity
  8
AM_9
100
AcDbLine
 10
-5.025899334973031
 20
2.12
 30
0.0
 11
-5.25
 21
2.12
 31
0.0
  0
LWPOLYLINE
  5
E2
330
C1
100
AcDbEntity
  8
AM_9
100
AcDbPolyline
 90
       21
 70
     0
 43
0.0
 10
-5.026666666666596
 20
2.119999999999992
 10
-5.026182956173144
 20
2.119944996509076
 10
-5.020206316388949
 20
2.119275271596195
 10
-5.007861595767471
 20
2.117950007450867
 10
-4.988710338956809
 20
2.116049490654317
 10
-4.964763064002312
 20
2.113940558988845
 10
-4.934851475392248
 20
2.111726765405039
 10
-4.903136256702722
 20
2.109892892457725
 10
-4.867273549354083
 20
2.108459575893357
 10
-4.832772149730405
 20
2.107724895794853
 10
-4.796484095318383
 20
2.10763550093538
 10
-4.76299329392418
 20
2.108174829241166
 10
-4.729890231451797
 20
2.10929348643794
 10
-4.699636014858393
 20
2.110823294463101
 10
-4.671581632183136
 20
2.112672808573442
 10
-4.646772845840065
 20
2.114651870692609
 10
-4.625816305205841
 20
2.11657330240036
 10
-4.609453515472049
 20
2.118231574436285
 10
-4.598466031346461
 20
2.119422462789338
 10
-4.593566681920977
 20
2.119973450609591
 10
-4.593333333333564
 20
2.119999999999973
  0
LINE
  5
E3
330
C1
100
AcDbEntity
  8
AM_9
100
AcDbLine
 10
-4.649959973597594
 20
2.114379646812575
 30
0.0
 11
-4.65506472272461
 21
2.113954659390664
 31
0.0
  0
LINE
  5
E4
330
C1
100
AcDbEntity
  8
AM_9
100
AcDbLine
 10
-4.593333333333564
 20
2.119999999999973
 30
0.0
 11
-4.605053938575537
 21
2.118700981282758
 31
0.0
  0
ELLIPSE
  5
E5
330
C1
100
AcDbEntity
  8
AM_9
100
AcDbEllipse
 10
-4.810000000000004
 20
0.8994654901004295
 30
0.0
 11
0.2083499999999949
 21
0.0
 31
0.0
210
0.0
220
0.0
230
1.0
 40
0.9063077870366502
 41
2.411993640411836
 42
3.141592653589793
  0
LINE
  5
E6
330
C1
100
AcDbEntity
  8
AM_9
100
AcDbLine
 10
-4.60165
 20
0.8994654901004264
 30
0.0
 11
-4.60165
 21
1.151201579525122
 31
0.0
  0
LINE
  5
E7
330
C1
100
AcDbEntity
  8
AM_9
100
AcDbLine
 10
-5.018349999999999
 20
1.151201579525122
 30
0.0
 11
-5.018349999999999
 21
0.8994654901004264
 31
0.0
  0
ELLIPSE
  5
E8
330
C1
100
AcDbEntity
  8
AM_9
100
AcDbEllipse
 10
-4.81
 20
0.8994654901004258
 30
0.0
 11
0.2083499999999993
 21
3.104656934738150E-9
 31
0.0
210
0.0
220
0.0
230
1.0
 40
0.90630778703665
 41
3.141592638688632
 42
6.283187037607677
  0
ELLIPSE
  5
E9
330
C1
100
AcDbEntity
  8
AM_9
100
AcDbEllipse
 10
-4.810000000000003
 20
0.8994654901004263
 30
0.0
 11
0.2083500000000029
 21
0.0
 31
0.0
210
0.0
220
0.0
230
1.0
 40
0.9063077870366502
 41
0.0
 42
0.7295990131779491
  0
LINE
  5
EA
330
C1
100
AcDbEntity
  8
AM_9
100
AcDbLine
 10
-4.5
 20
-2.765625
 30
0.0
 11
-4.369999999999999
 21
-2.765625
 31
0.0
  0
LINE
  5
EB
330
C1
100
AcDbEntity
  8
AM_9
100
AcDbLine
 10
-4.369999999999999
 20
2.765625
 30
0.0
 11
-4.5
 21
2.765625
 31
0.0
  0
LINE
  5
EC
330
C1
100
AcDbEntity
  8
AM_9
100
AcDbLine
 10
-4.665760695640415
 20
2.758695914398773
 30
0.0
 11
-4.636876531429714
 21
2.760222032331698
 31
0.0
  0
LINE
  5
ED
330
C1
100
AcDbEntity
  8
AM_9
100
AcDbLine
 10
-5.059999999999945
 20
2.765624999999995
 30
0.0
 11
-5.031630051394672
 21
2.763404900019624
 31
0.0
  0
LINE
  5
EE
330
C1
100
AcDbEntity
  8
AM_9
100
AcDbLine
 10
-4.369999999999999
 20
2.765625
 30
0.0
 11
-4.369999999999999
 21
-2.765625
 31
0.0
  0
LINE
  5
EF
330
C1
100
AcDbEntity
  8
AM_5
100
AcDbLine
 10
-5.06
 20
2.765625
 30
0.0
 11
-5.06
 21
2.12
 31
0.0
  0
LINE
  5
F0
330
C1
100
AcDbEntity
  8
AM_5
100
AcDbLine
 10
-4.56
 20
2.765625
 30
0.0
 11
-4.56
 21
2.12
 31
0.0
  0
ELLIPSE
  5
F1
330
C1
100
AcDbEntity
  8
AM_4
100
AcDbEllipse
 10
-4.81
 20
0.899465490100425
 30
0.0
 11
0.2083500000000011
 21
0.0
 31
0.0
210
0.0
220
0.0
230
1.0
 40
0.9063077870366504
 41
1.570796326794897
 42
2.411993640411827
  0
ELLIPSE
  5
F2
330
C1
100
AcDbEntity
  8
AM_4
100
AcDbEllipse
 10
-4.81
 20
1.151201579525121
 30
0.0
 11
0.2083499999999993
 21
3.104656934738150E-9
 31
0.0
210
0.0
220
0.0
230
1.0
 40
0.906307787036651
 41
3.141592638688632
 42
7.853981620469444
  0
ELLIPSE
  5
F3
330
C1
100
AcDbEntity
  8
AM_4
100
AcDbEllipse
 10
-4.81
 20
0.8994654901004253
 30
0.0
 11
0.2083500000000002
 21
3.104656934738163E-9
 31
0.0
210
0.0
220
0.0
230
1.0
 40
0.9063077870366536
 41
0.7295989980411184
 42
1.570796313289858
  0
ELLIPSE
  5
F4
330
C1
100
AcDbEntity
  8
AM_4
100
AcDbEllipse
 10
-4.81
 20
1.151201579525122
 30
0.0
 11
0.2083499999999993
 21
3.104656934738150E-9
 31
0.0
210
0.0
220
0.0
230
1.0
 40
0.906307787036648
 41
1.570796313289858
 42
3.141592638688632
  0
LINE
  5
F5
330
C1
100
AcDbEntity
  8
AM_4
100
AcDbLine
 10
-5.25
 20
2.618958333333333
 30
0.0
 11
-5.25
 21
-2.618958333333333
 31
0.0
  0
ARC
  5
F6
330
C1
100
AcDbEntity
  8
AM_4
100
AcDbCircle
 10
-5.103333333333334
 20
-2.618958333333334
 30
0.0
 40
0.1466666666666656
100
AcDbArc
 50
180.0
 51
270.0
  0
ARC
  5
F7
330
C1
100
AcDbEntity
  8
AM_4
100
AcDbCircle
 10
-5.103333333333334
 20
2.618958333333334
 30
0.0
 40
0.1466666666666661
100
AcDbArc
 50
90.0
 51
180.0
  0
LWPOLYLINE
  5
F8
330
C1
100
AcDbEntity
  8
AM_4
100
AcDbPolyline
 90
       38
 70
     0
 43
0.0
 10
-4.619456148885459
 20
1.026451711298556
 10
-4.645595106237953
 20
1.002794012684716
 10
-4.675168227803887
 20
0.9828689636514688
 10
-4.712363309203198
 20
0.965220280033866
 10
-4.752120924653908
 20
0.9534014472575235
 10
-4.794714561147384
 20
0.9477022032084667
 10
-4.83772733814877
 20
0.9486524139600839
 10
-4.880591772637653
 20
0.9564827417226229
 10
-4.921444182224607
 20
0.9709323007771595
 10
-4.958817166659081
 20
0.9915615813438996
 10
-4.991844775217018
 20
1.017782120166919
 10
-5.018674417529128
 20
1.047998534011156
 10
-5.039425905261161
 20
1.081901934368151
 10
-5.052781924176859
 20
1.116894250659609
 10
-5.059358550585321
 20
1.153247557605483
 10
-5.05893741015827
 20
1.188503951349196
 10
-5.052002634740323
 20
1.22297339043453
 10
-5.038855825897104
 20
1.255389465439179
 10
-5.019992761535575
 20
1.285281143474083
 10
-4.995325651851669
 20
1.312484506152882
 10
-4.966043588687771
 20
1.335730724795755
 10
-4.931505497673462
 20
1.355174190027062
 10
-4.893837169016962
 20
1.369464797136195
 10
-4.85248355305022
 20
1.37850706452665
 10
-4.809981881092284
 20
1.381561671264592
 10
-4.766580082636519
 20
1.378369005254935
 10
-4.724402289691657
 20
1.368934306107206
 10
-4.684662822324092
 20
1.353343607654619
 10
-4.648562444813532
 20
1.331997328202906
 10
-4.617915814673117
 20
1.305890813806645
 10
-4.592891104021223
 20
1.275326969275161
 10
-4.575081310450273
 20
1.242444834380287
 10
-4.56394777968995
 20
1.207075524902919
 10
-4.560050537462284
 20
1.171768550621999
 10
-4.562830771049182
 20
1.136144148962878
 10
-4.572041235355646
 20
1.101924090800926
 10
-4.587258966098944
 20
1.069358309749664
 10
-4.619456148851913
 20
1.026451711248347
  0
LINE
  5
F9
330
C1
100
AcDbEntity
  8
AM_4
100
AcDbLine
 10
-5.103333333333333
 20
-2.765625
 30
0.0
 11
-4.5
 21
-2.765625
 31
0.0
  0
LINE
  5
FA
330
C1
100
AcDbEntity
  8
AM_4
100
AcDbLine
 10
-4.5
 20
2.765625
 30
0.0
 11
-4.56
 21
2.765625
 31
0.0
  0
LINE
  5
FB
330
C1
100
AcDbEntity
  8
AM_4
100
AcDbLine
 10
-5.06
 20
2.765625
 30
0.0
 11
-5.103333333333333
 21
2.765625
 31
0.0
  0
LINE
  5
FC
330
C1
100
AcDbEntity
  8
AM_4
100
AcDbLine
 10
-5.103333333333333
 20
2.765625
 30
0.0
 11
-5.103333333333333
 21
-2.765625
 31
0.0
  0
LWPOLYLINE
  5
FD
330
C1
100
AcDbEntity
  8
AM_4
100
AcDbPolyline
 90
       20
 70
     0
 43
0.0
 10
-4.560000000000011
 20
2.765624999999999
 10
-4.563189910085175
 20
2.765362215730176
 10
-4.572562414249223
 20
2.764609380378981
 10
-4.588310804003541
 20
2.763409253771417
 10
-4.609423890105265
 20
2.761928161472382
 10
-4.636174387082821
 20
2.760262568058591
 10
-4.667620076383417
 20
2.75860714167513
 10
-4.703592237731818
 20
2.757115618482621
 10
-4.742825692305773
 20
2.755979623175299
 10
-4.784954074112151
 20
2.755331175796079
 10
-4.827718291680144
 20
2.755278861587559
 10
-4.871193298617139
 20
2.755851499844154
 10
-4.912011897713629
 20
2.756962842291866
 10
-4.951039362641246
 20
2.758543850396657
 10
-4.984354545975526
 20
2.760293211692305
 10
-5.013480912538765
 20
2.762123231212157
 10
-5.034990278917517
 20
2.763654074655163
 10
-5.050549553365496
 20
2.764856155296163
 10
-5.058419688210409
 20
2.765494398114297
 10
-5.059999999999945
 20
2.765624999999995
  0
ENDBLK
  5
C4
330
C1
100
AcDbEntity
  8
0
100
AcDbBlockEnd
  0
BLOCK
  5
100
330
FE
100
AcDbEntity
  8
0
100
AcDbBlockBegin
  2
4_3_7_16I_0_in_023114_2
 70
     2
 10
0.0
 20
0.0
 30
0.0
  3
4_3_7_16I_0_in_023114_2
  1

  0
ATTDEF
  5
102
330
FE
100
AcDbEntity
  8
AM_6
100
AcDbText
 10
4.75
 20
2.92
 30
0.0
 40
0.5
  1
E-Type Insert -Inch
100
AcDbAttributeDefinition
  3

  2
NN
 70
     8
280
     0
  0
ATTDEF
  5
103
330
FE
100
AcDbEntity
  8
AM_6
100
AcDbText
 10
4.75
 20
2.42
 30
0.0
 40
0.5
  1
E-Type Bearings
100
AcDbAttributeDefinition
  3

  2
NT
 70
     8
280
     0
  0
ATTDEF
  5
104
330
FE
100
AcDbEntity
  8
AM_6
100
AcDbText
 10
4.75
 20
1.92
 30
0.0
 40
0.5
  1
3-7/16I
100
AcDbAttributeDefinition
  3

  2
NB
 70
     8
280
     0
  0
ATTDEF
  5
105
330
FE
100
AcDbEntity
  8
AM_6
100
AcDbText
 10
4.75
 20
1.42
 30
0.0
 40
0.5
  1
$BORE.I
100
AcDbAttributeDefinition
  3

  2
NBSYN
 70
     8
280
     0
  0
ATTDEF
  5
106
330
FE
100
AcDbEntity
  8
AM_6
100
AcDbText
 10
4.75
 20
0.9199999999999999
 30
0.0
 40
0.5
  1
3-7/16I
100
AcDbAttributeDefinition
  3

  2
LINA
 70
     8
280
     0
  0
ATTDEF
  5
107
330
FE
100
AcDbEntity
  8
AM_6
100
AcDbText
 10
4.75
 20
0.4199999999999999
 30
0.0
 40
0.5
  1
3-7/16
100
AcDbAttributeDefinition
  3

  2
BORE
 70
     8
280
     0
  0
ATTDEF
  5
108
330
FE
100
AcDbEntity
  8
AM_6
100
AcDbText
 10
4.75
 20
-0.0800000000000001
 30
0.0
 40
0.5
  1
5.00
100
AcDbAttributeDefinition
  3

  2
A
 70
     8
280
     0
  0
ATTDEF
  5
109
330
FE
100
AcDbEntity
  8
AM_6
100
AcDbText
 10
4.75
 20
-0.5800000000000001
 30
0.0
 40
0.5
  1
2.25
100
AcDbAttributeDefinition
  3

  2
B
 70
     8
280
     0
  0
ATTDEF
  5
10A
330
FE
100
AcDbEntity
  8
AM_6
100
AcDbText
 10
4.75
 20
-1.08
 30
0.0
 40
0.5
  1
4.24
100
AcDbAttributeDefinition
  3

  2
C
 70
     8
280
     0
  0
ATTDEF
  5
10B
330
FE
100
AcDbEntity
  8
AM_6
100
AcDbText
 10
4.75
 20
-1.58
 30
0.0
 40
0.5
  1
5.84
100
AcDbAttributeDefinition
  3

  2
D
 70
     8
280
     0
  0
ATTDEF
  5
10C
330
FE
100
AcDbEntity
  8
AM_6
100
AcDbText
 10
4.75
 20
-2.08
 30
0.0
 40
0.5
  1
0.54
100
AcDbAttributeDefinition
  3

  2
E
 70
     8
280
     0
  0
ATTDEF
  5
10D
330
FE
100
AcDbEntity
  8
AM_6
100
AcDbText
 10
4.75
 20
-2.58
 30
0.0
 40
0.5
  1
0.44
100
AcDbAttributeDefinition
  3

  2
F
 70
     8
280
     0
  0
ATTDEF
  5
10E
330
FE
100
AcDbEntity
  8
AM_6
100
AcDbText
 10
4.75
 20
-3.08
 30
0.0
 40
0.5
  1
baldor
100
AcDbAttributeDefinition
  3

  2
COMPANY
 70
     8
280
     0
  0
LINE
  5
10F
330
FE
100
AcDbEntity
  8
AM_9
100
AcDbLine
 10
-0.9599999999999999
 20
2.12
 30
0.0
 11
-0.9599999999999999
 21
1.71875
 31
0.0
  0
LINE
  5
110
330
FE
100
AcDbEntity
  8
AM_9
100
AcDbLine
 10
-0.4199999999999995
 20
1.71875
 30
0.0
 11
-0.4199999999999996
 21
2.12
 31
0.0
  0
LINE
  5
111
330
FE
100
AcDbEntity
  8
AM_9
100
AcDbLine
 10
-5.08
 20
2.12
 30
0.0
 11
-5.08
 21
1.71875
 31
0.0
  0
LINE
  5
112
330
FE
100
AcDbEntity
  8
AM_9
100
AcDbLine
 10
-4.54
 20
1.71875
 30
0.0
 11
-4.54
 21
2.12
 31
0.0
  0
LINE
  5
113
330
FE
100
AcDbEntity
  8
AM_9
100
AcDbLine
 10
-5.25
 20
-1.71875
 30
0.0
 11
-0.2499999999999998
 21
-1.71875
 31
0.0
  0
LINE
  5
114
330
FE
100
AcDbEntity
  8
AM_9
100
AcDbLine
 10
-0.2499999999999998
 20
1.71875
 30
0.0
 11
-0.4199999999999996
 21
1.71875
 31
0.0
  0
LINE
  5
115
330
FE
100
AcDbEntity
  8
AM_9
100
AcDbLine
 10
-0.9599999999999999
 20
1.71875
 30
0.0
 11
-4.54
 21
1.71875
 31
0.0
  0
LINE
  5
116
330
FE
100
AcDbEntity
  8
AM_9
100
AcDbLine
 10
-5.08
 20
1.71875
 30
0.0
 11
-5.25
 21
1.71875
 31
0.0
  0
LWPOLYLINE
  5
117
330
FE
100
AcDbEntity
  8
AM_9
100
AcDbPolyline
 90
       21
 70
     0
 43
0.0
 10
-0.9599999999994423
 20
1.718749999999912
 10
-0.9583649551890594
 20
1.718493907953597
 10
-0.9498962918475452
 20
1.717191790399693
 10
-0.9338963758189915
 20
1.714843142866903
 10
-0.911601311927633
 20
1.711814447873381
 10
-0.8824416771738147
 20
1.708284332777618
 10
-0.8484247765253129
 20
1.704787368652495
 10
-0.8088406506167211
 20
1.701565356587576
 10
-0.7669621171613148
 20
1.699154121902411
 10
-0.7215795947462145
 20
1.697703988716624
 10
-0.677056834207977
 20
1.697459598352998
 10
-0.6316142876649099
 20
1.698414099654403
 10
-0.5893160183277744
 20
1.700393726954252
 10
-0.5486823342469044
 20
1.70328278484634
 10
-0.5127644913320414
 20
1.706638212402614
 10
-0.4808747397613765
 20
1.710244116192151
 10
-0.4554324949205016
 20
1.713541209583015
 10
-0.4360307002130743
 20
1.716304742093974
 10
-0.4243617491406557
 20
1.71807020893199
 10
-0.4200099940863898
 20
1.718748430048223
 10
-0.4200000000001982
 20
1.718749999999969
  0
LINE
  5
118
330
FE
100
AcDbEntity
  8
AM_9
100
AcDbLine
 10
-0.6850041629609429
 20
1.697417603563637
 30
0.0
 11
-0.6899999999999997
 21
1.697410251677537
 31
0.0
  0
LINE
  5
119
330
FE
100
AcDbEntity
  8
AM_9
100
AcDbLine
 10
-0.4200000000001982
 20
1.718749999999969
 30
0.0
 11
-0.4347544990434779
 21
1.716494051332117
 31
0.0
  0
LWPOLYLINE
  5
11A
330
FE
100
AcDbEntity
  8
AM_9
100
AcDbPolyline
 90
       21
 70
     0
 43
0.0
 10
-5.079999999999442
 20
1.718749999999912
 10
-5.07836495518906
 20
1.718493907953597
 10
-5.069896291847545
 20
1.717191790399693
 10
-5.053896375818992
 20
1.714843142866903
 10
-5.031601311927633
 20
1.711814447873381
 10
-5.002441677173815
 20
1.708284332777618
 10
-4.968424776525313
 20
1.704787368652495
 10
-4.928840650616721
 20
1.701565356587576
 10
-4.886962117161315
 20
1.699154121902411
 10
-4.841579594746214
 20
1.697703988716624
 10
-4.797056834207978
 20
1.697459598352998
 10
-4.751614287664911
 20
1.698414099654403
 10
-4.709316018327775
 20
1.700393726954252
 10
-4.668682334246904
 20
1.70328278484634
 10
-4.632764491332042
 20
1.706638212402614
 10
-4.600874739761377
 20
1.710244116192151
 10
-4.575432494920502
 20
1.713541209583015
 10
-4.556030700213075
 20
1.716304742093974
 10
-4.544361749140656
 20
1.71807020893199
 10
-4.54000999408639
 20
1.718748430048223
 10
-4.540000000000198
 20
1.718749999999969
  0
LWPOLYLINE
  5
11B
330
FE
100
AcDbEntity
  8
AM_9
100
AcDbPolyline
 90
        4
 70
     0
 43
0.0
 10
-0.9433494303897901
 20
0.8099060811958256
 10
-0.9531120783212842
 20
0.7808433601537965
 10
-0.9595043773568585
 20
0.7411622819341025
 10
-0.9599999990743482
 20
0.7263953999622584
  0
LWPOLYLINE
  5
11C
330
FE
100
AcDbEntity
  8
AM_9
100
AcDbPolyline
 90
        9
 70
     0
 43
0.0
 10
-0.6899999999999997
 20
0.9620596725246996
 10
-0.7343723462394464
 20
0.9589776117097233
 10
-0.7787446924788927
 20
0.9494437132308038
 10
-0.8193787521819388
 20
0.9342172720372902
 10
-0.8574750851295561
 20
0.9127804763009515
 10
-0.8901432586539866
 20
0.886572125765796
 10
-0.9180154247443117
 20
0.8548514494513818
 10
-0.9388633723745488
 20
0.819937328343904
 10
-0.9433494303897901
 20
0.8099060811958256
  0
LINE
  5
11D
330
FE
100
AcDbEntity
  8
AM_9
100
AcDbLine
 10
-0.9599999999999999
 20
0.8959483170521763
 30
0.0
 11
-0.9599999999999999
 21
0.7263155244356274
 31
0.0
  0
LINE
  5
11E
330
FE
100
AcDbEntity
  8
AM_9
100
AcDbLine
 10
-0.4199999999999996
 20
0.7263632127594185
 30
0.0
 11
-0.4199999999999996
 21
0.8959031063012051
 31
0.0
  0
LWPOLYLINE
  5
11F
330
FE
100
AcDbEntity
  8
AM_9
100
AcDbPolyline
 90
       21
 70
     0
 43
0.0
 10
-0.9599999990743482
 20
0.7263953999622584
 10
-0.9583649551890591
 20
0.6993776431308667
 10
-0.9498962918475452
 20
0.6594016440066154
 10
-0.9338963758189915
 20
0.6197543434161663
 10
-0.9116013119276328
 20
0.5836466693899977
 10
-0.8824416771738147
 20
0.5503121971922345
 10
-0.8484247765253123
 20
0.5223229936904268
 10
-0.8088406506167207
 20
0.4993878078107933
 10
-0.7669621171613146
 20
0.483542169827645
 10
-0.7215795947462141
 20
0.4744571371451572
 10
-0.6770568342079768
 20
0.4729556501631743
 10
-0.6316142876649096
 20
0.4788675120531314
 10
-0.5893160183277741
 20
0.491564754786356
 10
-0.5486823342469042
 20
0.5113298647255077
 10
-0.5127644913320412
 20
0.5366551837283139
 10
-0.4808747397613762
 20
0.5679989834795077
 10
-0.4554324949205014
 20
0.6029923372057509
 10
-0.4360307002130741
 20
0.6422792496103372
 10
-0.4243617491406557
 20
0.6822810134558688
 10
-0.4200099940863898
 20
0.7242690471961433
 10
-0.4200000003302238
 20
0.7263630347952514
  0
LWPOLYLINE
  5
120
330
FE
100
AcDbEntity
  8
AM_9
100
AcDbPolyline
 90
        8
 70
     0
 43
0.0
 10
-0.4370459982306714
 20
0.8108477948087569
 10
-0.4517487724564628
 20
0.8395158822191486
 10
-0.4764878602015337
 20
0.8727905198387099
 10
-0.5066909454521282
 20
0.9011910219553528
 10
-0.5430041684159805
 20
0.9253001355966681
 10
-0.582658228661832
 20
0.9433230481659842
 10
-0.6266314576136868
 20
0.955724410566363
 10
-0.6899999999999997
 20
0.9620596725246996
  0
LWPOLYLINE
  5
121
330
FE
100
AcDbEntity
  8
AM_9
100
AcDbPolyline
 90
        4
 70
     0
 43
0.0
 10
-0.4200000003302238
 20
0.7263630347952514
 10
-0.4232825090103901
 20
0.7641994727705116
 10
-0.4341761049654562
 20
0.8037063165742929
 10
-0.4370459982306714
 20
0.8108477948087569
  0
LWPOLYLINE
  5
122
330
FE
100
AcDbEntity
  8
AM_9
100
AcDbPolyline
 90
       21
 70
     0
 43
0.0
 10
-0.4200000010523069
 20
0.8959723193152055
 10
-0.4216957325601553
 20
0.8684775279886504
 10
-0.4305033166900211
 20
0.8278948101609958
 10
-0.4465010393104509
 20
0.7888684769640606
 10
-0.4693985495657541
 20
0.7524824588542216
 10
-0.4984257046942249
 20
0.7199001638437329
 10
-0.5331181397613716
 20
0.6919988103405442
 10
-0.5722526642682356
 20
0.6698392091981814
 10
-0.6148073990157321
 20
0.6542293309392224
 10
-0.6595153452333311
 20
0.6456097619730042
 10
-0.7047918707143729
 20
0.6443690925428374
 10
-0.7496489972279297
 20
0.6503554067146965
 10
-0.7926459228110604
 20
0.6634110212919858
 10
-0.8327738368926082
 20
0.6830087705445494
 10
-0.8690624049811123
 20
0.7087562367893651
 10
-0.9003398359125276
 20
0.7396661469748094
 10
-0.9257942506619747
 20
0.7750649359171926
 10
-0.9445844939863111
 20
0.8136434280233976
 10
-0.9560436877867717
 20
0.8541497401390602
 10
-0.9599994664420339
 20
0.895464208198933
 10
-0.9599999999748912
 20
0.8959473776705272
  0
LWPOLYLINE
  5
123
330
FE
100
AcDbEntity
  8
AM_9
100
AcDbPolyline
 90
        6
 70
     0
 43
0.0
 10
-0.8759201824648978
 20
1.069567569232474
 10
-0.8709580834735628
 20
1.073518601491382
 10
-0.8348317936781944
 20
1.097278621654302
 10
-0.7944060848039518
 20
1.115392361423735
 10
-0.7509950866120044
 20
1.127405769136362
 10
-0.6899999999999997
 20
1.13335786779713
  0
LWPOLYLINE
  5
124
330
FE
100
AcDbEntity
  8
AM_9
100
AcDbPolyline
 90
        6
 70
     0
 43
0.0
 10
-0.9599999999748912
 20
0.8959473776705272
 10
-0.9562783956094926
 20
0.936090322255598
 10
-0.9451524374767521
 20
0.9752019363083957
 10
-0.9268535231887374
 20
1.0116971268762
 10
-0.901995975984996
 20
1.044699427682732
 10
-0.8759201824648978
 20
1.069567569232474
  0
LWPOLYLINE
  5
125
330
FE
100
AcDbEntity
  8
AM_9
100
AcDbPolyline
 90
        4
 70
     0
 43
0.0
 10
-5.063349430389791
 20
0.8099060811958257
 10
-5.073112078321284
 20
0.7808433601537965
 10
-5.079504377356859
 20
0.7411622819341025
 10
-5.079999999074349
 20
0.7263953999622584
  0
LWPOLYLINE
  5
126
330
FE
100
AcDbEntity
  8
AM_9
100
AcDbPolyline
 90
        9
 70
     0
 43
0.0
 10
-4.81
 20
0.9620596725246996
 10
-4.854372346239447
 20
0.9589776117097233
 10
-4.898744692478893
 20
0.9494437132308038
 10
-4.939378752181939
 20
0.9342172720372902
 10
-4.977475085129557
 20
0.9127804763009515
 10
-5.010143258653987
 20
0.886572125765796
 10
-5.038015424744312
 20
0.8548514494513818
 10
-5.05886337237455
 20
0.819937328343904
 10
-5.063349430389791
 20
0.8099060811958257
  0
LINE
  5
127
330
FE
100
AcDbEntity
  8
AM_9
100
AcDbLine
 10
-5.08
 20
0.8959483170521763
 30
0.0
 11
-5.08
 21
0.7263155244356274
 31
0.0
  0
LINE
  5
128
330
FE
100
AcDbEntity
  8
AM_9
100
AcDbLine
 10
-4.54
 20
0.7263632127594185
 30
0.0
 11
-4.54
 21
0.8959031063012051
 31
0.0
  0
LWPOLYLINE
  5
129
330
FE
100
AcDbEntity
  8
AM_9
100
AcDbPolyline
 90
       21
 70
     0
 43
0.0
 10
-5.079999999074349
 20
0.7263953999622584
 10
-5.078364955189059
 20
0.6993776431308667
 10
-5.069896291847545
 20
0.6594016440066154
 10
-5.053896375818992
 20
0.6197543434161663
 10
-5.031601311927633
 20
0.5836466693899977
 10
-5.002441677173815
 20
0.5503121971922345
 10
-4.968424776525312
 20
0.5223229936904268
 10
-4.928840650616721
 20
0.4993878078107933
 10
-4.886962117161315
 20
0.483542169827645
 10
-4.841579594746214
 20
0.4744571371451572
 10
-4.797056834207977
 20
0.4729556501631743
 10
-4.751614287664911
 20
0.4788675120531314
 10
-4.709316018327774
 20
0.491564754786356
 10
-4.668682334246904
 20
0.5113298647255077
 10
-4.632764491332042
 20
0.5366551837283139
 10
-4.600874739761377
 20
0.5679989834795077
 10
-4.575432494920502
 20
0.6029923372057509
 10
-4.556030700213074
 20
0.6422792496103372
 10
-4.544361749140656
 20
0.6822810134558688
 10
-4.54000999408639
 20
0.7242690471961433
 10
-4.540000000330224
 20
0.7263630347952514
  0
LWPOLYLINE
  5
12A
330
FE
100
AcDbEntity
  8
AM_9
100
AcDbPolyline
 90
        8
 70
     0
 43
0.0
 10
-4.557045998230671
 20
0.8108477948087567
 10
-4.571748772456463
 20
0.8395158822191486
 10
-4.596487860201534
 20
0.8727905198387099
 10
-4.626690945452129
 20
0.9011910219553528
 10
-4.663004168415981
 20
0.9253001355966681
 10
-4.702658228661832
 20
0.9433230481659842
 10
-4.746631457613687
 20
0.955724410566363
 10
-4.81
 20
0.9620596725246996
  0
LWPOLYLINE
  5
12B
330
FE
100
AcDbEntity
  8
AM_9
100
AcDbPolyline
 90
        4
 70
     0
 43
0.0
 10
-4.540000000330224
 20
0.7263630347952514
 10
-4.543282509010391
 20
0.7641994727705116
 10
-4.554176104965457
 20
0.8037063165742929
 10
-4.557045998230671
 20
0.8108477948087567
  0
LWPOLYLINE
  5
12C
330
FE
100
AcDbEntity
  8
AM_9
100
AcDbPolyline
 90
       21
 70
     0
 43
0.0
 10
-4.540000001052307
 20
0.8959723193152055
 10
-4.541695732560155
 20
0.8684775279886504
 10
-4.550503316690022
 20
0.8278948101609958
 10
-4.566501039310451
 20
0.7888684769640606
 10
-4.589398549565755
 20
0.7524824588542216
 10
-4.618425704694225
 20
0.7199001638437329
 10
-4.653118139761371
 20
0.6919988103405442
 10
-4.692252664268236
 20
0.6698392091981814
 10
-4.734807399015732
 20
0.6542293309392224
 10
-4.779515345233332
 20
0.6456097619730042
 10
-4.824791870714373
 20
0.6443690925428374
 10
-4.86964899722793
 20
0.6503554067146965
 10
-4.912645922811061
 20
0.6634110212919858
 10
-4.952773836892608
 20
0.6830087705445494
 10
-4.989062404981112
 20
0.7087562367893651
 10
-5.020339835912528
 20
0.7396661469748094
 10
-5.045794250661976
 20
0.7750649359171926
 10
-5.064584493986311
 20
0.8136434280233976
 10
-5.076043687786772
 20
0.8541497401390602
 10
-5.079999466442034
 20
0.895464208198933
 10
-5.079999999974891
 20
0.8959473776705272
  0
LWPOLYLINE
  5
12D
330
FE
100
AcDbEntity
  8
AM_9
100
AcDbPolyline
 90
        6
 70
     0
 43
0.0
 10
-4.996679988078562
 20
1.068939452878456
 10
-4.990958083473564
 20
1.073518601491382
 10
-4.954831793678195
 20
1.097278621654302
 10
-4.914406084803952
 20
1.115392361423735
 10
-4.870995086612004
 20
1.127405769136362
 10
-4.81
 20
1.13335786779713
  0
LWPOLYLINE
  5
12E
330
FE
100
AcDbEntity
  8
AM_9
100
AcDbPolyline
 90
        6
 70
     0
 43
0.0
 10
-5.079999999974891
 20
0.8959473776705272
 10
-5.076278395609493
 20
0.936090322255598
 10
-5.065152437476752
 20
0.9752019363083957
 10
-5.046853523188738
 20
1.0116971268762
 10
-5.021995975984996
 20
1.044699427682732
 10
-4.996679988078562
 20
1.068939452878456
  0
LWPOLYLINE
  5
12F
330
FE
100
AcDbEntity
  8
AM_9
100
AcDbPolyline
 90
        7
 70
     0
 43
0.0
 10
-4.622692916766817
 20
1.068417263594349
 10
-4.60906773554693
 20
1.056120280484209
 10
-4.581663057710495
 20
1.024469733709714
 10
-4.56069556198666
 20
0.9887690324712347
 10
-4.546783284591926
 20
0.950096538668429
 10
-4.540454953389077
 20
0.9096829474473109
 10
-4.540000001052307
 20
0.8959723193152055
  0
LWPOLYLINE
  5
130
330
FE
100
AcDbEntity
  8
AM_9
100
AcDbPolyline
 90
        6
 70
     0
 43
0.0
 10
-4.81
 20
1.13335786779713
 10
-4.764881609168771
 20
1.13009931459351
 10
-4.721039980071374
 20
1.120489069061559
 10
-4.679753229493175
 20
1.104681051038227
 10
-4.642115134634747
 20
1.083129109603225
 10
-4.622692916766817
 20
1.068417263594349
  0
LINE
  5
131
330
FE
100
AcDbEntity
  8
AM_9
100
AcDbLine
 10
-5.25
 20
-2.12
 30
0.0
 11
-3.875
 21
-2.12
 31
0.0
  0
LINE
  5
132
330
FE
100
AcDbEntity
  8
AM_9
100
AcDbLine
 10
-3.875
 20
2.12
 30
0.0
 11
-4.54
 21
2.12
 31
0.0
  0
LINE
  5
133
330
FE
100
AcDbEntity
  8
AM_9
100
AcDbLine
 10
-5.08
 20
2.12
 30
0.0
 11
-5.25
 21
2.12
 31
0.0
  0
LWPOLYLINE
  5
134
330
FE
100
AcDbEntity
  8
AM_9
100
AcDbPolyline
 90
       21
 70
     0
 43
0.0
 10
-4.540000000000274
 20
2.119999999999965
 10
-4.541695732560155
 20
2.119784701314365
 10
-4.550300920609854
 20
2.118712725179157
 10
-4.566501039310451
 20
2.116788072494951
 10
-4.589009662548516
 20
2.114317083421245
 10
-4.618425704694225
 20
2.111445171114302
 10
-4.652571929126387
 20
2.108621255109364
 10
-4.692252664268236
 20
2.106030492436406
 10
-4.734162339524696
 20
2.104103455333498
 10
-4.779515345233332
 20
2.102957278257512
 10
-4.824140099234888
 20
2.102783855370393
 10
-4.86964899722793
 20
2.103582183531297
 10
-4.91206448181836
 20
2.105211903455054
 10
-4.952773836892608
 20
2.107577843995575
 10
-4.988598841320107
 20
2.110307452984253
 10
-5.020339835912528
 20
2.113230429123078
 10
-5.045496819040403
 20
2.115882499520743
 10
-5.064584493986311
 20
2.118091892382922
 10
-5.075957787019361
 20
2.119488981919046
 10
-5.079999466442034
 20
2.119999932046929
 10
-5.079999999999994
 20
2.119999999999999
  0
LWPOLYLINE
  5
135
330
FE
100
AcDbEntity
  8
AM_9
100
AcDbPolyline
 90
        7
 70
     0
 43
0.0
 10
-0.5041158039578681
 20
1.069597194850246
 10
-0.4890677355469304
 20
1.056120280484209
 10
-0.4616630577104941
 20
1.024469733709714
 10
-0.4406955619866595
 20
0.9887690324712347
 10
-0.4267832845919265
 20
0.950096538668429
 10
-0.4204549533890776
 20
0.9096829474473109
 10
-0.4200000010523069
 20
0.8959723193152055
  0
LWPOLYLINE
  5
136
330
FE
100
AcDbEntity
  8
AM_9
100
AcDbPolyline
 90
        6
 70
     0
 43
0.0
 10
-0.6899999999999997
 20
1.13335786779713
 10
-0.6448816091687709
 20
1.13009931459351
 10
-0.6010399800713743
 20
1.120489069061559
 10
-0.5597532294931752
 20
1.104681051038227
 10
-0.5221151346347475
 20
1.083129109603225
 10
-0.5041158039578681
 20
1.069597194850246
  0
LINE
  5
137
330
FE
100
AcDbEntity
  8
AM_9
100
AcDbLine
 10
-1.625
 20
-2.12
 30
0.0
 11
-0.2499999999999998
 21
-2.12
 31
0.0
  0
LINE
  5
138
330
FE
100
AcDbEntity
  8
AM_9
100
AcDbLine
 10
-0.2499999999999998
 20
2.12
 30
0.0
 11
-0.4199999999999996
 21
2.12
 31
0.0
  0
LINE
  5
139
330
FE
100
AcDbEntity
  8
AM_9
100
AcDbLine
 10
-0.9599999999999999
 20
2.120000000000001
 30
0.0
 11
-1.625
 21
2.12
 31
0.0
  0
LWPOLYLINE
  5
13A
330
FE
100
AcDbEntity
  8
AM_9
100
AcDbPolyline
 90
       21
 70
     0
 43
0.0
 10
-0.4200000000002728
 20
2.119999999999965
 10
-0.4216957325601553
 20
2.119784701314365
 10
-0.4303009206098545
 20
2.118712725179157
 10
-0.4465010393104509
 20
2.116788072494951
 10
-0.4690096625485148
 20
2.114317083421245
 10
-0.4984257046942249
 20
2.111445171114302
 10
-0.5325719291263861
 20
2.108621255109364
 10
-0.5722526642682358
 20
2.106030492436406
 10
-0.6141623395246957
 20
2.104103455333498
 10
-0.6595153452333311
 20
2.102957278257512
 10
-0.7041400992348871
 20
2.102783855370393
 10
-0.7496489972279297
 20
2.103582183531297
 10
-0.79206448181836
 20
2.105211903455054
 10
-0.8327738368926085
 20
2.107577843995575
 10
-0.8685988413201068
 20
2.110307452984253
 10
-0.9003398359125276
 20
2.113230429123078
 10
-0.9254968190404018
 20
2.115882499520743
 10
-0.9445844939863111
 20
2.118091892382922
 10
-0.9559577870193599
 20
2.119488981919046
 10
-0.9599994664420339
 20
2.119999932046929
 10
-0.9599999999999939
 20
2.119999999999999
  0
LINE
  5
13B
330
FE
100
AcDbEntity
  8
AM_9
100
AcDbLine
 10
-3.875
 20
-2.92
 30
0.0
 11
-1.625
 21
-2.92
 31
0.0
  0
LINE
  5
13C
330
FE
100
AcDbEntity
  8
AM_9
100
AcDbLine
 10
-1.625
 20
2.92
 30
0.0
 11
-3.875
 21
2.92
 31
0.0
  0
LINE
  5
13D
330
FE
100
AcDbEntity
  8
AM_9
100
AcDbLine
 10
-3.875
 20
2.92
 30
0.0
 11
-3.875
 21
-2.92
 31
0.0
  0
LINE
  5
13E
330
FE
100
AcDbEntity
  8
AM_9
100
AcDbLine
 10
-1.625
 20
2.92
 30
0.0
 11
-1.625
 21
-2.92
 31
0.0
  0
LINE
  5
141
330
FE
100
AcDbEntity
  8
AM_7
100
AcDbLine
 10
-0.6899999999999997
 20
-0.1087179487179487
 30
0.0
 11
-0.6899999999999998
 21
2.799572916666667
 31
0.0
  0
LINE
  5
142
330
FE
100
AcDbEntity
  8
AM_7
100
AcDbLine
 10
-4.81
 20
-0.1087179487179487
 30
0.0
 11
-4.81
 21
2.799572916666667
 31
0.0
  0
ENDBLK
  5
101
330
FE
100
AcDbEntity
  8
0
100
AcDbBlockEnd
  0
BLOCK
  5
145
330
143
100
AcDbEntity
  8
0
100
AcDbBlockBegin
  2
5_405015E_Inch_0_in_023114_2
 70
     2
 10
0.0
 20
0.0
 30
0.0
  3
5_405015E_Inch_0_in_023114_2
  1

  0
ATTDEF
  5
147
330
143
100
AcDbEntity
  8
AM_6
100
AcDbText
 10
2.46875
 20
4.132
 30
0.0
 40
0.5
  1
405015E -Inch
100
AcDbAttributeDefinition
  3

  2
NN
 70
     8
280
     0
  0
ATTDEF
  5
148
330
143
100
AcDbEntity
  8
AM_6
100
AcDbText
 10
2.46875
 20
3.632
 30
0.0
 40
0.5
  1
Grease Fitting
100
AcDbAttributeDefinition
  3

  2
NT
 70
     8
280
     0
  0
ATTDEF
  5
149
330
143
100
AcDbEntity
  8
AM_6
100
AcDbText
 10
2.46875
 20
3.132
 30
0.0
 40
0.5
  1
405015E-Inch
100
AcDbAttributeDefinition
  3

  2
NB
 70
     8
280
     0
  0
ATTDEF
  5
14A
330
143
100
AcDbEntity
  8
AM_6
100
AcDbText
 10
2.46875
 20
2.632
 30
0.0
 40
0.5
  1
$MN.-Inch
100
AcDbAttributeDefinition
  3

  2
NBSYN
 70
     8
280
     0
  0
ATTDEF
  5
14B
330
143
100
AcDbEntity
  8
AM_6
100
AcDbText
 10
2.46875
 20
2.132
 30
0.0
 40
0.5
  1
405015E
100
AcDbAttributeDefinition
  3

  2
LINA
 70
     8
280
     0
  0
ATTDEF
  5
14C
330
143
100
AcDbEntity
  8
AM_6
100
AcDbText
 10
2.46875
 20
1.632
 30
0.0
 40
0.5
  1
405015E
100
AcDbAttributeDefinition
  3

  2
MN
 70
     8
280
     0
  0
ATTDEF
  5
14D
330
143
100
AcDbEntity
  8
AM_6
100
AcDbText
 10
2.46875
 20
1.132
 30
0.0
 40
0.5
  1
1/8 x 27PTF
100
AcDbAttributeDefinition
  3

  2
T
 70
     8
280
     0
  0
ATTDEF
  5
14E
330
143
100
AcDbEntity
  8
AM_6
100
AcDbText
 10
2.46875
 20
0.6319999999999997
 30
0.0
 40
0.5
  1
baldor
100
AcDbAttributeDefinition
  3

  2
COMPANY
 70
     8
280
     0
  0
LINE
  5
14F
330
143
100
AcDbEntity
  8
AM_9
100
AcDbLine
 10
-2.911902872472269
 20
3.46
 30
0.0
 11
-2.588097127527731
 21
3.46
 31
0.0
  0
LINE
  5
150
330
143
100
AcDbEntity
  8
AM_9
100
AcDbLine
 10
-2.588097127527731
 20
3.46
 30
0.0
 11
-2.551382373218784
 21
3.496714754308947
 31
0.0
  0
LINE
  5
151
330
143
100
AcDbEntity
  8
AM_9
100
AcDbLine
 10
-2.948617626781215
 20
3.496714754308947
 30
0.0
 11
-2.911902872472269
 21
3.46
 31
0.0
  0
LINE
  5
152
330
143
100
AcDbEntity
  8
AM_9
100
AcDbLine
 10
-2.948617626781215
 20
3.496714754308947
 30
0.0
 11
-2.551382373218784
 21
3.496714754308947
 31
0.0
  0
LINE
  5
153
330
143
100
AcDbEntity
  8
AM_9
100
AcDbLine
 10
-2.551382373218784
 20
3.496714754308947
 30
0.0
 11
-2.54424810277693
 21
3.725
 31
0.0
  0
LINE
  5
154
330
143
100
AcDbEntity
  8
AM_9
100
AcDbLine
 10
-2.955751897223069
 20
3.725
 30
0.0
 11
-2.948617626781215
 21
3.496714754308947
 31
0.0
  0
LINE
  5
155
330
143
100
AcDbEntity
  8
AM_5
100
AcDbLine
 10
-2.581850875147652
 20
3.659870087748463
 30
0.0
 11
-2.588097127527731
 21
3.46
 31
0.0
  0
LINE
  5
156
330
143
100
AcDbEntity
  8
AM_5
100
AcDbLine
 10
-2.54424810277693
 20
3.725
 30
0.0
 11
-2.581850875147652
 21
3.659870087748463
 31
0.0
  0
LINE
  5
157
330
143
100
AcDbEntity
  8
AM_5
100
AcDbLine
 10
-2.953716485751557
 20
3.659870087748463
 30
0.0
 11
-2.546283514248443
 21
3.659870087748463
 31
0.0
  0
LINE
  5
158
330
143
100
AcDbEntity
  8
AM_5
100
AcDbLine
 10
-2.918149124852348
 20
3.659870087748463
 30
0.0
 11
-2.911902872472269
 21
3.46
 31
0.0
  0
LINE
  5
159
330
143
100
AcDbEntity
  8
AM_5
100
AcDbLine
 10
-2.955751897223069
 20
3.725
 30
0.0
 11
-2.918149124852348
 21
3.659870087748463
 31
0.0
  0
LINE
  5
15A
330
143
100
AcDbEntity
  8
AM_7
100
AcDbLine
 10
-2.75
 20
4.132
 30
0.0
 11
-2.75
 21
3.428
 31
0.0
  0
LINE
  5
15B
330
143
100
AcDbEntity
  8
AM_4
100
AcDbLine
 10
-2.645
 20
3.930000000000001
 30
0.0
 11
-2.645
 21
3.96
 31
0.0
  0
LINE
  5
15C
330
143
100
AcDbEntity
  8
AM_4
100
AcDbLine
 10
-2.855
 20
3.96
 30
0.0
 11
-2.855
 21
3.930000000000001
 31
0.0
  0
LINE
  5
15D
330
143
100
AcDbEntity
  8
AM_4
100
AcDbLine
 10
-2.855
 20
3.930000000000001
 30
0.0
 11
-2.645
 21
3.930000000000001
 31
0.0
  0
LINE
  5
15E
330
143
100
AcDbEntity
  8
AM_4
100
AcDbLine
 10
-2.855
 20
3.930000000000001
 30
0.0
 11
-2.868820090734897
 21
3.897753121618573
 31
0.0
  0
LINE
  5
15F
330
143
100
AcDbEntity
  8
AM_4
100
AcDbLine
 10
-2.631179909265103
 20
3.897753121618573
 30
0.0
 11
-2.645
 21
3.930000000000001
 31
0.0
  0
LINE
  5
160
330
143
100
AcDbEntity
  8
AM_4
100
AcDbLine
 10
-2.855
 20
3.96
 30
0.0
 11
-2.645
 21
3.96
 31
0.0
  0
LINE
  5
161
330
143
100
AcDbEntity
  8
AM_4
100
AcDbLine
 10
-2.645
 20
3.96
 30
0.0
 11
-2.615
 21
4.02
 31
0.0
  0
LINE
  5
162
330
143
100
AcDbEntity
  8
AM_4
100
AcDbLine
 10
-2.885
 20
4.02
 30
0.0
 11
-2.855
 21
3.96
 31
0.0
  0
LINE
  5
163
330
143
100
AcDbEntity
  8
AM_4
100
AcDbLine
 10
-2.852677901933187
 20
4.100000000000001
 30
0.0
 11
-2.647322098066812
 21
4.100000000000001
 31
0.0
  0
LINE
  5
164
330
143
100
AcDbEntity
  8
AM_4
100
AcDbLine
 10
-2.885
 20
4.02
 30
0.0
 11
-2.615
 21
4.02
 31
0.0
  0
LINE
  5
165
330
143
100
AcDbEntity
  8
AM_4
100
AcDbLine
 10
-2.852677901933187
 20
4.100000000000001
 30
0.0
 11
-2.885
 21
4.02
 31
0.0
  0
LINE
  5
166
330
143
100
AcDbEntity
  8
AM_4
100
AcDbLine
 10
-2.615
 20
4.02
 30
0.0
 11
-2.647322098066812
 21
4.100000000000001
 31
0.0
  0
LINE
  5
167
330
143
100
AcDbEntity
  8
AM_4
100
AcDbLine
 10
-2.53125
 20
3.725
 30
0.0
 11
-2.53125
 21
3.825
 31
0.0
  0
LINE
  5
168
330
143
100
AcDbEntity
  8
AM_4
100
AcDbLine
 10
-2.96875
 20
3.825
 30
0.0
 11
-2.53125
 21
3.825
 31
0.0
  0
LINE
  5
169
330
143
100
AcDbEntity
  8
AM_4
100
AcDbLine
 10
-2.96875
 20
3.825
 30
0.0
 11
-2.96875
 21
3.725
 31
0.0
  0
LINE
  5
16A
330
143
100
AcDbEntity
  8
AM_4
100
AcDbLine
 10
-2.868820090734897
 20
3.897753121618573
 30
0.0
 11
-2.631179909265103
 21
3.897753121618573
 31
0.0
  0
LINE
  5
16B
330
143
100
AcDbEntity
  8
AM_4
100
AcDbLine
 10
-2.868820090734897
 20
3.897753121618573
 30
0.0
 11
-2.922534053283015
 21
3.843318198540882
 31
0.0
  0
LINE
  5
16C
330
143
100
AcDbEntity
  8
AM_4
100
AcDbLine
 10
-2.577465946716984
 20
3.843318198540882
 30
0.0
 11
-2.631179909265103
 21
3.897753121618573
 31
0.0
  0
LWPOLYLINE
  5
16D
330
143
100
AcDbEntity
  8
AM_4
100
AcDbPolyline
 90
        4
 70
     0
 43
0.0
 10
-2.640625
 20
3.825
 10
-2.598709529757098
 20
3.823582439282863
 10
-2.556794059514195
 20
3.819517587482157
 10
-2.53125
 20
3.815932400303386
  0
LWPOLYLINE
  5
16E
330
143
100
AcDbEntity
  8
AM_4
100
AcDbPolyline
 90
        4
 70
     0
 43
0.0
 10
-2.53125
 20
3.734067599696615
 10
-2.556794059514195
 20
3.730482412517844
 10
-2.598586012717731
 20
3.726425828243072
 10
-2.640625
 20
3.725
  0
LWPOLYLINE
  5
16F
330
143
100
AcDbEntity
  8
AM_4
100
AcDbPolyline
 90
        3
 70
     0
 43
0.0
 10
-2.640625
 20
3.725
 10
-2.6953125
 20
3.727393380785035
 10
-2.75
 20
3.734067599696615
  0
LWPOLYLINE
  5
170
330
143
100
AcDbEntity
  8
AM_4
100
AcDbPolyline
 90
        3
 70
     0
 43
0.0
 10
-2.75
 20
3.815932400303386
 10
-2.69555838972585
 20
3.82258547505038
 10
-2.640625
 20
3.825
  0
LINE
  5
171
330
143
100
AcDbEntity
  8
AM_4
100
AcDbLine
 10
-2.922534053283015
 20
3.843318198540882
 30
0.0
 11
-2.577465946716984
 21
3.843318198540882
 31
0.0
  0
LINE
  5
172
330
143
100
AcDbEntity
  8
AM_4
100
AcDbLine
 10
-2.922534053283015
 20
3.843318198540882
 30
0.0
 11
-2.96375
 21
3.825
 31
0.0
  0
LINE
  5
173
330
143
100
AcDbEntity
  8
AM_4
100
AcDbLine
 10
-2.53625
 20
3.825
 30
0.0
 11
-2.577465946716984
 21
3.843318198540882
 31
0.0
  0
LINE
  5
174
330
143
100
AcDbEntity
  8
AM_4
100
AcDbLine
 10
-2.75
 20
3.815932400303386
 30
0.0
 11
-2.75
 21
3.734067599696615
 31
0.0
  0
LWPOLYLINE
  5
175
330
143
100
AcDbEntity
  8
AM_4
100
AcDbPolyline
 90
        3
 70
     0
 43
0.0
 10
-2.859375
 20
3.825
 10
-2.8046875
 20
3.822606619214965
 10
-2.75
 20
3.815932400303386
  0
LWPOLYLINE
  5
176
330
143
100
AcDbEntity
  8
AM_4
100
AcDbPolyline
 90
        3
 70
     0
 43
0.0
 10
-2.96875
 20
3.815932400303386
 10
-2.91430838972585
 20
3.82258547505038
 10
-2.859375
 20
3.825
  0
LWPOLYLINE
  5
177
330
143
100
AcDbEntity
  8
AM_4
100
AcDbPolyline
 90
        3
 70
     0
 43
0.0
 10
-2.859375
 20
3.725
 10
-2.9140625
 20
3.727393380785035
 10
-2.96875
 20
3.734067599696615
  0
LWPOLYLINE
  5
178
330
143
100
AcDbEntity
  8
AM_4
100
AcDbPolyline
 90
        3
 70
     0
 43
0.0
 10
-2.75
 20
3.734067599696615
 10
-2.804441610274149
 20
3.72741452494962
 10
-2.859375
 20
3.725
  0
ENDBLK
  5
146
330
143
100
AcDbEntity
  8
0
100
AcDbBlockEnd
  0
BLOCK
  5
17B
330
179
100
AcDbEntity
  8
0
100
AcDbBlockBegin
  2
6_023114H_0_in_023114_2
 70
     2
 10
0.0
 20
0.0
 30
0.0
  3
6_023114H_0_in_023114_2
  1

  0
ATTDEF
  5
17D
330
179
100
AcDbEntity
  8
AM_6
100
AcDbText
 10
5.27
 20
4.625
 30
0.0
 40
0.5
  1
F4B-E-Housing
100
AcDbAttributeDefinition
  3

  2
NN
 70
     8
280
     0
  0
ATTDEF
  5
17E
330
179
100
AcDbEntity
  8
AM_6
100
AcDbText
 10
5.27
 20
4.125
 30
0.0
 40
0.5
  1
Type E Flange Bearing -Inch (4-Bolt Flange)
100
AcDbAttributeDefinition
  3

  2
NT
 70
     8
280
     0
  0
ATTDEF
  5
17F
330
179
100
AcDbEntity
  8
AM_6
100
AcDbText
 10
5.27
 20
3.625
 30
0.0
 40
0.5
  1
023114H
100
AcDbAttributeDefinition
  3

  2
NB
 70
     8
280
     0
  0
ATTDEF
  5
180
330
179
100
AcDbEntity
  8
AM_6
100
AcDbText
 10
5.27
 20
3.125
 30
0.0
 40
0.5
  1
$PN.H
100
AcDbAttributeDefinition
  3

  2
NBSYN
 70
     8
280
     0
  0
ATTDEF
  5
181
330
179
100
AcDbEntity
  8
AM_6
100
AcDbText
 10
5.27
 20
2.625
 30
0.0
 40
0.5
  1
023114
100
AcDbAttributeDefinition
  3

  2
LINA
 70
     8
280
     0
  0
ATTDEF
  5
182
330
179
100
AcDbEntity
  8
AM_6
100
AcDbText
 10
5.27
 20
2.125
 30
0.0
 40
0.5
  1
3-7/16
100
AcDbAttributeDefinition
  3

  2
SS
 70
     8
280
     0
  0
ATTDEF
  5
183
330
179
100
AcDbEntity
  8
AM_6
100
AcDbText
 10
5.27
 20
1.625
 30
0.0
 40
0.5
  1
023114
100
AcDbAttributeDefinition
  3

  2
PN
 70
     8
280
     0
  0
ATTDEF
  5
184
330
179
100
AcDbEntity
  8
AM_6
100
AcDbText
 10
5.27
 20
1.125
 30
0.0
 40
0.5
  1
F4B-E-307R
100
AcDbAttributeDefinition
  3

  2
DESCRIPTION
 70
     8
280
     0
  0
ATTDEF
  5
185
330
179
100
AcDbEntity
  8
AM_6
100
AcDbText
 10
5.27
 20
0.625
 30
0.0
 40
0.5
  1
5-1/4
100
AcDbAttributeDefinition
  3

  2
A
 70
     8
280
     0
  0
ATTDEF
  5
186
330
179
100
AcDbEntity
  8
AM_6
100
AcDbText
 10
5.27
 20
0.125
 30
0.0
 40
0.5
  1
9-1/4
100
AcDbAttributeDefinition
  3

  2
B
 70
     8
280
     0
  0
ATTDEF
  5
187
330
179
100
AcDbEntity
  8
AM_6
100
AcDbText
 10
5.27
 20
-0.375
 30
0.0
 40
0.5
  1
4-1/2
100
AcDbAttributeDefinition
  3

  2
C
 70
     8
280
     0
  0
ATTDEF
  5
188
330
179
100
AcDbEntity
  8
AM_6
100
AcDbText
 10
5.27
 20
-0.875
 30
0.0
 40
0.5
  1
1/4
100
AcDbAttributeDefinition
  3

  2
E
 70
     8
280
     0
  0
ATTDEF
  5
189
330
179
100
AcDbEntity
  8
AM_6
100
AcDbText
 10
5.27
 20
-1.375
 30
0.0
 40
0.5
  1
0.250000
100
AcDbAttributeDefinition
  3

  2
E1
 70
     8
280
     0
  0
ATTDEF
  5
18A
330
179
100
AcDbEntity
  8
AM_6
100
AcDbText
 10
5.27
 20
-1.875
 30
0.0
 40
0.5
  1
3/4
100
AcDbAttributeDefinition
  3

  2
F
 70
     8
280
     0
  0
ATTDEF
  5
18B
330
179
100
AcDbEntity
  8
AM_6
100
AcDbText
 10
5.27
 20
-2.375
 30
0.0
 40
0.5
  1
0.750000
100
AcDbAttributeDefinition
  3

  2
F1
 70
     8
280
     0
  0
ATTDEF
  5
18C
330
179
100
AcDbEntity
  8
AM_6
100
AcDbText
 10
5.27
 20
-2.875
 30
0.0
 40
0.5
  1
1-7/8
100
AcDbAttributeDefinition
  3

  2
H
 70
     8
280
     0
  0
ATTDEF
  5
18D
330
179
100
AcDbEntity
  8
AM_6
100
AcDbText
 10
5.27
 20
-3.375
 30
0.0
 40
0.5
  1
7-1/4
100
AcDbAttributeDefinition
  3

  2
J
 70
     8
280
     0
  0
ATTDEF
  5
18E
330
179
100
AcDbEntity
  8
AM_6
100
AcDbText
 10
5.27
 20
-3.875
 30
0.0
 40
0.5
  1
7.2500000
100
AcDbAttributeDefinition
  3

  2
J1
 70
     8
280
     0
  0
ATTDEF
  5
18F
330
179
100
AcDbEntity
  8
AM_6
100
AcDbText
 10
5.27
 20
-4.375
 30
0.0
 40
0.5
  1
5-17/32
100
AcDbAttributeDefinition
  3

  2
L
 70
     8
280
     0
  0
ATTDEF
  5
190
330
179
100
AcDbEntity
  8
AM_6
100
AcDbText
 10
5.27
 20
-4.875
 30
0.0
 40
0.5
  1
5.00
100
AcDbAttributeDefinition
  3

  2
AINS
 70
     8
280
     0
  0
ATTDEF
  5
191
330
179
100
AcDbEntity
  8
AM_6
100
AcDbText
 10
5.27
 20
-5.375
 30
0.0
 40
0.5
  1
5.84
100
AcDbAttributeDefinition
  3

  2
BORE
 70
     8
280
     0
  0
ATTDEF
  5
192
330
179
100
AcDbEntity
  8
AM_6
100
AcDbText
 10
5.27
 20
-5.875
 30
0.0
 40
0.5
  1
baldor
100
AcDbAttributeDefinition
  3

  2
COMPANY
 70
     8
280
     0
  0
LINE
  5
193
330
179
100
AcDbEntity
  8
AM_9
100
AcDbLine
 10
-1.125
 20
4.625
 30
0.0
 11
-1.125
 21
2.421026940085074
 31
0.0
  0
LINE
  5
194
330
179
100
AcDbEntity
  8
AM_9
100
AcDbLine
 10
-1.125
 20
3.257487448727566
 30
0.0
 11
0.0000000000000001
 21
3.257487448727566
 31
0.0
  0
LINE
  5
195
330
179
100
AcDbEntity
  8
AM_9
100
AcDbLine
 10
-1.125
 20
-2.421026940085075
 30
0.0
 11
-1.125
 21
-4.625
 31
0.0
  0
LINE
  5
196
330
179
100
AcDbEntity
  8
AM_9
100
AcDbLine
 10
-1.125
 20
-3.25748743718593
 30
0.0
 11
0.0000000000000001
 21
-3.25748743718593
 31
0.0
  0
LINE
  5
197
330
179
100
AcDbEntity
  8
AM_9
100
AcDbLine
 10
-1.78125
 20
4.429737570268006
 30
0.0
 11
-1.875
 21
4.429737570268006
 31
0.0
  0
LINE
  5
198
330
179
100
AcDbEntity
  8
AM_9
100
AcDbLine
 10
-1.78125
 20
-4.429737570268007
 30
0.0
 11
-1.875
 21
-4.429737570268007
 31
0.0
  0
LINE
  5
199
330
179
100
AcDbEntity
  8
AM_9
100
AcDbLine
 10
-4.5
 20
-2.92
 30
0.0
 11
-1.125
 21
-2.92
 31
0.0
  0
LINE
  5
19A
330
179
100
AcDbEntity
  8
AM_9
100
AcDbLine
 10
-1.125
 20
2.92
 30
0.0
 11
-4.5
 21
2.92
 31
0.0
  0
LINE
  5
19B
330
179
100
AcDbEntity
  8
AM_9
100
AcDbLine
 10
-1.78125
 20
4.625
 30
0.0
 11
-1.78125
 21
3.370008359834233
 31
0.0
  0
LINE
  5
19C
330
179
100
AcDbEntity
  8
AM_9
100
AcDbLine
 10
-1.78125
 20
-3.370008359834234
 30
0.0
 11
-1.78125
 21
-4.625
 31
0.0
  0
LINE
  5
19D
330
179
100
AcDbEntity
  8
AM_9
100
AcDbLine
 10
-1.78125
 20
3.370008359834233
 30
0.0
 11
-1.875
 21
3.370008359834234
 31
0.0
  0
LINE
  5
19E
330
179
100
AcDbEntity
  8
AM_9
100
AcDbLine
 10
-1.875
 20
-3.370008359834234
 30
0.0
 11
-1.78125
 21
-3.370008359834234
 31
0.0
  0
LINE
  5
19F
330
179
100
AcDbEntity
  8
AM_9
100
AcDbLine
 10
-1.875
 20
-3.625
 30
0.0
 11
-1.78125
 21
-3.625
 31
0.0
  0
LINE
  5
1A0
330
179
100
AcDbEntity
  8
AM_9
100
AcDbLine
 10
-1.78125
 20
3.625
 30
0.0
 11
-1.875
 21
3.624999999999999
 31
0.0
  0
LINE
  5
1A1
330
179
100
AcDbEntity
  8
AM_9
100
AcDbLine
 10
-1.875
 20
3.125
 30
0.0
 11
0.0000000000000002
 21
3.125
 31
0.0
  0
LINE
  5
1A2
330
179
100
AcDbEntity
  8
AM_9
100
AcDbLine
 10
0.0000000000000002
 20
3.875
 30
0.0
 11
-1.875
 21
3.875
 31
0.0
  0
LINE
  5
1A3
330
179
100
AcDbEntity
  8
AM_9
100
AcDbLine
 10
-1.875
 20
-3.875
 30
0.0
 11
0.0000000000000002
 21
-3.875
 31
0.0
  0
LINE
  5
1A4
330
179
100
AcDbEntity
  8
AM_9
100
AcDbLine
 10
0.0000000000000002
 20
-3.125
 30
0.0
 11
-1.875
 21
-3.125
 31
0.0
  0
LINE
  5
1A5
330
179
100
AcDbEntity
  8
AM_9
100
AcDbLine
 10
-1.125
 20
2.132327376605264
 30
0.0
 11
0.0000000000000002
 21
2.132327376605264
 31
0.0
  0
LINE
  5
1A6
330
179
100
AcDbEntity
  8
AM_9
100
AcDbLine
 10
-1.125
 20
-2.132327376605264
 30
0.0
 11
0.0000000000000002
 21
-2.132327376605264
 31
0.0
  0
LINE
  5
1A7
330
179
100
AcDbEntity
  8
AM_7
100
AcDbLine
 10
0.0937499999999998
 20
3.5
 30
0.0
 11
-1.96875
 21
3.5
 31
0.0
  0
LINE
  5
1A8
330
179
100
AcDbEntity
  8
AM_7
100
AcDbLine
 10
0.0937499999999998
 20
-3.5
 30
0.0
 11
-1.96875
 21
-3.5
 31
0.0
  0
LINE
  5
1A9
330
179
100
AcDbEntity
  8
AM_7
100
AcDbLine
 10
0.27
 20
0.0
 30
0.0
 11
-5.669999999999999
 21
0.0
 31
0.0
  0
LINE
  5
1AA
330
179
100
AcDbEntity
  8
AM_4
100
AcDbLine
 10
-3.25
 20
3.625
 30
0.0
 11
-2.250000000000001
 21
3.625
 31
0.0
  0
LINE
  5
1AB
330
179
100
AcDbEntity
  8
AM_4
100
AcDbLine
 10
-3.149999999999999
 20
3.725
 30
0.0
 11
-2.35000000062121
 21
3.725
 31
0.0
  0
ARC
  5
1AC
330
179
100
AcDbEntity
  8
AM_4
100
AcDbCircle
 10
-2.35
 20
3.625
 30
0.0
 40
0.1000000000000005
100
AcDbArc
 50
0.0
 51
90.0
  0
ARC
  5
1AD
330
179
100
AcDbEntity
  8
AM_4
100
AcDbCircle
 10
-3.149999999999999
 20
3.625
 30
0.0
 40
0.1000000000000005
100
AcDbArc
 50
90.0
 51
180.0
  0
LWPOLYLINE
  5
1AE
330
179
100
AcDbEntity
  8
AM_4
100
AcDbPolyline
 90
       20
 70
     0
 43
0.0
 10
-3.25
 20
3.625
 10
-3.243178741018029
 20
3.624065434093613
 10
-3.222124011641553
 20
3.621260289231984
 10
-3.188635277848786
 20
3.617046572408694
 10
-3.141775687313243
 20
3.611663493346212
 10
-3.08507533868578
 20
3.605953477597207
 10
-3.017138822854792
 20
3.600276121449054
 10
-2.943298044509441
 20
3.59555129764702
 10
-2.861641493100922
 20
3.592086973192854
 10
-2.779634790217978
 20
3.59047395489666
 10
-2.694368378235673
 20
3.59078262741427
 10
-2.613634547627703
 20
3.592940374762807
 10
-2.534496987057709
 20
3.596813388068278
 10
-2.463285936679477
 20
3.601781497274059
 10
-2.398219268491115
 20
3.607544134596405
 10
-2.344238238799845
 20
3.613207384976989
 10
-2.300381085832162
 20
3.618394971251406
 10
-2.270334910239219
 20
3.622251178250235
 10
-2.25327617731688
 20
3.624549565948979
 10
-2.250000000000001
 20
3.625
  0
LINE
  5
1AF
330
179
100
AcDbEntity
  8
AM_4
100
AcDbLine
 10
-4.265624999999999
 20
-3.625
 30
0.0
 11
-1.875
 21
-3.625
 31
0.0
  0
LINE
  5
1B0
330
179
100
AcDbEntity
  8
AM_4
100
AcDbLine
 10
-1.875
 20
3.624999999999999
 30
0.0
 11
-2.250000000000001
 21
3.625
 31
0.0
  0
LINE
  5
1B1
330
179
100
AcDbEntity
  8
AM_4
100
AcDbLine
 10
-3.25
 20
3.625
 30
0.0
 11
-4.265624999999999
 21
3.625
 31
0.0
  0
LINE
  5
1B2
330
179
100
AcDbEntity
  8
AM_4
100
AcDbLine
 10
-4.5
 20
3.390625
 30
0.0
 11
-4.5
 21
-3.390625
 31
0.0
  0
ARC
  5
1B3
330
179
100
AcDbEntity
  8
AM_4
100
AcDbCircle
 10
-4.265624999999999
 20
-3.390624999999999
 30
0.0
 40
0.2343750000000009
100
AcDbArc
 50
180.0
 51
270.0
  0
ARC
  5
1B4
330
179
100
AcDbEntity
  8
AM_4
100
AcDbCircle
 10
-4.265624999999999
 20
3.390624999999999
 30
0.0
 40
0.2343750000000013
100
AcDbArc
 50
90.0
 51
180.0
  0
LINE
  5
1B5
330
179
100
AcDbEntity
  8
AM_4
100
AcDbLine
 10
-4.265624999999999
 20
3.625
 30
0.0
 11
-4.265624999999999
 21
-3.625
 31
0.0
  0
LINE
  5
1B6
330
179
100
AcDbEntity
  8
AM_4
100
AcDbLine
 10
-1.875
 20
-4.625
 30
0.0
 11
-1.875
 21
-1.335540585174175
 31
0.0
  0
LINE
  5
1B7
330
179
100
AcDbEntity
  8
AM_4
100
AcDbLine
 10
-1.78125
 20
-1.335540585174175
 30
0.0
 11
-1.875
 21
-1.335540585174175
 31
0.0
  0
LINE
  5
1B8
330
179
100
AcDbEntity
  8
AM_4
100
AcDbLine
 10
-1.875
 20
1.335540585174174
 30
0.0
 11
-1.78125
 21
1.335540585174174
 31
0.0
  0
LINE
  5
1B9
330
179
100
AcDbEntity
  8
AM_4
100
AcDbLine
 10
-1.78125
 20
2.848990744741561
 30
0.0
 11
-1.875
 21
2.848990744741561
 31
0.0
  0
LINE
  5
1BA
330
179
100
AcDbEntity
  8
AM_4
100
AcDbLine
 10
-1.125
 20
1.793092496242409
 30
0.0
 11
0.0000000000000002
 21
1.793092496242409
 31
0.0
  0
LINE
  5
1BB
330
179
100
AcDbEntity
  8
AM_4
100
AcDbLine
 10
0.0000000000000002
 20
-1.793092496242409
 30
0.0
 11
-1.125
 21
-1.793092496242409
 31
0.0
  0
LINE
  5
1BC
330
179
100
AcDbEntity
  8
AM_4
100
AcDbLine
 10
-1.125
 20
-2.421026940085075
 30
0.0
 11
-1.125
 21
2.421026940085074
 31
0.0
  0
LINE
  5
1BD
330
179
100
AcDbEntity
  8
AM_4
100
AcDbLine
 10
0.0000000000000003
 20
-2.421026940085075
 30
0.0
 11
-1.125
 21
-2.421026940085075
 31
0.0
  0
LINE
  5
1BE
330
179
100
AcDbEntity
  8
AM_4
100
AcDbLine
 10
-1.125
 20
2.421026940085074
 30
0.0
 11
0.0000000000000003
 21
2.421026940085074
 31
0.0
  0
LINE
  5
1BF
330
179
100
AcDbEntity
  8
AM_4
100
AcDbLine
 10
-1.78125
 20
3.349667036216229
 30
0.0
 11
-1.875
 21
3.349667036216229
 31
0.0
  0
LINE
  5
1C0
330
179
100
AcDbEntity
  8
AM_4
100
AcDbLine
 10
-1.78125
 20
-3.349667036216244
 30
0.0
 11
-1.78125
 21
3.349667036216229
 31
0.0
  0
LINE
  5
1C1
330
179
100
AcDbEntity
  8
AM_4
100
AcDbLine
 10
0.0000000000000002
 20
-4.625
 30
0.0
 11
0.0000000000000002
 21
-1.793092496242409
 31
0.0
  0
LINE
  5
1C2
330
179
100
AcDbEntity
  8
AM_4
100
AcDbLine
 10
-1.875
 20
-3.499999999999999
 30
0.0
 11
0.0000000000000003
 21
-3.499999999999999
 31
0.0
  0
LINE
  5
1C3
330
179
100
AcDbEntity
  8
AM_4
100
AcDbLine
 10
-1.875
 20
-4.625
 30
0.0
 11
0.0000000000000002
 21
-4.625
 31
0.0
  0
LINE
  5
1C4
330
179
100
AcDbEntity
  8
AM_4
100
AcDbLine
 10
-1.875
 20
1.335540585174174
 30
0.0
 11
-1.875
 21
4.625
 31
0.0
  0
LINE
  5
1C5
330
179
100
AcDbEntity
  8
AM_4
100
AcDbLine
 10
0.0000000000000002
 20
1.793092496242409
 30
0.0
 11
0.0000000000000002
 21
4.625
 31
0.0
  0
LINE
  5
1C6
330
179
100
AcDbEntity
  8
AM_4
100
AcDbLine
 10
-1.875
 20
4.625
 30
0.0
 11
0.0000000000000002
 21
4.625
 31
0.0
  0
LINE
  5
1C7
330
179
100
AcDbEntity
  8
AM_4
100
AcDbLine
 10
-1.875
 20
3.5
 30
0.0
 11
0.0000000000000003
 21
3.5
 31
0.0
  0
LINE
  5
1C8
330
179
100
AcDbEntity
  8
AM_4
100
AcDbLine
 10
-1.875
 20
-3.349667036216244
 30
0.0
 11
-1.78125
 21
-3.349667036216244
 31
0.0
  0
LINE
  5
1C9
330
179
100
AcDbEntity
  8
AM_4
100
AcDbLine
 10
-1.78125
 20
-2.848990744741563
 30
0.0
 11
-1.875
 21
-2.848990744741563
 31
0.0
  0
ENDBLK
  5
17C
330
179
100
AcDbEntity
  8
0
100
AcDbBlockEnd
  0
ENDSEC
  0
SECTION
  2
ENTITIES
  0
INSERT
  5
6F
330
1F
100
AcDbEntity
  8
0
100
AcDbBlockReference
  2
1_023114_2
 10
0.0
 20
0.0
 30
0.0
  0
POINT
  5
1CB
330
1F
100
AcDbEntity
  8
ConnectionPoints
100
AcDbPoint
 10
-5.25
 20
0.0000000000000001
 30
0.0000000000000003
  0
POINT
  5
1CC
330
1F
100
AcDbEntity
  8
ConnectionPoints
100
AcDbPoint
 10
-5.25
 20
0.0
 30
0.0000000000000003
  0
POINT
  5
1CD
330
1F
100
AcDbEntity
  8
ConnectionPoints
100
AcDbPoint
 10
-0.25
 20
0.0
 30
0.0
  0
POINT
  5
1CE
330
1F
100
AcDbEntity
  8
ConnectionPoints
100
AcDbPoint
 10
-2.75
 20
0.0
 30
0.0000000000000002
  0
POINT
  5
1CF
330
1F
100
AcDbEntity
  8
ConnectionPoints
100
AcDbPoint
 10
-2.75
 20
3.725
 30
0.0000000000000002
  0
POINT
  5
1D0
330
1F
100
AcDbEntity
  8
ConnectionPoints
100
AcDbPoint
 10
-2.75
 20
3.725
 30
0.0000000000000002
  0
POINT
  5
1D1
330
1F
100
AcDbEntity
  8
ConnectionPoints
100
AcDbPoint
 10
-2.75
 20
0.0
 30
0.0000000000000002
  0
ENDSEC
  0
SECTION
  2
OBJECTS
  0
DICTIONARY
  5
C
330
0
100
AcDbDictionary
281
     1
  3
ACAD_DETAILVIEWSTYLE
350
1D9
  3
ACAD_GROUP
350
D
  3
ACAD_LAYOUT
350
1A
  3
ACAD_MATERIAL
350
43
  3
ACAD_MLEADERSTYLE
350
6B
  3
ACAD_MLINESTYLE
350
17
  3
ACAD_PLOTSETTINGS
350
19
  3
ACAD_PLOTSTYLENAME
350
E
  3
ACAD_SCALELIST
350
47
  3
ACAD_SECTIONVIEWSTYLE
350
1DA
  3
ACAD_TABLESTYLE
350
69
  3
ACAD_VISUALSTYLE
350
2A
  3
ACDB_RECOMPOSE_DATA
350
1D6
  3
AcDbVariableDictionary
350
1D2
  0
SUN
  5
6D
330
29
100
AcDbSun
 90
        1
290
     0
 63
     7
421
 16777215
 40
1.0
291
     1
 91
  2455826
 92
 54000000
292
     0
 70
     2
 71
   256
280
     1
  0
DICTIONARY
  5
1D9
102
{ACAD_REACTORS
330
C
102
}
330
C
100
AcDbDictionary
281
     1
  0
DICTIONARY
  5
D
102
{ACAD_REACTORS
330
C
102
}
330
C
100
AcDbDictionary
281
     1
  0
DICTIONARY
  5
1A
102
{ACAD_REACTORS
330
C
102
}
330
C
100
AcDbDictionary
281
     1
  3
Layout1
350
1E
  3
Layout2
350
26
  3
Model
350
22
  0
DICTIONARY
  5
43
102
{ACAD_REACTORS
330
C
102
}
330
C
100
AcDbDictionary
281
     1
  3
ByBlock
350
45
  3
ByLayer
350
44
  3
Global
350
46
  0
DICTIONARY
  5
6B
102
{ACAD_REACTORS
330
C
102
}
330
C
100
AcDbDictionary
281
     1
  3
Standard
350
6C
  0
DICTIONARY
  5
17
102
{ACAD_REACTORS
330
C
102
}
330
C
100
AcDbDictionary
281
     1
  3
Standard
350
18
  0
DICTIONARY
  5
19
102
{ACAD_REACTORS
330
C
102
}
330
C
100
AcDbDictionary
281
     1
  0
ACDBDICTIONARYWDFLT
  5
E
102
{ACAD_REACTORS
330
C
102
}
330
C
100
AcDbDictionary
281
     1
  3
Normal
350
F
100
AcDbDictionaryWithDefault
340
F
  0
DICTIONARY
  5
47
102
{ACAD_REACTORS
330
C
102
}
330
C
100
AcDbDictionary
281
     1
  3
A0
350
48
  3
A1
350
49
  3
A2
350
4A
  3
A3
350
4B
  3
A4
350
4C
  3
A5
350
4D
  3
A6
350
4E
  3
A7
350
4F
  3
A8
350
50
  3
A9
350
51
  3
B0
350
52
  3
B1
350
53
  3
B2
350
54
  3
B3
350
55
  3
B4
350
56
  3
B5
350
57
  3
B6
350
58
  3
B7
350
59
  3
B8
350
5A
  3
B9
350
5B
  3
C0
350
5C
  3
C1
350
5D
  3
C2
350
5E
  3
C3
350
5F
  3
C4
350
60
  3
C5
350
61
  3
C6
350
62
  3
C7
350
63
  3
C8
350
64
  3
C9
350
65
  3
D0
350
66
  3
D1
350
67
  3
D2
350
68
  0
DICTIONARY
  5
1DA
102
{ACAD_REACTORS
330
C
102
}
330
C
100
AcDbDictionary
281
     1
  0
DICTIONARY
  5
69
102
{ACAD_REACTORS
330
C
102
}
330
C
100
AcDbDictionary
281
     1
  3
Standard
350
6A
  0
DICTIONARY
  5
2A
102
{ACAD_REACTORS
330
C
102
}
330
C
100
AcDbDictionary
281
     1
  3
2dWireframe
350
2F
  3
Basic
350
32
  3
Brighten
350
36
  3
ColorChange
350
3A
  3
Conceptual
350
34
  3
Dim
350
35
  3
EdgeColorOff
350
3D
  3
Facepattern
350
39
  3
Flat
350
2B
  3
FlatWithEdges
350
2C
  3
Gouraud
350
2D
  3
GouraudWithEdges
350
2E
  3
Hidden
350
31
  3
JitterOff
350
3B
  3
Linepattern
350
38
  3
OverhangOff
350
3C
  3
Realistic
350
33
  3
Shaded
350
42
  3
Shaded with edges
350
41
  3
Shades of Gray
350
3E
  3
Sketchy
350
3F
  3
Thicken
350
37
  3
Wireframe
350
30
  3
X-Ray
350
40
  0
XRECORD
  5
1D6
102
{ACAD_REACTORS
330
C
102
}
330
C
100
AcDbXrecord
280
     1
 90
        1
330
6A
  0
DICTIONARY
  5
1D2
102
{ACAD_REACTORS
330
C
102
}
330
C
100
AcDbDictionary
281
     1
  3
CANNOSCALE
350
1D3
  3
CMLEADERSTYLE
350
1D8
  3
CTABLESTYLE
350
1D7
  0
LAYOUT
  5
1E
102
{ACAD_REACTORS
330
1A
102
}
330
1A
100
AcDbPlotSettings
  1

  2
none_device
  4

  6

 40
0.0
 41
0.0
 42
0.0
 43
0.0
 44
0.0
 45
0.0
 46
0.0
 47
0.0
 48
0.0
 49
0.0
140
0.0
141
0.0
142
1.0
143
1.0
 70
   688
 72
     0
 73
     0
 74
     5
  7

 75
    16
 76
     0
 77
     2
 78
   300
147
1.0
148
0.0
149
0.0
100
AcDbLayout
  1
Layout1
 70
     1
 71
     1
 10
0.0
 20
0.0
 11
12.0
 21
9.0
 12
0.0
 22
0.0
 32
0.0
 14
1.000000000000000E+20
 24
1.000000000000000E+20
 34
1.000000000000000E+20
 15
-1.000000000000000E+20
 25
-1.000000000000000E+20
 35
-1.000000000000000E+20
146
0.0
 13
0.0
 23
0.0
 33
0.0
 16
1.0
 26
0.0
 36
0.0
 17
0.0
 27
1.0
 37
0.0
 76
     0
330
1B
  0
LAYOUT
  5
26
102
{ACAD_REACTORS
330
1A
102
}
330
1A
100
AcDbPlotSettings
  1

  2
none_device
  4

  6

 40
0.0
 41
0.0
 42
0.0
 43
0.0
 44
0.0
 45
0.0
 46
0.0
 47
0.0
 48
0.0
 49
0.0
140
0.0
141
0.0
142
1.0
143
1.0
 70
   688
 72
     0
 73
     0
 74
     5
  7

 75
    16
 76
     0
 77
     2
 78
   300
147
1.0
148
0.0
149
0.0
100
AcDbLayout
  1
Layout2
 70
     1
 71
     2
 10
0.0
 20
0.0
 11
0.0
 21
0.0
 12
0.0
 22
0.0
 32
0.0
 14
0.0
 24
0.0
 34
0.0
 15
0.0
 25
0.0
 35
0.0
146
0.0
 13
0.0
 23
0.0
 33
0.0
 16
1.0
 26
0.0
 36
0.0
 17
0.0
 27
1.0
 37
0.0
 76
     0
330
23
  0
LAYOUT
  5
22
102
{ACAD_REACTORS
330
1A
102
}
330
1A
100
AcDbPlotSettings
  1

  2
none_device
  4
Letter_(8.50_x_11.00_Inches)
  6

 40
6.35
 41
6.35
 42
6.35000508
 43
6.35000508
 44
215.9
 45
279.4
 46
0.0
 47
0.0
 48
0.0
 49
0.0
140
0.0
141
0.0
142
1.0
143
1.0
 70
  1712
 72
     0
 73
     0
 74
     0
  7

 75
     0
 76
     0
 77
     2
 78
   300
147
1.0
148
0.0
149
0.0
100
AcDbLayout
  1
Model
 70
     1
 71
     0
 10
0.0
 20
0.0
 11
12.0
 21
9.0
 12
0.0
 22
0.0
 32
0.0
 14
1.000000000000000E+20
 24
1.000000000000000E+20
 34
1.000000000000000E+20
 15
-1.000000000000000E+20
 25
-1.000000000000000E+20
 35
-1.000000000000000E+20
146
0.0
 13
0.0
 23
0.0
 33
0.0
 16
1.0
 26
0.0
 36
0.0
 17
0.0
 27
1.0
 37
0.0
 76
     0
330
1F
331
29
  0
MATERIAL
  5
45
102
{ACAD_REACTORS
330
43
102
}
330
43
100
AcDbMaterial
  1
ByBlock
 72
     1
 94
      127
  0
MATERIAL
  5
44
102
{ACAD_REACTORS
330
43
102
}
330
43
100
AcDbMaterial
  1
ByLayer
 72
     1
 94
      127
  0
MATERIAL
  5
46
102
{ACAD_REACTORS
330
43
102
}
330
43
100
AcDbMaterial
  1
Global
 72
     1
 94
      127
  0
MLEADERSTYLE
  5
6C
102
{ACAD_REACTORS
330
6B
102
}
330
6B
100
AcDbMLeaderStyle
179
     2
170
     2
171
     1
172
     0
 90
        2
 40
0.0
 41
0.0
173
     1
 91
-1056964608
340
14
 92
       -2
290
     1
 42
0.09
291
     1
 43
0.36
  3
Standard
341
0
 44
0.18
300

342
11
174
     1
178
     6
175
     1
176
     0
 93
-1056964608
 45
0.18
292
     0
297
     0
 46
0.18
343
0
 94
-1056964608
 47
1.0
 49
1.0
140
1.0
293
     1
141
0.0
294
     1
177
     0
142
1.0
295
     0
296
     0
143
0.125
271
     0
272
     9
273
     9
298
     0
  0
MLINESTYLE
  5
18
102
{ACAD_REACTORS
330
17
102
}
330
17
100
AcDbMlineStyle
  2
Standard
 70
     0
  3

 62
   256
 51
90.0
 52
90.0
 71
     2
 49
0.5
 62
   256
  6
BYLAYER
 49
-0.5
 62
   256
  6
BYLAYER
  0
ACDBPLACEHOLDER
  5
F
102
{ACAD_REACTORS
330
E
102
}
330
E
  0
SCALE
  5
48
102
{ACAD_REACTORS
330
47
102
}
330
47
100
AcDbScale
 70
     0
300
1:1
140
1.0
141
1.0
290
     1
  0
SCALE
  5
49
102
{ACAD_REACTORS
330
47
102
}
330
47
100
AcDbScale
 70
     0
300
1:2
140
1.0
141
2.0
290
     0
  0
SCALE
  5
4A
102
{ACAD_REACTORS
330
47
102
}
330
47
100
AcDbScale
 70
     0
300
1:4
140
1.0
141
4.0
290
     0
  0
SCALE
  5
4B
102
{ACAD_REACTORS
330
47
102
}
330
47
100
AcDbScale
 70
     0
300
1:5
140
1.0
141
5.0
290
     0
  0
SCALE
  5
4C
102
{ACAD_REACTORS
330
47
102
}
330
47
100
AcDbScale
 70
     0
300
1:8
140
1.0
141
8.0
290
     0
  0
SCALE
  5
4D
102
{ACAD_REACTORS
330
47
102
}
330
47
100
AcDbScale
 70
     0
300
1:10
140
1.0
141
10.0
290
     0
  0
SCALE
  5
4E
102
{ACAD_REACTORS
330
47
102
}
330
47
100
AcDbScale
 70
     0
300
1:16
140
1.0
141
16.0
290
     0
  0
SCALE
  5
4F
102
{ACAD_REACTORS
330
47
102
}
330
47
100
AcDbScale
 70
     0
300
1:20
140
1.0
141
20.0
290
     0
  0
SCALE
  5
50
102
{ACAD_REACTORS
330
47
102
}
330
47
100
AcDbScale
 70
     0
300
1:30
140
1.0
141
30.0
290
     0
  0
SCALE
  5
51
102
{ACAD_REACTORS
330
47
102
}
330
47
100
AcDbScale
 70
     0
300
1:40
140
1.0
141
40.0
290
     0
  0
SCALE
  5
52
102
{ACAD_REACTORS
330
47
102
}
330
47
100
AcDbScale
 70
     0
300
1:50
140
1.0
141
50.0
290
     0
  0
SCALE
  5
53
102
{ACAD_REACTORS
330
47
102
}
330
47
100
AcDbScale
 70
     0
300
1:100
140
1.0
141
100.0
290
     0
  0
SCALE
  5
54
102
{ACAD_REACTORS
330
47
102
}
330
47
100
AcDbScale
 70
     0
300
2:1
140
2.0
141
1.0
290
     0
  0
SCALE
  5
55
102
{ACAD_REACTORS
330
47
102
}
330
47
100
AcDbScale
 70
     0
300
4:1
140
4.0
141
1.0
290
     0
  0
SCALE
  5
56
102
{ACAD_REACTORS
330
47
102
}
330
47
100
AcDbScale
 70
     0
300
8:1
140
8.0
141
1.0
290
     0
  0
SCALE
  5
57
102
{ACAD_REACTORS
330
47
102
}
330
47
100
AcDbScale
 70
     0
300
10:1
140
10.0
141
1.0
290
     0
  0
SCALE
  5
58
102
{ACAD_REACTORS
330
47
102
}
330
47
100
AcDbScale
 70
     0
300
100:1
140
100.0
141
1.0
290
     0
  0
SCALE
  5
59
102
{ACAD_REACTORS
330
47
102
}
330
47
100
AcDbScale
 70
     0
300
1/128" = 1'-0"
140
0.0078125
141
12.0
290
     0
  0
SCALE
  5
5A
102
{ACAD_REACTORS
330
47
102
}
330
47
100
AcDbScale
 70
     0
300
1/64" = 1'-0"
140
0.015625
141
12.0
290
     0
  0
SCALE
  5
5B
102
{ACAD_REACTORS
330
47
102
}
330
47
100
AcDbScale
 70
     0
300
1/32" = 1'-0"
140
0.03125
141
12.0
290
     0
  0
SCALE
  5
5C
102
{ACAD_REACTORS
330
47
102
}
330
47
100
AcDbScale
 70
     0
300
1/16" = 1'-0"
140
0.0625
141
12.0
290
     0
  0
SCALE
  5
5D
102
{ACAD_REACTORS
330
47
102
}
330
47
100
AcDbScale
 70
     0
300
3/32" = 1'-0"
140
0.09375
141
12.0
290
     0
  0
SCALE
  5
5E
102
{ACAD_REACTORS
330
47
102
}
330
47
100
AcDbScale
 70
     0
300
1/8" = 1'-0"
140
0.125
141
12.0
290
     0
  0
SCALE
  5
5F
102
{ACAD_REACTORS
330
47
102
}
330
47
100
AcDbScale
 70
     0
300
3/16" = 1'-0"
140
0.1875
141
12.0
290
     0
  0
SCALE
  5
60
102
{ACAD_REACTORS
330
47
102
}
330
47
100
AcDbScale
 70
     0
300
1/4" = 1'-0"
140
0.25
141
12.0
290
     0
  0
SCALE
  5
61
102
{ACAD_REACTORS
330
47
102
}
330
47
100
AcDbScale
 70
     0
300
3/8" = 1'-0"
140
0.375
141
12.0
290
     0
  0
SCALE
  5
62
102
{ACAD_REACTORS
330
47
102
}
330
47
100
AcDbScale
 70
     0
300
1/2" = 1'-0"
140
0.5
141
12.0
290
     0
  0
SCALE
  5
63
102
{ACAD_REACTORS
330
47
102
}
330
47
100
AcDbScale
 70
     0
300
3/4" = 1'-0"
140
0.75
141
12.0
290
     0
  0
SCALE
  5
64
102
{ACAD_REACTORS
330
47
102
}
330
47
100
AcDbScale
 70
     0
300
1" = 1'-0"
140
1.0
141
12.0
290
     0
  0
SCALE
  5
65
102
{ACAD_REACTORS
330
47
102
}
330
47
100
AcDbScale
 70
     0
300
1-1/2" = 1'-0"
140
1.5
141
12.0
290
     0
  0
SCALE
  5
66
102
{ACAD_REACTORS
330
47
102
}
330
47
100
AcDbScale
 70
     0
300
3" = 1'-0"
140
3.0
141
12.0
290
     0
  0
SCALE
  5
67
102
{ACAD_REACTORS
330
47
102
}
330
47
100
AcDbScale
 70
     0
300
6" = 1'-0"
140
6.0
141
12.0
290
     0
  0
SCALE
  5
68
102
{ACAD_REACTORS
330
47
102
}
330
47
100
AcDbScale
 70
     0
300
1'-0" = 1'-0"
140
12.0
141
12.0
290
     0
  0
TABLESTYLE
  5
6A
102
{ACAD_REACTORS
330
69
102
}
102
{ACAD_XDICTIONARY
360
1D4
102
}
330
69
100
AcDbTableStyle
  3
Standard
 70
     0
 71
     0
 40
0.06
 41
0.06
280
     0
281
     0
  7
Standard
140
0.18
170
     2
 62
     0
 63
   257
283
     0
 90
        4
 91
        0
  1

274
    -2
284
     1
 64
     0
275
    -2
285
     1
 65
     0
276
    -2
286
     1
 66
     0
277
    -2
287
     1
 67
     0
278
    -2
288
     1
 68
     0
279
    -2
289
     1
 69
     0
  7
Standard
140
0.25
170
     5
 62
     0
 63
   257
283
     0
 90
        4
 91
        0
  1

274
    -2
284
     1
 64
     0
275
    -2
285
     1
 65
     0
276
    -2
286
     1
 66
     0
277
    -2
287
     1
 67
     0
278
    -2
288
     1
 68
     0
279
    -2
289
     1
 69
     0
  7
Standard
140
0.18
170
     5
 62
     0
 63
   257
283
     0
 90
        4
 91
        0
  1

274
    -2
284
     1
 64
     0
275
    -2
285
     1
 65
     0
276
    -2
286
     1
 66
     0
277
    -2
287
     1
 67
     0
278
    -2
288
     1
 68
     0
279
    -2
289
     1
 69
     0
  0
VISUALSTYLE
  5
2F
102
{ACAD_REACTORS
330
2A
102
}
330
2A
100
AcDbVisualStyle
  2
2dWireframe
 70
     4
177
     3
291
     0
 70
    58
 90
        0
176
     1
 90
        2
176
     1
 90
        0
176
     1
 90
        0
176
     1
 40
0.6
176
     1
 40
30.0
176
     1
 62
     7
420
 16777215
176
     1
 90
        1
176
     1
 90
        4
176
     1
 62
     7
176
     1
 62
   257
176
     1
 90
        1
176
     1
 90
        1
176
     1
 40
1.0
176
     1
 90
        0
176
     1
 62
   257
176
     1
 40
1.0
176
     1
 90
        1
176
     1
 90
        6
176
     1
 90
        2
176
     1
 62
     7
176
     1
 90
        5
176
     1
 90
        0
176
     1
 90
        0
176
     1
290
     0
176
     1
 90
        1
176
     1
 40
0.0
176
     1
 90
        0
176
     1
290
     1
176
     1
290
     1
176
     1
290
     0
176
     1
290
     0
176
     1
290
     0
176
     1
290
     0
176
     1
290
     0
176
     1
290
     0
176
     1
290
     0
176
     1
 90
       50
176
     1
 40
0.0
176
     1
 40
1.0
176
     1
 90
        0
176
     1
 62
    18
420
        0
176
     1
 90
       50
176
     1
 90
        3
176
     1
 62
     5
420
      255
176
     1
290
     0
176
     1
 90
       50
176
     1
 90
       50
176
     1
 90
       50
176
     1
290
     0
176
     1
 90
       50
176
     1
 62
   256
176
     0
 40
1.0
176
     0
 90
        2
176
     1
  1
strokes_ogs.tif
176
     1
290
     0
176
     1
 40
1.0
176
     1
 40
1.0
176
     1
  0
VISUALSTYLE
  5
32
102
{ACAD_REACTORS
330
2A
102
}
330
2A
100
AcDbVisualStyle
  2
Basic
 70
     7
177
     3
291
     1
 70
    58
 90
        1
176
     1
 90
        0
176
     1
 90
        1
176
     1
 90
        0
176
     1
 40
0.6
176
     1
 40
30.0
176
     1
 62
     7
420
 16777215
176
     1
 90
        0
176
     1
 90
        4
176
     1
 62
     7
176
     1
 62
   257
176
     1
 90
        1
176
     1
 90
        1
176
     1
 40
1.0
176
     1
 90
        8
176
     1
 62
     7
176
     1
 40
1.0
176
     1
 90
        1
176
     1
 90
        6
176
     1
 90
        2
176
     1
 62
     7
176
     1
 90
        5
176
     1
 90
        0
176
     1
 90
        0
176
     1
290
     0
176
     1
 90
        1
176
     1
 40
0.0
176
     1
 90
        0
176
     1
290
     0
176
     1
290
     1
176
     1
290
     1
176
     1
290
     0
176
     1
290
     0
176
     1
290
     0
176
     1
290
     0
176
     1
290
     0
176
     1
290
     0
176
     1
 90
       50
176
     1
 40
0.0
176
     1
 40
1.0
176
     1
 90
        0
176
     1
 62
    18
420
        0
176
     1
 90
       50
176
     1
 90
        3
176
     1
 62
     5
420
      255
176
     1
290
     0
176
     1
 90
       50
176
     1
 90
       50
176
     1
 90
       50
176
     1
290
     0
176
     1
 90
       50
176
     1
 62
   256
176
     0
 40
1.0
176
     0
 90
        2
176
     1
  1
strokes_ogs.tif
176
     1
290
     0
176
     1
 40
1.0
176
     1
 40
1.0
176
     1
  0
VISUALSTYLE
  5
36
102
{ACAD_REACTORS
330
2A
102
}
330
2A
100
AcDbVisualStyle
  2
Brighten
 70
    12
177
     3
291
     1
 70
    58
 90
        2
176
     1
 90
        2
176
     1
 90
        0
176
     1
 90
        0
176
     1
 40
0.6
176
     1
 40
30.0
176
     1
 62
     7
420
 16777215
176
     1
 90
        1
176
     1
 90
        4
176
     1
 62
     7
176
     1
 62
   257
176
     1
 90
        1
176
     1
 90
        1
176
     1
 40
1.0
176
     1
 90
        8
176
     1
 62
     7
176
     1
 40
1.0
176
     1
 90
        1
176
     1
 90
        6
176
     1
 90
        2
176
     1
 62
     7
176
     1
 90
        5
176
     1
 90
        0
176
     1
 90
        0
176
     1
290
     0
176
     1
 90
        1
176
     1
 40
50.0
176
     1
 90
        0
176
     1
290
     0
176
     1
290
     1
176
     1
290
     1
176
     1
290
     0
176
     1
290
     0
176
     1
290
     0
176
     1
290
     0
176
     1
290
     0
176
     1
290
     0
176
     1
 90
       50
176
     1
 40
0.0
176
     1
 40
1.0
176
     1
 90
        0
176
     1
 62
    18
420
        0
176
     1
 90
       50
176
     1
 90
        3
176
     1
 62
     5
420
      255
176
     1
290
     0
176
     1
 90
       50
176
     1
 90
       50
176
     1
 90
       50
176
     1
290
     0
176
     1
 90
       50
176
     1
 62
   256
176
     0
 40
1.0
176
     0
 90
        2
176
     1
  1
strokes_ogs.tif
176
     1
290
     0
176
     1
 40
1.0
176
     1
 40
1.0
176
     1
  0
VISUALSTYLE
  5
3A
102
{ACAD_REACTORS
330
2A
102
}
330
2A
100
AcDbVisualStyle
  2
ColorChange
 70
    16
177
     3
291
     1
 70
    58
 90
        2
176
     1
 90
        2
176
     1
 90
        3
176
     1
 90
        0
176
     1
 40
0.6
176
     1
 40
30.0
176
     1
 62
     8
420
  8421504
176
     1
 90
        1
176
     1
 90
        4
176
     1
 62
     7
176
     1
 62
   257
176
     1
 90
        1
176
     1
 90
        1
176
     1
 40
1.0
176
     1
 90
        8
176
     1
 62
     8
420
  8421504
176
     1
 40
1.0
176
     1
 90
        1
176
     1
 90
        6
176
     1
 90
        2
176
     1
 62
     7
176
     1
 90
        5
176
     1
 90
        0
176
     1
 90
        0
176
     1
290
     0
176
     1
 90
        1
176
     1
 40
0.0
176
     1
 90
        0
176
     1
290
     0
176
     1
290
     1
176
     1
290
     1
176
     1
290
     0
176
     1
290
     0
176
     1
290
     0
176
     1
290
     0
176
     1
290
     0
176
     1
290
     0
176
     1
 90
       50
176
     1
 40
0.0
176
     1
 40
1.0
176
     1
 90
        0
176
     1
 62
    18
420
        0
176
     1
 90
       50
176
     1
 90
        3
176
     1
 62
     5
420
      255
176
     1
290
     0
176
     1
 90
       50
176
     1
 90
       50
176
     1
 90
       50
176
     1
290
     0
176
     1
 90
       50
176
     1
 62
   256
176
     0
 40
1.0
176
     0
 90
        2
176
     1
  1
strokes_ogs.tif
176
     1
290
     0
176
     1
 40
1.0
176
     1
 40
1.0
176
     1
  0
VISUALSTYLE
  5
34
102
{ACAD_REACTORS
330
2A
102
}
330
2A
100
AcDbVisualStyle
  2
Conceptual
 70
     9
177
     3
291
     0
 70
    58
 90
        3
176
     1
 90
        2
176
     1
 90
        0
176
     1
 90
        0
176
     1
 40
0.6
176
     1
 40
30.0
176
     1
 62
     7
420
 16777215
176
     1
 90
        2
176
     1
 90
        2
176
     1
 62
     7
176
     1
 62
   257
176
     1
 90
        1
176
     1
 90
        1
176
     1
 40
179.0
176
     1
 90
        8
176
     1
 62
     7
176
     1
 40
1.0
176
     1
 90
        1
176
     1
 90
        6
176
     1
 90
        2
176
     1
 62
     7
176
     1
 90
        3
176
     1
 90
        0
176
     1
 90
        0
176
     1
290
     0
176
     1
 90
        1
176
     1
 40
0.0
176
     1
 90
        0
176
     1
290
     0
176
     1
290
     1
176
     1
290
     1
176
     1
290
     0
176
     1
290
     0
176
     1
290
     0
176
     1
290
     0
176
     1
290
     0
176
     1
290
     0
176
     1
 90
       50
176
     1
 40
0.0
176
     1
 40
1.0
176
     1
 90
        0
176
     1
 62
    18
420
        0
176
     1
 90
       50
176
     1
 90
        3
176
     1
 62
     5
420
      255
176
     1
290
     0
176
     1
 90
       50
176
     1
 90
       50
176
     1
 90
       50
176
     1
290
     0
176
     1
 90
       50
176
     1
 62
   256
176
     0
 40
1.0
176
     0
 90
        2
176
     1
  1
strokes_ogs.tif
176
     1
290
     0
176
     1
 40
1.0
176
     1
 40
1.0
176
     1
  0
VISUALSTYLE
  5
35
102
{ACAD_REACTORS
330
2A
102
}
330
2A
100
AcDbVisualStyle
  2
Dim
 70
    11
177
     3
291
     1
 70
    58
 90
        2
176
     1
 90
        2
176
     1
 90
        0
176
     1
 90
        0
176
     1
 40
0.6
176
     1
 40
30.0
176
     1
 62
     7
420
 16777215
176
     1
 90
        1
176
     1
 90
        4
176
     1
 62
     7
176
     1
 62
   257
176
     1
 90
        1
176
     1
 90
        1
176
     1
 40
1.0
176
     1
 90
        8
176
     1
 62
     7
176
     1
 40
1.0
176
     1
 90
        1
176
     1
 90
        6
176
     1
 90
        2
176
     1
 62
     7
176
     1
 90
        5
176
     1
 90
        0
176
     1
 90
        0
176
     1
290
     0
176
     1
 90
        1
176
     1
 40
-50.0
176
     1
 90
        0
176
     1
290
     0
176
     1
290
     1
176
     1
290
     1
176
     1
290
     0
176
     1
290
     0
176
     1
290
     0
176
     1
290
     0
176
     1
290
     0
176
     1
290
     0
176
     1
 90
       50
176
     1
 40
0.0
176
     1
 40
1.0
176
     1
 90
        0
176
     1
 62
    18
420
        0
176
     1
 90
       50
176
     1
 90
        3
176
     1
 62
     5
420
      255
176
     1
290
     0
176
     1
 90
       50
176
     1
 90
       50
176
     1
 90
       50
176
     1
290
     0
176
     1
 90
       50
176
     1
 62
   256
176
     0
 40
1.0
176
     0
 90
        2
176
     1
  1
strokes_ogs.tif
176
     1
290
     0
176
     1
 40
1.0
176
     1
 40
1.0
176
     1
  0
VISUALSTYLE
  5
3D
102
{ACAD_REACTORS
330
2A
102
}
330
2A
100
AcDbVisualStyle
  2
EdgeColorOff
 70
    22
177
     3
291
     1
 70
    58
 90
        2
176
     0
 90
        2
176
     0
 90
        0
176
     0
 90
        0
176
     0
 40
0.6
176
     0
 40
30.0
176
     0
 62
     7
420
 16777215
176
     0
 90
        1
176
     0
 90
        4
176
     0
 62
     7
176
     0
 62
   257
176
     0
 90
        1
176
     0
 90
        1
176
     0
 40
1.0
176
     0
 90
        8
176
     2
 62
     7
176
     0
 40
1.0
176
     0
 90
        1
176
     0
 90
        6
176
     0
 90
        2
176
     0
 62
     7
176
     0
 90
        5
176
     0
 90
        0
176
     0
 90
        0
176
     0
290
     0
176
     0
 90
        1
176
     0
 40
0.0
176
     0
 90
        0
176
     0
290
     0
176
     0
290
     1
176
     0
290
     1
176
     0
290
     0
176
     0
290
     0
176
     0
290
     0
176
     0
290
     0
176
     0
290
     0
176
     0
290
     0
176
     0
 90
       50
176
     0
 40
0.0
176
     0
 40
1.0
176
     0
 90
        0
176
     0
 62
    18
420
        0
176
     0
 90
       50
176
     0
 90
        3
176
     0
 62
     5
420
      255
176
     0
290
     0
176
     0
 90
       50
176
     0
 90
       50
176
     0
 90
       50
176
     0
290
     0
176
     0
 90
       50
176
     0
 62
   256
176
     0
 40
1.0
176
     0
 90
        2
176
     0
  1
strokes_ogs.tif
176
     0
290
     0
176
     0
 40
1.0
176
     0
 40
1.0
176
     0
  0
VISUALSTYLE
  5
39
102
{ACAD_REACTORS
330
2A
102
}
330
2A
100
AcDbVisualStyle
  2
Facepattern
 70
    15
177
     3
291
     1
 70
    58
 90
        2
176
     1
 90
        2
176
     1
 90
        0
176
     1
 90
        0
176
     1
 40
0.6
176
     1
 40
30.0
176
     1
 62
     7
420
 16777215
176
     1
 90
        1
176
     1
 90
        4
176
     1
 62
     7
176
     1
 62
   257
176
     1
 90
        1
176
     1
 90
        1
176
     1
 40
1.0
176
     1
 90
        8
176
     1
 62
     7
176
     1
 40
1.0
176
     1
 90
        1
176
     1
 90
        6
176
     1
 90
        2
176
     1
 62
     7
176
     1
 90
        5
176
     1
 90
        0
176
     1
 90
        0
176
     1
290
     0
176
     1
 90
        1
176
     1
 40
0.0
176
     1
 90
        0
176
     1
290
     0
176
     1
290
     1
176
     1
290
     1
176
     1
290
     0
176
     1
290
     0
176
     1
290
     0
176
     1
290
     0
176
     1
290
     0
176
     1
290
     0
176
     1
 90
       50
176
     1
 40
0.0
176
     1
 40
1.0
176
     1
 90
        0
176
     1
 62
    18
420
        0
176
     1
 90
       50
176
     1
 90
        3
176
     1
 62
     5
420
      255
176
     1
290
     0
176
     1
 90
       50
176
     1
 90
       50
176
     1
 90
       50
176
     1
290
     0
176
     1
 90
       50
176
     1
 62
   256
176
     0
 40
1.0
176
     0
 90
        2
176
     1
  1
strokes_ogs.tif
176
     1
290
     0
176
     1
 40
1.0
176
     1
 40
1.0
176
     1
  0
VISUALSTYLE
  5
2B
102
{ACAD_REACTORS
330
2A
102
}
330
2A
100
AcDbVisualStyle
  2
Flat
 70
     0
177
     3
291
     1
 70
    58
 90
        2
176
     1
 90
        1
176
     1
 90
        1
176
     1
 90
        2
176
     1
 40
0.6
176
     1
 40
30.0
176
     1
 62
     7
420
 16777215
176
     1
 90
        0
176
     1
 90
        0
176
     1
 62
     7
176
     1
 62
   257
176
     1
 90
        1
176
     1
 90
        1
176
     1
 40
1.0
176
     1
 90
        8
176
     1
 62
     7
176
     1
 40
1.0
176
     1
 90
        1
176
     1
 90
        6
176
     1
 90
        2
176
     1
 62
     7
176
     1
 90
        5
176
     1
 90
        0
176
     1
 90
        0
176
     1
290
     0
176
     1
 90
       13
176
     1
 40
0.0
176
     1
 90
        0
176
     1
290
     0
176
     1
290
     1
176
     1
290
     1
176
     1
290
     0
176
     1
290
     0
176
     1
290
     0
176
     1
290
     0
176
     1
290
     0
176
     1
290
     0
176
     1
 90
       50
176
     1
 40
0.0
176
     1
 40
1.0
176
     1
 90
        0
176
     1
 62
    18
420
        0
176
     1
 90
       50
176
     1
 90
        3
176
     1
 62
     5
420
      255
176
     1
290
     0
176
     1
 90
       50
176
     1
 90
       50
176
     1
 90
       50
176
     1
290
     0
176
     1
 90
       50
176
     1
 62
   256
176
     0
 40
1.0
176
     0
 90
        2
176
     1
  1
strokes_ogs.tif
176
     1
290
     0
176
     1
 40
1.0
176
     1
 40
1.0
176
     1
  0
VISUALSTYLE
  5
2C
102
{ACAD_REACTORS
330
2A
102
}
330
2A
100
AcDbVisualStyle
  2
FlatWithEdges
 70
     1
177
     3
291
     1
 70
    58
 90
        2
176
     1
 90
        1
176
     1
 90
        1
176
     1
 90
        2
176
     1
 40
0.6
176
     1
 40
30.0
176
     1
 62
     7
420
 16777215
176
     1
 90
        1
176
     1
 90
        0
176
     1
 62
     7
176
     1
 62
   257
176
     1
 90
        1
176
     1
 90
        1
176
     1
 40
1.0
176
     1
 90
        0
176
     1
 62
   257
176
     1
 40
1.0
176
     1
 90
        1
176
     1
 90
        6
176
     1
 90
        2
176
     1
 62
     7
176
     1
 90
        5
176
     1
 90
        0
176
     1
 90
        0
176
     1
290
     0
176
     1
 90
       13
176
     1
 40
0.0
176
     1
 90
        0
176
     1
290
     0
176
     1
290
     1
176
     1
290
     1
176
     1
290
     0
176
     1
290
     0
176
     1
290
     0
176
     1
290
     0
176
     1
290
     0
176
     1
290
     0
176
     1
 90
       50
176
     1
 40
0.0
176
     1
 40
1.0
176
     1
 90
        0
176
     1
 62
    18
420
        0
176
     1
 90
       50
176
     1
 90
        3
176
     1
 62
     5
420
      255
176
     1
290
     0
176
     1
 90
       50
176
     1
 90
       50
176
     1
 90
       50
176
     1
290
     0
176
     1
 90
       50
176
     1
 62
   256
176
     0
 40
1.0
176
     0
 90
        2
176
     1
  1
strokes_ogs.tif
176
     1
290
     0
176
     1
 40
1.0
176
     1
 40
1.0
176
     1
  0
VISUALSTYLE
  5
2D
102
{ACAD_REACTORS
330
2A
102
}
330
2A
100
AcDbVisualStyle
  2
Gouraud
 70
     2
177
     3
291
     1
 70
    58
 90
        2
176
     1
 90
        2
176
     1
 90
        1
176
     1
 90
        2
176
     1
 40
0.6
176
     1
 40
30.0
176
     1
 62
     7
420
 16777215
176
     1
 90
        0
176
     1
 90
        0
176
     1
 62
     7
176
     1
 62
   257
176
     1
 90
        1
176
     1
 90
        1
176
     1
 40
1.0
176
     1
 90
        0
176
     1
 62
     7
176
     1
 40
1.0
176
     1
 90
        1
176
     1
 90
        6
176
     1
 90
        2
176
     1
 62
     7
176
     1
 90
        5
176
     1
 90
        0
176
     1
 90
        0
176
     1
290
     0
176
     1
 90
       13
176
     1
 40
0.0
176
     1
 90
        0
176
     1
290
     0
176
     1
290
     1
176
     1
290
     1
176
     1
290
     0
176
     1
290
     0
176
     1
290
     0
176
     1
290
     0
176
     1
290
     0
176
     1
290
     0
176
     1
 90
       50
176
     1
 40
0.0
176
     1
 40
1.0
176
     1
 90
        0
176
     1
 62
    18
420
        0
176
     1
 90
       50
176
     1
 90
        3
176
     1
 62
     5
420
      255
176
     1
290
     0
176
     1
 90
       50
176
     1
 90
       50
176
     1
 90
       50
176
     1
290
     0
176
     1
 90
       50
176
     1
 62
   256
176
     0
 40
1.0
176
     0
 90
        2
176
     1
  1
strokes_ogs.tif
176
     1
290
     0
176
     1
 40
1.0
176
     1
 40
1.0
176
     1
  0
VISUALSTYLE
  5
2E
102
{ACAD_REACTORS
330
2A
102
}
330
2A
100
AcDbVisualStyle
  2
GouraudWithEdges
 70
     3
177
     3
291
     1
 70
    58
 90
        2
176
     1
 90
        2
176
     1
 90
        1
176
     1
 90
        2
176
     1
 40
0.6
176
     1
 40
30.0
176
     1
 62
     7
420
 16777215
176
     1
 90
        1
176
     1
 90
        0
176
     1
 62
     7
176
     1
 62
   257
176
     1
 90
        1
176
     1
 90
        1
176
     1
 40
1.0
176
     1
 90
        0
176
     1
 62
   257
176
     1
 40
1.0
176
     1
 90
        1
176
     1
 90
        6
176
     1
 90
        2
176
     1
 62
     7
176
     1
 90
        5
176
     1
 90
        0
176
     1
 90
        0
176
     1
290
     0
176
     1
 90
       13
176
     1
 40
0.0
176
     1
 90
        0
176
     1
290
     0
176
     1
290
     1
176
     1
290
     1
176
     1
290
     0
176
     1
290
     0
176
     1
290
     0
176
     1
290
     0
176
     1
290
     0
176
     1
290
     0
176
     1
 90
       50
176
     1
 40
0.0
176
     1
 40
1.0
176
     1
 90
        0
176
     1
 62
    18
420
        0
176
     1
 90
       50
176
     1
 90
        3
176
     1
 62
     5
420
      255
176
     1
290
     0
176
     1
 90
       50
176
     1
 90
       50
176
     1
 90
       50
176
     1
290
     0
176
     1
 90
       50
176
     1
 62
   256
176
     0
 40
1.0
176
     0
 90
        2
176
     1
  1
strokes_ogs.tif
176
     1
290
     0
176
     1
 40
1.0
176
     1
 40
1.0
176
     1
  0
VISUALSTYLE
  5
31
102
{ACAD_REACTORS
330
2A
102
}
330
2A
100
AcDbVisualStyle
  2
Hidden
 70
     6
177
     3
291
     0
 70
    58
 90
        1
176
     1
 90
        2
176
     1
 90
        2
176
     1
 90
        0
176
     1
 40
0.6
176
     1
 40
30.0
176
     1
 62
     7
420
 16777215
176
     1
 90
        2
176
     1
 90
        2
176
     1
 62
     7
176
     1
 62
   257
176
     1
 90
        2
176
     1
 90
        1
176
     1
 40
40.0
176
     1
 90
        0
176
     1
 62
   257
176
     1
 40
1.0
176
     1
 90
        1
176
     1
 90
        6
176
     1
 90
        2
176
     1
 62
     7
176
     1
 90
        3
176
     1
 90
        0
176
     1
 90
        0
176
     1
290
     0
176
     1
 90
        1
176
     1
 40
0.0
176
     1
 90
        0
176
     1
290
     0
176
     1
290
     1
176
     1
290
     1
176
     1
290
     0
176
     1
290
     0
176
     1
290
     0
176
     1
290
     0
176
     1
290
     0
176
     1
290
     0
176
     1
 90
       50
176
     1
 40
0.0
176
     1
 40
1.0
176
     1
 90
        0
176
     1
 62
    18
420
        0
176
     1
 90
       50
176
     1
 90
        3
176
     1
 62
     5
420
      255
176
     1
290
     0
176
     1
 90
       50
176
     1
 90
       50
176
     1
 90
       50
176
     1
290
     0
176
     1
 90
       50
176
     1
 62
   256
176
     0
 40
1.0
176
     0
 90
        2
176
     1
  1
strokes_ogs.tif
176
     1
290
     0
176
     1
 40
1.0
176
     1
 40
1.0
176
     1
  0
VISUALSTYLE
  5
3B
102
{ACAD_REACTORS
330
2A
102
}
330
2A
100
AcDbVisualStyle
  2
JitterOff
 70
    20
177
     3
291
     1
 70
    58
 90
        2
176
     0
 90
        2
176
     0
 90
        0
176
     0
 90
        0
176
     0
 40
0.6
176
     0
 40
30.0
176
     0
 62
     7
420
 16777215
176
     0
 90
        1
176
     0
 90
        4
176
     0
 62
     7
176
     0
 62
   257
176
     0
 90
        1
176
     0
 90
        1
176
     0
 40
1.0
176
     0
 90
       10
176
     2
 62
     7
176
     0
 40
1.0
176
     0
 90
        1
176
     0
 90
        6
176
     0
 90
        2
176
     0
 62
     7
176
     0
 90
        5
176
     0
 90
        0
176
     0
 90
        0
176
     0
290
     0
176
     0
 90
        1
176
     0
 40
0.0
176
     0
 90
        0
176
     0
290
     0
176
     0
290
     1
176
     0
290
     1
176
     0
290
     0
176
     0
290
     0
176
     0
290
     0
176
     0
290
     0
176
     0
290
     0
176
     0
290
     0
176
     0
 90
       50
176
     0
 40
0.0
176
     0
 40
1.0
176
     0
 90
        0
176
     0
 62
    18
420
        0
176
     0
 90
       50
176
     0
 90
        3
176
     0
 62
     5
420
      255
176
     0
290
     0
176
     0
 90
       50
176
     0
 90
       50
176
     0
 90
       50
176
     0
290
     0
176
     0
 90
       50
176
     0
 62
   256
176
     0
 40
1.0
176
     0
 90
        2
176
     0
  1
strokes_ogs.tif
176
     0
290
     0
176
     0
 40
1.0
176
     0
 40
1.0
176
     0
  0
VISUALSTYLE
  5
38
102
{ACAD_REACTORS
330
2A
102
}
330
2A
100
AcDbVisualStyle
  2
Linepattern
 70
    14
177
     3
291
     1
 70
    58
 90
        2
176
     1
 90
        2
176
     1
 90
        0
176
     1
 90
        0
176
     1
 40
0.6
176
     1
 40
30.0
176
     1
 62
     7
420
 16777215
176
     1
 90
        1
176
     1
 90
        4
176
     1
 62
     7
176
     1
 62
   257
176
     1
 90
        7
176
     1
 90
        7
176
     1
 40
1.0
176
     1
 90
        8
176
     1
 62
     7
176
     1
 40
1.0
176
     1
 90
        1
176
     1
 90
        6
176
     1
 90
        2
176
     1
 62
     7
176
     1
 90
        5
176
     1
 90
        0
176
     1
 90
        0
176
     1
290
     0
176
     1
 90
        1
176
     1
 40
0.0
176
     1
 90
        0
176
     1
290
     0
176
     1
290
     1
176
     1
290
     1
176
     1
290
     0
176
     1
290
     0
176
     1
290
     0
176
     1
290
     0
176
     1
290
     0
176
     1
290
     0
176
     1
 90
       50
176
     1
 40
0.0
176
     1
 40
1.0
176
     1
 90
        0
176
     1
 62
    18
420
        0
176
     1
 90
       50
176
     1
 90
        3
176
     1
 62
     5
420
      255
176
     1
290
     0
176
     1
 90
       50
176
     1
 90
       50
176
     1
 90
       50
176
     1
290
     0
176
     1
 90
       50
176
     1
 62
   256
176
     0
 40
1.0
176
     0
 90
        2
176
     1
  1
strokes_ogs.tif
176
     1
290
     0
176
     1
 40
1.0
176
     1
 40
1.0
176
     1
  0
VISUALSTYLE
  5
3C
102
{ACAD_REACTORS
330
2A
102
}
330
2A
100
AcDbVisualStyle
  2
OverhangOff
 70
    21
177
     3
291
     1
 70
    58
 90
        2
176
     0
 90
        2
176
     0
 90
        0
176
     0
 90
        0
176
     0
 40
0.6
176
     0
 40
30.0
176
     0
 62
     7
420
 16777215
176
     0
 90
        1
176
     0
 90
        4
176
     0
 62
     7
176
     0
 62
   257
176
     0
 90
        1
176
     0
 90
        1
176
     0
 40
1.0
176
     0
 90
        9
176
     2
 62
     7
176
     0
 40
1.0
176
     0
 90
        1
176
     0
 90
        6
176
     0
 90
        2
176
     0
 62
     7
176
     0
 90
        5
176
     0
 90
        0
176
     0
 90
        0
176
     0
290
     0
176
     0
 90
        1
176
     0
 40
0.0
176
     0
 90
        0
176
     0
290
     0
176
     0
290
     1
176
     0
290
     1
176
     0
290
     0
176
     0
290
     0
176
     0
290
     0
176
     0
290
     0
176
     0
290
     0
176
     0
290
     0
176
     0
 90
       50
176
     0
 40
0.0
176
     0
 40
1.0
176
     0
 90
        0
176
     0
 62
    18
420
        0
176
     0
 90
       50
176
     0
 90
        3
176
     0
 62
     5
420
      255
176
     0
290
     0
176
     0
 90
       50
176
     0
 90
       50
176
     0
 90
       50
176
     0
290
     0
176
     0
 90
       50
176
     0
 62
   256
176
     0
 40
1.0
176
     0
 90
        2
176
     0
  1
strokes_ogs.tif
176
     0
290
     0
176
     0
 40
1.0
176
     0
 40
1.0
176
     0
  0
VISUALSTYLE
  5
33
102
{ACAD_REACTORS
330
2A
102
}
330
2A
100
AcDbVisualStyle
  2
Realistic
 70
     8
177
     3
291
     0
 70
    58
 90
        2
176
     1
 90
        3
176
     1
 90
        0
176
     1
 90
        2
176
     1
 40
0.6
176
     1
 40
30.0
176
     1
 62
     7
420
 16777215
176
     1
 90
        0
176
     1
 90
        0
176
     1
 62
     7
176
     1
 62
   257
176
     1
 90
        1
176
     1
 90
        1
176
     1
 40
1.0
176
     1
 90
        8
176
     1
 62
   257
176
     1
 40
1.0
176
     1
 90
        1
176
     1
 90
        6
176
     1
 90
        2
176
     1
 62
     7
176
     1
 90
        3
176
     1
 90
        0
176
     1
 90
        0
176
     1
290
     0
176
     1
 90
       13
176
     1
 40
0.0
176
     1
 90
        0
176
     1
290
     0
176
     1
290
     1
176
     1
290
     1
176
     1
290
     0
176
     1
290
     0
176
     1
290
     0
176
     1
290
     0
176
     1
290
     0
176
     1
290
     0
176
     1
 90
       50
176
     1
 40
0.0
176
     1
 40
1.0
176
     1
 90
        0
176
     1
 62
    18
420
        0
176
     1
 90
       50
176
     1
 90
        3
176
     1
 62
     5
420
      255
176
     1
290
     0
176
     1
 90
       50
176
     1
 90
       50
176
     1
 90
       50
176
     1
290
     0
176
     1
 90
       50
176
     1
 62
   256
176
     0
 40
1.0
176
     0
 90
        2
176
     1
  1
strokes_ogs.tif
176
     1
290
     0
176
     1
 40
1.0
176
     1
 40
1.0
176
     1
  0
VISUALSTYLE
  5
42
102
{ACAD_REACTORS
330
2A
102
}
330
2A
100
AcDbVisualStyle
  2
Shaded
 70
    27
177
     3
291
     0
 70
    58
 90
        2
176
     1
 90
        2
176
     1
 90
        1
176
     1
 90
        2
176
     1
 40
0.6
176
     1
 40
30.0
176
     1
 62
     7
420
 16777215
176
     1
 90
        0
176
     1
 90
        4
176
     1
 62
     7
176
     1
 62
   257
176
     1
 90
        1
176
     1
 90
        1
176
     1
 40
1.0
176
     1
 90
        8
176
     1
 62
   257
176
     1
 40
1.0
176
     1
 90
        1
176
     1
 90
        6
176
     1
 90
        2
176
     1
 62
     8
420
  7895160
176
     1
 90
        3
176
     1
 90
        0
176
     1
 90
        0
176
     1
290
     0
176
     1
 90
        5
176
     1
 40
0.0
176
     1
 90
        0
176
     1
290
     0
176
     1
290
     1
176
     1
290
     1
176
     1
290
     0
176
     1
290
     0
176
     1
290
     0
176
     1
290
     0
176
     1
290
     0
176
     1
290
     0
176
     1
 90
       50
176
     1
 40
0.0
176
     1
 40
1.0
176
     1
 90
        0
176
     1
 62
    18
420
        0
176
     1
 90
       50
176
     1
 90
        3
176
     1
 62
     5
420
      255
176
     1
290
     0
176
     1
 90
       50
176
     1
 90
       50
176
     1
 90
       50
176
     1
290
     0
176
     1
 90
       50
176
     1
 62
   256
176
     0
 40
1.0
176
     0
 90
        2
176
     1
  1
strokes_ogs.tif
176
     1
290
     0
176
     1
 40
1.0
176
     1
 40
1.0
176
     1
  0
VISUALSTYLE
  5
41
102
{ACAD_REACTORS
330
2A
102
}
330
2A
100
AcDbVisualStyle
  2
Shaded with edges
 70
    26
177
     3
291
     0
 70
    58
 90
        2
176
     1
 90
        2
176
     1
 90
        1
176
     1
 90
        2
176
     1
 40
0.6
176
     1
 40
30.0
176
     1
 62
     7
420
 16777215
176
     1
 90
        1
176
     1
 90
       10
176
     1
 62
     7
176
     1
 62
   257
176
     1
 90
        2
176
     1
 90
        1
176
     1
 40
1.0
176
     1
 90
        8
176
     1
 62
   257
176
     1
 40
1.0
176
     1
 90
        1
176
     1
 90
        6
176
     1
 90
        2
176
     1
 62
     7
176
     1
 90
        3
176
     1
 90
        0
176
     1
 90
        0
176
     1
290
     0
176
     1
 90
        5
176
     1
 40
0.0
176
     1
 90
        0
176
     1
290
     0
176
     1
290
     1
176
     1
290
     1
176
     1
290
     0
176
     1
290
     0
176
     1
290
     0
176
     1
290
     0
176
     1
290
     0
176
     1
290
     0
176
     1
 90
       50
176
     1
 40
0.0
176
     1
 40
1.0
176
     1
 90
        0
176
     1
 62
    18
420
        0
176
     1
 90
       50
176
     1
 90
        3
176
     1
 62
     5
420
      255
176
     1
290
     0
176
     1
 90
       50
176
     1
 90
       50
176
     1
 90
       50
176
     1
290
     0
176
     1
 90
       50
176
     1
 62
   256
176
     0
 40
1.0
176
     0
 90
        2
176
     1
  1
strokes_ogs.tif
176
     1
290
     0
176
     1
 40
1.0
176
     1
 40
1.0
176
     1
  0
VISUALSTYLE
  5
3E
102
{ACAD_REACTORS
330
2A
102
}
330
2A
100
AcDbVisualStyle
  2
Shades of Gray
 70
    23
177
     3
291
     0
 70
    58
 90
        2
176
     1
 90
        2
176
     1
 90
        3
176
     1
 90
        0
176
     1
 40
0.6
176
     1
 40
30.0
176
     1
 62
     7
420
 16777215
176
     1
 90
        2
176
     1
 90
        2
176
     1
 62
     7
176
     1
 62
     7
176
     1
 90
        1
176
     1
 90
        1
176
     1
 40
40.0
176
     1
 90
        8
176
     1
 62
     7
176
     1
 40
1.0
176
     1
 90
        1
176
     1
 90
        6
176
     1
 90
        2
176
     1
 62
     7
176
     1
 90
        3
176
     1
 90
        0
176
     1
 90
        0
176
     1
290
     0
176
     1
 90
        1
176
     1
 40
0.0
176
     1
 90
        0
176
     1
290
     0
176
     1
290
     1
176
     1
290
     1
176
     1
290
     0
176
     1
290
     0
176
     1
290
     0
176
     1
290
     0
176
     1
290
     0
176
     1
290
     0
176
     1
 90
       50
176
     1
 40
0.0
176
     1
 40
1.0
176
     1
 90
        0
176
     1
 62
    18
420
        0
176
     1
 90
       50
176
     1
 90
        3
176
     1
 62
     5
420
      255
176
     1
290
     0
176
     1
 90
       50
176
     1
 90
       50
176
     1
 90
       50
176
     1
290
     0
176
     1
 90
       50
176
     1
 62
   256
176
     0
 40
1.0
176
     0
 90
        2
176
     1
  1
strokes_ogs.tif
176
     1
290
     0
176
     1
 40
1.0
176
     1
 40
1.0
176
     1
  0
VISUALSTYLE
  5
3F
102
{ACAD_REACTORS
330
2A
102
}
330
2A
100
AcDbVisualStyle
  2
Sketchy
 70
    24
177
     3
291
     0
 70
    58
 90
        1
176
     1
 90
        2
176
     1
 90
        2
176
     1
 90
        0
176
     1
 40
0.6
176
     1
 40
30.0
176
     1
 62
     7
420
 16777215
176
     1
 90
        2
176
     1
 90
        2
176
     1
 62
     7
176
     1
 62
     7
176
     1
 90
        1
176
     1
 90
        1
176
     1
 40
40.0
176
     1
 90
       11
176
     1
 62
     7
176
     1
 40
1.0
176
     1
 90
        1
176
     1
 90
        6
176
     1
 90
        2
176
     1
 62
     7
176
     1
 90
        6
176
     1
 90
        0
176
     1
 90
        0
176
     1
290
     0
176
     1
 90
        1
176
     1
 40
0.0
176
     1
 90
        0
176
     1
290
     0
176
     1
290
     1
176
     1
290
     1
176
     1
290
     0
176
     1
290
     0
176
     1
290
     0
176
     1
290
     0
176
     1
290
     0
176
     1
290
     0
176
     1
 90
       50
176
     1
 40
0.0
176
     1
 40
1.0
176
     1
 90
        0
176
     1
 62
    18
420
        0
176
     1
 90
       50
176
     1
 90
        3
176
     1
 62
     5
420
      255
176
     1
290
     0
176
     1
 90
       50
176
     1
 90
       50
176
     1
 90
       50
176
     1
290
     0
176
     1
 90
       50
176
     1
 62
   256
176
     0
 40
1.0
176
     0
 90
        2
176
     1
  1
strokes_ogs.tif
176
     1
290
     0
176
     1
 40
1.0
176
     1
 40
1.0
176
     1
  0
VISUALSTYLE
  5
37
102
{ACAD_REACTORS
330
2A
102
}
330
2A
100
AcDbVisualStyle
  2
Thicken
 70
    13
177
     3
291
     1
 70
    58
 90
        2
176
     1
 90
        2
176
     1
 90
        0
176
     1
 90
        0
176
     1
 40
0.6
176
     1
 40
30.0
176
     1
 62
     7
420
 16777215
176
     1
 90
        1
176
     1
 90
        4
176
     1
 62
     7
176
     1
 62
   257
176
     1
 90
        1
176
     1
 90
        1
176
     1
 40
1.0
176
     1
 90
       12
176
     1
 62
     7
176
     1
 40
1.0
176
     1
 90
        1
176
     1
 90
        6
176
     1
 90
        2
176
     1
 62
     7
176
     1
 90
        5
176
     1
 90
        0
176
     1
 90
        0
176
     1
290
     0
176
     1
 90
        1
176
     1
 40
0.0
176
     1
 90
        0
176
     1
290
     0
176
     1
290
     1
176
     1
290
     1
176
     1
290
     0
176
     1
290
     0
176
     1
290
     0
176
     1
290
     0
176
     1
290
     0
176
     1
290
     0
176
     1
 90
       50
176
     1
 40
0.0
176
     1
 40
1.0
176
     1
 90
        0
176
     1
 62
    18
420
        0
176
     1
 90
       50
176
     1
 90
        3
176
     1
 62
     5
420
      255
176
     1
290
     0
176
     1
 90
       50
176
     1
 90
       50
176
     1
 90
       50
176
     1
290
     0
176
     1
 90
       50
176
     1
 62
   256
176
     0
 40
1.0
176
     0
 90
        2
176
     1
  1
strokes_ogs.tif
176
     1
290
     0
176
     1
 40
1.0
176
     1
 40
1.0
176
     1
  0
VISUALSTYLE
  5
30
102
{ACAD_REACTORS
330
2A
102
}
330
2A
100
AcDbVisualStyle
  2
Wireframe
 70
     5
177
     3
291
     0
 70
    58
 90
        0
176
     1
 90
        2
176
     1
 90
        0
176
     1
 90
        0
176
     1
 40
0.6
176
     1
 40
30.0
176
     1
 62
     7
420
 16777215
176
     1
 90
        1
176
     1
 90
        4
176
     1
 62
     7
176
     1
 62
   257
176
     1
 90
        1
176
     1
 90
        1
176
     1
 40
1.0
176
     1
 90
        0
176
     1
 62
   257
176
     1
 40
1.0
176
     1
 90
        1
176
     1
 90
        6
176
     1
 90
        2
176
     1
 62
     7
176
     1
 90
        3
176
     1
 90
        0
176
     1
 90
        0
176
     1
290
     0
176
     1
 90
        1
176
     1
 40
0.0
176
     1
 90
        0
176
     1
290
     0
176
     1
290
     1
176
     1
290
     1
176
     1
290
     0
176
     1
290
     0
176
     1
290
     0
176
     1
290
     0
176
     1
290
     0
176
     1
290
     0
176
     1
 90
       50
176
     1
 40
0.0
176
     1
 40
1.0
176
     1
 90
        0
176
     1
 62
    18
420
        0
176
     1
 90
       50
176
     1
 90
        3
176
     1
 62
     5
420
      255
176
     1
290
     0
176
     1
 90
       50
176
     1
 90
       50
176
     1
 90
       50
176
     1
290
     0
176
     1
 90
       50
176
     1
 62
   256
176
     0
 40
1.0
176
     0
 90
        2
176
     1
  1
strokes_ogs.tif
176
     1
290
     0
176
     1
 40
1.0
176
     1
 40
1.0
176
     1
  0
VISUALSTYLE
  5
40
102
{ACAD_REACTORS
330
2A
102
}
330
2A
100
AcDbVisualStyle
  2
X-Ray
 70
    25
177
     3
291
     0
 70
    58
 90
        2
176
     1
 90
        2
176
     1
 90
        1
176
     1
 90
        1
176
     1
 40
0.5
176
     1
 40
30.0
176
     1
 62
     7
420
 16777215
176
     1
 90
        1
176
     1
 90
        0
176
     1
 62
     7
176
     1
 62
   257
176
     1
 90
        1
176
     1
 90
        1
176
     1
 40
1.0
176
     1
 90
        8
176
     1
 62
     7
176
     1
 40
1.0
176
     1
 90
        1
176
     1
 90
        6
176
     1
 90
        2
176
     1
 62
     7
176
     1
 90
        3
176
     1
 90
        0
176
     1
 90
        0
176
     1
290
     0
176
     1
 90
       13
176
     1
 40
0.0
176
     1
 90
        0
176
     1
290
     0
176
     1
290
     1
176
     1
290
     1
176
     1
290
     0
176
     1
290
     0
176
     1
290
     0
176
     1
290
     0
176
     1
290
     0
176
     1
290
     0
176
     1
 90
       50
176
     1
 40
0.0
176
     1
 40
1.0
176
     1
 90
        0
176
     1
 62
    18
420
        0
176
     1
 90
       50
176
     1
 90
        3
176
     1
 62
     5
420
      255
176
     1
290
     0
176
     1
 90
       50
176
     1
 90
       50
176
     1
 90
       50
176
     1
290
     0
176
     1
 90
       50
176
     1
 62
   256
176
     0
 40
1.0
176
     0
 90
        2
176
     1
  1
strokes_ogs.tif
176
     1
290
     0
176
     1
 40
1.0
176
     1
 40
1.0
176
     1
  0
DICTIONARYVAR
  5
1D3
102
{ACAD_REACTORS
330
1D2
102
}
330
1D2
100
DictionaryVariables
280
     0
  1
1:1
  0
DICTIONARYVAR
  5
1D8
102
{ACAD_REACTORS
330
1D2
102
}
330
1D2
100
DictionaryVariables
280
     0
  1
Standard
  0
DICTIONARYVAR
  5
1D7
102
{ACAD_REACTORS
330
1D2
102
}
330
1D2
100
DictionaryVariables
280
     0
  1
Standard
  0
DICTIONARY
  5
1D4
330
6A
100
AcDbDictionary
280
     1
281
     1
  3
ACAD_ROUNDTRIP_2008_TABLESTYLE_CELLSTYLEMAP
360
1D5
  0
CELLSTYLEMAP
  5
1D5
102
{ACAD_REACTORS
330
1D4
102
}
330
1D4
100
AcDbCellStyleMap
 90
        3
300
CELLSTYLE
  1
TABLEFORMAT_BEGIN
 90
        5
170
     1
 91
        0
 92
    32768
 62
   257
 93
        1
300
CONTENTFORMAT
  1
CONTENTFORMAT_BEGIN
 90
        0
 91
        0
 92
        4
 93
        0
300

 40
0.0
140
1.0
 94
        5
 62
     0
340
11
144
0.25
309
CONTENTFORMAT_END
171
     1
301
MARGIN
  1
CELLMARGIN_BEGIN
 40
0.06
 40
0.06
 40
0.06
 40
0.06
 40
0.06
 40
0.06
309
CELLMARGIN_END
 94
        6
 95
        1
302
GRIDFORMAT
  1
GRIDFORMAT_BEGIN
 90
        0
 91
        1
 62
     0
 92
       -2
340
14
 93
        0
 40
0.045
309
GRIDFORMAT_END
 95
        2
302
GRIDFORMAT
  1
GRIDFORMAT_BEGIN
 90
        0
 91
        1
 62
     0
 92
       -2
340
14
 93
        0
 40
0.045
309
GRIDFORMAT_END
 95
        4
302
GRIDFORMAT
  1
GRIDFORMAT_BEGIN
 90
        0
 91
        1
 62
     0
 92
       -2
340
14
 93
        0
 40
0.045
309
GRIDFORMAT_END
 95
        8
302
GRIDFORMAT
  1
GRIDFORMAT_BEGIN
 90
        0
 91
        1
 62
     0
 92
       -2
340
14
 93
        0
 40
0.045
309
GRIDFORMAT_END
 95
       16
302
GRIDFORMAT
  1
GRIDFORMAT_BEGIN
 90
        0
 91
        1
 62
     0
 92
       -2
340
14
 93
        0
 40
0.045
309
GRIDFORMAT_END
 95
       32
302
GRIDFORMAT
  1
GRIDFORMAT_BEGIN
 90
        0
 91
        1
 62
     0
 92
       -2
340
14
 93
        0
 40
0.045
309
GRIDFORMAT_END
309
TABLEFORMAT_END
  1
CELLSTYLE_BEGIN
 90
        1
 91
        1
300
_TITLE
309
CELLSTYLE_END
300
CELLSTYLE
  1
TABLEFORMAT_BEGIN
 90
        5
170
     1
 91
        0
 92
        0
 62
   257
 93
        1
300
CONTENTFORMAT
  1
CONTENTFORMAT_BEGIN
 90
        0
 91
        0
 92
        4
 93
        0
300

 40
0.0
140
1.0
 94
        5
 62
     0
340
11
144
0.18
309
CONTENTFORMAT_END
171
     1
301
MARGIN
  1
CELLMARGIN_BEGIN
 40
0.06
 40
0.06
 40
0.06
 40
0.06
 40
0.06
 40
0.06
309
CELLMARGIN_END
 94
        6
 95
        1
302
GRIDFORMAT
  1
GRIDFORMAT_BEGIN
 90
        0
 91
        1
 62
     0
 92
       -2
340
14
 93
        0
 40
0.045
309
GRIDFORMAT_END
 95
        2
302
GRIDFORMAT
  1
GRIDFORMAT_BEGIN
 90
        0
 91
        1
 62
     0
 92
       -2
340
14
 93
        0
 40
0.045
309
GRIDFORMAT_END
 95
        4
302
GRIDFORMAT
  1
GRIDFORMAT_BEGIN
 90
        0
 91
        1
 62
     0
 92
       -2
340
14
 93
        0
 40
0.045
309
GRIDFORMAT_END
 95
        8
302
GRIDFORMAT
  1
GRIDFORMAT_BEGIN
 90
        0
 91
        1
 62
     0
 92
       -2
340
14
 93
        0
 40
0.045
309
GRIDFORMAT_END
 95
       16
302
GRIDFORMAT
  1
GRIDFORMAT_BEGIN
 90
        0
 91
        1
 62
     0
 92
       -2
340
14
 93
        0
 40
0.045
309
GRIDFORMAT_END
 95
       32
302
GRIDFORMAT
  1
GRIDFORMAT_BEGIN
 90
        0
 91
        1
 62
     0
 92
       -2
340
14
 93
        0
 40
0.045
309
GRIDFORMAT_END
309
TABLEFORMAT_END
  1
CELLSTYLE_BEGIN
 90
        2
 91
        1
300
_HEADER
309
CELLSTYLE_END
300
CELLSTYLE
  1
TABLEFORMAT_BEGIN
 90
        5
170
     1
 91
        0
 92
        0
 62
   257
 93
        1
300
CONTENTFORMAT
  1
CONTENTFORMAT_BEGIN
 90
        0
 91
        0
 92
        4
 93
        0
300

 40
0.0
140
1.0
 94
        2
 62
     0
340
11
144
0.18
309
CONTENTFORMAT_END
171
     1
301
MARGIN
  1
CELLMARGIN_BEGIN
 40
0.06
 40
0.06
 40
0.06
 40
0.06
 40
0.06
 40
0.06
309
CELLMARGIN_END
 94
        6
 95
        1
302
GRIDFORMAT
  1
GRIDFORMAT_BEGIN
 90
        0
 91
        1
 62
     0
 92
       -2
340
14
 93
        0
 40
0.045
309
GRIDFORMAT_END
 95
        2
302
GRIDFORMAT
  1
GRIDFORMAT_BEGIN
 90
        0
 91
        1
 62
     0
 92
       -2
340
14
 93
        0
 40
0.045
309
GRIDFORMAT_END
 95
        4
302
GRIDFORMAT
  1
GRIDFORMAT_BEGIN
 90
        0
 91
        1
 62
     0
 92
       -2
340
14
 93
        0
 40
0.045
309
GRIDFORMAT_END
 95
        8
302
GRIDFORMAT
  1
GRIDFORMAT_BEGIN
 90
        0
 91
        1
 62
     0
 92
       -2
340
14
 93
        0
 40
0.045
309
GRIDFORMAT_END
 95
       16
302
GRIDFORMAT
  1
GRIDFORMAT_BEGIN
 90
        0
 91
        1
 62
     0
 92
       -2
340
14
 93
        0
 40
0.045
309
GRIDFORMAT_END
 95
       32
302
GRIDFORMAT
  1
GRIDFORMAT_BEGIN
 90
        0
 91
        1
 62
     0
 92
       -2
340
14
 93
        0
 40
0.045
309
GRIDFORMAT_END
309
TABLEFORMAT_END
  1
CELLSTYLE_BEGIN
 90
        3
 91
        2
300
_DATA
309
CELLSTYLE_END
  0
ENDSEC
  0
EOF