0
SECTION
  2
HEADER
  9
$ACADVER
  1
AC1027
  9
$ACADMAINTVER
 70
     8
  9
$DWGCODEPAGE
  3
ANSI_1252
  9
$REQUIREDVERSIONS
160
                 0
  9
$COMMENTS
  1
File was created by Cadenas
  9
$CUSTOMPROPERTYTAG
  1
NN
  9
$CUSTOMPROPERTY
  1
Four-Bolt Flange Expansion
  9
$CUSTOMPROPERTYTAG
  1
NT
  9
$CUSTOMPROPERTY
  1
Type E 4-Bolt Flange Bearing -Inch
  9
$CUSTOMPROPERTYTAG
  1
NB
  9
$CUSTOMPROPERTY
  1
023113
  9
$CUSTOMPROPERTYTAG
  1
NBSYN
  9
$CUSTOMPROPERTY
  1
$PN.
  9
$CUSTOMPROPERTYTAG
  1
LINA
  9
$CUSTOMPROPERTY
  1
023113
  9
$CUSTOMPROPERTYTAG
  1
SS
  9
$CUSTOMPROPERTY
  1
3-1/4
  9
$CUSTOMPROPERTYTAG
  1
PN
  9
$CUSTOMPROPERTY
  1
023113
  9
$CUSTOMPROPERTYTAG
  1
DESCRIPTION
  9
$CUSTOMPROPERTY
  1
F4B-E-304R
  9
$CUSTOMPROPERTYTAG
  1
A
  9
$CUSTOMPROPERTY
  1
5-1/4
  9
$CUSTOMPROPERTYTAG
  1
B
  9
$CUSTOMPROPERTY
  1
9-1/4
  9
$CUSTOMPROPERTYTAG
  1
C
  9
$CUSTOMPROPERTY
  1
4-1/2
  9
$CUSTOMPROPERTYTAG
  1
D
  9
$CUSTOMPROPERTY
  1
7
  9
$CUSTOMPROPERTYTAG
  1
E
  9
$CUSTOMPROPERTY
  1
1/4
  9
$CUSTOMPROPERTYTAG
  1
F
  9
$CUSTOMPROPERTY
  1
3/4
  9
$CUSTOMPROPERTYTAG
  1
H
  9
$CUSTOMPROPERTY
  1
1-7/8
  9
$CUSTOMPROPERTYTAG
  1
J
  9
$CUSTOMPROPERTY
  1
7-1/4
  9
$CUSTOMPROPERTYTAG
  1
L
  9
$CUSTOMPROPERTY
  1
5-17/32
  9
$CUSTOMPROPERTYTAG
  1
COMPANY
  9
$CUSTOMPROPERTY
  1
baldor
  9
$INSBASE
 10
0.0
 20
0.0
 30
0.0
  9
$EXTMIN
 10
1.000000000000000E+20
 20
1.000000000000000E+20
 30
1.000000000000000E+20
  9
$EXTMAX
 10
-1.000000000000000E+20
 20
-1.000000000000000E+20
 30
-1.000000000000000E+20
  9
$LIMMIN
 10
0.0
 20
0.0
  9
$LIMMAX
 10
12.0
 20
9.0
  9
$ORTHOMODE
 70
     0
  9
$REGENMODE
 70
     1
  9
$FILLMODE
 70
     1
  9
$QTEXTMODE
 70
     0
  9
$MIRRTEXT
 70
     1
  9
$LTSCALE
 40
1.0
  9
$ATTMODE
 70
     1
  9
$TEXTSIZE
 40
0.2
  9
$TRACEWID
 40
0.05
  9
$TEXTSTYLE
  7
Standard
  9
$CLAYER
  8
0
  9
$CELTYPE
  6
ByLayer
  9
$CECOLOR
 62
   256
  9
$CELTSCALE
 40
1.0
  9
$DISPSILH
 70
     0
  9
$DIMSCALE
 40
1.0
  9
$DIMASZ
 40
0.18
  9
$DIMEXO
 40
0.0625
  9
$DIMDLI
 40
0.38
  9
$DIMRND
 40
0.0
  9
$DIMDLE
 40
0.0
  9
$DIMEXE
 40
0.18
  9
$DIMTP
 40
0.0
  9
$DIMTM
 40
0.0
  9
$DIMTXT
 40
0.18
  9
$DIMCEN
 40
0.09
  9
$DIMTSZ
 40
0.0
  9
$DIMTOL
 70
     0
  9
$DIMLIM
 70
     0
  9
$DIMTIH
 70
     1
  9
$DIMTOH
 70
     1
  9
$DIMSE1
 70
     0
  9
$DIMSE2
 70
     0
  9
$DIMTAD
 70
     0
  9
$DIMZIN
 70
     0
  9
$DIMBLK
  1

  9
$DIMASO
 70
     1
  9
$DIMSHO
 70
     1
  9
$DIMPOST
  1

  9
$DIMAPOST
  1

  9
$DIMALT
 70
     0
  9
$DIMALTD
 70
     2
  9
$DIMALTF
 40
25.4
  9
$DIMLFAC
 40
1.0
  9
$DIMTOFL
 70
     0
  9
$DIMTVP
 40
0.0
  9
$DIMTIX
 70
     0
  9
$DIMSOXD
 70
     0
  9
$DIMSAH
 70
     0
  9
$DIMBLK1
  1

  9
$DIMBLK2
  1

  9
$DIMSTYLE
  2
Standard
  9
$DIMCLRD
 70
     0
  9
$DIMCLRE
 70
     0
  9
$DIMCLRT
 70
     0
  9
$DIMTFAC
 40
1.0
  9
$DIMGAP
 40
0.09
  9
$DIMJUST
 70
     0
  9
$DIMSD1
 70
     0
  9
$DIMSD2
 70
     0
  9
$DIMTOLJ
 70
     1
  9
$DIMTZIN
 70
     0
  9
$DIMALTZ
 70
     0
  9
$DIMALTTZ
 70
     0
  9
$DIMUPT
 70
     0
  9
$DIMDEC
 70
     4
  9
$DIMTDEC
 70
     4
  9
$DIMALTU
 70
     2
  9
$DIMALTTD
 70
     2
  9
$DIMTXSTY
  7
Standard
  9
$DIMAUNIT
 70
     0
  9
$DIMADEC
 70
     0
  9
$DIMALTRND
 40
0.0
  9
$DIMAZIN
 70
     0
  9
$DIMDSEP
 70
    46
  9
$DIMATFIT
 70
     3
  9
$DIMFRAC
 70
     0
  9
$DIMLDRBLK
  1

  9
$DIMLUNIT
 70
     2
  9
$DIMLWD
 70
    -2
  9
$DIMLWE
 70
    -2
  9
$DIMTMOVE
 70
     0
  9
$DIMFXL
 40
1.0
  9
$DIMFXLON
 70
     0
  9
$DIMJOGANG
 40
0.7853981633974483
  9
$DIMTFILL
 70
     0
  9
$DIMTFILLCLR
 70
     0
  9
$DIMARCSYM
 70
     0
  9
$DIMLTYPE
  6

  9
$DIMLTEX1
  6

  9
$DIMLTEX2
  6

  9
$DIMTXTDIRECTION
 70
     0
  9
$LUNITS
 70
     2
  9
$LUPREC
 70
     4
  9
$SKETCHINC
 40
0.1
  9
$FILLETRAD
 40
0.5
  9
$AUNITS
 70
     0
  9
$AUPREC
 70
     0
  9
$MENU
  1
.
  9
$ELEVATION
 40
0.0
  9
$PELEVATION
 40
0.0
  9
$THICKNESS
 40
0.0
  9
$LIMCHECK
 70
     0
  9
$CHAMFERA
 40
0.0
  9
$CHAMFERB
 40
0.0
  9
$CHAMFERC
 40
0.0
  9
$CHAMFERD
 40
0.0
  9
$SKPOLY
 70
     0
  9
$TDCREATE
 40
2458168.957116042
  9
$TDUCREATE
 40
2458168.915449375
  9
$TDUPDATE
 40
2458168.957116042
  9
$TDUUPDATE
 40
2458168.915449375
  9
$TDINDWG
 40
0.0000000116
  9
$TDUSRTIMER
 40
0.0000000116
  9
$USRTIMER
 70
     1
  9
$ANGBASE
 50
0.0
  9
$ANGDIR
 70
     0
  9
$PDMODE
 70
     0
  9
$PDSIZE
 40
0.0
  9
$PLINEWID
 40
0.0
  9
$SPLFRAME
 70
     0
  9
$SPLINETYPE
 70
     6
  9
$SPLINESEGS
 70
     8
  9
$HANDSEED
  5
1A4
  9
$SURFTAB1
 70
     6
  9
$SURFTAB2
 70
     6
  9
$SURFTYPE
 70
     6
  9
$SURFU
 70
     6
  9
$SURFV
 70
     6
  9
$UCSBASE
  2

  9
$UCSNAME
  2

  9
$UCSORG
 10
0.0
 20
0.0
 30
0.0
  9
$UCSXDIR
 10
1.0
 20
0.0
 30
0.0
  9
$UCSYDIR
 10
0.0
 20
1.0
 30
0.0
  9
$UCSORTHOREF
  2

  9
$UCSORTHOVIEW
 70
     0
  9
$UCSORGTOP
 10
0.0
 20
0.0
 30
0.0
  9
$UCSORGBOTTOM
 10
0.0
 20
0.0
 30
0.0
  9
$UCSORGLEFT
 10
0.0
 20
0.0
 30
0.0
  9
$UCSORGRIGHT
 10
0.0
 20
0.0
 30
0.0
  9
$UCSORGFRONT
 10
0.0
 20
0.0
 30
0.0
  9
$UCSORGBACK
 10
0.0
 20
0.0
 30
0.0
  9
$PUCSBASE
  2

  9
$PUCSNAME
  2

  9
$PUCSORG
 10
0.0
 20
0.0
 30
0.0
  9
$PUCSXDIR
 10
1.0
 20
0.0
 30
0.0
  9
$PUCSYDIR
 10
0.0
 20
1.0
 30
0.0
  9
$PUCSORTHOREF
  2

  9
$PUCSORTHOVIEW
 70
     0
  9
$PUCSORGTOP
 10
0.0
 20
0.0
 30
0.0
  9
$PUCSORGBOTTOM
 10
0.0
 20
0.0
 30
0.0
  9
$PUCSORGLEFT
 10
0.0
 20
0.0
 30
0.0
  9
$PUCSORGRIGHT
 10
0.0
 20
0.0
 30
0.0
  9
$PUCSORGFRONT
 10
0.0
 20
0.0
 30
0.0
  9
$PUCSORGBACK
 10
0.0
 20
0.0
 30
0.0
  9
$USERI1
 70
     0
  9
$USERI2
 70
     0
  9
$USERI3
 70
     0
  9
$USERI4
 70
     0
  9
$USERI5
 70
     0
  9
$USERR1
 40
0.0
  9
$USERR2
 40
0.0
  9
$USERR3
 40
0.0
  9
$USERR4
 40
0.0
  9
$USERR5
 40
0.0
  9
$WORLDVIEW
 70
     1
  9
$SHADEDGE
 70
     3
  9
$SHADEDIF
 70
    70
  9
$TILEMODE
 70
     1
  9
$MAXACTVP
 70
    64
  9
$PINSBASE
 10
0.0
 20
0.0
 30
0.0
  9
$PLIMCHECK
 70
     0
  9
$PEXTMIN
 10
1.000000000000000E+20
 20
1.000000000000000E+20
 30
1.000000000000000E+20
  9
$PEXTMAX
 10
-1.000000000000000E+20
 20
-1.000000000000000E+20
 30
-1.000000000000000E+20
  9
$PLIMMIN
 10
0.0
 20
0.0
  9
$PLIMMAX
 10
12.0
 20
9.0
  9
$UNITMODE
 70
     0
  9
$VISRETAIN
 70
     1
  9
$PLINEGEN
 70
     0
  9
$PSLTSCALE
 70
     1
  9
$TREEDEPTH
 70
  3020
  9
$CMLSTYLE
  2
Standard
  9
$CMLJUST
 70
     0
  9
$CMLSCALE
 40
1.0
  9
$PROXYGRAPHICS
 70
     1
  9
$MEASUREMENT
 70
     0
  9
$CELWEIGHT
370
    -1
  9
$ENDCAPS
280
     0
  9
$JOINSTYLE
280
     0
  9
$LWDISPLAY
290
     0
  9
$INSUNITS
 70
     1
  9
$HYPERLINKBASE
  1

  9
$STYLESHEET
  1

  9
$XEDIT
290
     1
  9
$CEPSNTYPE
380
     0
  9
$PSTYLEMODE
290
     1
  9
$FINGERPRINTGUID
  2
{95E853ED-0B6E-45F8-880D-34B060F6BD6F}
  9
$VERSIONGUID
  2
{FAEB1C32-E019-11D5-929B-00C0DF256EC4}
  9
$EXTNAMES
290
     1
  9
$PSVPSCALE
 40
0.0
  9
$OLESTARTUP
290
     0
  9
$SORTENTS
280
   127
  9
$INDEXCTL
280
     0
  9
$HIDETEXT
280
     1
  9
$XCLIPFRAME
280
     2
  9
$HALOGAP
280
     0
  9
$OBSCOLOR
 70
   257
  9
$OBSLTYPE
280
     0
  9
$INTERSECTIONDISPLAY
280
     0
  9
$INTERSECTIONCOLOR
 70
   257
  9
$DIMASSOC
280
     2
  9
$PROJECTNAME
  1

  9
$CAMERADISPLAY
290
     0
  9
$LENSLENGTH
 40
50.0
  9
$CAMERAHEIGHT
 40
0.0
  9
$STEPSPERSEC
 40
2.0
  9
$STEPSIZE
 40
6.0
  9
$3DDWFPREC
 40
2.0
  9
$PSOLWIDTH
 40
0.25
  9
$PSOLHEIGHT
 40
4.0
  9
$LOFTANG1
 40
1.570796326794897
  9
$LOFTANG2
 40
1.570796326794897
  9
$LOFTMAG1
 40
0.0
  9
$LOFTMAG2
 40
0.0
  9
$LOFTPARAM
 70
     7
  9
$LOFTNORMALS
280
     1
  9
$LATITUDE
 40
37.795
  9
$LONGITUDE
 40
-122.394
  9
$NORTHDIRECTION
 40
0.0
  9
$TIMEZONE
 70
 -8000
  9
$LIGHTGLYPHDISPLAY
280
     1
  9
$TILEMODELIGHTSYNCH
280
     1
  9
$CMATERIAL
347
44
  9
$SOLIDHIST
280
     0
  9
$SHOWHIST
280
     1
  9
$DWFFRAME
280
     2
  9
$DGNFRAME
280
     2
  9
$REALWORLDSCALE
290
     1
  9
$INTERFERECOLOR
 62
   256
  9
$CSHADOW
280
     0
  9
$SHADOWPLANELOCATION
 40
0.0
  0
ENDSEC
  0
SECTION
  2
CLASSES
  0
CLASS
  1
ACDBDICTIONARYWDFLT
  2
AcDbDictionaryWithDefault
  3
ObjectDBX Classes
 90
        0
 91
        4
280
     0
281
     0
  0
CLASS
  1
VISUALSTYLE
  2
AcDbVisualStyle
  3
ObjectDBX Classes
 90
     4095
 91
        4
280
     0
281
     0
  0
CLASS
  1
MATERIAL
  2
AcDbMaterial
  3
ObjectDBX Classes
 90
     1153
 91
        4
280
     0
281
     0
  0
CLASS
  1
SCALE
  2
AcDbScale
  3
ObjectDBX Classes
 90
     1153
 91
        4
280
     0
281
     0
  0
CLASS
  1
TABLESTYLE
  2
AcDbTableStyle
  3
ObjectDBX Classes
 90
     4095
 91
        4
280
     0
281
     0
  0
CLASS
  1
MLEADERSTYLE
  2
AcDbMLeaderStyle
  3
ACDB_MLEADERSTYLE_CLASS
 90
     4095
 91
        4
280
     0
281
     0
  0
CLASS
  1
SUN
  2
AcDbSun
  3
SCENEOE
 90
     1153
 91
        4
280
     0
281
     0
  0
CLASS
  1
DICTIONARYVAR
  2
AcDbDictionaryVar
  3
ObjectDBX Classes
 90
        0
 91
        4
280
     0
281
     0
  0
CLASS
  1
CELLSTYLEMAP
  2
AcDbCellStyleMap
  3
ObjectDBX Classes
 90
     1152
 91
        4
280
     0
281
     0
  0
ENDSEC
  0
SECTION
  2
TABLES
  0
TABLE
  2
VPORT
  5
8
330
0
100
AcDbSymbolTable
 70
     1
  0
VPORT
  5
29
330
8
100
AcDbSymbolTableRecord
100
AcDbViewportTableRecord
  2
*Active
 70
     0
 10
0.0
 20
0.0
 11
1.0
 21
1.0
 12
0.0
 22
-2.699999999999999
 13
0.0
 23
0.0
 14
0.5
 24
0.5
 15
0.5
 25
0.5
 16
0.0
 26
0.0
 36
1.0
 17
0.0
 27
0.0
 37
0.0
 40
6.058799999999998
 41
1.557239057239058
 42
50.0
 43
0.0
 44
0.0
 50
0.0
 51
0.0
 71
     0
 72
   100
 73
     1
 74
     3
 75
     0
 76
     0
 77
     0
 78
     0
281
     0
 65
     1
110
0.0
120
0.0
130
0.0
111
1.0
121
0.0
131
0.0
112
0.0
122
1.0
132
0.0
 79
     0
146
0.0
348
2F
 60
     3
 61
     5
292
     1
282
     1
141
0.0
142
0.0
 63
   250
361
6D
  0
ENDTAB
  0
TABLE
  2
LTYPE
  5
5
330
0
100
AcDbSymbolTable
 70
     3
  0
LTYPE
  5
14
330
5
100
AcDbSymbolTableRecord
100
AcDbLinetypeTableRecord
  2
ByBlock
 70
     0
  3

 72
    65
 73
     0
 40
0.0
  0
LTYPE
  5
15
330
5
100
AcDbSymbolTableRecord
100
AcDbLinetypeTableRecord
  2
ByLayer
 70
     0
  3

 72
    65
 73
     0
 40
0.0
  0
LTYPE
  5
16
330
5
100
AcDbSymbolTableRecord
100
AcDbLinetypeTableRecord
  2
Continuous
 70
     0
  3
Solid line
 72
    65
 73
     0
 40
0.0
  0
LTYPE
  5
9A
330
5
100
AcDbSymbolTableRecord
100
AcDbLinetypeTableRecord
  2
Dashed
 70
     0
  3

 72
    65
 73
     2
 40
2.0
 49
1.0
 74
     0
 49
-1.0
 74
     0
  0
LTYPE
  5
B7
330
5
100
AcDbSymbolTableRecord
100
AcDbLinetypeTableRecord
  2
Center
 70
     0
  3

 72
    65
 73
     4
 40
1.5
 49
0.45
 74
     0
 49
-0.5
 74
     0
 49
0.05
 74
     0
 49
-0.5
 74
     0
  0
ENDTAB
  0
TABLE
  2
LAYER
  5
2
330
0
100
AcDbSymbolTable
 70
     7
  0
LAYER
  5
10
330
2
100
AcDbSymbolTableRecord
100
AcDbLayerTableRecord
  2
0
 70
     0
 62
     7
  6
Continuous
370
    -3
390
F
347
46
348
0
  0
LAYER
  5
72
330
2
100
AcDbSymbolTableRecord
100
AcDbLayerTableRecord
  2
AM_6
 70
     0
 62
    -2
  6
Continuous
370
    35
390
F
347
46
348
0
  0
LAYER
  5
9B
330
2
100
AcDbSymbolTableRecord
100
AcDbLayerTableRecord
  2
AM_9
 70
     0
 62
     6
  6
Dashed
370
    25
390
F
347
46
348
0
  0
LAYER
  5
B8
330
2
100
AcDbSymbolTableRecord
100
AcDbLayerTableRecord
  2
AM_7
 70
     0
 62
     7
  6
Center
370
    25
390
F
347
46
348
0
  0
LAYER
  5
BA
330
2
100
AcDbSymbolTableRecord
100
AcDbLayerTableRecord
  2
AM_4
 70
     0
 62
     7
  6
Continuous
370
    50
390
F
347
46
348
0
  0
LAYER
  5
BF
330
2
100
AcDbSymbolTableRecord
100
AcDbLayerTableRecord
  2
AM_5
 70
     0
 62
     3
  6
Continuous
370
    25
390
F
347
46
348
0
  0
LAYER
  5
193
330
2
100
AcDbSymbolTableRecord
100
AcDbLayerTableRecord
  2
ConnectionPoints
 70
     0
 62
     7
  6
Continuous
370
    50
390
F
347
46
348
0
  0
ENDTAB
  0
TABLE
  2
STYLE
  5
3
330
0
100
AcDbSymbolTable
 70
     1
  0
STYLE
  5
11
330
3
100
AcDbSymbolTableRecord
100
AcDbTextStyleTableRecord
  2
Standard
 70
     0
 40
0.0
 41
1.0
 50
0.0
 71
     0
 42
0.2
  3
txt
  4

  0
ENDTAB
  0
TABLE
  2
VIEW
  5
6
330
0
100
AcDbSymbolTable
 70
     0
  0
ENDTAB
  0
TABLE
  2
UCS
  5
7
330
0
100
AcDbSymbolTable
 70
     0
  0
ENDTAB
  0
TABLE
  2
APPID
  5
9
330
0
100
AcDbSymbolTable
 70
     1
  0
APPID
  5
12
330
9
100
AcDbSymbolTableRecord
100
AcDbRegAppTableRecord
  2
ACAD
 70
     0
  0
ENDTAB
  0
TABLE
  2
DIMSTYLE
  5
A
330
0
100
AcDbSymbolTable
 70
     1
100
AcDbDimStyleTable
  0
DIMSTYLE
105
27
330
A
100
AcDbSymbolTableRecord
100
AcDbDimStyleTableRecord
  2
Standard
 70
     0
178
     0
340
11
  0
ENDTAB
  0
TABLE
  2
BLOCK_RECORD
  5
1
330
0
100
AcDbSymbolTable
 70
     7
  0
BLOCK_RECORD
  5
1F
330
1
100
AcDbSymbolTableRecord
100
AcDbBlockTableRecord
  2
*Model_Space
340
22
 70
     0
280
     1
281
     0
  0
BLOCK_RECORD
  5
1B
330
1
100
AcDbSymbolTableRecord
100
AcDbBlockTableRecord
  2
*Paper_Space
340
1E
 70
     0
280
     1
281
     0
  0
BLOCK_RECORD
  5
23
330
1
100
AcDbSymbolTableRecord
100
AcDbBlockTableRecord
  2
*Paper_Space0
340
26
 70
     0
280
     1
281
     0
  0
BLOCK_RECORD
  5
6E
330
1
100
AcDbSymbolTableRecord
100
AcDbBlockTableRecord
  2
1_023113_4
340
0
102
{BLKREFS
331
6F
102
}
 70
     0
280
     1
281
     0
  0
BLOCK_RECORD
  5
85
330
1
100
AcDbSymbolTableRecord
100
AcDbBlockTableRecord
  2
2_3_1_4C_1_0_in_023113_4
340
0
102
{BLKREFS
331
86
102
}
 70
     0
280
     1
281
     0
  0
BLOCK_RECORD
  5
C2
330
1
100
AcDbSymbolTableRecord
100
AcDbBlockTableRecord
  2
3_3_1_4C_2_0_in_023113_4
340
0
102
{BLKREFS
331
C3
102
}
 70
     0
280
     1
281
     0
  0
BLOCK_RECORD
  5
F8
330
1
100
AcDbSymbolTableRecord
100
AcDbBlockTableRecord
  2
4_3_1_4I_0_in_023113_4
340
0
102
{BLKREFS
331
F9
102
}
 70
     0
280
     1
281
     0
  0
BLOCK_RECORD
  5
127
330
1
100
AcDbSymbolTableRecord
100
AcDbBlockTableRecord
  2
5_405015E_Inch_0_in_023113_4
340
0
102
{BLKREFS
331
128
102
}
 70
     0
280
     1
281
     0
  0
BLOCK_RECORD
  5
145
330
1
100
AcDbSymbolTableRecord
100
AcDbBlockTableRecord
  2
6_023113H_0_in_023113_4
340
0
102
{BLKREFS
331
146
102
}
 70
     0
280
     1
281
     0
  0
ENDTAB
  0
ENDSEC
  0
SECTION
  2
BLOCKS
  0
BLOCK
  5
20
330
1F
100
AcDbEntity
  8
0
100
AcDbBlockBegin
  2
*Model_Space
 70
     0
 10
0.0
 20
0.0
 30
0.0
  3
*Model_Space
  1

  0
ENDBLK
  5
21
330
1F
100
AcDbEntity
  8
0
100
AcDbBlockEnd
  0
BLOCK
  5
1C
330
1B
100
AcDbEntity
 67
     1
  8
0
100
AcDbBlockBegin
  2
*Paper_Space
 70
     0
 10
0.0
 20
0.0
 30
0.0
  3
*Paper_Space
  1

  0
ENDBLK
  5
1D
330
1B
100
AcDbEntity
 67
     1
  8
0
100
AcDbBlockEnd
  0
BLOCK
  5
24
330
23
100
AcDbEntity
  8
0
100
AcDbBlockBegin
  2
*Paper_Space0
 70
     0
 10
0.0
 20
0.0
 30
0.0
  3
*Paper_Space0
  1

  0
ENDBLK
  5
25
330
23
100
AcDbEntity
  8
0
100
AcDbBlockEnd
  0
BLOCK
  5
70
330
6E
100
AcDbEntity
  8
0
100
AcDbBlockBegin
  2
1_023113_4
 70
     2
 10
0.0
 20
0.0
 30
0.0
  3
1_023113_4
  1

  0
ATTDEF
  5
73
330
6E
100
AcDbEntity
  8
AM_6
100
AcDbText
 10
9.625
 20
0.27
 30
0.0
 40
0.5
  1
Four-Bolt Flange Expansion
100
AcDbAttributeDefinition
  3

  2
NN
 70
     8
280
     0
  0
ATTDEF
  5
74
330
6E
100
AcDbEntity
  8
AM_6
100
AcDbText
 10
9.625
 20
-0.23
 30
0.0
 40
0.5
  1
Type E 4-Bolt Flange Bearing -Inch
100
AcDbAttributeDefinition
  3

  2
NT
 70
     8
280
     0
  0
ATTDEF
  5
75
330
6E
100
AcDbEntity
  8
AM_6
100
AcDbText
 10
9.625
 20
-0.73
 30
0.0
 40
0.5
  1
023113
100
AcDbAttributeDefinition
  3

  2
NB
 70
     8
280
     0
  0
ATTDEF
  5
76
330
6E
100
AcDbEntity
  8
AM_6
100
AcDbText
 10
9.625
 20
-1.23
 30
0.0
 40
0.5
  1
$PN.
100
AcDbAttributeDefinition
  3

  2
NBSYN
 70
     8
280
     0
  0
ATTDEF
  5
77
330
6E
100
AcDbEntity
  8
AM_6
100
AcDbText
 10
9.625
 20
-1.73
 30
0.0
 40
0.5
  1
023113
100
AcDbAttributeDefinition
  3

  2
LINA
 70
     8
280
     0
  0
ATTDEF
  5
78
330
6E
100
AcDbEntity
  8
AM_6
100
AcDbText
 10
9.625
 20
-2.23
 30
0.0
 40
0.5
  1
3-1/4
100
AcDbAttributeDefinition
  3

  2
SS
 70
     8
280
     0
  0
ATTDEF
  5
79
330
6E
100
AcDbEntity
  8
AM_6
100
AcDbText
 10
9.625
 20
-2.73
 30
0.0
 40
0.5
  1
023113
100
AcDbAttributeDefinition
  3

  2
PN
 70
     8
280
     0
  0
ATTDEF
  5
7A
330
6E
100
AcDbEntity
  8
AM_6
100
AcDbText
 10
9.625
 20
-3.23
 30
0.0
 40
0.5
  1
F4B-E-304R
100
AcDbAttributeDefinition
  3

  2
DESCRIPTION
 70
     8
280
     0
  0
ATTDEF
  5
7B
330
6E
100
AcDbEntity
  8
AM_6
100
AcDbText
 10
9.625
 20
-3.73
 30
0.0
 40
0.5
  1
5-1/4
100
AcDbAttributeDefinition
  3

  2
A
 70
     8
280
     0
  0
ATTDEF
  5
7C
330
6E
100
AcDbEntity
  8
AM_6
100
AcDbText
 10
9.625
 20
-4.23
 30
0.0
 40
0.5
  1
9-1/4
100
AcDbAttributeDefinition
  3

  2
B
 70
     8
280
     0
  0
ATTDEF
  5
7D
330
6E
100
AcDbEntity
  8
AM_6
100
AcDbText
 10
9.625
 20
-4.73
 30
0.0
 40
0.5
  1
4-1/2
100
AcDbAttributeDefinition
  3

  2
C
 70
     8
280
     0
  0
ATTDEF
  5
7E
330
6E
100
AcDbEntity
  8
AM_6
100
AcDbText
 10
9.625
 20
-5.23
 30
0.0
 40
0.5
  1
7
100
AcDbAttributeDefinition
  3

  2
D
 70
     8
280
     0
  0
ATTDEF
  5
7F
330
6E
100
AcDbEntity
  8
AM_6
100
AcDbText
 10
9.625
 20
-5.73
 30
0.0
 40
0.5
  1
1/4
100
AcDbAttributeDefinition
  3

  2
E
 70
     8
280
     0
  0
ATTDEF
  5
80
330
6E
100
AcDbEntity
  8
AM_6
100
AcDbText
 10
9.625
 20
-6.23
 30
0.0
 40
0.5
  1
3/4
100
AcDbAttributeDefinition
  3

  2
F
 70
     8
280
     0
  0
ATTDEF
  5
81
330
6E
100
AcDbEntity
  8
AM_6
100
AcDbText
 10
9.625
 20
-6.73
 30
0.0
 40
0.5
  1
1-7/8
100
AcDbAttributeDefinition
  3

  2
H
 70
     8
280
     0
  0
ATTDEF
  5
82
330
6E
100
AcDbEntity
  8
AM_6
100
AcDbText
 10
9.625
 20
-7.23
 30
0.0
 40
0.5
  1
7-1/4
100
AcDbAttributeDefinition
  3

  2
J
 70
     8
280
     0
  0
ATTDEF
  5
83
330
6E
100
AcDbEntity
  8
AM_6
100
AcDbText
 10
9.625
 20
-7.73
 30
0.0
 40
0.5
  1
5-17/32
100
AcDbAttributeDefinition
  3

  2
L
 70
     8
280
     0
  0
ATTDEF
  5
84
330
6E
100
AcDbEntity
  8
AM_6
100
AcDbText
 10
9.625
 20
-8.23
 30
0.0
 40
0.5
  1
baldor
100
AcDbAttributeDefinition
  3

  2
COMPANY
 70
     8
280
     0
  0
INSERT
  5
86
330
6E
100
AcDbEntity
  8
0
100
AcDbBlockReference
  2
2_3_1_4C_1_0_in_023113_4
 10
0.0
 20
0.0
 30
0.0
  0
INSERT
  5
C3
330
6E
100
AcDbEntity
  8
0
100
AcDbBlockReference
  2
3_3_1_4C_2_0_in_023113_4
 10
0.0
 20
0.0
 30
0.0
  0
INSERT
  5
F9
330
6E
100
AcDbEntity
  8
0
100
AcDbBlockReference
  2
4_3_1_4I_0_in_023113_4
 10
0.0
 20
0.0
 30
0.0
  0
INSERT
  5
128
330
6E
100
AcDbEntity
  8
0
100
AcDbBlockReference
  2
5_405015E_Inch_0_in_023113_4
 10
0.0
 20
0.0
 30
0.0
  0
INSERT
  5
146
330
6E
100
AcDbEntity
  8
0
100
AcDbBlockReference
  2
6_023113H_0_in_023113_4
 10
0.0
 20
0.0
 30
0.0
  0
ENDBLK
  5
71
330
6E
100
AcDbEntity
  8
0
100
AcDbBlockEnd
  0
BLOCK
  5
87
330
85
100
AcDbEntity
  8
0
100
AcDbBlockBegin
  2
2_3_1_4C_1_0_in_023113_4
 70
     2
 10
0.0
 20
0.0
 30
0.0
  3
2_3_1_4C_1_0_in_023113_4
  1

  0
ATTDEF
  5
89
330
85
100
AcDbEntity
  8
AM_6
100
AcDbText
 10
7.765625
 20
-0.2499999999999998
 30
0.0
 40
0.5
  1
E-Type Collar -Inch
100
AcDbAttributeDefinition
  3

  2
NN
 70
     8
280
     0
  0
ATTDEF
  5
8A
330
85
100
AcDbEntity
  8
AM_6
100
AcDbText
 10
7.765625
 20
-0.7499999999999998
 30
0.0
 40
0.5
  1
E-Type Bearings
100
AcDbAttributeDefinition
  3

  2
NT
 70
     8
280
     0
  0
ATTDEF
  5
8B
330
85
100
AcDbEntity
  8
AM_6
100
AcDbText
 10
7.765625
 20
-1.25
 30
0.0
 40
0.5
  1
3-1/4C
100
AcDbAttributeDefinition
  3

  2
NB
 70
     8
280
     0
  0
ATTDEF
  5
8C
330
85
100
AcDbEntity
  8
AM_6
100
AcDbText
 10
7.765625
 20
-1.75
 30
0.0
 40
0.5
  1
$BORE.C
100
AcDbAttributeDefinition
  3

  2
NBSYN
 70
     8
280
     0
  0
ATTDEF
  5
8D
330
85
100
AcDbEntity
  8
AM_6
100
AcDbText
 10
7.765625
 20
-2.25
 30
0.0
 40
0.5
  1
3-1/4C
100
AcDbAttributeDefinition
  3

  2
LINA
 70
     8
280
     0
  0
ATTDEF
  5
8E
330
85
100
AcDbEntity
  8
AM_6
100
AcDbText
 10
7.765625
 20
-2.75
 30
0.0
 40
0.5
  1
3-1/4
100
AcDbAttributeDefinition
  3

  2
BORE
 70
     8
280
     0
  0
ATTDEF
  5
8F
330
85
100
AcDbEntity
  8
AM_6
100
AcDbText
 10
7.765625
 20
-3.25
 30
0.0
 40
0.5
  1
5.53125
100
AcDbAttributeDefinition
  3

  2
L
 70
     8
280
     0
  0
ATTDEF
  5
90
330
85
100
AcDbEntity
  8
AM_6
100
AcDbText
 10
7.765625
 20
-3.75
 30
0.0
 40
0.5
  1
5.00
100
AcDbAttributeDefinition
  3

  2
A
 70
     8
280
     0
  0
ATTDEF
  5
91
330
85
100
AcDbEntity
  8
AM_6
100
AcDbText
 10
7.765625
 20
-4.25
 30
0.0
 40
0.5
  1
2.25
100
AcDbAttributeDefinition
  3

  2
B
 70
     8
280
     0
  0
ATTDEF
  5
92
330
85
100
AcDbEntity
  8
AM_6
100
AcDbText
 10
7.765625
 20
-4.75
 30
0.0
 40
0.5
  1
4.24
100
AcDbAttributeDefinition
  3

  2
C
 70
     8
280
     0
  0
ATTDEF
  5
93
330
85
100
AcDbEntity
  8
AM_6
100
AcDbText
 10
7.765625
 20
-5.25
 30
0.0
 40
0.5
  1
5.84
100
AcDbAttributeDefinition
  3

  2
D
 70
     8
280
     0
  0
ATTDEF
  5
94
330
85
100
AcDbEntity
  8
AM_6
100
AcDbText
 10
7.765625
 20
-5.75
 30
0.0
 40
0.5
  1
0.54
100
AcDbAttributeDefinition
  3

  2
E
 70
     8
280
     0
  0
ATTDEF
  5
95
330
85
100
AcDbEntity
  8
AM_6
100
AcDbText
 10
7.765625
 20
-6.25
 30
0.0
 40
0.5
  1
0.44
100
AcDbAttributeDefinition
  3

  2
F
 70
     8
280
     0
  0
ATTDEF
  5
96
330
85
100
AcDbEntity
  8
AM_6
100
AcDbText
 10
7.765625
 20
-6.75
 30
0.0
 40
0.5
  1
1/2-13
100
AcDbAttributeDefinition
  3

  2
CS
 70
     8
280
     0
  0
ATTDEF
  5
97
330
85
100
AcDbEntity
  8
AM_6
100
AcDbText
 10
7.765625
 20
-7.25
 30
0.0
 40
0.5
  1
0.5000
100
AcDbAttributeDefinition
  3

  2
NDM
 70
     8
280
     0
  0
ATTDEF
  5
98
330
85
100
AcDbEntity
  8
AM_6
100
AcDbText
 10
7.765625
 20
-7.75
 30
0.0
 40
0.5
  1
0.4170
100
AcDbAttributeDefinition
  3

  2
KDM
 70
     8
280
     0
  0
ATTDEF
  5
99
330
85
100
AcDbEntity
  8
AM_6
100
AcDbText
 10
7.765625
 20
-8.25
 30
0.0
 40
0.5
  1
baldor
100
AcDbAttributeDefinition
  3

  2
COMPANY
 70
     8
280
     0
  0
LINE
  5
9C
330
85
100
AcDbEntity
  8
AM_9
100
AcDbLine
 10
1.969969530266635
 20
-0.505688878520796
 30
0.0
 11
1.962411952222413
 21
-0.4962624128058776
 31
0.0
  0
LINE
  5
9D
330
85
100
AcDbEntity
  8
AM_9
100
AcDbLine
 10
1.962447331171141
 20
-0.8836934595059581
 30
0.0
 11
1.969969530266635
 21
-0.8743111214792038
 31
0.0
  0
LWPOLYLINE
  5
9E
330
85
100
AcDbEntity
  8
AM_9
100
AcDbPolyline
 90
       26
 70
     0
 43
0.0
 10
1.962316483007135
 20
-0.4961433364103476
 10
1.961051546707628
 20
-0.4946006988409077
 10
1.947087664439575
 20
-0.4816744865832325
 10
1.931475014306416
 20
-0.4745501360296032
 10
1.91486873961592
 20
-0.4738170438268552
 10
1.897290567707817
 20
-0.4797936836110505
 10
1.88012310275642
 20
-0.4921384042325285
 10
1.863121344995305
 20
-0.5112896610431901
 10
1.848188856513798
 20
-0.5352369359976872
 10
1.834798403295655
 20
-0.5651485246077512
 10
1.824829471455856
 20
-0.5968637432972778
 10
1.817555612532122
 20
-0.6327264506459166
 10
1.813972334005232
 20
-0.6672278502695939
 10
1.813542404827317
 20
-0.7035159046816172
 10
1.816155997567253
 20
-0.7370067060758194
 10
1.821738777799565
 20
-0.7701097685482022
 10
1.829782609905177
 20
-0.8003639851416069
 10
1.840305869484069
 20
-0.8284183678168637
 10
1.852925318190556
 20
-0.8532271541599347
 10
1.867346265822438
 20
-0.8741836947941592
 10
1.883182164726888
 20
-0.8905464845279498
 10
1.899937273545567
 20
-0.9015339686535384
 10
1.916864534348004
 20
-0.9064333180790226
 10
1.933712070633784
 20
-0.9048386027740203
 10
1.949344828139693
 20
-0.8967000343681023
 10
1.96232321849182
 20
-0.8838482635844236
  0
LWPOLYLINE
  5
9F
330
85
100
AcDbEntity
  8
AM_9
100
AcDbPolyline
 90
        3
 70
     0
 43
0.0
 10
1.969368887710094
 20
-0.8738961973202616
 10
1.974288227812514
 20
-0.8653849864466457
 10
1.983506809367209
 20
-0.8449352772753893
  0
LWPOLYLINE
  5
A0
330
85
100
AcDbEntity
  8
AM_9
100
AcDbPolyline
 90
        3
 70
     0
 43
0.0
 10
1.96232321849182
 20
-0.8838482635844236
 10
1.964004495680673
 20
-0.8816882929563422
 10
1.969368887710094
 20
-0.8738961973202616
  0
LINE
  5
A1
330
85
100
AcDbEntity
  8
AM_9
100
AcDbLine
 10
1.928909968279886
 20
-0.8983499999999998
 30
0.0
 11
2.468759754193158
 21
-0.8983499999999998
 31
0.0
  0
LINE
  5
A2
330
85
100
AcDbEntity
  8
AM_9
100
AcDbLine
 10
2.468759754193158
 20
-0.4816499999999999
 30
0.0
 11
1.928909968279886
 21
-0.4816499999999999
 31
0.0
  0
LINE
  5
A3
330
85
100
AcDbEntity
  8
AM_9
100
AcDbLine
 10
2.42770019220641
 20
-0.874311121479204
 30
0.0
 11
2.455389621381951
 21
-0.9088477750554722
 31
0.0
  0
LINE
  5
A4
330
85
100
AcDbEntity
  8
AM_9
100
AcDbLine
 10
2.455252783728223
 20
-0.4713229007144416
 30
0.0
 11
2.42770019220641
 21
-0.5056888785207956
 31
0.0
  0
LWPOLYLINE
  5
A5
330
85
100
AcDbEntity
  8
AM_9
100
AcDbPolyline
 90
       14
 70
     0
 43
0.0
 10
2.455528415399668
 20
-0.9090208909333268
 10
2.442744060941903
 20
-0.8905761098947345
 10
2.428897931990052
 20
-0.8638256129171779
 10
2.416935027063982
 20
-0.8323799236165825
 10
2.407178668307283
 20
-0.7964077622681818
 10
2.400235279663299
 20
-0.7571743076942258
 10
2.396428395554313
 20
-0.7150459258878487
 10
2.396125775901384
 20
-0.6722817083198553
 10
2.399474668434289
 20
-0.6288067013828604
 10
2.40622270700306
 20
-0.5879881022863701
 10
2.416503758248804
 20
-0.5489606373587538
 10
2.429133664926417
 20
-0.5156454540244736
 10
2.444535310360981
 20
-0.4865190874612347
 10
2.455523304004532
 20
-0.4709854850550728
  0
LWPOLYLINE
  5
A6
330
85
100
AcDbEntity
  8
AM_9
100
AcDbPolyline
 90
       19
 70
     0
 43
0.0
 10
2.455523304004532
 20
-0.4709854850550728
 10
2.460603027171995
 20
-0.4650097210824827
 10
2.47825257883326
 20
-0.4494504466345037
 10
2.495030385246984
 20
-0.4415803117895902
 10
2.512158678369924
 20
-0.4403943471367974
 10
2.527690946785376
 20
-0.4457692171240583
 10
2.542605225082472
 20
-0.4576822793043664
 10
2.555806718441057
 20
-0.4751699184407845
 10
2.567713094425966
 20
-0.4985667214656261
 10
2.577822575591163
 20
-0.526912002495681
 10
2.586151308852412
 20
-0.5601880560450825
 10
2.592415720444671
 20
-0.5973127175097475
 10
2.5965283364961
 20
-0.6379175332767404
 10
2.59827855068709
 20
-0.680110657596272
 10
2.597586446219105
 20
-0.7237635391402688
 10
2.594435491155946
 20
-0.7658294060260503
 10
2.588638914485878
 20
-0.8069153391066208
 10
2.582457428707677
 20
-0.8360941142803819
 10
2.574634428376004
 20
-0.863123468570286
  0
LWPOLYLINE
  5
A7
330
85
100
AcDbEntity
  8
AM_9
100
AcDbPolyline
 90
       13
 70
     0
 43
0.0
 10
1.983506809367209
 20
-0.8449352772753893
 10
1.991292722534423
 20
-0.8210782398582054
 10
1.997717451009552
 20
-0.7935151742530906
 10
2.002846214304052
 20
-0.7605127624693321
 10
2.00600214839496
 20
-0.7241570680252825
 10
2.006935615896044
 20
-0.6896711149492004
 10
2.005906439132565
 20
-0.6541496791739102
 10
2.003084461019511
 20
-0.6215008074990688
 10
1.99835699884462
 20
-0.5898594635438797
 10
1.991886481077463
 20
-0.5610947961302342
 10
1.983511289409567
 20
-0.5350764141177388
 10
1.97322551026448
 20
-0.5126538207503841
 10
1.962316483007135
 20
-0.4961433364103476
  0
LWPOLYLINE
  5
A8
330
85
100
AcDbEntity
  8
AM_9
100
AcDbPolyline
 90
       38
 70
     0
 43
0.0
 10
-0.1525908869650605
 20
-0.8514727302796747
 10
-0.1259886918648298
 20
-0.8708434694677557
 10
-0.0969011993527945
 20
-0.8862642784468424
 10
-0.0601483122673203
 20
-0.8990186910506693
 10
-0.0217997415978727
 20
-0.9056798519383038
 10
0.0182626021219691
 20
-0.9059531614643784
 10
0.0578161857670823
 20
-0.8996283562004458
 10
0.0960006208654286
 20
-0.88663535496519
 10
0.1314057857517333
 20
-0.8673697770413461
 10
0.1623648628248059
 20
-0.8426700363597383
 10
0.1885173308554269
 20
-0.8129451543675777
 10
0.2080380210344366
 20
-0.780506740310271
 10
0.2215168359027609
 20
-0.7451194787183775
 10
0.228066341887306
 20
-0.7100496556397767
 10
0.2284809118833042
 20
-0.6743717361418164
 10
0.2229743388492988
 20
-0.6404874121164369
 10
0.2119749822590031
 20
-0.6079773921801793
 10
0.1956507245277143
 20
-0.5774829468465433
 10
0.1746840101079703
 20
-0.5499791304432837
 10
0.1484135812781059
 20
-0.5251013580942838
 10
0.1185296680442598
 20
-0.5046809859888316
 10
0.0839243140038643
 20
-0.488465658669987
 10
0.0471486636507383
 20
-0.4779883398319801
 10
0.0076440140060864
 20
-0.4734751288035207
 10
-0.0320702946762945
 20
-0.4754746637620348
 10
-0.0714687990552741
 20
-0.4842075353484098
 10
-0.1088211003883741
 20
-0.4994185419770422
 10
-0.142676593054934
 20
-0.5206389066504923
 10
-0.1723269765095779
 20
-0.5473916771299295
 10
-0.1958875223409001
 20
-0.5778697610012087
 10
-0.213685788648234
 20
-0.6120385608554088
 10
-0.2244295143053159
 20
-0.646773342038657
 10
-0.2289548148614201
 20
-0.6828571387612523
 10
-0.2272077606935479
 20
-0.7174182194572332
 10
-0.2197199621199237
 20
-0.7511980645150146
 10
-0.2068102465120322
 20
-0.7830051187340771
 10
-0.1889701101834047
 20
-0.8123225720685813
 10
-0.1525908869650605
 20
-0.8514727302796747
  0
LINE
  5
A9
330
85
100
AcDbEntity
  8
AM_9
100
AcDbLine
 10
-2.12
 20
-0.2499999999999999
 30
0.0
 11
-2.12
 21
-1.13
 31
0.0
  0
LINE
  5
AA
330
85
100
AcDbEntity
  8
AM_9
100
AcDbLine
 10
2.12
 20
-1.13
 30
0.0
 11
2.12
 21
-0.2499999999999999
 31
0.0
  0
LINE
  5
AB
330
85
100
AcDbEntity
  8
AM_9
100
AcDbLine
 10
-1.793092496242408
 20
-0.2499999999999998
 30
0.0
 11
-2.618958333333333
 21
-0.2499999999999999
 31
0.0
  0
LINE
  5
AC
330
85
100
AcDbEntity
  8
AM_9
100
AcDbLine
 10
2.618958333333333
 20
-0.2499999999999999
 30
0.0
 11
1.793092496242409
 21
-0.2499999999999998
 31
0.0
  0
ARC
  5
AD
330
85
100
AcDbEntity
  8
AM_9
100
AcDbCircle
 10
-2.618958333333333
 20
-0.3966666666666667
 30
0.0
 40
0.1466666666666667
100
AcDbArc
 50
90.0
 51
179.9999991462263
  0
ARC
  5
AE
330
85
100
AcDbEntity
  8
AM_9
100
AcDbCircle
 10
2.618958333333333
 20
-0.3966666666666667
 30
0.0
 40
0.1466666666666665
100
AcDbArc
 50
0.0000008537736463
 51
90.0
  0
LWPOLYLINE
  5
AF
330
85
100
AcDbEntity
  8
AM_9
100
AcDbPolyline
 90
       10
 70
     0
 43
0.0
 10
2.574634428376004
 20
-0.863123468570286
 10
2.56494505123857
 20
-0.8876730301342297
 10
2.553471202190536
 20
-0.9084880604322376
 10
2.539295232172681
 20
-0.9256071452835345
 10
2.523194073991689
 20
-0.9364671345177272
 10
2.507179483164243
 20
-0.9399944791077478
 10
2.490157316919769
 20
-0.9368100899148244
 10
2.473914274374252
 20
-0.9274375857507765
 10
2.457722266895498
 20
-0.9116891959964584
 10
2.455528415399668
 20
-0.9090208909333268
  0
LINE
  5
B0
330
85
100
AcDbEntity
  8
AM_9
100
AcDbLine
 10
-2.765625
 20
-0.3966666666666666
 30
0.0
 11
-2.765625
 21
-1.13
 31
0.0
  0
LINE
  5
B1
330
85
100
AcDbEntity
  8
AM_9
100
AcDbLine
 10
2.765625
 20
-1.13
 30
0.0
 11
2.765625
 21
-0.3966666666666666
 31
0.0
  0
LINE
  5
B2
330
85
100
AcDbEntity
  8
AM_9
100
AcDbLine
 10
-1.793092496242409
 20
-0.3966666666666664
 30
0.0
 11
-2.765625
 21
-0.3966666666666666
 31
0.0
  0
LINE
  5
B3
330
85
100
AcDbEntity
  8
AM_9
100
AcDbLine
 10
2.765625
 20
-0.3966666666666666
 30
0.0
 11
1.793092496242408
 21
-0.3966666666666664
 31
0.0
  0
LINE
  5
B4
330
85
100
AcDbEntity
  8
AM_9
100
AcDbLine
 10
2.765625
 20
-1.13
 30
0.0
 11
-2.765625
 21
-1.13
 31
0.0
  0
ELLIPSE
  5
B5
330
85
100
AcDbEntity
  8
AM_9
100
AcDbEllipse
 10
1.928909968279886
 20
-0.6899999999999997
 30
0.0
 11
-3.827327409035266E-17
 21
-0.20835
 31
0.0
210
0.0
220
0.0
230
1.0
 40
0.4226182617406998
 41
0.0
 42
6.283185307179586
  0
ELLIPSE
  5
B6
330
85
100
AcDbEntity
  8
AM_9
100
AcDbEllipse
 10
2.468759754193158
 20
-0.6899999999999997
 30
0.0
 11
-3.827327409035262E-17
 21
-0.2083499999999998
 31
0.0
210
0.0
220
0.0
230
1.0
 40
0.4226182617406971
 41
0.0
 42
6.283185307179586
  0
LINE
  5
B9
330
85
100
AcDbEntity
  8
AM_7
100
AcDbLine
 10
-0.2187675
 20
-0.6899999999999997
 30
0.0
 11
0.2187675
 21
-0.6899999999999997
 31
0.0
  0
CIRCLE
  5
BB
330
85
100
AcDbEntity
  8
AM_4
100
AcDbCircle
 10
0.0
 20
-0.6899999999999997
 30
0.0
 40
0.20835
  0
LINE
  5
BC
330
85
100
AcDbEntity
  8
AM_4
100
AcDbLine
 10
1.793092496242409
 20
-0.2499999999999998
 30
0.0
 11
-1.793092496242408
 21
-0.2499999999999998
 31
0.0
  0
LWPOLYLINE
  5
BD
330
85
100
AcDbEntity
  8
AM_4
100
AcDbPolyline
 90
       38
 70
     0
 43
0.0
 10
-0.155039917389114
 20
-0.8805438511145401
 10
-0.1804239789493059
 20
-0.8544048937620464
 10
-0.2017211716926927
 20
-0.8248317721961127
 10
-0.2205236466944784
 20
-0.7876366907968012
 10
-0.2330818434599956
 20
-0.7478790753460917
 10
-0.2391296750601523
 20
-0.7052854388526146
 10
-0.2381209174520325
 20
-0.6622726618512286
 10
-0.2298110092450282
 20
-0.6194082273623456
 10
-0.2144441719139547
 20
-0.578555817775392
 10
-0.1924392089482646
 20
-0.5411828333409178
 10
-0.1643545253342442
 20
-0.5081552247829813
 10
-0.1318266620266816
 20
-0.4813255824708714
 10
-0.0951223794872425
 20
-0.4605740947388386
 10
-0.0569998582220309
 20
-0.4472180758231403
 10
-0.0171394613874379
 20
-0.4406414494146782
 10
0.0217786826970352
 20
-0.4410625898417287
 10
0.0600739975072309
 20
-0.4479973652596757
 10
0.096320482336793
 20
-0.4611441741028949
 10
0.1299429946821767
 20
-0.4800072384644245
 10
0.160714079707678
 20
-0.5046743481483301
 10
0.1871394913565952
 20
-0.5339564113122278
 10
0.2093364764556079
 20
-0.5684945023265369
 10
0.2257070417688266
 20
-0.6061628309830371
 10
0.2360887131145663
 20
-0.6475164469497796
 10
0.2396014485355031
 20
-0.6900181189077152
 10
0.235929960992062
 20
-0.7334199173634804
 10
0.2250985051697148
 20
-0.7755977103083428
 10
0.2072428721602564
 20
-0.815337177675908
 10
0.1828871966169606
 20
-0.8514375551864674
 10
0.153240940611207
 20
-0.8820841853268815
 10
0.1187243559288506
 20
-0.9071088959787756
 10
0.0818203024063751
 20
-0.9249186895497269
 10
0.0423797867683302
 20
-0.9360522203100495
 10
0.0032742311847093
 20
-0.9399494625377156
 10
-0.0359269305884865
 20
-0.9371692289508174
 10
-0.0733384723060913
 20
-0.9279587646443532
 10
-0.108728745923157
 20
-0.9127410339010552
 10
-0.1550399174034967
 20
-0.8805438511480856
  0
LINE
  5
BE
330
85
100
AcDbEntity
  8
AM_4
100
AcDbLine
 10
1.793092496242408
 20
-0.3966666666666664
 30
0.0
 11
-1.793092496242409
 21
-0.3966666666666664
 31
0.0
  0
ARC
  5
C0
330
85
100
AcDbEntity
  8
AM_5
100
AcDbCircle
 10
-0.0000000000000416
 20
-0.6900000000001287
 30
0.0
 40
0.2500000000001341
100
AcDbArc
 50
63.85157066748637
 51
74.99999999999933
  0
ARC
  5
C1
330
85
100
AcDbEntity
  8
AM_5
100
AcDbCircle
 10
-0.0000000000000005
 20
-0.6900000000000004
 30
0.0
 40
0.2499999999999995
100
AcDbArc
 50
75.00000000000082
 51
15.00000000000014
  0
ENDBLK
  5
88
330
85
100
AcDbEntity
  8
0
100
AcDbBlockEnd
  0
BLOCK
  5
C4
330
C2
100
AcDbEntity
  8
0
100
AcDbBlockBegin
  2
3_3_1_4C_2_0_in_023113_4
 70
     2
 10
0.0
 20
0.0
 30
0.0
  3
3_3_1_4C_2_0_in_023113_4
  1

  0
ATTDEF
  5
C6
330
C2
100
AcDbEntity
  8
AM_6
100
AcDbText
 10
7.765625
 20
-4.369999999999999
 30
0.0
 40
0.5
  1
E-Type Collar -Inch
100
AcDbAttributeDefinition
  3

  2
NN
 70
     8
280
     0
  0
ATTDEF
  5
C7
330
C2
100
AcDbEntity
  8
AM_6
100
AcDbText
 10
7.765625
 20
-4.869999999999999
 30
0.0
 40
0.5
  1
E-Type Bearings
100
AcDbAttributeDefinition
  3

  2
NT
 70
     8
280
     0
  0
ATTDEF
  5
C8
330
C2
100
AcDbEntity
  8
AM_6
100
AcDbText
 10
7.765625
 20
-5.369999999999999
 30
0.0
 40
0.5
  1
3-1/4C
100
AcDbAttributeDefinition
  3

  2
NB
 70
     8
280
     0
  0
ATTDEF
  5
C9
330
C2
100
AcDbEntity
  8
AM_6
100
AcDbText
 10
7.765625
 20
-5.869999999999999
 30
0.0
 40
0.5
  1
$BORE.C
100
AcDbAttributeDefinition
  3

  2
NBSYN
 70
     8
280
     0
  0
ATTDEF
  5
CA
330
C2
100
AcDbEntity
  8
AM_6
100
AcDbText
 10
7.765625
 20
-6.369999999999999
 30
0.0
 40
0.5
  1
3-1/4C
100
AcDbAttributeDefinition
  3

  2
LINA
 70
     8
280
     0
  0
ATTDEF
  5
CB
330
C2
100
AcDbEntity
  8
AM_6
100
AcDbText
 10
7.765625
 20
-6.869999999999999
 30
0.0
 40
0.5
  1
3-1/4
100
AcDbAttributeDefinition
  3

  2
BORE
 70
     8
280
     0
  0
ATTDEF
  5
CC
330
C2
100
AcDbEntity
  8
AM_6
100
AcDbText
 10
7.765625
 20
-7.369999999999999
 30
0.0
 40
0.5
  1
5.53125
100
AcDbAttributeDefinition
  3

  2
L
 70
     8
280
     0
  0
ATTDEF
  5
CD
330
C2
100
AcDbEntity
  8
AM_6
100
AcDbText
 10
7.765625
 20
-7.869999999999999
 30
0.0
 40
0.5
  1
5.00
100
AcDbAttributeDefinition
  3

  2
A
 70
     8
280
     0
  0
ATTDEF
  5
CE
330
C2
100
AcDbEntity
  8
AM_6
100
AcDbText
 10
7.765625
 20
-8.37
 30
0.0
 40
0.5
  1
2.25
100
AcDbAttributeDefinition
  3

  2
B
 70
     8
280
     0
  0
ATTDEF
  5
CF
330
C2
100
AcDbEntity
  8
AM_6
100
AcDbText
 10
7.765625
 20
-8.87
 30
0.0
 40
0.5
  1
4.24
100
AcDbAttributeDefinition
  3

  2
C
 70
     8
280
     0
  0
ATTDEF
  5
D0
330
C2
100
AcDbEntity
  8
AM_6
100
AcDbText
 10
7.765625
 20
-9.37
 30
0.0
 40
0.5
  1
5.84
100
AcDbAttributeDefinition
  3

  2
D
 70
     8
280
     0
  0
ATTDEF
  5
D1
330
C2
100
AcDbEntity
  8
AM_6
100
AcDbText
 10
7.765625
 20
-9.87
 30
0.0
 40
0.5
  1
0.54
100
AcDbAttributeDefinition
  3

  2
E
 70
     8
280
     0
  0
ATTDEF
  5
D2
330
C2
100
AcDbEntity
  8
AM_6
100
AcDbText
 10
7.765625
 20
-10.37
 30
0.0
 40
0.5
  1
0.44
100
AcDbAttributeDefinition
  3

  2
F
 70
     8
280
     0
  0
ATTDEF
  5
D3
330
C2
100
AcDbEntity
  8
AM_6
100
AcDbText
 10
7.765625
 20
-10.87
 30
0.0
 40
0.5
  1
1/2-13
100
AcDbAttributeDefinition
  3

  2
CS
 70
     8
280
     0
  0
ATTDEF
  5
D4
330
C2
100
AcDbEntity
  8
AM_6
100
AcDbText
 10
7.765625
 20
-11.37
 30
0.0
 40
0.5
  1
0.5000
100
AcDbAttributeDefinition
  3

  2
NDM
 70
     8
280
     0
  0
ATTDEF
  5
D5
330
C2
100
AcDbEntity
  8
AM_6
100
AcDbText
 10
7.765625
 20
-11.87
 30
0.0
 40
0.5
  1
0.4170
100
AcDbAttributeDefinition
  3

  2
KDM
 70
     8
280
     0
  0
ATTDEF
  5
D6
330
C2
100
AcDbEntity
  8
AM_6
100
AcDbText
 10
7.765625
 20
-12.37
 30
0.0
 40
0.5
  1
baldor
100
AcDbAttributeDefinition
  3

  2
COMPANY
 70
     8
280
     0
  0
LINE
  5
D7
330
C2
100
AcDbEntity
  8
AM_9
100
AcDbLine
 10
1.969969530266636
 20
-4.625688878520796
 30
0.0
 11
1.962436053441967
 21
-4.616292473933725
 31
0.0
  0
LINE
  5
D8
330
C2
100
AcDbEntity
  8
AM_9
100
AcDbLine
 10
1.96249472472746
 20
-5.003634346158912
 30
0.0
 11
1.969969530266636
 21
-4.994311121479203
 31
0.0
  0
LWPOLYLINE
  5
D9
330
C2
100
AcDbEntity
  8
AM_9
100
AcDbPolyline
 90
       26
 70
     0
 43
0.0
 10
1.962315731194076
 20
-4.616142398927412
 10
1.96031657946436
 20
-4.613735721553157
 10
1.946014882870694
 20
-4.60098130894933
 10
1.930483893718179
 20
-4.594320148061696
 10
1.913578400786142
 20
-4.594046838535621
 10
1.896223688997207
 20
-4.600371643799554
 10
1.878825935204822
 20
-4.613364645034809
 10
1.862143516095993
 20
-4.632630222958653
 10
1.84710905846286
 20
-4.657329963640261
 10
1.83409008481678
 20
-4.687054845632422
 10
1.824179144847845
 20
-4.719493259689728
 10
1.817237921763321
 20
-4.754880521281622
 10
1.813839003546537
 20
-4.789950344360223
 10
1.813621110897539
 20
-4.825628263858183
 10
1.816484086818899
 20
-4.859512587883563
 10
1.822159288106486
 20
-4.89202260781982
 10
1.830487206545547
 20
-4.922517053153456
 10
1.841014215827946
 20
-4.950020869556715
 10
1.853934568965852
 20
-4.974898641905716
 10
1.868274295838921
 20
-4.995319014011169
 10
1.884395058555988
 20
-5.011534341330012
 10
1.900971393890077
 20
-5.02201166016802
 10
1.918124926796097
 20
-5.026524871196479
 10
1.934706143552195
 20
-5.024525336237964
 10
1.950480021138408
 20
-5.01579246465159
 10
1.962321960539989
 20
-5.003849832561349
  0
LWPOLYLINE
  5
DA
330
C2
100
AcDbEntity
  8
AM_9
100
AcDbPolyline
 90
       12
 70
     0
 43
0.0
 10
1.966857703339346
 20
-4.997722153023732
 10
1.97731140244859
 20
-4.979361093349507
 10
1.987842815470787
 20
-4.95260832287007
 10
1.99593854063961
 20
-4.922130238998792
 10
2.001894853762626
 20
-4.887961439144591
 10
2.005425651105265
 20
-4.853226657961343
 10
2.006895193392169
 20
-4.817142861238747
 10
2.006329904540799
 20
-4.782581780542766
 10
2.00388304802168
 20
-4.748801935484985
 10
1.999610670500976
 20
-4.716994881265922
 10
1.993586491174249
 20
-4.687677427931418
 10
1.980876747911817
 20
-4.648527269720325
  0
LWPOLYLINE
  5
DB
330
C2
100
AcDbEntity
  8
AM_9
100
AcDbPolyline
 90
        3
 70
     0
 43
0.0
 10
1.962321960539989
 20
-5.003849832561349
 10
1.964829367174535
 20
-5.000581458022958
 10
1.966857703339346
 20
-4.997722153023732
  0
LINE
  5
DC
330
C2
100
AcDbEntity
  8
AM_9
100
AcDbLine
 10
1.928909968279886
 20
-5.018349999999999
 30
0.0
 11
2.468759754193158
 21
-5.018349999999999
 31
0.0
  0
LINE
  5
DD
330
C2
100
AcDbEntity
  8
AM_9
100
AcDbLine
 10
2.468759754193158
 20
-4.60165
 30
0.0
 11
1.928909968279886
 21
-4.60165
 31
0.0
  0
ELLIPSE
  5
DE
330
C2
100
AcDbEntity
  8
AM_9
100
AcDbEllipse
 10
2.468759754193159
 20
-4.810000000000001
 30
0.0
 11
-3.827327409035221E-17
 21
-0.2083499999999976
 31
0.0
210
0.0
220
0.0
230
1.0
 40
0.4226182617407059
 41
3.477167989429979
 42
5.94702636866464
  0
LINE
  5
DF
330
C2
100
AcDbEntity
  8
AM_9
100
AcDbLine
 10
2.42770019220641
 20
-4.994311121479204
 30
0.0
 11
2.455238400430553
 21
-5.028659159191316
 31
0.0
  0
LINE
  5
E0
330
C2
100
AcDbEntity
  8
AM_9
100
AcDbLine
 10
2.455417582961736
 20
-4.591117348841147
 30
0.0
 11
2.42770019220641
 21
-4.625688878520795
 31
0.0
  0
LWPOLYLINE
  5
E1
330
C2
100
AcDbEntity
  8
AM_9
100
AcDbPolyline
 90
       39
 70
     0
 43
0.0
 10
-0.159986555811746
 20
-4.65506472272461
 10
-0.182281888037872
 20
-4.678921760141794
 10
-0.2011604523234221
 20
-4.706484825746909
 10
-0.2165671828156271
 20
-4.739487237530668
 10
-0.2262049663605153
 20
-4.775842931974717
 10
-0.2290795232288547
 20
-4.810328885050799
 10
-0.2259108595954708
 20
-4.845850320826089
 10
-0.2172904772749014
 20
-4.87849919250093
 10
-0.203064894497397
 20
-4.91014053645612
 10
-0.1840077830173843
 20
-4.938905203869766
 10
-0.1599992104012865
 20
-4.964923585882262
 10
-0.1314413405763095
 20
-4.987346179249616
 10
-0.0988315880532858
 20
-5.005399301159091
 10
-0.0628452739432501
 20
-5.018325513416767
 10
-0.0242007993715099
 20
-5.025449863970397
 10
0.0152712729049052
 20
-5.026182956173144
 10
0.0554285413922742
 20
-5.020206316388949
 10
0.0932081860078283
 20
-5.007861595767471
 10
0.1293621007158061
 20
-4.988710338956809
 10
0.1601727600496683
 20
-4.964763064002312
 10
0.187109775992516
 20
-4.934851475392248
 10
0.2067655250673396
 20
-4.903136256702721
 10
0.220903184276739
 20
-4.867273549354083
 10
0.2278064170443369
 20
-4.832772149730405
 10
0.2286320082509655
 20
-4.796484095318383
 10
0.2236043142561953
 20
-4.76299329392418
 10
0.21279329893227
 20
-4.729890231451797
 10
0.1970406545663652
 20
-4.699636014858393
 10
0.1761067969000716
 20
-4.671581632183136
 10
0.150490749802942
 20
-4.646772845840065
 10
0.1204884042803835
 20
-4.62581630520584
 10
0.0865736510791597
 20
-4.609453515472049
 10
0.0494815543811856
 20
-4.598466031346461
 10
0.0106098402656726
 20
-4.593566681920977
 10
-0.029642325508354
 20
-4.595161397225979
 10
-0.0685666345133421
 20
-4.603299965631897
 10
-0.1066302390272933
 20
-4.618311707043657
 10
-0.1343473742913629
 20
-4.634615013553353
 10
-0.159986555811746
 20
-4.65506472272461
  0
LINE
  5
E2
330
C2
100
AcDbEntity
  8
AM_9
100
AcDbLine
 10
1.96568297178886
 20
-4.620597617117705
 30
0.0
 11
1.962315731194076
 21
-4.616142398927412
 31
0.0
  0
LWPOLYLINE
  5
E3
330
C2
100
AcDbEntity
  8
AM_9
100
AcDbPolyline
 90
        3
 70
     0
 43
0.0
 10
1.980876747911817
 20
-4.648527269720325
 10
1.971220258317906
 20
-4.629156530532244
 10
1.96568297178886
 20
-4.620597617117705
  0
LINE
  5
E4
330
C2
100
AcDbEntity
  8
AM_9
100
AcDbLine
 10
2.12
 20
-5.25
 30
0.0
 11
2.12
 21
-4.369999999999999
 31
0.0
  0
LINE
  5
E5
330
C2
100
AcDbEntity
  8
AM_9
100
AcDbLine
 10
-2.12
 20
-4.369999999999999
 30
0.0
 11
-2.12
 21
-5.25
 31
0.0
  0
LINE
  5
E6
330
C2
100
AcDbEntity
  8
AM_9
100
AcDbLine
 10
-2.765625
 20
-4.369999999999999
 30
0.0
 11
2.765625
 21
-4.369999999999999
 31
0.0
  0
LINE
  5
E7
330
C2
100
AcDbEntity
  8
AM_9
100
AcDbLine
 10
2.765625
 20
-4.5
 30
0.0
 11
2.765625
 21
-4.369999999999999
 31
0.0
  0
LINE
  5
E8
330
C2
100
AcDbEntity
  8
AM_9
100
AcDbLine
 10
-2.765625
 20
-4.369999999999999
 30
0.0
 11
-2.765625
 21
-4.5
 31
0.0
  0
ELLIPSE
  5
E9
330
C2
100
AcDbEntity
  8
AM_9
100
AcDbEllipse
 10
1.928909968279885
 20
-4.81
 30
0.0
 11
-3.827327409035254E-17
 21
-0.2083499999999994
 31
0.0
210
0.0
220
0.0
230
1.0
 40
0.4226182617406969
 41
0.0
 42
6.283185307179586
  0
LINE
  5
EA
330
C2
100
AcDbEntity
  8
AM_7
100
AcDbLine
 10
-0.2187675
 20
-4.81
 30
0.0
 11
0.2187675
 21
-4.81
 31
0.0
  0
ELLIPSE
  5
EB
330
C2
100
AcDbEntity
  8
AM_4
100
AcDbEllipse
 10
2.468759754193159
 20
-4.81
 30
0.0
 11
-3.827327409035254E-17
 21
-0.2083499999999994
 31
0.0
210
0.0
220
0.0
230
1.0
 40
0.422618261740698
 41
5.947026368664637
 42
9.760353296609575
  0
LWPOLYLINE
  5
EC
330
C2
100
AcDbEntity
  8
AM_4
100
AcDbPolyline
 90
       15
 70
     0
 43
0.0
 10
2.455516714671396
 20
-5.029006294264277
 10
2.448822987244066
 20
-5.019992761535575
 10
2.434350196667221
 20
-4.995325651851669
 10
2.421674022543416
 20
-4.966043588687771
 10
2.410848127008145
 20
-4.931505497673462
 10
2.402758375290724
 20
-4.893837169016962
 10
2.397584453112596
 20
-4.85248355305022
 10
2.39582323828733
 20
-4.809981881092284
 10
2.397664023572559
 20
-4.766580082636519
 10
2.403060653872013
 20
-4.724402289691657
 10
2.411876320240033
 20
-4.684662822324092
 10
2.423729514258
 20
-4.648562444813532
 10
2.437892931360194
 20
-4.617915814673118
 10
2.454021752565456
 20
-4.592891104021223
 10
2.455521581612547
 20
-4.590987633746642
  0
LWPOLYLINE
  5
ED
330
C2
100
AcDbEntity
  8
AM_4
100
AcDbPolyline
 90
        8
 70
     0
 43
0.0
 10
2.455521581612547
 20
-4.590987633746642
 10
2.470828216591896
 20
-4.575081310450273
 10
2.488302698187129
 20
-4.56394777968995
 10
2.505118275031466
 20
-4.560050537462284
 10
2.521479350183621
 20
-4.562830771049182
 10
2.536617447875447
 20
-4.572041235355646
 10
2.550520426500118
 20
-4.587258966098944
 10
2.568088496355109
 20
-4.619456148857068
  0
LINE
  5
EE
330
C2
100
AcDbEntity
  8
AM_4
100
AcDbLine
 10
-2.618958333333333
 20
-5.25
 30
0.0
 11
2.618958333311183
 21
-5.25
 31
0.0
  0
ARC
  5
EF
330
C2
100
AcDbEntity
  8
AM_4
100
AcDbCircle
 10
2.618958333333334
 20
-5.103333333333334
 30
0.0
 40
0.1466666666666656
100
AcDbArc
 50
270.0
 51
0.0
  0
ARC
  5
F0
330
C2
100
AcDbEntity
  8
AM_4
100
AcDbCircle
 10
-2.618958333333334
 20
-5.103333333333334
 30
0.0
 40
0.1466666666666661
100
AcDbArc
 50
180.0
 51
270.0
  0
LINE
  5
F1
330
C2
100
AcDbEntity
  8
AM_4
100
AcDbLine
 10
-2.765625
 20
-5.103333333333333
 30
0.0
 11
2.765625
 21
-5.103333333333333
 31
0.0
  0
LWPOLYLINE
  5
F2
330
C2
100
AcDbEntity
  8
AM_4
100
AcDbPolyline
 90
       19
 70
     0
 43
0.0
 10
2.568088496355109
 20
-4.619456148857068
 10
2.577418204676445
 20
-4.645595106237953
 10
2.585082250319259
 20
-4.675168227803887
 10
2.591724972279837
 20
-4.712363309203198
 10
2.596094628666732
 20
-4.752120924653908
 10
2.598182949068788
 20
-4.794714561147384
 10
2.597833758752223
 20
-4.83772733814877
 10
2.594963032873581
 20
-4.880591772637653
 10
2.589589177443513
 20
-4.921444182224607
 10
2.581760634177392
 20
-4.958817166659081
 10
2.571536738313013
 20
-4.991844775217018
 10
2.559368565260038
 20
-5.018674417529128
 10
2.545224910501124
 20
-5.039425905261161
 10
2.530060604781306
 20
-5.052781924176859
 10
2.51370278901504
 20
-5.059358550585321
 10
2.497222195244605
 20
-5.05893741015827
 10
2.480527711377978
 20
-5.052002634740323
 10
2.464277718773783
 20
-5.038855825897104
 10
2.455516714671396
 20
-5.029006294264277
  0
LINE
  5
F3
330
C2
100
AcDbEntity
  8
AM_4
100
AcDbLine
 10
2.765625
 20
-5.103333333333333
 30
0.0
 11
2.765625
 21
-4.5
 31
0.0
  0
LINE
  5
F4
330
C2
100
AcDbEntity
  8
AM_4
100
AcDbLine
 10
-2.765625
 20
-4.5
 30
0.0
 11
-2.765625
 21
-5.103333333333333
 31
0.0
  0
LWPOLYLINE
  5
F5
330
C2
100
AcDbEntity
  8
AM_4
100
AcDbPolyline
 90
       39
 70
     0
 43
0.0
 10
-0.1727888099394485
 20
-4.636876531480667
 10
-0.1466151085990734
 20
-4.612326969865769
 10
-0.1163791247903692
 20
-4.591511939567762
 10
-0.0800685494273319
 20
-4.574392854716465
 10
-0.0401075660036862
 20
-4.563532865482272
 10
-0.0015910917863086
 20
-4.560005520892251
 10
0.0381242237546716
 20
-4.563189910085175
 10
0.0749440761204486
 20
-4.572562414249223
 10
0.1106839500356834
 20
-4.588310804003541
 10
0.1429491919906712
 20
-4.609423890105265
 10
0.1721400476344461
 20
-4.636174387082821
 10
0.196896618873888
 20
-4.667620076383417
 10
0.2167835486013565
 20
-4.703592237731818
 10
0.2307768560049755
 20
-4.742825692305773
 10
0.2383941113182138
 20
-4.78495407411215
 10
0.2389979822378551
 20
-4.827718291680144
 10
0.2323018541289049
 20
-4.871193298617139
 10
0.2187179161544784
 20
-4.912011897713629
 10
0.1977813592424338
 20
-4.951039362641246
 10
0.1716479714717849
 20
-4.984354545975526
 10
0.1391290631863576
 20
-5.013480912538765
 10
0.1043925105882328
 20
-5.034990278917517
 10
0.0652079837590481
 20
-5.050549553365496
 10
0.0268770278015247
 20
-5.058419688210409
 10
-0.0134419435199896
 20
-5.059605652863202
 10
-0.0511383608301642
 20
-5.054230782875941
 10
-0.0884484157510986
 20
-5.042317720695633
 10
-0.1224699899371711
 20
-5.024830081559215
 10
-0.1540304933083627
 20
-5.001433278534374
 10
-0.1815368421344609
 20
-4.973087997504318
 10
-0.2047254909735529
 20
-4.939811943954917
 10
-0.2225016106036312
 20
-4.902687282490252
 10
-0.2343362195250159
 20
-4.862082466723259
 10
-0.2394136169842785
 20
-4.819889342403727
 10
-0.2374028479375772
 20
-4.776236460859731
 10
-0.2282971011500161
 20
-4.734170593973949
 10
-0.2117489816435712
 20
-4.693084660893379
 10
-0.1943800210082332
 20
-4.663905885719617
 10
-0.1727888099974723
 20
-4.636876531444414
  0
CIRCLE
  5
F6
330
C2
100
AcDbEntity
  8
AM_4
100
AcDbCircle
 10
0.0
 20
-4.81
 30
0.0
 40
0.20835
  0
CIRCLE
  5
F7
330
C2
100
AcDbEntity
  8
AM_5
100
AcDbCircle
 10
-0.0000000000000003
 20
-4.81
 30
0.0
 40
0.2499999999999997
  0
ENDBLK
  5
C5
330
C2
100
AcDbEntity
  8
0
100
AcDbBlockEnd
  0
BLOCK
  5
FA
330
F8
100
AcDbEntity
  8
0
100
AcDbBlockBegin
  2
4_3_1_4I_0_in_023113_4
 70
     2
 10
0.0
 20
0.0
 30
0.0
  3
4_3_1_4I_0_in_023113_4
  1

  0
ATTDEF
  5
FC
330
F8
100
AcDbEntity
  8
AM_6
100
AcDbText
 10
7.92
 20
-0.2499999999999998
 30
0.0
 40
0.5
  1
E-Type Insert -Inch
100
AcDbAttributeDefinition
  3

  2
NN
 70
     8
280
     0
  0
ATTDEF
  5
FD
330
F8
100
AcDbEntity
  8
AM_6
100
AcDbText
 10
7.92
 20
-0.7499999999999998
 30
0.0
 40
0.5
  1
E-Type Bearings
100
AcDbAttributeDefinition
  3

  2
NT
 70
     8
280
     0
  0
ATTDEF
  5
FE
330
F8
100
AcDbEntity
  8
AM_6
100
AcDbText
 10
7.92
 20
-1.25
 30
0.0
 40
0.5
  1
3-1/4I
100
AcDbAttributeDefinition
  3

  2
NB
 70
     8
280
     0
  0
ATTDEF
  5
FF
330
F8
100
AcDbEntity
  8
AM_6
100
AcDbText
 10
7.92
 20
-1.75
 30
0.0
 40
0.5
  1
$BORE.I
100
AcDbAttributeDefinition
  3

  2
NBSYN
 70
     8
280
     0
  0
ATTDEF
  5
100
330
F8
100
AcDbEntity
  8
AM_6
100
AcDbText
 10
7.92
 20
-2.25
 30
0.0
 40
0.5
  1
3-1/4I
100
AcDbAttributeDefinition
  3

  2
LINA
 70
     8
280
     0
  0
ATTDEF
  5
101
330
F8
100
AcDbEntity
  8
AM_6
100
AcDbText
 10
7.92
 20
-2.75
 30
0.0
 40
0.5
  1
3-1/4
100
AcDbAttributeDefinition
  3

  2
BORE
 70
     8
280
     0
  0
ATTDEF
  5
102
330
F8
100
AcDbEntity
  8
AM_6
100
AcDbText
 10
7.92
 20
-3.25
 30
0.0
 40
0.5
  1
5.00
100
AcDbAttributeDefinition
  3

  2
A
 70
     8
280
     0
  0
ATTDEF
  5
103
330
F8
100
AcDbEntity
  8
AM_6
100
AcDbText
 10
7.92
 20
-3.75
 30
0.0
 40
0.5
  1
2.25
100
AcDbAttributeDefinition
  3

  2
B
 70
     8
280
     0
  0
ATTDEF
  5
104
330
F8
100
AcDbEntity
  8
AM_6
100
AcDbText
 10
7.92
 20
-4.25
 30
0.0
 40
0.5
  1
4.24
100
AcDbAttributeDefinition
  3

  2
C
 70
     8
280
     0
  0
ATTDEF
  5
105
330
F8
100
AcDbEntity
  8
AM_6
100
AcDbText
 10
7.92
 20
-4.75
 30
0.0
 40
0.5
  1
5.84
100
AcDbAttributeDefinition
  3

  2
D
 70
     8
280
     0
  0
ATTDEF
  5
106
330
F8
100
AcDbEntity
  8
AM_6
100
AcDbText
 10
7.92
 20
-5.25
 30
0.0
 40
0.5
  1
0.54
100
AcDbAttributeDefinition
  3

  2
E
 70
     8
280
     0
  0
ATTDEF
  5
107
330
F8
100
AcDbEntity
  8
AM_6
100
AcDbText
 10
7.92
 20
-5.75
 30
0.0
 40
0.5
  1
0.44
100
AcDbAttributeDefinition
  3

  2
F
 70
     8
280
     0
  0
ATTDEF
  5
108
330
F8
100
AcDbEntity
  8
AM_6
100
AcDbText
 10
7.92
 20
-6.25
 30
0.0
 40
0.5
  1
baldor
100
AcDbAttributeDefinition
  3

  2
COMPANY
 70
     8
280
     0
  0
LINE
  5
109
330
F8
100
AcDbEntity
  8
AM_9
100
AcDbLine
 10
1.921270411568945
 20
-0.4199999999999999
 30
0.0
 11
1.47271644380743
 21
-0.4199999999999999
 31
0.0
  0
LINE
  5
10A
330
F8
100
AcDbEntity
  8
AM_9
100
AcDbLine
 10
1.472614332380057
 20
-0.9599999999999996
 30
0.0
 11
1.921367366337284
 21
-0.9599999999999996
 31
0.0
  0
LWPOLYLINE
  5
10B
330
F8
100
AcDbEntity
  8
AM_9
100
AcDbPolyline
 90
       21
 70
     0
 43
0.0
 10
1.47274092327818
 20
-0.9599999991165896
 10
1.484967049035556
 20
-0.9583856549169888
 10
1.502087791089399
 20
-0.9499638343058519
 10
1.517849963363459
 20
-0.9340325002011829
 10
1.531187243270739
 20
-0.9118111294799522
 10
1.542655092421123
 20
-0.8827401625308203
 10
1.551683791940331
 20
-0.8487687385179984
 10
1.558673349296905
 20
-0.8092191800946529
 10
1.563293815997889
 20
-0.7673510865053645
 10
1.565872299463162
 20
-0.7219577882814506
 10
1.566307079104934
 20
-0.6774695609257779
 10
1.56467574021514
 20
-0.6320491077041857
 10
1.561072696485863
 20
-0.5897921698492256
 10
1.555234821149994
 20
-0.5491856061710191
 10
1.547342384998481
 20
-0.5132373343925434
 10
1.536938617333602
 20
-0.4812977910021923
 10
1.52446145152044
 20
-0.455757206902399
 10
1.509360160368146
 20
-0.436246842048012
 10
1.492770920814875
 20
-0.4244752050629145
 10
1.473990338460425
 20
-0.420016009656243
 10
1.47275695971924
 20
-0.4200000004802585
  0
LWPOLYLINE
  5
10C
330
F8
100
AcDbEntity
  8
AM_9
100
AcDbPolyline
 90
       10
 70
     0
 43
0.0
 10
1.47275695971924
 20
-0.4200000004802585
 10
1.45481248117232
 20
-0.4231800928220983
 10
1.434500921284076
 20
-0.4339486024952406
 10
1.414897045616949
 20
-0.451384442540313
 10
1.395615812415691
 20
-0.4759695823823907
 10
1.378287133337402
 20
-0.5060543942374897
 10
1.362930193283145
 20
-0.5422578052661063
 10
1.351027458338032
 20
-0.5818586520187417
 10
1.342608049851729
 20
-0.6258104492131796
 10
1.338171764188951
 20
-0.6899999999999997
  0
LWPOLYLINE
  5
10D
330
F8
100
AcDbEntity
  8
AM_9
100
AcDbPolyline
 90
       21
 70
     0
 43
0.0
 10
1.921362434061032
 20
-0.4200000010523069
 10
1.933945910148141
 20
-0.4216957325601553
 10
1.951657013168143
 20
-0.4305033166900211
 10
1.967761806228692
 20
-0.4465010393104509
 10
1.981957578358235
 20
-0.4693985495657541
 10
1.99402701940013
 20
-0.4984257046942249
 10
2.003880508434523
 20
-0.5331181397613716
 10
2.011396389034433
 20
-0.5722526642682356
 10
2.016530469753956
 20
-0.6148073990157321
 10
2.019303849163162
 20
-0.6595153452333311
 10
2.019703637865599
 20
-0.7047918707143729
 10
2.017780425357765
 20
-0.7496489972279297
 10
2.013527633302181
 20
-0.7926459228110604
 10
2.006962635267339
 20
-0.8327738368926082
 10
1.998013945701898
 20
-0.8690624049811123
 10
1.986779804361681
 20
-0.9003398359125276
 10
1.973234752836881
 20
-0.9257942506619747
 10
1.957647662893998
 20
-0.9445844939863111
 10
1.940309279796161
 20
-0.9560436877867717
 10
1.9215992953357
 20
-0.9599994664420339
 10
1.921374064685299
 20
-0.9599999999748912
  0
LINE
  5
10E
330
F8
100
AcDbEntity
  8
AM_9
100
AcDbLine
 10
1.792200159760368
 20
-0.7141034326935836
 30
0.0
 11
1.791619363453729
 21
-0.6899999999999997
 31
0.0
  0
LWPOLYLINE
  5
10F
330
F8
100
AcDbEntity
  8
AM_9
100
AcDbPolyline
 90
       10
 70
     0
 43
0.0
 10
1.921374064685299
 20
-0.9599999999748912
 10
1.90213235550042
 20
-0.9562783956094926
 10
1.882387097124381
 20
-0.9451524374767521
 10
1.863021857539151
 20
-0.9268535231887374
 10
1.844723043114975
 20
-0.901995975984996
 10
1.828100789346451
 20
-0.8709580834735628
 10
1.813940359124422
 20
-0.8348317936781944
 10
1.802860983418575
 20
-0.7944060848039518
 10
1.795370778340242
 20
-0.7509950866120044
 10
1.792200159760368
 20
-0.7141034326935836
  0
LINE
  5
110
330
F8
100
AcDbEntity
  8
AM_9
100
AcDbLine
 10
1.921270411568945
 20
-4.54
 30
0.0
 11
1.47271644380743
 21
-4.54
 31
0.0
  0
LINE
  5
111
330
F8
100
AcDbEntity
  8
AM_9
100
AcDbLine
 10
1.472614332380057
 20
-5.079999999999999
 30
0.0
 11
1.921367366337284
 21
-5.079999999999999
 31
0.0
  0
LWPOLYLINE
  5
112
330
F8
100
AcDbEntity
  8
AM_9
100
AcDbPolyline
 90
       21
 70
     0
 43
0.0
 10
1.47274092327818
 20
-5.079999999116589
 10
1.484967049035556
 20
-5.078385654916989
 10
1.502087791089399
 20
-5.069963834305852
 10
1.517849963363459
 20
-5.054032500201183
 10
1.531187243270739
 20
-5.031811129479952
 10
1.542655092421123
 20
-5.00274016253082
 10
1.551683791940331
 20
-4.968768738517999
 10
1.558673349296905
 20
-4.929219180094654
 10
1.563293815997889
 20
-4.887351086505365
 10
1.565872299463162
 20
-4.841957788281451
 10
1.566307079104934
 20
-4.797469560925778
 10
1.56467574021514
 20
-4.752049107704186
 10
1.561072696485863
 20
-4.709792169849226
 10
1.555234821149994
 20
-4.66918560617102
 10
1.547342384998481
 20
-4.633237334392544
 10
1.536938617333602
 20
-4.601297791002192
 10
1.52446145152044
 20
-4.5757572069024
 10
1.509360160368146
 20
-4.556246842048012
 10
1.492770920814875
 20
-4.544475205062915
 10
1.473990338460425
 20
-4.540016009656243
 10
1.47275695971924
 20
-4.540000000480259
  0
LWPOLYLINE
  5
113
330
F8
100
AcDbEntity
  8
AM_9
100
AcDbPolyline
 90
       10
 70
     0
 43
0.0
 10
1.47275695971924
 20
-4.540000000480259
 10
1.45481248117232
 20
-4.543180092822099
 10
1.434500921284076
 20
-4.553948602495241
 10
1.414897045616949
 20
-4.571384442540313
 10
1.395615812415691
 20
-4.595969582382391
 10
1.378287133337402
 20
-4.62605439423749
 10
1.362930193283145
 20
-4.662257805266107
 10
1.351027458338032
 20
-4.701858652018743
 10
1.342608049851729
 20
-4.74581044921318
 10
1.338171764188951
 20
-4.81
  0
LWPOLYLINE
  5
114
330
F8
100
AcDbEntity
  8
AM_9
100
AcDbPolyline
 90
       21
 70
     0
 43
0.0
 10
1.921362434061032
 20
-4.540000001052307
 10
1.933945910148141
 20
-4.541695732560155
 10
1.951657013168143
 20
-4.550503316690022
 10
1.967761806228692
 20
-4.566501039310451
 10
1.981957578358235
 20
-4.589398549565755
 10
1.99402701940013
 20
-4.618425704694225
 10
2.003880508434523
 20
-4.653118139761371
 10
2.011396389034433
 20
-4.692252664268236
 10
2.016530469753956
 20
-4.734807399015732
 10
2.019303849163162
 20
-4.779515345233332
 10
2.019703637865599
 20
-4.824791870714373
 10
2.017780425357765
 20
-4.86964899722793
 10
2.013527633302181
 20
-4.912645922811061
 10
2.006962635267339
 20
-4.952773836892608
 10
1.998013945701898
 20
-4.989062404981112
 10
1.986779804361681
 20
-5.020339835912528
 10
1.973234752836881
 20
-5.045794250661976
 10
1.957647662893998
 20
-5.064584493986311
 10
1.940309279796161
 20
-5.076043687786772
 10
1.9215992953357
 20
-5.079999466442034
 10
1.921374064685299
 20
-5.079999999974891
  0
LWPOLYLINE
  5
115
330
F8
100
AcDbEntity
  8
AM_9
100
AcDbPolyline
 90
       10
 70
     0
 43
0.0
 10
1.921374064685299
 20
-5.079999999974891
 10
1.90213235550042
 20
-5.076278395609493
 10
1.882387097124381
 20
-5.065152437476752
 10
1.863021857539151
 20
-5.046853523188738
 10
1.844723043114975
 20
-5.021995975984996
 10
1.828100789346451
 20
-4.990958083473564
 10
1.813940359124422
 20
-4.954831793678195
 10
1.802860983418575
 20
-4.914406084803952
 10
1.795370778340242
 20
-4.870995086612004
 10
1.791619363453729
 20
-4.81
  0
LWPOLYLINE
  5
116
330
F8
100
AcDbEntity
  8
AM_9
100
AcDbPolyline
 90
       11
 70
     0
 43
0.0
 10
1.338171764188951
 20
-0.6899999999999997
 10
1.340276352232821
 20
-0.734334990347832
 10
1.346722305706021
 20
-0.7786699806956642
 10
1.356817596112588
 20
-0.819268196047308
 10
1.370624628871228
 20
-0.8573328290018498
 10
1.386898037800844
 20
-0.8900125778280328
 10
1.405708659754621
 20
-0.9179034740468912
 10
1.425346303561449
 20
-0.9387895994837385
 10
1.446044011153202
 20
-0.9530755718024903
 10
1.465688355186235
 20
-0.9594935630859102
 10
1.47274092327818
 20
-0.9599999991165896
  0
LWPOLYLINE
  5
117
330
F8
100
AcDbEntity
  8
AM_9
100
AcDbPolyline
 90
       11
 70
     0
 43
0.0
 10
1.338171764188951
 20
-4.81
 10
1.340276352232821
 20
-4.854334990347832
 10
1.346722305706021
 20
-4.898669980695664
 10
1.356817596112588
 20
-4.939268196047308
 10
1.370624628871228
 20
-4.97733282900185
 10
1.386898037800844
 20
-5.010012577828032
 10
1.405708659754621
 20
-5.037903474046892
 10
1.425346303561449
 20
-5.058789599483739
 10
1.446044011153202
 20
-5.073075571802491
 10
1.465688355186235
 20
-5.079493563085911
 10
1.47274092327818
 20
-5.079999999116589
  0
LINE
  5
118
330
F8
100
AcDbEntity
  8
AM_9
100
AcDbLine
 10
1.625
 20
-5.25
 30
0.0
 11
1.625
 21
-0.2499999999999998
 31
0.0
  0
LINE
  5
119
330
F8
100
AcDbEntity
  8
AM_9
100
AcDbLine
 10
-1.625
 20
-0.2499999999999998
 30
0.0
 11
-1.625
 21
-5.25
 31
0.0
  0
LWPOLYLINE
  5
11A
330
F8
100
AcDbEntity
  8
AM_9
100
AcDbPolyline
 90
       38
 70
     0
 43
0.0
 10
-0.27
 20
-0.6899999999999997
 10
-0.2663109624359738
 20
-0.645519990035687
 10
-0.25492374321412
 20
-0.6010399800713743
 10
-0.2368092205423459
 20
-0.5603026867428369
 10
-0.2114584403169832
 20
-0.5221151346347475
 10
-0.1808094215700311
 20
-0.4894807912654977
 10
-0.1440910850326242
 20
-0.4616630577104941
 10
-0.1042189316590731
 20
-0.4409248822466573
 10
-0.0601411733322968
 20
-0.4267832845919265
 10
-0.0158400238825024
 20
-0.4204650418899213
 10
0.0302129123648885
 20
-0.4216957325601553
 10
0.0738673687355326
 20
-0.4303009206098545
 10
0.1166544304478383
 20
-0.4465010393104509
 10
0.155123404917114
 20
-0.4690096625485148
 10
0.1902611084223357
 20
-0.4984257046942249
 10
0.2193545132907287
 20
-0.5325719291263861
 10
0.2429723542464683
 20
-0.5722526642682358
 10
0.259130564105496
 20
-0.6141623395246957
 10
0.2682735279966271
 20
-0.6595153452333311
 10
0.2696294820557047
 20
-0.7041400992348871
 10
0.2633286864921906
 20
-0.7496489972279297
 10
0.2499656807466769
 20
-0.79206448181836
 10
0.2291628929363625
 20
-0.8327738368926085
 10
0.2024906266450752
 20
-0.8685988413201068
 10
0.1692842385701956
 20
-0.9003398359125276
 10
0.1320653180129143
 20
-0.9254968190404018
 10
0.089926277704205
 20
-0.9445844939863111
 10
0.0465451987187157
 20
-0.9559577870193599
 10
0.0005367690536257
 20
-0.9599994664420339
 10
-0.0438748455910508
 20
-0.956411332199592
 10
-0.0883019458996909
 20
-0.9451524374767521
 10
-0.1290144998894824
 20
-0.9271819108158685
 10
-0.1672055805473276
 20
-0.901995975984996
 10
-0.1999349987864695
 20
-0.8714552183329383
 10
-0.2278678378796728
 20
-0.8348317936781944
 10
-0.2487354888145436
 20
-0.7950269327562698
 10
-0.2630201501961286
 20
-0.7509950866120044
 10
-0.27
 20
-0.6899999999999995
  0
LWPOLYLINE
  5
11B
330
F8
100
AcDbEntity
  8
AM_9
100
AcDbPolyline
 90
       11
 70
     0
 43
0.0
 10
1.792666774903944
 20
-0.6576516130306301
 10
1.793680201484576
 20
-0.6448816091687709
 10
1.799695598181415
 20
-0.6010399800713743
 10
1.809442929689218
 20
-0.5597532294931752
 10
1.822424575100469
 20
-0.5221151346347475
 10
1.838205700397183
 20
-0.4890677355469304
 10
1.85603388027071
 20
-0.4616630577104941
 10
1.875290061888233
 20
-0.4406955619866595
 10
1.895182462775094
 20
-0.4267832845919265
 10
1.914901538821924
 20
-0.4204549533890776
 10
1.921362434061032
 20
-0.4200000010523069
  0
LINE
  5
11C
330
F8
100
AcDbEntity
  8
AM_9
100
AcDbLine
 10
1.791619363453729
 20
-0.6899999999999997
 30
0.0
 11
1.792666774903944
 21
-0.6576516130306301
 31
0.0
  0
LINE
  5
11D
330
F8
100
AcDbEntity
  8
AM_9
100
AcDbLine
 10
2.12
 20
-1.625
 30
0.0
 11
2.12
 21
-0.2499999999999998
 31
0.0
  0
LINE
  5
11E
330
F8
100
AcDbEntity
  8
AM_9
100
AcDbLine
 10
-2.12
 20
-0.2499999999999998
 30
0.0
 11
-2.12
 21
-1.625
 31
0.0
  0
LWPOLYLINE
  5
11F
330
F8
100
AcDbEntity
  8
AM_9
100
AcDbPolyline
 90
       38
 70
     0
 43
0.0
 10
-0.27
 20
-4.81
 10
-0.2663109624359738
 20
-4.765519990035687
 10
-0.25492374321412
 20
-4.721039980071374
 10
-0.2368092205423459
 20
-4.680302686742837
 10
-0.2114584403169832
 20
-4.642115134634747
 10
-0.1808094215700311
 20
-4.609480791265498
 10
-0.1440910850326242
 20
-4.581663057710495
 10
-0.1042189316590731
 20
-4.560924882246658
 10
-0.0601411733322968
 20
-4.546783284591926
 10
-0.0158400238825024
 20
-4.540465041889921
 10
0.0302129123648885
 20
-4.541695732560155
 10
0.0738673687355326
 20
-4.550300920609854
 10
0.1166544304478383
 20
-4.566501039310451
 10
0.155123404917114
 20
-4.589009662548516
 10
0.1902611084223357
 20
-4.618425704694225
 10
0.2193545132907287
 20
-4.652571929126387
 10
0.2429723542464683
 20
-4.692252664268236
 10
0.259130564105496
 20
-4.734162339524696
 10
0.2682735279966271
 20
-4.779515345233332
 10
0.2696294820557047
 20
-4.824140099234888
 10
0.2633286864921906
 20
-4.86964899722793
 10
0.2499656807466769
 20
-4.91206448181836
 10
0.2291628929363625
 20
-4.952773836892608
 10
0.2024906266450752
 20
-4.988598841320107
 10
0.1692842385701956
 20
-5.020339835912528
 10
0.1320653180129143
 20
-5.045496819040403
 10
0.089926277704205
 20
-5.064584493986311
 10
0.0465451987187157
 20
-5.075957787019361
 10
0.0005367690536257
 20
-5.079999466442034
 10
-0.0438748455910508
 20
-5.076411332199592
 10
-0.0883019458996909
 20
-5.065152437476752
 10
-0.1290144998894824
 20
-5.047181910815869
 10
-0.1672055805473276
 20
-5.021995975984996
 10
-0.1999349987864695
 20
-4.991455218332939
 10
-0.2278678378796728
 20
-4.954831793678195
 10
-0.2487354888145436
 20
-4.91502693275627
 10
-0.2630201501961286
 20
-4.870995086612004
 10
-0.27
 20
-4.81
  0
LWPOLYLINE
  5
120
330
F8
100
AcDbEntity
  8
AM_9
100
AcDbPolyline
 90
       11
 70
     0
 43
0.0
 10
1.791619363453729
 20
-4.81
 10
1.793680201484576
 20
-4.764881609168771
 10
1.799695598181415
 20
-4.721039980071374
 10
1.809442929689218
 20
-4.679753229493175
 10
1.822424575100469
 20
-4.642115134634747
 10
1.838205700397183
 20
-4.60906773554693
 10
1.85603388027071
 20
-4.581663057710495
 10
1.875290061888233
 20
-4.56069556198666
 10
1.895182462775094
 20
-4.546783284591926
 10
1.914901538821924
 20
-4.540454953389077
 10
1.921362434061032
 20
-4.540000001052307
  0
LINE
  5
121
330
F8
100
AcDbEntity
  8
AM_9
100
AcDbLine
 10
2.12
 20
-5.25
 30
0.0
 11
2.12
 21
-3.875
 31
0.0
  0
LINE
  5
122
330
F8
100
AcDbEntity
  8
AM_9
100
AcDbLine
 10
-2.12
 20
-3.875
 30
0.0
 11
-2.12
 21
-5.25
 31
0.0
  0
LINE
  5
123
330
F8
100
AcDbEntity
  8
AM_9
100
AcDbLine
 10
-2.92
 20
-3.875
 30
0.0
 11
2.92
 21
-3.875
 31
0.0
  0
LINE
  5
124
330
F8
100
AcDbEntity
  8
AM_9
100
AcDbLine
 10
-2.92
 20
-1.625
 30
0.0
 11
2.92
 21
-1.625
 31
0.0
  0
LINE
  5
125
330
F8
100
AcDbEntity
  8
AM_9
100
AcDbLine
 10
2.92
 20
-3.875
 30
0.0
 11
2.92
 21
-1.625
 31
0.0
  0
LINE
  5
126
330
F8
100
AcDbEntity
  8
AM_9
100
AcDbLine
 10
-2.92
 20
-1.625
 30
0.0
 11
-2.92
 21
-3.875
 31
0.0
  0
ENDBLK
  5
FB
330
F8
100
AcDbEntity
  8
0
100
AcDbBlockEnd
  0
BLOCK
  5
129
330
127
100
AcDbEntity
  8
0
100
AcDbBlockBegin
  2
5_405015E_Inch_0_in_023113_4
 70
     2
 10
0.0
 20
0.0
 30
0.0
  3
5_405015E_Inch_0_in_023113_4
  1

  0
ATTDEF
  5
12B
330
127
100
AcDbEntity
  8
AM_6
100
AcDbText
 10
5.252590742770462
 20
-2.53125
 30
0.0
 40
0.5
  1
405015E -Inch
100
AcDbAttributeDefinition
  3

  2
NN
 70
     8
280
     0
  0
ATTDEF
  5
12C
330
127
100
AcDbEntity
  8
AM_6
100
AcDbText
 10
5.252590742770462
 20
-3.03125
 30
0.0
 40
0.5
  1
Grease Fitting
100
AcDbAttributeDefinition
  3

  2
NT
 70
     8
280
     0
  0
ATTDEF
  5
12D
330
127
100
AcDbEntity
  8
AM_6
100
AcDbText
 10
5.252590742770462
 20
-3.53125
 30
0.0
 40
0.5
  1
405015E-Inch
100
AcDbAttributeDefinition
  3

  2
NB
 70
     8
280
     0
  0
ATTDEF
  5
12E
330
127
100
AcDbEntity
  8
AM_6
100
AcDbText
 10
5.252590742770462
 20
-4.03125
 30
0.0
 40
0.5
  1
$MN.-Inch
100
AcDbAttributeDefinition
  3

  2
NBSYN
 70
     8
280
     0
  0
ATTDEF
  5
12F
330
127
100
AcDbEntity
  8
AM_6
100
AcDbText
 10
5.252590742770462
 20
-4.53125
 30
0.0
 40
0.5
  1
405015E
100
AcDbAttributeDefinition
  3

  2
LINA
 70
     8
280
     0
  0
ATTDEF
  5
130
330
127
100
AcDbEntity
  8
AM_6
100
AcDbText
 10
5.252590742770462
 20
-5.03125
 30
0.0
 40
0.5
  1
405015E
100
AcDbAttributeDefinition
  3

  2
MN
 70
     8
280
     0
  0
ATTDEF
  5
131
330
127
100
AcDbEntity
  8
AM_6
100
AcDbText
 10
5.252590742770462
 20
-5.53125
 30
0.0
 40
0.5
  1
1/8 x 27PTF
100
AcDbAttributeDefinition
  3

  2
T
 70
     8
280
     0
  0
ATTDEF
  5
132
330
127
100
AcDbEntity
  8
AM_6
100
AcDbText
 10
5.252590742770462
 20
-6.03125
 30
0.0
 40
0.5
  1
baldor
100
AcDbAttributeDefinition
  3

  2
COMPANY
 70
     8
280
     0
  0
CIRCLE
  5
133
330
127
100
AcDbEntity
  8
AM_9
100
AcDbCircle
 10
0.0
 20
-2.75
 30
0.0
 40
0.161902872472269
  0
CIRCLE
  5
134
330
127
100
AcDbEntity
  8
AM_9
100
AcDbCircle
 10
0.0
 20
-2.75
 30
0.0
 40
0.1986176267812154
  0
CIRCLE
  5
135
330
127
100
AcDbEntity
  8
AM_9
100
AcDbCircle
 10
0.0
 20
-2.75
 30
0.0
 40
0.2057518972230696
  0
CIRCLE
  5
136
330
127
100
AcDbEntity
  8
AM_9
100
AcDbCircle
 10
0.0
 20
-2.75
 30
0.0
 40
0.1188200907348975
  0
CIRCLE
  5
137
330
127
100
AcDbEntity
  8
AM_9
100
AcDbCircle
 10
0.0
 20
-2.75
 30
0.0
 40
0.105
  0
LINE
  5
138
330
127
100
AcDbEntity
  8
AM_4
100
AcDbLine
 10
-0.2525907427704613
 20
-2.75
 30
0.0
 11
-0.1262953713852306
 21
-2.96875
 31
0.0
  0
LINE
  5
139
330
127
100
AcDbEntity
  8
AM_4
100
AcDbLine
 10
-0.1262953713852306
 20
-2.53125
 30
0.0
 11
-0.2525907427704613
 21
-2.75
 31
0.0
  0
LINE
  5
13A
330
127
100
AcDbEntity
  8
AM_4
100
AcDbLine
 10
0.2525907427704613
 20
-2.75
 30
0.0
 11
0.1262953713852306
 21
-2.53125
 31
0.0
  0
LINE
  5
13B
330
127
100
AcDbEntity
  8
AM_4
100
AcDbLine
 10
0.1262953713852306
 20
-2.53125
 30
0.0
 11
-0.1262953713852306
 21
-2.53125
 31
0.0
  0
LINE
  5
13C
330
127
100
AcDbEntity
  8
AM_4
100
AcDbLine
 10
-0.1262953713852306
 20
-2.96875
 30
0.0
 11
0.1262953713852306
 21
-2.96875
 31
0.0
  0
LINE
  5
13D
330
127
100
AcDbEntity
  8
AM_4
100
AcDbLine
 10
0.1262953713852306
 20
-2.96875
 30
0.0
 11
0.2525907427704613
 21
-2.75
 31
0.0
  0
CIRCLE
  5
13E
330
127
100
AcDbEntity
  8
AM_4
100
AcDbCircle
 10
0.0
 20
-2.75
 30
0.0
 40
0.21375
  0
CIRCLE
  5
13F
330
127
100
AcDbEntity
  8
AM_4
100
AcDbCircle
 10
0.0
 20
-2.75
 30
0.0
 40
0.1725340532830154
  0
CIRCLE
  5
140
330
127
100
AcDbEntity
  8
AM_4
100
AcDbCircle
 10
0.0
 20
-2.75
 30
0.0
 40
0.1026779019331875
  0
CIRCLE
  5
141
330
127
100
AcDbEntity
  8
AM_4
100
AcDbCircle
 10
0.0
 20
-2.75
 30
0.0
 40
0.135
  0
ARC
  5
142
330
127
100
AcDbEntity
  8
AM_5
100
AcDbCircle
 10
-0.000000000000001
 20
-2.749999999999985
 30
0.0
 40
0.2025000049999859
100
AcDbArc
 50
74.9999999999987
 51
105.0000000000008
  0
ARC
  5
143
330
127
100
AcDbEntity
  8
AM_5
100
AcDbCircle
 10
0.0000000000000006
 20
-2.75
 30
0.0
 40
0.2025000050000004
100
AcDbArc
 50
105.0000000000001
 51
45.00000000000022
  0
CIRCLE
  5
144
330
127
100
AcDbEntity
  8
AM_4
100
AcDbCircle
 10
0.0000000000000007
 20
-2.750000000000001
 30
0.0
 40
0.2187499999999987
  0
ENDBLK
  5
12A
330
127
100
AcDbEntity
  8
0
100
AcDbBlockEnd
  0
BLOCK
  5
147
330
145
100
AcDbEntity
  8
0
100
AcDbBlockBegin
  2
6_023113H_0_in_023113_4
 70
     2
 10
0.0
 20
0.0
 30
0.0
  3
6_023113H_0_in_023113_4
  1

  0
ATTDEF
  5
149
330
145
100
AcDbEntity
  8
AM_6
100
AcDbText
 10
9.625
 20
0.27
 30
0.0
 40
0.5
  1
F4B-E-Housing
100
AcDbAttributeDefinition
  3

  2
NN
 70
     8
280
     0
  0
ATTDEF
  5
14A
330
145
100
AcDbEntity
  8
AM_6
100
AcDbText
 10
9.625
 20
-0.23
 30
0.0
 40
0.5
  1
Type E Flange Bearing -Inch (4-Bolt Flange)
100
AcDbAttributeDefinition
  3

  2
NT
 70
     8
280
     0
  0
ATTDEF
  5
14B
330
145
100
AcDbEntity
  8
AM_6
100
AcDbText
 10
9.625
 20
-0.73
 30
0.0
 40
0.5
  1
023113H
100
AcDbAttributeDefinition
  3

  2
NB
 70
     8
280
     0
  0
ATTDEF
  5
14C
330
145
100
AcDbEntity
  8
AM_6
100
AcDbText
 10
9.625
 20
-1.23
 30
0.0
 40
0.5
  1
$PN.H
100
AcDbAttributeDefinition
  3

  2
NBSYN
 70
     8
280
     0
  0
ATTDEF
  5
14D
330
145
100
AcDbEntity
  8
AM_6
100
AcDbText
 10
9.625
 20
-1.73
 30
0.0
 40
0.5
  1
023113
100
AcDbAttributeDefinition
  3

  2
LINA
 70
     8
280
     0
  0
ATTDEF
  5
14E
330
145
100
AcDbEntity
  8
AM_6
100
AcDbText
 10
9.625
 20
-2.23
 30
0.0
 40
0.5
  1
3-1/4
100
AcDbAttributeDefinition
  3

  2
SS
 70
     8
280
     0
  0
ATTDEF
  5
14F
330
145
100
AcDbEntity
  8
AM_6
100
AcDbText
 10
9.625
 20
-2.73
 30
0.0
 40
0.5
  1
023113
100
AcDbAttributeDefinition
  3

  2
PN
 70
     8
280
     0
  0
ATTDEF
  5
150
330
145
100
AcDbEntity
  8
AM_6
100
AcDbText
 10
9.625
 20
-3.23
 30
0.0
 40
0.5
  1
F4B-E-304R
100
AcDbAttributeDefinition
  3

  2
DESCRIPTION
 70
     8
280
     0
  0
ATTDEF
  5
151
330
145
100
AcDbEntity
  8
AM_6
100
AcDbText
 10
9.625
 20
-3.73
 30
0.0
 40
0.5
  1
5-1/4
100
AcDbAttributeDefinition
  3

  2
A
 70
     8
280
     0
  0
ATTDEF
  5
152
330
145
100
AcDbEntity
  8
AM_6
100
AcDbText
 10
9.625
 20
-4.23
 30
0.0
 40
0.5
  1
9-1/4
100
AcDbAttributeDefinition
  3

  2
B
 70
     8
280
     0
  0
ATTDEF
  5
153
330
145
100
AcDbEntity
  8
AM_6
100
AcDbText
 10
9.625
 20
-4.73
 30
0.0
 40
0.5
  1
4-1/2
100
AcDbAttributeDefinition
  3

  2
C
 70
     8
280
     0
  0
ATTDEF
  5
154
330
145
100
AcDbEntity
  8
AM_6
100
AcDbText
 10
9.625
 20
-5.23
 30
0.0
 40
0.5
  1
1/4
100
AcDbAttributeDefinition
  3

  2
E
 70
     8
280
     0
  0
ATTDEF
  5
155
330
145
100
AcDbEntity
  8
AM_6
100
AcDbText
 10
9.625
 20
-5.73
 30
0.0
 40
0.5
  1
0.250000
100
AcDbAttributeDefinition
  3

  2
E1
 70
     8
280
     0
  0
ATTDEF
  5
156
330
145
100
AcDbEntity
  8
AM_6
100
AcDbText
 10
9.625
 20
-6.23
 30
0.0
 40
0.5
  1
3/4
100
AcDbAttributeDefinition
  3

  2
F
 70
     8
280
     0
  0
ATTDEF
  5
157
330
145
100
AcDbEntity
  8
AM_6
100
AcDbText
 10
9.625
 20
-6.73
 30
0.0
 40
0.5
  1
0.750000
100
AcDbAttributeDefinition
  3

  2
F1
 70
     8
280
     0
  0
ATTDEF
  5
158
330
145
100
AcDbEntity
  8
AM_6
100
AcDbText
 10
9.625
 20
-7.23
 30
0.0
 40
0.5
  1
1-7/8
100
AcDbAttributeDefinition
  3

  2
H
 70
     8
280
     0
  0
ATTDEF
  5
159
330
145
100
AcDbEntity
  8
AM_6
100
AcDbText
 10
9.625
 20
-7.73
 30
0.0
 40
0.5
  1
7-1/4
100
AcDbAttributeDefinition
  3

  2
J
 70
     8
280
     0
  0
ATTDEF
  5
15A
330
145
100
AcDbEntity
  8
AM_6
100
AcDbText
 10
9.625
 20
-8.23
 30
0.0
 40
0.5
  1
7.2500000
100
AcDbAttributeDefinition
  3

  2
J1
 70
     8
280
     0
  0
ATTDEF
  5
15B
330
145
100
AcDbEntity
  8
AM_6
100
AcDbText
 10
9.625
 20
-8.73
 30
0.0
 40
0.5
  1
5-17/32
100
AcDbAttributeDefinition
  3

  2
L
 70
     8
280
     0
  0
ATTDEF
  5
15C
330
145
100
AcDbEntity
  8
AM_6
100
AcDbText
 10
9.625
 20
-9.23
 30
0.0
 40
0.5
  1
5.00
100
AcDbAttributeDefinition
  3

  2
AINS
 70
     8
280
     0
  0
ATTDEF
  5
15D
330
145
100
AcDbEntity
  8
AM_6
100
AcDbText
 10
9.625
 20
-9.73
 30
0.0
 40
0.5
  1
5.84
100
AcDbAttributeDefinition
  3

  2
BORE
 70
     8
280
     0
  0
ATTDEF
  5
15E
330
145
100
AcDbEntity
  8
AM_6
100
AcDbText
 10
9.625
 20
-10.23
 30
0.0
 40
0.5
  1
baldor
100
AcDbAttributeDefinition
  3

  2
COMPANY
 70
     8
280
     0
  0
LINE
  5
15F
330
145
100
AcDbEntity
  8
AM_9
100
AcDbLine
 10
2.421026940085073
 20
-1.125
 30
0.0
 11
4.625
 21
-1.125
 31
0.0
  0
LINE
  5
160
330
145
100
AcDbEntity
  8
AM_9
100
AcDbLine
 10
3.257487437185929
 20
-1.125
 30
0.0
 11
3.257487437185929
 21
0.0000000000000001
 31
0.0
  0
LINE
  5
161
330
145
100
AcDbEntity
  8
AM_9
100
AcDbLine
 10
-4.625
 20
-1.125
 30
0.0
 11
-2.421026940085074
 21
-1.125
 31
0.0
  0
LINE
  5
162
330
145
100
AcDbEntity
  8
AM_9
100
AcDbLine
 10
-3.257487437185929
 20
-1.125
 30
0.0
 11
-3.257487437185929
 21
0.0000000000000001
 31
0.0
  0
LINE
  5
163
330
145
100
AcDbEntity
  8
AM_9
100
AcDbLine
 10
4.429737570268008
 20
-1.78125
 30
0.0
 11
4.429737570268008
 21
-1.875
 31
0.0
  0
LINE
  5
164
330
145
100
AcDbEntity
  8
AM_9
100
AcDbLine
 10
3.370008359834234
 20
-1.78125
 30
0.0
 11
4.625
 21
-1.78125
 31
0.0
  0
LINE
  5
165
330
145
100
AcDbEntity
  8
AM_9
100
AcDbLine
 10
-4.429737570268006
 20
-1.78125
 30
0.0
 11
-4.429737570268006
 21
-1.875
 31
0.0
  0
LINE
  5
166
330
145
100
AcDbEntity
  8
AM_9
100
AcDbLine
 10
2.92
 20
-4.5
 30
0.0
 11
2.92
 21
-1.125
 31
0.0
  0
LINE
  5
167
330
145
100
AcDbEntity
  8
AM_9
100
AcDbLine
 10
-2.92
 20
-1.125
 30
0.0
 11
-2.92
 21
-4.5
 31
0.0
  0
LINE
  5
168
330
145
100
AcDbEntity
  8
AM_9
100
AcDbLine
 10
-4.625
 20
-1.78125
 30
0.0
 11
-3.370008359834234
 21
-1.78125
 31
0.0
  0
LINE
  5
169
330
145
100
AcDbEntity
  8
AM_9
100
AcDbLine
 10
-3.370008359834234
 20
-1.78125
 30
0.0
 11
-3.370008359834233
 21
-1.875
 31
0.0
  0
LINE
  5
16A
330
145
100
AcDbEntity
  8
AM_9
100
AcDbLine
 10
3.370008359834234
 20
-1.875
 30
0.0
 11
3.370008359834234
 21
-1.78125
 31
0.0
  0
LINE
  5
16B
330
145
100
AcDbEntity
  8
AM_9
100
AcDbLine
 10
3.625
 20
-1.875
 30
0.0
 11
3.625
 21
-1.78125
 31
0.0
  0
LINE
  5
16C
330
145
100
AcDbEntity
  8
AM_9
100
AcDbLine
 10
-3.625
 20
-1.78125
 30
0.0
 11
-3.625
 21
-1.875
 31
0.0
  0
LINE
  5
16D
330
145
100
AcDbEntity
  8
AM_9
100
AcDbLine
 10
3.875
 20
-1.875
 30
0.0
 11
3.875
 21
0.0000000000000002
 31
0.0
  0
LINE
  5
16E
330
145
100
AcDbEntity
  8
AM_9
100
AcDbLine
 10
3.125
 20
0.0000000000000002
 30
0.0
 11
3.125
 21
-1.875
 31
0.0
  0
LINE
  5
16F
330
145
100
AcDbEntity
  8
AM_9
100
AcDbLine
 10
-3.125
 20
-1.875
 30
0.0
 11
-3.125
 21
0.0000000000000002
 31
0.0
  0
LINE
  5
170
330
145
100
AcDbEntity
  8
AM_9
100
AcDbLine
 10
-3.875
 20
0.0000000000000002
 30
0.0
 11
-3.875
 21
-1.875
 31
0.0
  0
LINE
  5
171
330
145
100
AcDbEntity
  8
AM_9
100
AcDbLine
 10
-2.132327376605263
 20
-1.125
 30
0.0
 11
-2.132327376605263
 21
0.0000000000000002
 31
0.0
  0
LINE
  5
172
330
145
100
AcDbEntity
  8
AM_9
100
AcDbLine
 10
2.132327358973479
 20
-1.125
 30
0.0
 11
2.132327358973479
 21
0.0000000000000002
 31
0.0
  0
LINE
  5
173
330
145
100
AcDbEntity
  8
AM_7
100
AcDbLine
 10
3.5
 20
0.0937499999999998
 30
0.0
 11
3.5
 21
-1.96875
 31
0.0
  0
LINE
  5
174
330
145
100
AcDbEntity
  8
AM_7
100
AcDbLine
 10
-3.5
 20
0.0937499999999998
 30
0.0
 11
-3.5
 21
-1.96875
 31
0.0
  0
LINE
  5
175
330
145
100
AcDbEntity
  8
AM_7
100
AcDbLine
 10
0.0
 20
0.27
 30
0.0
 11
0.0
 21
-5.669999999999999
 31
0.0
  0
LINE
  5
176
330
145
100
AcDbEntity
  8
AM_7
100
AcDbLine
 10
-0.5250000000000001
 20
-2.75
 30
0.0
 11
0.5249999999999995
 21
-2.75
 31
0.0
  0
LINE
  5
177
330
145
100
AcDbEntity
  8
AM_4
100
AcDbLine
 10
3.625
 20
-4.265624999999999
 30
0.0
 11
3.625
 21
-1.875
 31
0.0
  0
LINE
  5
178
330
145
100
AcDbEntity
  8
AM_4
100
AcDbLine
 10
-3.625
 20
-1.875
 30
0.0
 11
-3.625
 21
-4.265624999999999
 31
0.0
  0
LINE
  5
179
330
145
100
AcDbEntity
  8
AM_4
100
AcDbLine
 10
-3.390625
 20
-4.5
 30
0.0
 11
3.390624999994837
 21
-4.5
 31
0.0
  0
LINE
  5
17A
330
145
100
AcDbEntity
  8
AM_4
100
AcDbLine
 10
-3.625
 20
-4.265624999999999
 30
0.0
 11
3.625
 21
-4.265624999999999
 31
0.0
  0
ARC
  5
17B
330
145
100
AcDbEntity
  8
AM_4
100
AcDbCircle
 10
3.390624999999999
 20
-4.265624999999999
 30
0.0
 40
0.2343750000000009
100
AcDbArc
 50
270.0
 51
0.0
  0
ARC
  5
17C
330
145
100
AcDbEntity
  8
AM_4
100
AcDbCircle
 10
-3.390624999999999
 20
-4.265624999999999
 30
0.0
 40
0.2343750000000013
100
AcDbArc
 50
180.0
 51
270.0
  0
CIRCLE
  5
17D
330
145
100
AcDbEntity
  8
AM_4
100
AcDbCircle
 10
0.0
 20
-2.75
 30
0.0
 40
0.3999999999999996
  0
LINE
  5
17E
330
145
100
AcDbEntity
  8
AM_4
100
AcDbLine
 10
-1.335540585174174
 20
-1.875
 30
0.0
 11
-1.335540585174174
 21
-1.78125
 31
0.0
  0
LINE
  5
17F
330
145
100
AcDbEntity
  8
AM_4
100
AcDbLine
 10
4.625
 20
-1.875
 30
0.0
 11
1.335540585174175
 21
-1.875
 31
0.0
  0
LINE
  5
180
330
145
100
AcDbEntity
  8
AM_4
100
AcDbLine
 10
1.335540585174175
 20
-1.78125
 30
0.0
 11
1.335540585174175
 21
-1.875
 31
0.0
  0
LINE
  5
181
330
145
100
AcDbEntity
  8
AM_4
100
AcDbLine
 10
4.625
 20
-1.875
 30
0.0
 11
4.625
 21
0.0000000000000002
 31
0.0
  0
LINE
  5
182
330
145
100
AcDbEntity
  8
AM_4
100
AcDbLine
 10
-1.793092496242409
 20
-1.125
 30
0.0
 11
-1.793092496242409
 21
0.0000000000000002
 31
0.0
  0
LINE
  5
183
330
145
100
AcDbEntity
  8
AM_4
100
AcDbLine
 10
-2.848990744741561
 20
-1.78125
 30
0.0
 11
-2.848990744741561
 21
-1.875
 31
0.0
  0
LINE
  5
184
330
145
100
AcDbEntity
  8
AM_4
100
AcDbLine
 10
1.793092496242408
 20
0.0000000000000002
 30
0.0
 11
1.793092496242408
 21
-1.125
 31
0.0
  0
LINE
  5
185
330
145
100
AcDbEntity
  8
AM_4
100
AcDbLine
 10
1.793092496242408
 20
0.0000000000000002
 30
0.0
 11
4.625
 21
0.0000000000000002
 31
0.0
  0
LINE
  5
186
330
145
100
AcDbEntity
  8
AM_4
100
AcDbLine
 10
-1.793092496242409
 20
0.0000000000000002
 30
0.0
 11
-4.625
 21
0.0000000000000002
 31
0.0
  0
LINE
  5
187
330
145
100
AcDbEntity
  8
AM_4
100
AcDbLine
 10
-4.625
 20
-1.875
 30
0.0
 11
-4.625
 21
0.0000000000000002
 31
0.0
  0
LINE
  5
188
330
145
100
AcDbEntity
  8
AM_4
100
AcDbLine
 10
-1.335540585174174
 20
-1.875
 30
0.0
 11
-4.625
 21
-1.875
 31
0.0
  0
LINE
  5
189
330
145
100
AcDbEntity
  8
AM_4
100
AcDbLine
 10
3.349667036216229
 20
-1.78125
 30
0.0
 11
-3.349667036216228
 21
-1.78125
 31
0.0
  0
LINE
  5
18A
330
145
100
AcDbEntity
  8
AM_4
100
AcDbLine
 10
2.421026940085073
 20
-1.125
 30
0.0
 11
-2.421026940085074
 21
-1.125
 31
0.0
  0
LINE
  5
18B
330
145
100
AcDbEntity
  8
AM_4
100
AcDbLine
 10
-2.421026940085074
 20
-1.125
 30
0.0
 11
-2.421026940085074
 21
0.0000000000000003
 31
0.0
  0
LINE
  5
18C
330
145
100
AcDbEntity
  8
AM_4
100
AcDbLine
 10
-3.5
 20
-1.875
 30
0.0
 11
-3.5
 21
0.0000000000000003
 31
0.0
  0
LINE
  5
18D
330
145
100
AcDbEntity
  8
AM_4
100
AcDbLine
 10
-3.349667036216228
 20
-1.78125
 30
0.0
 11
-3.349667036216228
 21
-1.875
 31
0.0
  0
LINE
  5
18E
330
145
100
AcDbEntity
  8
AM_4
100
AcDbLine
 10
3.499999999999999
 20
-1.875
 30
0.0
 11
3.499999999999999
 21
0.0000000000000003
 31
0.0
  0
LINE
  5
18F
330
145
100
AcDbEntity
  8
AM_4
100
AcDbLine
 10
2.421026940085073
 20
0.0000000000000003
 30
0.0
 11
2.421026940085073
 21
-1.125
 31
0.0
  0
LINE
  5
190
330
145
100
AcDbEntity
  8
AM_4
100
AcDbLine
 10
3.349667036216229
 20
-1.875
 30
0.0
 11
3.349667036216229
 21
-1.78125
 31
0.0
  0
LINE
  5
191
330
145
100
AcDbEntity
  8
AM_4
100
AcDbLine
 10
2.848990744741561
 20
-1.78125
 30
0.0
 11
2.848990744741561
 21
-1.875
 31
0.0
  0
CIRCLE
  5
192
330
145
100
AcDbEntity
  8
AM_4
100
AcDbCircle
 10
-0.0000000000000003
 20
-2.75
 30
0.0
 40
0.4999999999999998
  0
ENDBLK
  5
148
330
145
100
AcDbEntity
  8
0
100
AcDbBlockEnd
  0
ENDSEC
  0
SECTION
  2
ENTITIES
  0
INSERT
  5
6F
330
1F
100
AcDbEntity
  8
0
100
AcDbBlockReference
  2
1_023113_4
 10
0.0
 20
0.0
 30
0.0
  0
POINT
  5
194
330
1F
100
AcDbEntity
  8
ConnectionPoints
100
AcDbPoint
 10
0.0
 20
-5.25
 30
0.0000000000000004
  0
POINT
  5
195
330
1F
100
AcDbEntity
  8
ConnectionPoints
100
AcDbPoint
 10
0.0
 20
-5.25
 30
0.0000000000000003
  0
POINT
  5
196
330
1F
100
AcDbEntity
  8
ConnectionPoints
100
AcDbPoint
 10
0.0
 20
-0.25
 30
0.0
  0
POINT
  5
197
330
1F
100
AcDbEntity
  8
ConnectionPoints
100
AcDbPoint
 10
0.0
 20
-2.75
 30
0.0000000000000002
  0
POINT
  5
198
330
1F
100
AcDbEntity
  8
ConnectionPoints
100
AcDbPoint
 10
0.0
 20
-2.75
 30
3.725
  0
POINT
  5
199
330
1F
100
AcDbEntity
  8
ConnectionPoints
100
AcDbPoint
 10
0.0
 20
-2.75
 30
3.725
  0
POINT
  5
19A
330
1F
100
AcDbEntity
  8
ConnectionPoints
100
AcDbPoint
 10
0.0
 20
-2.75
 30
0.0000000000000002
  0
ENDSEC
  0
SECTION
  2
OBJECTS
  0
DICTIONARY
  5
C
330
0
100
AcDbDictionary
281
     1
  3
ACAD_DETAILVIEWSTYLE
350
1A2
  3
ACAD_GROUP
350
D
  3
ACAD_LAYOUT
350
1A
  3
ACAD_MATERIAL
350
43
  3
ACAD_MLEADERSTYLE
350
6B
  3
ACAD_MLINESTYLE
350
17
  3
ACAD_PLOTSETTINGS
350
19
  3
ACAD_PLOTSTYLENAME
350
E
  3
ACAD_SCALELIST
350
47
  3
ACAD_SECTIONVIEWSTYLE
350
1A3
  3
ACAD_TABLESTYLE
350
69
  3
ACAD_VISUALSTYLE
350
2A
  3
ACDB_RECOMPOSE_DATA
350
19F
  3
AcDbVariableDictionary
350
19B
  0
SUN
  5
6D
330
29
100
AcDbSun
 90
        1
290
     0
 63
     7
421
 16777215
 40
1.0
291
     1
 91
  2455826
 92
 54000000
292
     0
 70
     2
 71
   256
280
     1
  0
DICTIONARY
  5
1A2
102
{ACAD_REACTORS
330
C
102
}
330
C
100
AcDbDictionary
281
     1
  0
DICTIONARY
  5
D
102
{ACAD_REACTORS
330
C
102
}
330
C
100
AcDbDictionary
281
     1
  0
DICTIONARY
  5
1A
102
{ACAD_REACTORS
330
C
102
}
330
C
100
AcDbDictionary
281
     1
  3
Layout1
350
1E
  3
Layout2
350
26
  3
Model
350
22
  0
DICTIONARY
  5
43
102
{ACAD_REACTORS
330
C
102
}
330
C
100
AcDbDictionary
281
     1
  3
ByBlock
350
45
  3
ByLayer
350
44
  3
Global
350
46
  0
DICTIONARY
  5
6B
102
{ACAD_REACTORS
330
C
102
}
330
C
100
AcDbDictionary
281
     1
  3
Standard
350
6C
  0
DICTIONARY
  5
17
102
{ACAD_REACTORS
330
C
102
}
330
C
100
AcDbDictionary
281
     1
  3
Standard
350
18
  0
DICTIONARY
  5
19
102
{ACAD_REACTORS
330
C
102
}
330
C
100
AcDbDictionary
281
     1
  0
ACDBDICTIONARYWDFLT
  5
E
102
{ACAD_REACTORS
330
C
102
}
330
C
100
AcDbDictionary
281
     1
  3
Normal
350
F
100
AcDbDictionaryWithDefault
340
F
  0
DICTIONARY
  5
47
102
{ACAD_REACTORS
330
C
102
}
330
C
100
AcDbDictionary
281
     1
  3
A0
350
48
  3
A1
350
49
  3
A2
350
4A
  3
A3
350
4B
  3
A4
350
4C
  3
A5
350
4D
  3
A6
350
4E
  3
A7
350
4F
  3
A8
350
50
  3
A9
350
51
  3
B0
350
52
  3
B1
350
53
  3
B2
350
54
  3
B3
350
55
  3
B4
350
56
  3
B5
350
57
  3
B6
350
58
  3
B7
350
59
  3
B8
350
5A
  3
B9
350
5B
  3
C0
350
5C
  3
C1
350
5D
  3
C2
350
5E
  3
C3
350
5F
  3
C4
350
60
  3
C5
350
61
  3
C6
350
62
  3
C7
350
63
  3
C8
350
64
  3
C9
350
65
  3
D0
350
66
  3
D1
350
67
  3
D2
350
68
  0
DICTIONARY
  5
1A3
102
{ACAD_REACTORS
330
C
102
}
330
C
100
AcDbDictionary
281
     1
  0
DICTIONARY
  5
69
102
{ACAD_REACTORS
330
C
102
}
330
C
100
AcDbDictionary
281
     1
  3
Standard
350
6A
  0
DICTIONARY
  5
2A
102
{ACAD_REACTORS
330
C
102
}
330
C
100
AcDbDictionary
281
     1
  3
2dWireframe
350
2F
  3
Basic
350
32
  3
Brighten
350
36
  3
ColorChange
350
3A
  3
Conceptual
350
34
  3
Dim
350
35
  3
EdgeColorOff
350
3D
  3
Facepattern
350
39
  3
Flat
350
2B
  3
FlatWithEdges
350
2C
  3
Gouraud
350
2D
  3
GouraudWithEdges
350
2E
  3
Hidden
350
31
  3
JitterOff
350
3B
  3
Linepattern
350
38
  3
OverhangOff
350
3C
  3
Realistic
350
33
  3
Shaded
350
42
  3
Shaded with edges
350
41
  3
Shades of Gray
350
3E
  3
Sketchy
350
3F
  3
Thicken
350
37
  3
Wireframe
350
30
  3
X-Ray
350
40
  0
XRECORD
  5
19F
102
{ACAD_REACTORS
330
C
102
}
330
C
100
AcDbXrecord
280
     1
 90
        1
330
6A
  0
DICTIONARY
  5
19B
102
{ACAD_REACTORS
330
C
102
}
330
C
100
AcDbDictionary
281
     1
  3
CANNOSCALE
350
19C
  3
CMLEADERSTYLE
350
1A1
  3
CTABLESTYLE
350
1A0
  0
LAYOUT
  5
1E
102
{ACAD_REACTORS
330
1A
102
}
330
1A
100
AcDbPlotSettings
  1

  2
none_device
  4

  6

 40
0.0
 41
0.0
 42
0.0
 43
0.0
 44
0.0
 45
0.0
 46
0.0
 47
0.0
 48
0.0
 49
0.0
140
0.0
141
0.0
142
1.0
143
1.0
 70
   688
 72
     0
 73
     0
 74
     5
  7

 75
    16
 76
     0
 77
     2
 78
   300
147
1.0
148
0.0
149
0.0
100
AcDbLayout
  1
Layout1
 70
     1
 71
     1
 10
0.0
 20
0.0
 11
12.0
 21
9.0
 12
0.0
 22
0.0
 32
0.0
 14
1.000000000000000E+20
 24
1.000000000000000E+20
 34
1.000000000000000E+20
 15
-1.000000000000000E+20
 25
-1.000000000000000E+20
 35
-1.000000000000000E+20
146
0.0
 13
0.0
 23
0.0
 33
0.0
 16
1.0
 26
0.0
 36
0.0
 17
0.0
 27
1.0
 37
0.0
 76
     0
330
1B
  0
LAYOUT
  5
26
102
{ACAD_REACTORS
330
1A
102
}
330
1A
100
AcDbPlotSettings
  1

  2
none_device
  4

  6

 40
0.0
 41
0.0
 42
0.0
 43
0.0
 44
0.0
 45
0.0
 46
0.0
 47
0.0
 48
0.0
 49
0.0
140
0.0
141
0.0
142
1.0
143
1.0
 70
   688
 72
     0
 73
     0
 74
     5
  7

 75
    16
 76
     0
 77
     2
 78
   300
147
1.0
148
0.0
149
0.0
100
AcDbLayout
  1
Layout2
 70
     1
 71
     2
 10
0.0
 20
0.0
 11
0.0
 21
0.0
 12
0.0
 22
0.0
 32
0.0
 14
0.0
 24
0.0
 34
0.0
 15
0.0
 25
0.0
 35
0.0
146
0.0
 13
0.0
 23
0.0
 33
0.0
 16
1.0
 26
0.0
 36
0.0
 17
0.0
 27
1.0
 37
0.0
 76
     0
330
23
  0
LAYOUT
  5
22
102
{ACAD_REACTORS
330
1A
102
}
330
1A
100
AcDbPlotSettings
  1

  2
none_device
  4
Letter_(8.50_x_11.00_Inches)
  6

 40
6.35
 41
6.35
 42
6.35000508
 43
6.35000508
 44
215.9
 45
279.4
 46
0.0
 47
0.0
 48
0.0
 49
0.0
140
0.0
141
0.0
142
1.0
143
1.0
 70
  1712
 72
     0
 73
     0
 74
     0
  7

 75
     0
 76
     0
 77
     2
 78
   300
147
1.0
148
0.0
149
0.0
100
AcDbLayout
  1
Model
 70
     1
 71
     0
 10
0.0
 20
0.0
 11
12.0
 21
9.0
 12
0.0
 22
0.0
 32
0.0
 14
1.000000000000000E+20
 24
1.000000000000000E+20
 34
1.000000000000000E+20
 15
-1.000000000000000E+20
 25
-1.000000000000000E+20
 35
-1.000000000000000E+20
146
0.0
 13
0.0
 23
0.0
 33
0.0
 16
1.0
 26
0.0
 36
0.0
 17
0.0
 27
1.0
 37
0.0
 76
     0
330
1F
331
29
  0
MATERIAL
  5
45
102
{ACAD_REACTORS
330
43
102
}
330
43
100
AcDbMaterial
  1
ByBlock
 72
     1
 94
      127
  0
MATERIAL
  5
44
102
{ACAD_REACTORS
330
43
102
}
330
43
100
AcDbMaterial
  1
ByLayer
 72
     1
 94
      127
  0
MATERIAL
  5
46
102
{ACAD_REACTORS
330
43
102
}
330
43
100
AcDbMaterial
  1
Global
 72
     1
 94
      127
  0
MLEADERSTYLE
  5
6C
102
{ACAD_REACTORS
330
6B
102
}
330
6B
100
AcDbMLeaderStyle
179
     2
170
     2
171
     1
172
     0
 90
        2
 40
0.0
 41
0.0
173
     1
 91
-1056964608
340
14
 92
       -2
290
     1
 42
0.09
291
     1
 43
0.36
  3
Standard
341
0
 44
0.18
300

342
11
174
     1
178
     6
175
     1
176
     0
 93
-1056964608
 45
0.18
292
     0
297
     0
 46
0.18
343
0
 94
-1056964608
 47
1.0
 49
1.0
140
1.0
293
     1
141
0.0
294
     1
177
     0
142
1.0
295
     0
296
     0
143
0.125
271
     0
272
     9
273
     9
298
     0
  0
MLINESTYLE
  5
18
102
{ACAD_REACTORS
330
17
102
}
330
17
100
AcDbMlineStyle
  2
Standard
 70
     0
  3

 62
   256
 51
90.0
 52
90.0
 71
     2
 49
0.5
 62
   256
  6
BYLAYER
 49
-0.5
 62
   256
  6
BYLAYER
  0
ACDBPLACEHOLDER
  5
F
102
{ACAD_REACTORS
330
E
102
}
330
E
  0
SCALE
  5
48
102
{ACAD_REACTORS
330
47
102
}
330
47
100
AcDbScale
 70
     0
300
1:1
140
1.0
141
1.0
290
     1
  0
SCALE
  5
49
102
{ACAD_REACTORS
330
47
102
}
330
47
100
AcDbScale
 70
     0
300
1:2
140
1.0
141
2.0
290
     0
  0
SCALE
  5
4A
102
{ACAD_REACTORS
330
47
102
}
330
47
100
AcDbScale
 70
     0
300
1:4
140
1.0
141
4.0
290
     0
  0
SCALE
  5
4B
102
{ACAD_REACTORS
330
47
102
}
330
47
100
AcDbScale
 70
     0
300
1:5
140
1.0
141
5.0
290
     0
  0
SCALE
  5
4C
102
{ACAD_REACTORS
330
47
102
}
330
47
100
AcDbScale
 70
     0
300
1:8
140
1.0
141
8.0
290
     0
  0
SCALE
  5
4D
102
{ACAD_REACTORS
330
47
102
}
330
47
100
AcDbScale
 70
     0
300
1:10
140
1.0
141
10.0
290
     0
  0
SCALE
  5
4E
102
{ACAD_REACTORS
330
47
102
}
330
47
100
AcDbScale
 70
     0
300
1:16
140
1.0
141
16.0
290
     0
  0
SCALE
  5
4F
102
{ACAD_REACTORS
330
47
102
}
330
47
100
AcDbScale
 70
     0
300
1:20
140
1.0
141
20.0
290
     0
  0
SCALE
  5
50
102
{ACAD_REACTORS
330
47
102
}
330
47
100
AcDbScale
 70
     0
300
1:30
140
1.0
141
30.0
290
     0
  0
SCALE
  5
51
102
{ACAD_REACTORS
330
47
102
}
330
47
100
AcDbScale
 70
     0
300
1:40
140
1.0
141
40.0
290
     0
  0
SCALE
  5
52
102
{ACAD_REACTORS
330
47
102
}
330
47
100
AcDbScale
 70
     0
300
1:50
140
1.0
141
50.0
290
     0
  0
SCALE
  5
53
102
{ACAD_REACTORS
330
47
102
}
330
47
100
AcDbScale
 70
     0
300
1:100
140
1.0
141
100.0
290
     0
  0
SCALE
  5
54
102
{ACAD_REACTORS
330
47
102
}
330
47
100
AcDbScale
 70
     0
300
2:1
140
2.0
141
1.0
290
     0
  0
SCALE
  5
55
102
{ACAD_REACTORS
330
47
102
}
330
47
100
AcDbScale
 70
     0
300
4:1
140
4.0
141
1.0
290
     0
  0
SCALE
  5
56
102
{ACAD_REACTORS
330
47
102
}
330
47
100
AcDbScale
 70
     0
300
8:1
140
8.0
141
1.0
290
     0
  0
SCALE
  5
57
102
{ACAD_REACTORS
330
47
102
}
330
47
100
AcDbScale
 70
     0
300
10:1
140
10.0
141
1.0
290
     0
  0
SCALE
  5
58
102
{ACAD_REACTORS
330
47
102
}
330
47
100
AcDbScale
 70
     0
300
100:1
140
100.0
141
1.0
290
     0
  0
SCALE
  5
59
102
{ACAD_REACTORS
330
47
102
}
330
47
100
AcDbScale
 70
     0
300
1/128" = 1'-0"
140
0.0078125
141
12.0
290
     0
  0
SCALE
  5
5A
102
{ACAD_REACTORS
330
47
102
}
330
47
100
AcDbScale
 70
     0
300
1/64" = 1'-0"
140
0.015625
141
12.0
290
     0
  0
SCALE
  5
5B
102
{ACAD_REACTORS
330
47
102
}
330
47
100
AcDbScale
 70
     0
300
1/32" = 1'-0"
140
0.03125
141
12.0
290
     0
  0
SCALE
  5
5C
102
{ACAD_REACTORS
330
47
102
}
330
47
100
AcDbScale
 70
     0
300
1/16" = 1'-0"
140
0.0625
141
12.0
290
     0
  0
SCALE
  5
5D
102
{ACAD_REACTORS
330
47
102
}
330
47
100
AcDbScale
 70
     0
300
3/32" = 1'-0"
140
0.09375
141
12.0
290
     0
  0
SCALE
  5
5E
102
{ACAD_REACTORS
330
47
102
}
330
47
100
AcDbScale
 70
     0
300
1/8" = 1'-0"
140
0.125
141
12.0
290
     0
  0
SCALE
  5
5F
102
{ACAD_REACTORS
330
47
102
}
330
47
100
AcDbScale
 70
     0
300
3/16" = 1'-0"
140
0.1875
141
12.0
290
     0
  0
SCALE
  5
60
102
{ACAD_REACTORS
330
47
102
}
330
47
100
AcDbScale
 70
     0
300
1/4" = 1'-0"
140
0.25
141
12.0
290
     0
  0
SCALE
  5
61
102
{ACAD_REACTORS
330
47
102
}
330
47
100
AcDbScale
 70
     0
300
3/8" = 1'-0"
140
0.375
141
12.0
290
     0
  0
SCALE
  5
62
102
{ACAD_REACTORS
330
47
102
}
330
47
100
AcDbScale
 70
     0
300
1/2" = 1'-0"
140
0.5
141
12.0
290
     0
  0
SCALE
  5
63
102
{ACAD_REACTORS
330
47
102
}
330
47
100
AcDbScale
 70
     0
300
3/4" = 1'-0"
140
0.75
141
12.0
290
     0
  0
SCALE
  5
64
102
{ACAD_REACTORS
330
47
102
}
330
47
100
AcDbScale
 70
     0
300
1" = 1'-0"
140
1.0
141
12.0
290
     0
  0
SCALE
  5
65
102
{ACAD_REACTORS
330
47
102
}
330
47
100
AcDbScale
 70
     0
300
1-1/2" = 1'-0"
140
1.5
141
12.0
290
     0
  0
SCALE
  5
66
102
{ACAD_REACTORS
330
47
102
}
330
47
100
AcDbScale
 70
     0
300
3" = 1'-0"
140
3.0
141
12.0
290
     0
  0
SCALE
  5
67
102
{ACAD_REACTORS
330
47
102
}
330
47
100
AcDbScale
 70
     0
300
6" = 1'-0"
140
6.0
141
12.0
290
     0
  0
SCALE
  5
68
102
{ACAD_REACTORS
330
47
102
}
330
47
100
AcDbScale
 70
     0
300
1'-0" = 1'-0"
140
12.0
141
12.0
290
     0
  0
TABLESTYLE
  5
6A
102
{ACAD_REACTORS
330
69
102
}
102
{ACAD_XDICTIONARY
360
19D
102
}
330
69
100
AcDbTableStyle
  3
Standard
 70
     0
 71
     0
 40
0.06
 41
0.06
280
     0
281
     0
  7
Standard
140
0.18
170
     2
 62
     0
 63
   257
283
     0
 90
        4
 91
        0
  1

274
    -2
284
     1
 64
     0
275
    -2
285
     1
 65
     0
276
    -2
286
     1
 66
     0
277
    -2
287
     1
 67
     0
278
    -2
288
     1
 68
     0
279
    -2
289
     1
 69
     0
  7
Standard
140
0.25
170
     5
 62
     0
 63
   257
283
     0
 90
        4
 91
        0
  1

274
    -2
284
     1
 64
     0
275
    -2
285
     1
 65
     0
276
    -2
286
     1
 66
     0
277
    -2
287
     1
 67
     0
278
    -2
288
     1
 68
     0
279
    -2
289
     1
 69
     0
  7
Standard
140
0.18
170
     5
 62
     0
 63
   257
283
     0
 90
        4
 91
        0
  1

274
    -2
284
     1
 64
     0
275
    -2
285
     1
 65
     0
276
    -2
286
     1
 66
     0
277
    -2
287
     1
 67
     0
278
    -2
288
     1
 68
     0
279
    -2
289
     1
 69
     0
  0
VISUALSTYLE
  5
2F
102
{ACAD_REACTORS
330
2A
102
}
330
2A
100
AcDbVisualStyle
  2
2dWireframe
 70
     4
177
     3
291
     0
 70
    58
 90
        0
176
     1
 90
        2
176
     1
 90
        0
176
     1
 90
        0
176
     1
 40
0.6
176
     1
 40
30.0
176
     1
 62
     7
420
 16777215
176
     1
 90
        1
176
     1
 90
        4
176
     1
 62
     7
176
     1
 62
   257
176
     1
 90
        1
176
     1
 90
        1
176
     1
 40
1.0
176
     1
 90
        0
176
     1
 62
   257
176
     1
 40
1.0
176
     1
 90
        1
176
     1
 90
        6
176
     1
 90
        2
176
     1
 62
     7
176
     1
 90
        5
176
     1
 90
        0
176
     1
 90
        0
176
     1
290
     0
176
     1
 90
        1
176
     1
 40
0.0
176
     1
 90
        0
176
     1
290
     1
176
     1
290
     1
176
     1
290
     0
176
     1
290
     0
176
     1
290
     0
176
     1
290
     0
176
     1
290
     0
176
     1
290
     0
176
     1
290
     0
176
     1
 90
       50
176
     1
 40
0.0
176
     1
 40
1.0
176
     1
 90
        0
176
     1
 62
    18
420
        0
176
     1
 90
       50
176
     1
 90
        3
176
     1
 62
     5
420
      255
176
     1
290
     0
176
     1
 90
       50
176
     1
 90
       50
176
     1
 90
       50
176
     1
290
     0
176
     1
 90
       50
176
     1
 62
   256
176
     0
 40
1.0
176
     0
 90
        2
176
     1
  1
strokes_ogs.tif
176
     1
290
     0
176
     1
 40
1.0
176
     1
 40
1.0
176
     1
  0
VISUALSTYLE
  5
32
102
{ACAD_REACTORS
330
2A
102
}
330
2A
100
AcDbVisualStyle
  2
Basic
 70
     7
177
     3
291
     1
 70
    58
 90
        1
176
     1
 90
        0
176
     1
 90
        1
176
     1
 90
        0
176
     1
 40
0.6
176
     1
 40
30.0
176
     1
 62
     7
420
 16777215
176
     1
 90
        0
176
     1
 90
        4
176
     1
 62
     7
176
     1
 62
   257
176
     1
 90
        1
176
     1
 90
        1
176
     1
 40
1.0
176
     1
 90
        8
176
     1
 62
     7
176
     1
 40
1.0
176
     1
 90
        1
176
     1
 90
        6
176
     1
 90
        2
176
     1
 62
     7
176
     1
 90
        5
176
     1
 90
        0
176
     1
 90
        0
176
     1
290
     0
176
     1
 90
        1
176
     1
 40
0.0
176
     1
 90
        0
176
     1
290
     0
176
     1
290
     1
176
     1
290
     1
176
     1
290
     0
176
     1
290
     0
176
     1
290
     0
176
     1
290
     0
176
     1
290
     0
176
     1
290
     0
176
     1
 90
       50
176
     1
 40
0.0
176
     1
 40
1.0
176
     1
 90
        0
176
     1
 62
    18
420
        0
176
     1
 90
       50
176
     1
 90
        3
176
     1
 62
     5
420
      255
176
     1
290
     0
176
     1
 90
       50
176
     1
 90
       50
176
     1
 90
       50
176
     1
290
     0
176
     1
 90
       50
176
     1
 62
   256
176
     0
 40
1.0
176
     0
 90
        2
176
     1
  1
strokes_ogs.tif
176
     1
290
     0
176
     1
 40
1.0
176
     1
 40
1.0
176
     1
  0
VISUALSTYLE
  5
36
102
{ACAD_REACTORS
330
2A
102
}
330
2A
100
AcDbVisualStyle
  2
Brighten
 70
    12
177
     3
291
     1
 70
    58
 90
        2
176
     1
 90
        2
176
     1
 90
        0
176
     1
 90
        0
176
     1
 40
0.6
176
     1
 40
30.0
176
     1
 62
     7
420
 16777215
176
     1
 90
        1
176
     1
 90
        4
176
     1
 62
     7
176
     1
 62
   257
176
     1
 90
        1
176
     1
 90
        1
176
     1
 40
1.0
176
     1
 90
        8
176
     1
 62
     7
176
     1
 40
1.0
176
     1
 90
        1
176
     1
 90
        6
176
     1
 90
        2
176
     1
 62
     7
176
     1
 90
        5
176
     1
 90
        0
176
     1
 90
        0
176
     1
290
     0
176
     1
 90
        1
176
     1
 40
50.0
176
     1
 90
        0
176
     1
290
     0
176
     1
290
     1
176
     1
290
     1
176
     1
290
     0
176
     1
290
     0
176
     1
290
     0
176
     1
290
     0
176
     1
290
     0
176
     1
290
     0
176
     1
 90
       50
176
     1
 40
0.0
176
     1
 40
1.0
176
     1
 90
        0
176
     1
 62
    18
420
        0
176
     1
 90
       50
176
     1
 90
        3
176
     1
 62
     5
420
      255
176
     1
290
     0
176
     1
 90
       50
176
     1
 90
       50
176
     1
 90
       50
176
     1
290
     0
176
     1
 90
       50
176
     1
 62
   256
176
     0
 40
1.0
176
     0
 90
        2
176
     1
  1
strokes_ogs.tif
176
     1
290
     0
176
     1
 40
1.0
176
     1
 40
1.0
176
     1
  0
VISUALSTYLE
  5
3A
102
{ACAD_REACTORS
330
2A
102
}
330
2A
100
AcDbVisualStyle
  2
ColorChange
 70
    16
177
     3
291
     1
 70
    58
 90
        2
176
     1
 90
        2
176
     1
 90
        3
176
     1
 90
        0
176
     1
 40
0.6
176
     1
 40
30.0
176
     1
 62
     8
420
  8421504
176
     1
 90
        1
176
     1
 90
        4
176
     1
 62
     7
176
     1
 62
   257
176
     1
 90
        1
176
     1
 90
        1
176
     1
 40
1.0
176
     1
 90
        8
176
     1
 62
     8
420
  8421504
176
     1
 40
1.0
176
     1
 90
        1
176
     1
 90
        6
176
     1
 90
        2
176
     1
 62
     7
176
     1
 90
        5
176
     1
 90
        0
176
     1
 90
        0
176
     1
290
     0
176
     1
 90
        1
176
     1
 40
0.0
176
     1
 90
        0
176
     1
290
     0
176
     1
290
     1
176
     1
290
     1
176
     1
290
     0
176
     1
290
     0
176
     1
290
     0
176
     1
290
     0
176
     1
290
     0
176
     1
290
     0
176
     1
 90
       50
176
     1
 40
0.0
176
     1
 40
1.0
176
     1
 90
        0
176
     1
 62
    18
420
        0
176
     1
 90
       50
176
     1
 90
        3
176
     1
 62
     5
420
      255
176
     1
290
     0
176
     1
 90
       50
176
     1
 90
       50
176
     1
 90
       50
176
     1
290
     0
176
     1
 90
       50
176
     1
 62
   256
176
     0
 40
1.0
176
     0
 90
        2
176
     1
  1
strokes_ogs.tif
176
     1
290
     0
176
     1
 40
1.0
176
     1
 40
1.0
176
     1
  0
VISUALSTYLE
  5
34
102
{ACAD_REACTORS
330
2A
102
}
330
2A
100
AcDbVisualStyle
  2
Conceptual
 70
     9
177
     3
291
     0
 70
    58
 90
        3
176
     1
 90
        2
176
     1
 90
        0
176
     1
 90
        0
176
     1
 40
0.6
176
     1
 40
30.0
176
     1
 62
     7
420
 16777215
176
     1
 90
        2
176
     1
 90
        2
176
     1
 62
     7
176
     1
 62
   257
176
     1
 90
        1
176
     1
 90
        1
176
     1
 40
179.0
176
     1
 90
        8
176
     1
 62
     7
176
     1
 40
1.0
176
     1
 90
        1
176
     1
 90
        6
176
     1
 90
        2
176
     1
 62
     7
176
     1
 90
        3
176
     1
 90
        0
176
     1
 90
        0
176
     1
290
     0
176
     1
 90
        1
176
     1
 40
0.0
176
     1
 90
        0
176
     1
290
     0
176
     1
290
     1
176
     1
290
     1
176
     1
290
     0
176
     1
290
     0
176
     1
290
     0
176
     1
290
     0
176
     1
290
     0
176
     1
290
     0
176
     1
 90
       50
176
     1
 40
0.0
176
     1
 40
1.0
176
     1
 90
        0
176
     1
 62
    18
420
        0
176
     1
 90
       50
176
     1
 90
        3
176
     1
 62
     5
420
      255
176
     1
290
     0
176
     1
 90
       50
176
     1
 90
       50
176
     1
 90
       50
176
     1
290
     0
176
     1
 90
       50
176
     1
 62
   256
176
     0
 40
1.0
176
     0
 90
        2
176
     1
  1
strokes_ogs.tif
176
     1
290
     0
176
     1
 40
1.0
176
     1
 40
1.0
176
     1
  0
VISUALSTYLE
  5
35
102
{ACAD_REACTORS
330
2A
102
}
330
2A
100
AcDbVisualStyle
  2
Dim
 70
    11
177
     3
291
     1
 70
    58
 90
        2
176
     1
 90
        2
176
     1
 90
        0
176
     1
 90
        0
176
     1
 40
0.6
176
     1
 40
30.0
176
     1
 62
     7
420
 16777215
176
     1
 90
        1
176
     1
 90
        4
176
     1
 62
     7
176
     1
 62
   257
176
     1
 90
        1
176
     1
 90
        1
176
     1
 40
1.0
176
     1
 90
        8
176
     1
 62
     7
176
     1
 40
1.0
176
     1
 90
        1
176
     1
 90
        6
176
     1
 90
        2
176
     1
 62
     7
176
     1
 90
        5
176
     1
 90
        0
176
     1
 90
        0
176
     1
290
     0
176
     1
 90
        1
176
     1
 40
-50.0
176
     1
 90
        0
176
     1
290
     0
176
     1
290
     1
176
     1
290
     1
176
     1
290
     0
176
     1
290
     0
176
     1
290
     0
176
     1
290
     0
176
     1
290
     0
176
     1
290
     0
176
     1
 90
       50
176
     1
 40
0.0
176
     1
 40
1.0
176
     1
 90
        0
176
     1
 62
    18
420
        0
176
     1
 90
       50
176
     1
 90
        3
176
     1
 62
     5
420
      255
176
     1
290
     0
176
     1
 90
       50
176
     1
 90
       50
176
     1
 90
       50
176
     1
290
     0
176
     1
 90
       50
176
     1
 62
   256
176
     0
 40
1.0
176
     0
 90
        2
176
     1
  1
strokes_ogs.tif
176
     1
290
     0
176
     1
 40
1.0
176
     1
 40
1.0
176
     1
  0
VISUALSTYLE
  5
3D
102
{ACAD_REACTORS
330
2A
102
}
330
2A
100
AcDbVisualStyle
  2
EdgeColorOff
 70
    22
177
     3
291
     1
 70
    58
 90
        2
176
     0
 90
        2
176
     0
 90
        0
176
     0
 90
        0
176
     0
 40
0.6
176
     0
 40
30.0
176
     0
 62
     7
420
 16777215
176
     0
 90
        1
176
     0
 90
        4
176
     0
 62
     7
176
     0
 62
   257
176
     0
 90
        1
176
     0
 90
        1
176
     0
 40
1.0
176
     0
 90
        8
176
     2
 62
     7
176
     0
 40
1.0
176
     0
 90
        1
176
     0
 90
        6
176
     0
 90
        2
176
     0
 62
     7
176
     0
 90
        5
176
     0
 90
        0
176
     0
 90
        0
176
     0
290
     0
176
     0
 90
        1
176
     0
 40
0.0
176
     0
 90
        0
176
     0
290
     0
176
     0
290
     1
176
     0
290
     1
176
     0
290
     0
176
     0
290
     0
176
     0
290
     0
176
     0
290
     0
176
     0
290
     0
176
     0
290
     0
176
     0
 90
       50
176
     0
 40
0.0
176
     0
 40
1.0
176
     0
 90
        0
176
     0
 62
    18
420
        0
176
     0
 90
       50
176
     0
 90
        3
176
     0
 62
     5
420
      255
176
     0
290
     0
176
     0
 90
       50
176
     0
 90
       50
176
     0
 90
       50
176
     0
290
     0
176
     0
 90
       50
176
     0
 62
   256
176
     0
 40
1.0
176
     0
 90
        2
176
     0
  1
strokes_ogs.tif
176
     0
290
     0
176
     0
 40
1.0
176
     0
 40
1.0
176
     0
  0
VISUALSTYLE
  5
39
102
{ACAD_REACTORS
330
2A
102
}
330
2A
100
AcDbVisualStyle
  2
Facepattern
 70
    15
177
     3
291
     1
 70
    58
 90
        2
176
     1
 90
        2
176
     1
 90
        0
176
     1
 90
        0
176
     1
 40
0.6
176
     1
 40
30.0
176
     1
 62
     7
420
 16777215
176
     1
 90
        1
176
     1
 90
        4
176
     1
 62
     7
176
     1
 62
   257
176
     1
 90
        1
176
     1
 90
        1
176
     1
 40
1.0
176
     1
 90
        8
176
     1
 62
     7
176
     1
 40
1.0
176
     1
 90
        1
176
     1
 90
        6
176
     1
 90
        2
176
     1
 62
     7
176
     1
 90
        5
176
     1
 90
        0
176
     1
 90
        0
176
     1
290
     0
176
     1
 90
        1
176
     1
 40
0.0
176
     1
 90
        0
176
     1
290
     0
176
     1
290
     1
176
     1
290
     1
176
     1
290
     0
176
     1
290
     0
176
     1
290
     0
176
     1
290
     0
176
     1
290
     0
176
     1
290
     0
176
     1
 90
       50
176
     1
 40
0.0
176
     1
 40
1.0
176
     1
 90
        0
176
     1
 62
    18
420
        0
176
     1
 90
       50
176
     1
 90
        3
176
     1
 62
     5
420
      255
176
     1
290
     0
176
     1
 90
       50
176
     1
 90
       50
176
     1
 90
       50
176
     1
290
     0
176
     1
 90
       50
176
     1
 62
   256
176
     0
 40
1.0
176
     0
 90
        2
176
     1
  1
strokes_ogs.tif
176
     1
290
     0
176
     1
 40
1.0
176
     1
 40
1.0
176
     1
  0
VISUALSTYLE
  5
2B
102
{ACAD_REACTORS
330
2A
102
}
330
2A
100
AcDbVisualStyle
  2
Flat
 70
     0
177
     3
291
     1
 70
    58
 90
        2
176
     1
 90
        1
176
     1
 90
        1
176
     1
 90
        2
176
     1
 40
0.6
176
     1
 40
30.0
176
     1
 62
     7
420
 16777215
176
     1
 90
        0
176
     1
 90
        0
176
     1
 62
     7
176
     1
 62
   257
176
     1
 90
        1
176
     1
 90
        1
176
     1
 40
1.0
176
     1
 90
        8
176
     1
 62
     7
176
     1
 40
1.0
176
     1
 90
        1
176
     1
 90
        6
176
     1
 90
        2
176
     1
 62
     7
176
     1
 90
        5
176
     1
 90
        0
176
     1
 90
        0
176
     1
290
     0
176
     1
 90
       13
176
     1
 40
0.0
176
     1
 90
        0
176
     1
290
     0
176
     1
290
     1
176
     1
290
     1
176
     1
290
     0
176
     1
290
     0
176
     1
290
     0
176
     1
290
     0
176
     1
290
     0
176
     1
290
     0
176
     1
 90
       50
176
     1
 40
0.0
176
     1
 40
1.0
176
     1
 90
        0
176
     1
 62
    18
420
        0
176
     1
 90
       50
176
     1
 90
        3
176
     1
 62
     5
420
      255
176
     1
290
     0
176
     1
 90
       50
176
     1
 90
       50
176
     1
 90
       50
176
     1
290
     0
176
     1
 90
       50
176
     1
 62
   256
176
     0
 40
1.0
176
     0
 90
        2
176
     1
  1
strokes_ogs.tif
176
     1
290
     0
176
     1
 40
1.0
176
     1
 40
1.0
176
     1
  0
VISUALSTYLE
  5
2C
102
{ACAD_REACTORS
330
2A
102
}
330
2A
100
AcDbVisualStyle
  2
FlatWithEdges
 70
     1
177
     3
291
     1
 70
    58
 90
        2
176
     1
 90
        1
176
     1
 90
        1
176
     1
 90
        2
176
     1
 40
0.6
176
     1
 40
30.0
176
     1
 62
     7
420
 16777215
176
     1
 90
        1
176
     1
 90
        0
176
     1
 62
     7
176
     1
 62
   257
176
     1
 90
        1
176
     1
 90
        1
176
     1
 40
1.0
176
     1
 90
        0
176
     1
 62
   257
176
     1
 40
1.0
176
     1
 90
        1
176
     1
 90
        6
176
     1
 90
        2
176
     1
 62
     7
176
     1
 90
        5
176
     1
 90
        0
176
     1
 90
        0
176
     1
290
     0
176
     1
 90
       13
176
     1
 40
0.0
176
     1
 90
        0
176
     1
290
     0
176
     1
290
     1
176
     1
290
     1
176
     1
290
     0
176
     1
290
     0
176
     1
290
     0
176
     1
290
     0
176
     1
290
     0
176
     1
290
     0
176
     1
 90
       50
176
     1
 40
0.0
176
     1
 40
1.0
176
     1
 90
        0
176
     1
 62
    18
420
        0
176
     1
 90
       50
176
     1
 90
        3
176
     1
 62
     5
420
      255
176
     1
290
     0
176
     1
 90
       50
176
     1
 90
       50
176
     1
 90
       50
176
     1
290
     0
176
     1
 90
       50
176
     1
 62
   256
176
     0
 40
1.0
176
     0
 90
        2
176
     1
  1
strokes_ogs.tif
176
     1
290
     0
176
     1
 40
1.0
176
     1
 40
1.0
176
     1
  0
VISUALSTYLE
  5
2D
102
{ACAD_REACTORS
330
2A
102
}
330
2A
100
AcDbVisualStyle
  2
Gouraud
 70
     2
177
     3
291
     1
 70
    58
 90
        2
176
     1
 90
        2
176
     1
 90
        1
176
     1
 90
        2
176
     1
 40
0.6
176
     1
 40
30.0
176
     1
 62
     7
420
 16777215
176
     1
 90
        0
176
     1
 90
        0
176
     1
 62
     7
176
     1
 62
   257
176
     1
 90
        1
176
     1
 90
        1
176
     1
 40
1.0
176
     1
 90
        0
176
     1
 62
     7
176
     1
 40
1.0
176
     1
 90
        1
176
     1
 90
        6
176
     1
 90
        2
176
     1
 62
     7
176
     1
 90
        5
176
     1
 90
        0
176
     1
 90
        0
176
     1
290
     0
176
     1
 90
       13
176
     1
 40
0.0
176
     1
 90
        0
176
     1
290
     0
176
     1
290
     1
176
     1
290
     1
176
     1
290
     0
176
     1
290
     0
176
     1
290
     0
176
     1
290
     0
176
     1
290
     0
176
     1
290
     0
176
     1
 90
       50
176
     1
 40
0.0
176
     1
 40
1.0
176
     1
 90
        0
176
     1
 62
    18
420
        0
176
     1
 90
       50
176
     1
 90
        3
176
     1
 62
     5
420
      255
176
     1
290
     0
176
     1
 90
       50
176
     1
 90
       50
176
     1
 90
       50
176
     1
290
     0
176
     1
 90
       50
176
     1
 62
   256
176
     0
 40
1.0
176
     0
 90
        2
176
     1
  1
strokes_ogs.tif
176
     1
290
     0
176
     1
 40
1.0
176
     1
 40
1.0
176
     1
  0
VISUALSTYLE
  5
2E
102
{ACAD_REACTORS
330
2A
102
}
330
2A
100
AcDbVisualStyle
  2
GouraudWithEdges
 70
     3
177
     3
291
     1
 70
    58
 90
        2
176
     1
 90
        2
176
     1
 90
        1
176
     1
 90
        2
176
     1
 40
0.6
176
     1
 40
30.0
176
     1
 62
     7
420
 16777215
176
     1
 90
        1
176
     1
 90
        0
176
     1
 62
     7
176
     1
 62
   257
176
     1
 90
        1
176
     1
 90
        1
176
     1
 40
1.0
176
     1
 90
        0
176
     1
 62
   257
176
     1
 40
1.0
176
     1
 90
        1
176
     1
 90
        6
176
     1
 90
        2
176
     1
 62
     7
176
     1
 90
        5
176
     1
 90
        0
176
     1
 90
        0
176
     1
290
     0
176
     1
 90
       13
176
     1
 40
0.0
176
     1
 90
        0
176
     1
290
     0
176
     1
290
     1
176
     1
290
     1
176
     1
290
     0
176
     1
290
     0
176
     1
290
     0
176
     1
290
     0
176
     1
290
     0
176
     1
290
     0
176
     1
 90
       50
176
     1
 40
0.0
176
     1
 40
1.0
176
     1
 90
        0
176
     1
 62
    18
420
        0
176
     1
 90
       50
176
     1
 90
        3
176
     1
 62
     5
420
      255
176
     1
290
     0
176
     1
 90
       50
176
     1
 90
       50
176
     1
 90
       50
176
     1
290
     0
176
     1
 90
       50
176
     1
 62
   256
176
     0
 40
1.0
176
     0
 90
        2
176
     1
  1
strokes_ogs.tif
176
     1
290
     0
176
     1
 40
1.0
176
     1
 40
1.0
176
     1
  0
VISUALSTYLE
  5
31
102
{ACAD_REACTORS
330
2A
102
}
330
2A
100
AcDbVisualStyle
  2
Hidden
 70
     6
177
     3
291
     0
 70
    58
 90
        1
176
     1
 90
        2
176
     1
 90
        2
176
     1
 90
        0
176
     1
 40
0.6
176
     1
 40
30.0
176
     1
 62
     7
420
 16777215
176
     1
 90
        2
176
     1
 90
        2
176
     1
 62
     7
176
     1
 62
   257
176
     1
 90
        2
176
     1
 90
        1
176
     1
 40
40.0
176
     1
 90
        0
176
     1
 62
   257
176
     1
 40
1.0
176
     1
 90
        1
176
     1
 90
        6
176
     1
 90
        2
176
     1
 62
     7
176
     1
 90
        3
176
     1
 90
        0
176
     1
 90
        0
176
     1
290
     0
176
     1
 90
        1
176
     1
 40
0.0
176
     1
 90
        0
176
     1
290
     0
176
     1
290
     1
176
     1
290
     1
176
     1
290
     0
176
     1
290
     0
176
     1
290
     0
176
     1
290
     0
176
     1
290
     0
176
     1
290
     0
176
     1
 90
       50
176
     1
 40
0.0
176
     1
 40
1.0
176
     1
 90
        0
176
     1
 62
    18
420
        0
176
     1
 90
       50
176
     1
 90
        3
176
     1
 62
     5
420
      255
176
     1
290
     0
176
     1
 90
       50
176
     1
 90
       50
176
     1
 90
       50
176
     1
290
     0
176
     1
 90
       50
176
     1
 62
   256
176
     0
 40
1.0
176
     0
 90
        2
176
     1
  1
strokes_ogs.tif
176
     1
290
     0
176
     1
 40
1.0
176
     1
 40
1.0
176
     1
  0
VISUALSTYLE
  5
3B
102
{ACAD_REACTORS
330
2A
102
}
330
2A
100
AcDbVisualStyle
  2
JitterOff
 70
    20
177
     3
291
     1
 70
    58
 90
        2
176
     0
 90
        2
176
     0
 90
        0
176
     0
 90
        0
176
     0
 40
0.6
176
     0
 40
30.0
176
     0
 62
     7
420
 16777215
176
     0
 90
        1
176
     0
 90
        4
176
     0
 62
     7
176
     0
 62
   257
176
     0
 90
        1
176
     0
 90
        1
176
     0
 40
1.0
176
     0
 90
       10
176
     2
 62
     7
176
     0
 40
1.0
176
     0
 90
        1
176
     0
 90
        6
176
     0
 90
        2
176
     0
 62
     7
176
     0
 90
        5
176
     0
 90
        0
176
     0
 90
        0
176
     0
290
     0
176
     0
 90
        1
176
     0
 40
0.0
176
     0
 90
        0
176
     0
290
     0
176
     0
290
     1
176
     0
290
     1
176
     0
290
     0
176
     0
290
     0
176
     0
290
     0
176
     0
290
     0
176
     0
290
     0
176
     0
290
     0
176
     0
 90
       50
176
     0
 40
0.0
176
     0
 40
1.0
176
     0
 90
        0
176
     0
 62
    18
420
        0
176
     0
 90
       50
176
     0
 90
        3
176
     0
 62
     5
420
      255
176
     0
290
     0
176
     0
 90
       50
176
     0
 90
       50
176
     0
 90
       50
176
     0
290
     0
176
     0
 90
       50
176
     0
 62
   256
176
     0
 40
1.0
176
     0
 90
        2
176
     0
  1
strokes_ogs.tif
176
     0
290
     0
176
     0
 40
1.0
176
     0
 40
1.0
176
     0
  0
VISUALSTYLE
  5
38
102
{ACAD_REACTORS
330
2A
102
}
330
2A
100
AcDbVisualStyle
  2
Linepattern
 70
    14
177
     3
291
     1
 70
    58
 90
        2
176
     1
 90
        2
176
     1
 90
        0
176
     1
 90
        0
176
     1
 40
0.6
176
     1
 40
30.0
176
     1
 62
     7
420
 16777215
176
     1
 90
        1
176
     1
 90
        4
176
     1
 62
     7
176
     1
 62
   257
176
     1
 90
        7
176
     1
 90
        7
176
     1
 40
1.0
176
     1
 90
        8
176
     1
 62
     7
176
     1
 40
1.0
176
     1
 90
        1
176
     1
 90
        6
176
     1
 90
        2
176
     1
 62
     7
176
     1
 90
        5
176
     1
 90
        0
176
     1
 90
        0
176
     1
290
     0
176
     1
 90
        1
176
     1
 40
0.0
176
     1
 90
        0
176
     1
290
     0
176
     1
290
     1
176
     1
290
     1
176
     1
290
     0
176
     1
290
     0
176
     1
290
     0
176
     1
290
     0
176
     1
290
     0
176
     1
290
     0
176
     1
 90
       50
176
     1
 40
0.0
176
     1
 40
1.0
176
     1
 90
        0
176
     1
 62
    18
420
        0
176
     1
 90
       50
176
     1
 90
        3
176
     1
 62
     5
420
      255
176
     1
290
     0
176
     1
 90
       50
176
     1
 90
       50
176
     1
 90
       50
176
     1
290
     0
176
     1
 90
       50
176
     1
 62
   256
176
     0
 40
1.0
176
     0
 90
        2
176
     1
  1
strokes_ogs.tif
176
     1
290
     0
176
     1
 40
1.0
176
     1
 40
1.0
176
     1
  0
VISUALSTYLE
  5
3C
102
{ACAD_REACTORS
330
2A
102
}
330
2A
100
AcDbVisualStyle
  2
OverhangOff
 70
    21
177
     3
291
     1
 70
    58
 90
        2
176
     0
 90
        2
176
     0
 90
        0
176
     0
 90
        0
176
     0
 40
0.6
176
     0
 40
30.0
176
     0
 62
     7
420
 16777215
176
     0
 90
        1
176
     0
 90
        4
176
     0
 62
     7
176
     0
 62
   257
176
     0
 90
        1
176
     0
 90
        1
176
     0
 40
1.0
176
     0
 90
        9
176
     2
 62
     7
176
     0
 40
1.0
176
     0
 90
        1
176
     0
 90
        6
176
     0
 90
        2
176
     0
 62
     7
176
     0
 90
        5
176
     0
 90
        0
176
     0
 90
        0
176
     0
290
     0
176
     0
 90
        1
176
     0
 40
0.0
176
     0
 90
        0
176
     0
290
     0
176
     0
290
     1
176
     0
290
     1
176
     0
290
     0
176
     0
290
     0
176
     0
290
     0
176
     0
290
     0
176
     0
290
     0
176
     0
290
     0
176
     0
 90
       50
176
     0
 40
0.0
176
     0
 40
1.0
176
     0
 90
        0
176
     0
 62
    18
420
        0
176
     0
 90
       50
176
     0
 90
        3
176
     0
 62
     5
420
      255
176
     0
290
     0
176
     0
 90
       50
176
     0
 90
       50
176
     0
 90
       50
176
     0
290
     0
176
     0
 90
       50
176
     0
 62
   256
176
     0
 40
1.0
176
     0
 90
        2
176
     0
  1
strokes_ogs.tif
176
     0
290
     0
176
     0
 40
1.0
176
     0
 40
1.0
176
     0
  0
VISUALSTYLE
  5
33
102
{ACAD_REACTORS
330
2A
102
}
330
2A
100
AcDbVisualStyle
  2
Realistic
 70
     8
177
     3
291
     0
 70
    58
 90
        2
176
     1
 90
        3
176
     1
 90
        0
176
     1
 90
        2
176
     1
 40
0.6
176
     1
 40
30.0
176
     1
 62
     7
420
 16777215
176
     1
 90
        0
176
     1
 90
        0
176
     1
 62
     7
176
     1
 62
   257
176
     1
 90
        1
176
     1
 90
        1
176
     1
 40
1.0
176
     1
 90
        8
176
     1
 62
   257
176
     1
 40
1.0
176
     1
 90
        1
176
     1
 90
        6
176
     1
 90
        2
176
     1
 62
     7
176
     1
 90
        3
176
     1
 90
        0
176
     1
 90
        0
176
     1
290
     0
176
     1
 90
       13
176
     1
 40
0.0
176
     1
 90
        0
176
     1
290
     0
176
     1
290
     1
176
     1
290
     1
176
     1
290
     0
176
     1
290
     0
176
     1
290
     0
176
     1
290
     0
176
     1
290
     0
176
     1
290
     0
176
     1
 90
       50
176
     1
 40
0.0
176
     1
 40
1.0
176
     1
 90
        0
176
     1
 62
    18
420
        0
176
     1
 90
       50
176
     1
 90
        3
176
     1
 62
     5
420
      255
176
     1
290
     0
176
     1
 90
       50
176
     1
 90
       50
176
     1
 90
       50
176
     1
290
     0
176
     1
 90
       50
176
     1
 62
   256
176
     0
 40
1.0
176
     0
 90
        2
176
     1
  1
strokes_ogs.tif
176
     1
290
     0
176
     1
 40
1.0
176
     1
 40
1.0
176
     1
  0
VISUALSTYLE
  5
42
102
{ACAD_REACTORS
330
2A
102
}
330
2A
100
AcDbVisualStyle
  2
Shaded
 70
    27
177
     3
291
     0
 70
    58
 90
        2
176
     1
 90
        2
176
     1
 90
        1
176
     1
 90
        2
176
     1
 40
0.6
176
     1
 40
30.0
176
     1
 62
     7
420
 16777215
176
     1
 90
        0
176
     1
 90
        4
176
     1
 62
     7
176
     1
 62
   257
176
     1
 90
        1
176
     1
 90
        1
176
     1
 40
1.0
176
     1
 90
        8
176
     1
 62
   257
176
     1
 40
1.0
176
     1
 90
        1
176
     1
 90
        6
176
     1
 90
        2
176
     1
 62
     8
420
  7895160
176
     1
 90
        3
176
     1
 90
        0
176
     1
 90
        0
176
     1
290
     0
176
     1
 90
        5
176
     1
 40
0.0
176
     1
 90
        0
176
     1
290
     0
176
     1
290
     1
176
     1
290
     1
176
     1
290
     0
176
     1
290
     0
176
     1
290
     0
176
     1
290
     0
176
     1
290
     0
176
     1
290
     0
176
     1
 90
       50
176
     1
 40
0.0
176
     1
 40
1.0
176
     1
 90
        0
176
     1
 62
    18
420
        0
176
     1
 90
       50
176
     1
 90
        3
176
     1
 62
     5
420
      255
176
     1
290
     0
176
     1
 90
       50
176
     1
 90
       50
176
     1
 90
       50
176
     1
290
     0
176
     1
 90
       50
176
     1
 62
   256
176
     0
 40
1.0
176
     0
 90
        2
176
     1
  1
strokes_ogs.tif
176
     1
290
     0
176
     1
 40
1.0
176
     1
 40
1.0
176
     1
  0
VISUALSTYLE
  5
41
102
{ACAD_REACTORS
330
2A
102
}
330
2A
100
AcDbVisualStyle
  2
Shaded with edges
 70
    26
177
     3
291
     0
 70
    58
 90
        2
176
     1
 90
        2
176
     1
 90
        1
176
     1
 90
        2
176
     1
 40
0.6
176
     1
 40
30.0
176
     1
 62
     7
420
 16777215
176
     1
 90
        1
176
     1
 90
       10
176
     1
 62
     7
176
     1
 62
   257
176
     1
 90
        2
176
     1
 90
        1
176
     1
 40
1.0
176
     1
 90
        8
176
     1
 62
   257
176
     1
 40
1.0
176
     1
 90
        1
176
     1
 90
        6
176
     1
 90
        2
176
     1
 62
     7
176
     1
 90
        3
176
     1
 90
        0
176
     1
 90
        0
176
     1
290
     0
176
     1
 90
        5
176
     1
 40
0.0
176
     1
 90
        0
176
     1
290
     0
176
     1
290
     1
176
     1
290
     1
176
     1
290
     0
176
     1
290
     0
176
     1
290
     0
176
     1
290
     0
176
     1
290
     0
176
     1
290
     0
176
     1
 90
       50
176
     1
 40
0.0
176
     1
 40
1.0
176
     1
 90
        0
176
     1
 62
    18
420
        0
176
     1
 90
       50
176
     1
 90
        3
176
     1
 62
     5
420
      255
176
     1
290
     0
176
     1
 90
       50
176
     1
 90
       50
176
     1
 90
       50
176
     1
290
     0
176
     1
 90
       50
176
     1
 62
   256
176
     0
 40
1.0
176
     0
 90
        2
176
     1
  1
strokes_ogs.tif
176
     1
290
     0
176
     1
 40
1.0
176
     1
 40
1.0
176
     1
  0
VISUALSTYLE
  5
3E
102
{ACAD_REACTORS
330
2A
102
}
330
2A
100
AcDbVisualStyle
  2
Shades of Gray
 70
    23
177
     3
291
     0
 70
    58
 90
        2
176
     1
 90
        2
176
     1
 90
        3
176
     1
 90
        0
176
     1
 40
0.6
176
     1
 40
30.0
176
     1
 62
     7
420
 16777215
176
     1
 90
        2
176
     1
 90
        2
176
     1
 62
     7
176
     1
 62
     7
176
     1
 90
        1
176
     1
 90
        1
176
     1
 40
40.0
176
     1
 90
        8
176
     1
 62
     7
176
     1
 40
1.0
176
     1
 90
        1
176
     1
 90
        6
176
     1
 90
        2
176
     1
 62
     7
176
     1
 90
        3
176
     1
 90
        0
176
     1
 90
        0
176
     1
290
     0
176
     1
 90
        1
176
     1
 40
0.0
176
     1
 90
        0
176
     1
290
     0
176
     1
290
     1
176
     1
290
     1
176
     1
290
     0
176
     1
290
     0
176
     1
290
     0
176
     1
290
     0
176
     1
290
     0
176
     1
290
     0
176
     1
 90
       50
176
     1
 40
0.0
176
     1
 40
1.0
176
     1
 90
        0
176
     1
 62
    18
420
        0
176
     1
 90
       50
176
     1
 90
        3
176
     1
 62
     5
420
      255
176
     1
290
     0
176
     1
 90
       50
176
     1
 90
       50
176
     1
 90
       50
176
     1
290
     0
176
     1
 90
       50
176
     1
 62
   256
176
     0
 40
1.0
176
     0
 90
        2
176
     1
  1
strokes_ogs.tif
176
     1
290
     0
176
     1
 40
1.0
176
     1
 40
1.0
176
     1
  0
VISUALSTYLE
  5
3F
102
{ACAD_REACTORS
330
2A
102
}
330
2A
100
AcDbVisualStyle
  2
Sketchy
 70
    24
177
     3
291
     0
 70
    58
 90
        1
176
     1
 90
        2
176
     1
 90
        2
176
     1
 90
        0
176
     1
 40
0.6
176
     1
 40
30.0
176
     1
 62
     7
420
 16777215
176
     1
 90
        2
176
     1
 90
        2
176
     1
 62
     7
176
     1
 62
     7
176
     1
 90
        1
176
     1
 90
        1
176
     1
 40
40.0
176
     1
 90
       11
176
     1
 62
     7
176
     1
 40
1.0
176
     1
 90
        1
176
     1
 90
        6
176
     1
 90
        2
176
     1
 62
     7
176
     1
 90
        6
176
     1
 90
        0
176
     1
 90
        0
176
     1
290
     0
176
     1
 90
        1
176
     1
 40
0.0
176
     1
 90
        0
176
     1
290
     0
176
     1
290
     1
176
     1
290
     1
176
     1
290
     0
176
     1
290
     0
176
     1
290
     0
176
     1
290
     0
176
     1
290
     0
176
     1
290
     0
176
     1
 90
       50
176
     1
 40
0.0
176
     1
 40
1.0
176
     1
 90
        0
176
     1
 62
    18
420
        0
176
     1
 90
       50
176
     1
 90
        3
176
     1
 62
     5
420
      255
176
     1
290
     0
176
     1
 90
       50
176
     1
 90
       50
176
     1
 90
       50
176
     1
290
     0
176
     1
 90
       50
176
     1
 62
   256
176
     0
 40
1.0
176
     0
 90
        2
176
     1
  1
strokes_ogs.tif
176
     1
290
     0
176
     1
 40
1.0
176
     1
 40
1.0
176
     1
  0
VISUALSTYLE
  5
37
102
{ACAD_REACTORS
330
2A
102
}
330
2A
100
AcDbVisualStyle
  2
Thicken
 70
    13
177
     3
291
     1
 70
    58
 90
        2
176
     1
 90
        2
176
     1
 90
        0
176
     1
 90
        0
176
     1
 40
0.6
176
     1
 40
30.0
176
     1
 62
     7
420
 16777215
176
     1
 90
        1
176
     1
 90
        4
176
     1
 62
     7
176
     1
 62
   257
176
     1
 90
        1
176
     1
 90
        1
176
     1
 40
1.0
176
     1
 90
       12
176
     1
 62
     7
176
     1
 40
1.0
176
     1
 90
        1
176
     1
 90
        6
176
     1
 90
        2
176
     1
 62
     7
176
     1
 90
        5
176
     1
 90
        0
176
     1
 90
        0
176
     1
290
     0
176
     1
 90
        1
176
     1
 40
0.0
176
     1
 90
        0
176
     1
290
     0
176
     1
290
     1
176
     1
290
     1
176
     1
290
     0
176
     1
290
     0
176
     1
290
     0
176
     1
290
     0
176
     1
290
     0
176
     1
290
     0
176
     1
 90
       50
176
     1
 40
0.0
176
     1
 40
1.0
176
     1
 90
        0
176
     1
 62
    18
420
        0
176
     1
 90
       50
176
     1
 90
        3
176
     1
 62
     5
420
      255
176
     1
290
     0
176
     1
 90
       50
176
     1
 90
       50
176
     1
 90
       50
176
     1
290
     0
176
     1
 90
       50
176
     1
 62
   256
176
     0
 40
1.0
176
     0
 90
        2
176
     1
  1
strokes_ogs.tif
176
     1
290
     0
176
     1
 40
1.0
176
     1
 40
1.0
176
     1
  0
VISUALSTYLE
  5
30
102
{ACAD_REACTORS
330
2A
102
}
330
2A
100
AcDbVisualStyle
  2
Wireframe
 70
     5
177
     3
291
     0
 70
    58
 90
        0
176
     1
 90
        2
176
     1
 90
        0
176
     1
 90
        0
176
     1
 40
0.6
176
     1
 40
30.0
176
     1
 62
     7
420
 16777215
176
     1
 90
        1
176
     1
 90
        4
176
     1
 62
     7
176
     1
 62
   257
176
     1
 90
        1
176
     1
 90
        1
176
     1
 40
1.0
176
     1
 90
        0
176
     1
 62
   257
176
     1
 40
1.0
176
     1
 90
        1
176
     1
 90
        6
176
     1
 90
        2
176
     1
 62
     7
176
     1
 90
        3
176
     1
 90
        0
176
     1
 90
        0
176
     1
290
     0
176
     1
 90
        1
176
     1
 40
0.0
176
     1
 90
        0
176
     1
290
     0
176
     1
290
     1
176
     1
290
     1
176
     1
290
     0
176
     1
290
     0
176
     1
290
     0
176
     1
290
     0
176
     1
290
     0
176
     1
290
     0
176
     1
 90
       50
176
     1
 40
0.0
176
     1
 40
1.0
176
     1
 90
        0
176
     1
 62
    18
420
        0
176
     1
 90
       50
176
     1
 90
        3
176
     1
 62
     5
420
      255
176
     1
290
     0
176
     1
 90
       50
176
     1
 90
       50
176
     1
 90
       50
176
     1
290
     0
176
     1
 90
       50
176
     1
 62
   256
176
     0
 40
1.0
176
     0
 90
        2
176
     1
  1
strokes_ogs.tif
176
     1
290
     0
176
     1
 40
1.0
176
     1
 40
1.0
176
     1
  0
VISUALSTYLE
  5
40
102
{ACAD_REACTORS
330
2A
102
}
330
2A
100
AcDbVisualStyle
  2
X-Ray
 70
    25
177
     3
291
     0
 70
    58
 90
        2
176
     1
 90
        2
176
     1
 90
        1
176
     1
 90
        1
176
     1
 40
0.5
176
     1
 40
30.0
176
     1
 62
     7
420
 16777215
176
     1
 90
        1
176
     1
 90
        0
176
     1
 62
     7
176
     1
 62
   257
176
     1
 90
        1
176
     1
 90
        1
176
     1
 40
1.0
176
     1
 90
        8
176
     1
 62
     7
176
     1
 40
1.0
176
     1
 90
        1
176
     1
 90
        6
176
     1
 90
        2
176
     1
 62
     7
176
     1
 90
        3
176
     1
 90
        0
176
     1
 90
        0
176
     1
290
     0
176
     1
 90
       13
176
     1
 40
0.0
176
     1
 90
        0
176
     1
290
     0
176
     1
290
     1
176
     1
290
     1
176
     1
290
     0
176
     1
290
     0
176
     1
290
     0
176
     1
290
     0
176
     1
290
     0
176
     1
290
     0
176
     1
 90
       50
176
     1
 40
0.0
176
     1
 40
1.0
176
     1
 90
        0
176
     1
 62
    18
420
        0
176
     1
 90
       50
176
     1
 90
        3
176
     1
 62
     5
420
      255
176
     1
290
     0
176
     1
 90
       50
176
     1
 90
       50
176
     1
 90
       50
176
     1
290
     0
176
     1
 90
       50
176
     1
 62
   256
176
     0
 40
1.0
176
     0
 90
        2
176
     1
  1
strokes_ogs.tif
176
     1
290
     0
176
     1
 40
1.0
176
     1
 40
1.0
176
     1
  0
DICTIONARYVAR
  5
19C
102
{ACAD_REACTORS
330
19B
102
}
330
19B
100
DictionaryVariables
280
     0
  1
1:1
  0
DICTIONARYVAR
  5
1A1
102
{ACAD_REACTORS
330
19B
102
}
330
19B
100
DictionaryVariables
280
     0
  1
Standard
  0
DICTIONARYVAR
  5
1A0
102
{ACAD_REACTORS
330
19B
102
}
330
19B
100
DictionaryVariables
280
     0
  1
Standard
  0
DICTIONARY
  5
19D
330
6A
100
AcDbDictionary
280
     1
281
     1
  3
ACAD_ROUNDTRIP_2008_TABLESTYLE_CELLSTYLEMAP
360
19E
  0
CELLSTYLEMAP
  5
19E
102
{ACAD_REACTORS
330
19D
102
}
330
19D
100
AcDbCellStyleMap
 90
        3
300
CELLSTYLE
  1
TABLEFORMAT_BEGIN
 90
        5
170
     1
 91
        0
 92
    32768
 62
   257
 93
        1
300
CONTENTFORMAT
  1
CONTENTFORMAT_BEGIN
 90
        0
 91
        0
 92
        4
 93
        0
300

 40
0.0
140
1.0
 94
        5
 62
     0
340
11
144
0.25
309
CONTENTFORMAT_END
171
     1
301
MARGIN
  1
CELLMARGIN_BEGIN
 40
0.06
 40
0.06
 40
0.06
 40
0.06
 40
0.06
 40
0.06
309
CELLMARGIN_END
 94
        6
 95
        1
302
GRIDFORMAT
  1
GRIDFORMAT_BEGIN
 90
        0
 91
        1
 62
     0
 92
       -2
340
14
 93
        0
 40
0.045
309
GRIDFORMAT_END
 95
        2
302
GRIDFORMAT
  1
GRIDFORMAT_BEGIN
 90
        0
 91
        1
 62
     0
 92
       -2
340
14
 93
        0
 40
0.045
309
GRIDFORMAT_END
 95
        4
302
GRIDFORMAT
  1
GRIDFORMAT_BEGIN
 90
        0
 91
        1
 62
     0
 92
       -2
340
14
 93
        0
 40
0.045
309
GRIDFORMAT_END
 95
        8
302
GRIDFORMAT
  1
GRIDFORMAT_BEGIN
 90
        0
 91
        1
 62
     0
 92
       -2
340
14
 93
        0
 40
0.045
309
GRIDFORMAT_END
 95
       16
302
GRIDFORMAT
  1
GRIDFORMAT_BEGIN
 90
        0
 91
        1
 62
     0
 92
       -2
340
14
 93
        0
 40
0.045
309
GRIDFORMAT_END
 95
       32
302
GRIDFORMAT
  1
GRIDFORMAT_BEGIN
 90
        0
 91
        1
 62
     0
 92
       -2
340
14
 93
        0
 40
0.045
309
GRIDFORMAT_END
309
TABLEFORMAT_END
  1
CELLSTYLE_BEGIN
 90
        1
 91
        1
300
_TITLE
309
CELLSTYLE_END
300
CELLSTYLE
  1
TABLEFORMAT_BEGIN
 90
        5
170
     1
 91
        0
 92
        0
 62
   257
 93
        1
300
CONTENTFORMAT
  1
CONTENTFORMAT_BEGIN
 90
        0
 91
        0
 92
        4
 93
        0
300

 40
0.0
140
1.0
 94
        5
 62
     0
340
11
144
0.18
309
CONTENTFORMAT_END
171
     1
301
MARGIN
  1
CELLMARGIN_BEGIN
 40
0.06
 40
0.06
 40
0.06
 40
0.06
 40
0.06
 40
0.06
309
CELLMARGIN_END
 94
        6
 95
        1
302
GRIDFORMAT
  1
GRIDFORMAT_BEGIN
 90
        0
 91
        1
 62
     0
 92
       -2
340
14
 93
        0
 40
0.045
309
GRIDFORMAT_END
 95
        2
302
GRIDFORMAT
  1
GRIDFORMAT_BEGIN
 90
        0
 91
        1
 62
     0
 92
       -2
340
14
 93
        0
 40
0.045
309
GRIDFORMAT_END
 95
        4
302
GRIDFORMAT
  1
GRIDFORMAT_BEGIN
 90
        0
 91
        1
 62
     0
 92
       -2
340
14
 93
        0
 40
0.045
309
GRIDFORMAT_END
 95
        8
302
GRIDFORMAT
  1
GRIDFORMAT_BEGIN
 90
        0
 91
        1
 62
     0
 92
       -2
340
14
 93
        0
 40
0.045
309
GRIDFORMAT_END
 95
       16
302
GRIDFORMAT
  1
GRIDFORMAT_BEGIN
 90
        0
 91
        1
 62
     0
 92
       -2
340
14
 93
        0
 40
0.045
309
GRIDFORMAT_END
 95
       32
302
GRIDFORMAT
  1
GRIDFORMAT_BEGIN
 90
        0
 91
        1
 62
     0
 92
       -2
340
14
 93
        0
 40
0.045
309
GRIDFORMAT_END
309
TABLEFORMAT_END
  1
CELLSTYLE_BEGIN
 90
        2
 91
        1
300
_HEADER
309
CELLSTYLE_END
300
CELLSTYLE
  1
TABLEFORMAT_BEGIN
 90
        5
170
     1
 91
        0
 92
        0
 62
   257
 93
        1
300
CONTENTFORMAT
  1
CONTENTFORMAT_BEGIN
 90
        0
 91
        0
 92
        4
 93
        0
300

 40
0.0
140
1.0
 94
        2
 62
     0
340
11
144
0.18
309
CONTENTFORMAT_END
171
     1
301
MARGIN
  1
CELLMARGIN_BEGIN
 40
0.06
 40
0.06
 40
0.06
 40
0.06
 40
0.06
 40
0.06
309
CELLMARGIN_END
 94
        6
 95
        1
302
GRIDFORMAT
  1
GRIDFORMAT_BEGIN
 90
        0
 91
        1
 62
     0
 92
       -2
340
14
 93
        0
 40
0.045
309
GRIDFORMAT_END
 95
        2
302
GRIDFORMAT
  1
GRIDFORMAT_BEGIN
 90
        0
 91
        1
 62
     0
 92
       -2
340
14
 93
        0
 40
0.045
309
GRIDFORMAT_END
 95
        4
302
GRIDFORMAT
  1
GRIDFORMAT_BEGIN
 90
        0
 91
        1
 62
     0
 92
       -2
340
14
 93
        0
 40
0.045
309
GRIDFORMAT_END
 95
        8
302
GRIDFORMAT
  1
GRIDFORMAT_BEGIN
 90
        0
 91
        1
 62
     0
 92
       -2
340
14
 93
        0
 40
0.045
309
GRIDFORMAT_END
 95
       16
302
GRIDFORMAT
  1
GRIDFORMAT_BEGIN
 90
        0
 91
        1
 62
     0
 92
       -2
340
14
 93
        0
 40
0.045
309
GRIDFORMAT_END
 95
       32
302
GRIDFORMAT
  1
GRIDFORMAT_BEGIN
 90
        0
 91
        1
 62
     0
 92
       -2
340
14
 93
        0
 40
0.045
309
GRIDFORMAT_END
309
TABLEFORMAT_END
  1
CELLSTYLE_BEGIN
 90
        3
 91
        2
300
_DATA
309
CELLSTYLE_END
  0
ENDSEC
  0
EOF