0
SECTION
  2
HEADER
  9
$ACADVER
  1
AC1027
  9
$ACADMAINTVER
 70
     8
  9
$DWGCODEPAGE
  3
ANSI_1252
  9
$REQUIREDVERSIONS
160
                 0
  9
$COMMENTS
  1
File was created by Cadenas
  9
$CUSTOMPROPERTYTAG
  1
NN
  9
$CUSTOMPROPERTY
  1
Four-Bolt Flange Expansion
  9
$CUSTOMPROPERTYTAG
  1
NT
  9
$CUSTOMPROPERTY
  1
Type E 4-Bolt Flange Bearing -Inch
  9
$CUSTOMPROPERTYTAG
  1
NB
  9
$CUSTOMPROPERTY
  1
023110
  9
$CUSTOMPROPERTYTAG
  1
NBSYN
  9
$CUSTOMPROPERTY
  1
$PN.
  9
$CUSTOMPROPERTYTAG
  1
LINA
  9
$CUSTOMPROPERTY
  1
023110
  9
$CUSTOMPROPERTYTAG
  1
SS
  9
$CUSTOMPROPERTY
  1
2-15/16
  9
$CUSTOMPROPERTYTAG
  1
PN
  9
$CUSTOMPROPERTY
  1
023110
  9
$CUSTOMPROPERTYTAG
  1
DESCRIPTION
  9
$CUSTOMPROPERTY
  1
F4B-E-215R
  9
$CUSTOMPROPERTYTAG
  1
A
  9
$CUSTOMPROPERTY
  1
4-11/16
  9
$CUSTOMPROPERTYTAG
  1
B
  9
$CUSTOMPROPERTY
  1
7-3/4
  9
$CUSTOMPROPERTYTAG
  1
C
  9
$CUSTOMPROPERTY
  1
3-15/16
  9
$CUSTOMPROPERTYTAG
  1
D
  9
$CUSTOMPROPERTY
  1
6
  9
$CUSTOMPROPERTYTAG
  1
E
  9
$CUSTOMPROPERTY
  1
3/16
  9
$CUSTOMPROPERTYTAG
  1
F
  9
$CUSTOMPROPERTY
  1
3/4
  9
$CUSTOMPROPERTYTAG
  1
H
  9
$CUSTOMPROPERTY
  1
1-5/8
  9
$CUSTOMPROPERTYTAG
  1
J
  9
$CUSTOMPROPERTY
  1
6
  9
$CUSTOMPROPERTYTAG
  1
L
  9
$CUSTOMPROPERTY
  1
4-23/32
  9
$CUSTOMPROPERTYTAG
  1
COMPANY
  9
$CUSTOMPROPERTY
  1
baldor
  9
$INSBASE
 10
0.0
 20
0.0
 30
0.0
  9
$EXTMIN
 10
1.000000000000000E+20
 20
1.000000000000000E+20
 30
1.000000000000000E+20
  9
$EXTMAX
 10
-1.000000000000000E+20
 20
-1.000000000000000E+20
 30
-1.000000000000000E+20
  9
$LIMMIN
 10
0.0
 20
0.0
  9
$LIMMAX
 10
12.0
 20
9.0
  9
$ORTHOMODE
 70
     0
  9
$REGENMODE
 70
     1
  9
$FILLMODE
 70
     1
  9
$QTEXTMODE
 70
     0
  9
$MIRRTEXT
 70
     1
  9
$LTSCALE
 40
1.0
  9
$ATTMODE
 70
     1
  9
$TEXTSIZE
 40
0.2
  9
$TRACEWID
 40
0.05
  9
$TEXTSTYLE
  7
Standard
  9
$CLAYER
  8
0
  9
$CELTYPE
  6
ByLayer
  9
$CECOLOR
 62
   256
  9
$CELTSCALE
 40
1.0
  9
$DISPSILH
 70
     0
  9
$DIMSCALE
 40
1.0
  9
$DIMASZ
 40
0.18
  9
$DIMEXO
 40
0.0625
  9
$DIMDLI
 40
0.38
  9
$DIMRND
 40
0.0
  9
$DIMDLE
 40
0.0
  9
$DIMEXE
 40
0.18
  9
$DIMTP
 40
0.0
  9
$DIMTM
 40
0.0
  9
$DIMTXT
 40
0.18
  9
$DIMCEN
 40
0.09
  9
$DIMTSZ
 40
0.0
  9
$DIMTOL
 70
     0
  9
$DIMLIM
 70
     0
  9
$DIMTIH
 70
     1
  9
$DIMTOH
 70
     1
  9
$DIMSE1
 70
     0
  9
$DIMSE2
 70
     0
  9
$DIMTAD
 70
     0
  9
$DIMZIN
 70
     0
  9
$DIMBLK
  1

  9
$DIMASO
 70
     1
  9
$DIMSHO
 70
     1
  9
$DIMPOST
  1

  9
$DIMAPOST
  1

  9
$DIMALT
 70
     0
  9
$DIMALTD
 70
     2
  9
$DIMALTF
 40
25.4
  9
$DIMLFAC
 40
1.0
  9
$DIMTOFL
 70
     0
  9
$DIMTVP
 40
0.0
  9
$DIMTIX
 70
     0
  9
$DIMSOXD
 70
     0
  9
$DIMSAH
 70
     0
  9
$DIMBLK1
  1

  9
$DIMBLK2
  1

  9
$DIMSTYLE
  2
Standard
  9
$DIMCLRD
 70
     0
  9
$DIMCLRE
 70
     0
  9
$DIMCLRT
 70
     0
  9
$DIMTFAC
 40
1.0
  9
$DIMGAP
 40
0.09
  9
$DIMJUST
 70
     0
  9
$DIMSD1
 70
     0
  9
$DIMSD2
 70
     0
  9
$DIMTOLJ
 70
     1
  9
$DIMTZIN
 70
     0
  9
$DIMALTZ
 70
     0
  9
$DIMALTTZ
 70
     0
  9
$DIMUPT
 70
     0
  9
$DIMDEC
 70
     4
  9
$DIMTDEC
 70
     4
  9
$DIMALTU
 70
     2
  9
$DIMALTTD
 70
     2
  9
$DIMTXSTY
  7
Standard
  9
$DIMAUNIT
 70
     0
  9
$DIMADEC
 70
     0
  9
$DIMALTRND
 40
0.0
  9
$DIMAZIN
 70
     0
  9
$DIMDSEP
 70
    46
  9
$DIMATFIT
 70
     3
  9
$DIMFRAC
 70
     0
  9
$DIMLDRBLK
  1

  9
$DIMLUNIT
 70
     2
  9
$DIMLWD
 70
    -2
  9
$DIMLWE
 70
    -2
  9
$DIMTMOVE
 70
     0
  9
$DIMFXL
 40
1.0
  9
$DIMFXLON
 70
     0
  9
$DIMJOGANG
 40
0.7853981633974483
  9
$DIMTFILL
 70
     0
  9
$DIMTFILLCLR
 70
     0
  9
$DIMARCSYM
 70
     0
  9
$DIMLTYPE
  6

  9
$DIMLTEX1
  6

  9
$DIMLTEX2
  6

  9
$DIMTXTDIRECTION
 70
     0
  9
$LUNITS
 70
     2
  9
$LUPREC
 70
     4
  9
$SKETCHINC
 40
0.1
  9
$FILLETRAD
 40
0.5
  9
$AUNITS
 70
     0
  9
$AUPREC
 70
     0
  9
$MENU
  1
.
  9
$ELEVATION
 40
0.0
  9
$PELEVATION
 40
0.0
  9
$THICKNESS
 40
0.0
  9
$LIMCHECK
 70
     0
  9
$CHAMFERA
 40
0.0
  9
$CHAMFERB
 40
0.0
  9
$CHAMFERC
 40
0.0
  9
$CHAMFERD
 40
0.0
  9
$SKPOLY
 70
     0
  9
$TDCREATE
 40
2458168.97944956
  9
$TDUCREATE
 40
2458168.937782893
  9
$TDUPDATE
 40
2458168.97944956
  9
$TDUUPDATE
 40
2458168.937782893
  9
$TDINDWG
 40
0.0000000116
  9
$TDUSRTIMER
 40
0.0000000116
  9
$USRTIMER
 70
     1
  9
$ANGBASE
 50
0.0
  9
$ANGDIR
 70
     0
  9
$PDMODE
 70
     0
  9
$PDSIZE
 40
0.0
  9
$PLINEWID
 40
0.0
  9
$SPLFRAME
 70
     0
  9
$SPLINETYPE
 70
     6
  9
$SPLINESEGS
 70
     8
  9
$HANDSEED
  5
1E1
  9
$SURFTAB1
 70
     6
  9
$SURFTAB2
 70
     6
  9
$SURFTYPE
 70
     6
  9
$SURFU
 70
     6
  9
$SURFV
 70
     6
  9
$UCSBASE
  2

  9
$UCSNAME
  2

  9
$UCSORG
 10
0.0
 20
0.0
 30
0.0
  9
$UCSXDIR
 10
1.0
 20
0.0
 30
0.0
  9
$UCSYDIR
 10
0.0
 20
1.0
 30
0.0
  9
$UCSORTHOREF
  2

  9
$UCSORTHOVIEW
 70
     0
  9
$UCSORGTOP
 10
0.0
 20
0.0
 30
0.0
  9
$UCSORGBOTTOM
 10
0.0
 20
0.0
 30
0.0
  9
$UCSORGLEFT
 10
0.0
 20
0.0
 30
0.0
  9
$UCSORGRIGHT
 10
0.0
 20
0.0
 30
0.0
  9
$UCSORGFRONT
 10
0.0
 20
0.0
 30
0.0
  9
$UCSORGBACK
 10
0.0
 20
0.0
 30
0.0
  9
$PUCSBASE
  2

  9
$PUCSNAME
  2

  9
$PUCSORG
 10
0.0
 20
0.0
 30
0.0
  9
$PUCSXDIR
 10
1.0
 20
0.0
 30
0.0
  9
$PUCSYDIR
 10
0.0
 20
1.0
 30
0.0
  9
$PUCSORTHOREF
  2

  9
$PUCSORTHOVIEW
 70
     0
  9
$PUCSORGTOP
 10
0.0
 20
0.0
 30
0.0
  9
$PUCSORGBOTTOM
 10
0.0
 20
0.0
 30
0.0
  9
$PUCSORGLEFT
 10
0.0
 20
0.0
 30
0.0
  9
$PUCSORGRIGHT
 10
0.0
 20
0.0
 30
0.0
  9
$PUCSORGFRONT
 10
0.0
 20
0.0
 30
0.0
  9
$PUCSORGBACK
 10
0.0
 20
0.0
 30
0.0
  9
$USERI1
 70
     0
  9
$USERI2
 70
     0
  9
$USERI3
 70
     0
  9
$USERI4
 70
     0
  9
$USERI5
 70
     0
  9
$USERR1
 40
0.0
  9
$USERR2
 40
0.0
  9
$USERR3
 40
0.0
  9
$USERR4
 40
0.0
  9
$USERR5
 40
0.0
  9
$WORLDVIEW
 70
     1
  9
$SHADEDGE
 70
     3
  9
$SHADEDIF
 70
    70
  9
$TILEMODE
 70
     1
  9
$MAXACTVP
 70
    64
  9
$PINSBASE
 10
0.0
 20
0.0
 30
0.0
  9
$PLIMCHECK
 70
     0
  9
$PEXTMIN
 10
1.000000000000000E+20
 20
1.000000000000000E+20
 30
1.000000000000000E+20
  9
$PEXTMAX
 10
-1.000000000000000E+20
 20
-1.000000000000000E+20
 30
-1.000000000000000E+20
  9
$PLIMMIN
 10
0.0
 20
0.0
  9
$PLIMMAX
 10
12.0
 20
9.0
  9
$UNITMODE
 70
     0
  9
$VISRETAIN
 70
     1
  9
$PLINEGEN
 70
     0
  9
$PSLTSCALE
 70
     1
  9
$TREEDEPTH
 70
  3020
  9
$CMLSTYLE
  2
Standard
  9
$CMLJUST
 70
     0
  9
$CMLSCALE
 40
1.0
  9
$PROXYGRAPHICS
 70
     1
  9
$MEASUREMENT
 70
     0
  9
$CELWEIGHT
370
    -1
  9
$ENDCAPS
280
     0
  9
$JOINSTYLE
280
     0
  9
$LWDISPLAY
290
     0
  9
$INSUNITS
 70
     1
  9
$HYPERLINKBASE
  1

  9
$STYLESHEET
  1

  9
$XEDIT
290
     1
  9
$CEPSNTYPE
380
     0
  9
$PSTYLEMODE
290
     1
  9
$FINGERPRINTGUID
  2
{E0FB255F-7660-4C2C-8D55-35325D81A6EC}
  9
$VERSIONGUID
  2
{FAEB1C32-E019-11D5-929B-00C0DF256EC4}
  9
$EXTNAMES
290
     1
  9
$PSVPSCALE
 40
0.0
  9
$OLESTARTUP
290
     0
  9
$SORTENTS
280
   127
  9
$INDEXCTL
280
     0
  9
$HIDETEXT
280
     1
  9
$XCLIPFRAME
280
     2
  9
$HALOGAP
280
     0
  9
$OBSCOLOR
 70
   257
  9
$OBSLTYPE
280
     0
  9
$INTERSECTIONDISPLAY
280
     0
  9
$INTERSECTIONCOLOR
 70
   257
  9
$DIMASSOC
280
     2
  9
$PROJECTNAME
  1

  9
$CAMERADISPLAY
290
     0
  9
$LENSLENGTH
 40
50.0
  9
$CAMERAHEIGHT
 40
0.0
  9
$STEPSPERSEC
 40
2.0
  9
$STEPSIZE
 40
6.0
  9
$3DDWFPREC
 40
2.0
  9
$PSOLWIDTH
 40
0.25
  9
$PSOLHEIGHT
 40
4.0
  9
$LOFTANG1
 40
1.570796326794897
  9
$LOFTANG2
 40
1.570796326794897
  9
$LOFTMAG1
 40
0.0
  9
$LOFTMAG2
 40
0.0
  9
$LOFTPARAM
 70
     7
  9
$LOFTNORMALS
280
     1
  9
$LATITUDE
 40
37.795
  9
$LONGITUDE
 40
-122.394
  9
$NORTHDIRECTION
 40
0.0
  9
$TIMEZONE
 70
 -8000
  9
$LIGHTGLYPHDISPLAY
280
     1
  9
$TILEMODELIGHTSYNCH
280
     1
  9
$CMATERIAL
347
44
  9
$SOLIDHIST
280
     0
  9
$SHOWHIST
280
     1
  9
$DWFFRAME
280
     2
  9
$DGNFRAME
280
     2
  9
$REALWORLDSCALE
290
     1
  9
$INTERFERECOLOR
 62
   256
  9
$CSHADOW
280
     0
  9
$SHADOWPLANELOCATION
 40
0.0
  0
ENDSEC
  0
SECTION
  2
CLASSES
  0
CLASS
  1
ACDBDICTIONARYWDFLT
  2
AcDbDictionaryWithDefault
  3
ObjectDBX Classes
 90
        0
 91
        4
280
     0
281
     0
  0
CLASS
  1
VISUALSTYLE
  2
AcDbVisualStyle
  3
ObjectDBX Classes
 90
     4095
 91
        4
280
     0
281
     0
  0
CLASS
  1
MATERIAL
  2
AcDbMaterial
  3
ObjectDBX Classes
 90
     1153
 91
        4
280
     0
281
     0
  0
CLASS
  1
SCALE
  2
AcDbScale
  3
ObjectDBX Classes
 90
     1153
 91
        4
280
     0
281
     0
  0
CLASS
  1
TABLESTYLE
  2
AcDbTableStyle
  3
ObjectDBX Classes
 90
     4095
 91
        4
280
     0
281
     0
  0
CLASS
  1
MLEADERSTYLE
  2
AcDbMLeaderStyle
  3
ACDB_MLEADERSTYLE_CLASS
 90
     4095
 91
        4
280
     0
281
     0
  0
CLASS
  1
SUN
  2
AcDbSun
  3
SCENEOE
 90
     1153
 91
        4
280
     0
281
     0
  0
CLASS
  1
DICTIONARYVAR
  2
AcDbDictionaryVar
  3
ObjectDBX Classes
 90
        0
 91
        4
280
     0
281
     0
  0
CLASS
  1
CELLSTYLEMAP
  2
AcDbCellStyleMap
  3
ObjectDBX Classes
 90
     1152
 91
        4
280
     0
281
     0
  0
ENDSEC
  0
SECTION
  2
TABLES
  0
TABLE
  2
VPORT
  5
8
330
0
100
AcDbSymbolTable
 70
     1
  0
VPORT
  5
29
330
8
100
AcDbSymbolTableRecord
100
AcDbViewportTableRecord
  2
*Active
 70
     0
 10
0.0
 20
0.0
 11
1.0
 21
1.0
 12
-2.362500000000001
 22
0.0
 13
0.0
 23
0.0
 14
0.5
 24
0.5
 15
0.5
 25
0.5
 16
0.0
 26
0.0
 36
1.0
 17
0.0
 27
0.0
 37
0.0
 40
7.905
 41
0.6706451612903224
 42
50.0
 43
0.0
 44
0.0
 50
0.0
 51
0.0
 71
     0
 72
   100
 73
     1
 74
     3
 75
     0
 76
     0
 77
     0
 78
     0
281
     0
 65
     1
110
0.0
120
0.0
130
0.0
111
1.0
121
0.0
131
0.0
112
0.0
122
1.0
132
0.0
 79
     0
146
0.0
348
2F
 60
     3
 61
     5
292
     1
282
     1
141
0.0
142
0.0
 63
   250
361
6D
  0
ENDTAB
  0
TABLE
  2
LTYPE
  5
5
330
0
100
AcDbSymbolTable
 70
     3
  0
LTYPE
  5
14
330
5
100
AcDbSymbolTableRecord
100
AcDbLinetypeTableRecord
  2
ByBlock
 70
     0
  3

 72
    65
 73
     0
 40
0.0
  0
LTYPE
  5
15
330
5
100
AcDbSymbolTableRecord
100
AcDbLinetypeTableRecord
  2
ByLayer
 70
     0
  3

 72
    65
 73
     0
 40
0.0
  0
LTYPE
  5
16
330
5
100
AcDbSymbolTableRecord
100
AcDbLinetypeTableRecord
  2
Continuous
 70
     0
  3
Solid line
 72
    65
 73
     0
 40
0.0
  0
LTYPE
  5
9A
330
5
100
AcDbSymbolTableRecord
100
AcDbLinetypeTableRecord
  2
Dashed
 70
     0
  3

 72
    65
 73
     2
 40
2.0
 49
1.0
 74
     0
 49
-1.0
 74
     0
  0
LTYPE
  5
143
330
5
100
AcDbSymbolTableRecord
100
AcDbLinetypeTableRecord
  2
Center
 70
     0
  3

 72
    65
 73
     4
 40
1.5
 49
0.45
 74
     0
 49
-0.5
 74
     0
 49
0.05
 74
     0
 49
-0.5
 74
     0
  0
ENDTAB
  0
TABLE
  2
LAYER
  5
2
330
0
100
AcDbSymbolTable
 70
     7
  0
LAYER
  5
10
330
2
100
AcDbSymbolTableRecord
100
AcDbLayerTableRecord
  2
0
 70
     0
 62
     7
  6
Continuous
370
    -3
390
F
347
46
348
0
  0
LAYER
  5
72
330
2
100
AcDbSymbolTableRecord
100
AcDbLayerTableRecord
  2
AM_6
 70
     0
 62
    -2
  6
Continuous
370
    35
390
F
347
46
348
0
  0
LAYER
  5
9B
330
2
100
AcDbSymbolTableRecord
100
AcDbLayerTableRecord
  2
AM_9
 70
     0
 62
     6
  6
Dashed
370
    25
390
F
347
46
348
0
  0
LAYER
  5
B8
330
2
100
AcDbSymbolTableRecord
100
AcDbLayerTableRecord
  2
AM_5
 70
     0
 62
     3
  6
Continuous
370
    25
390
F
347
46
348
0
  0
LAYER
  5
BB
330
2
100
AcDbSymbolTableRecord
100
AcDbLayerTableRecord
  2
AM_4
 70
     0
 62
     7
  6
Continuous
370
    50
390
F
347
46
348
0
  0
LAYER
  5
144
330
2
100
AcDbSymbolTableRecord
100
AcDbLayerTableRecord
  2
AM_7
 70
     0
 62
     7
  6
Center
370
    25
390
F
347
46
348
0
  0
LAYER
  5
1D0
330
2
100
AcDbSymbolTableRecord
100
AcDbLayerTableRecord
  2
ConnectionPoints
 70
     0
 62
     7
  6
Continuous
370
    50
390
F
347
46
348
0
  0
ENDTAB
  0
TABLE
  2
STYLE
  5
3
330
0
100
AcDbSymbolTable
 70
     1
  0
STYLE
  5
11
330
3
100
AcDbSymbolTableRecord
100
AcDbTextStyleTableRecord
  2
Standard
 70
     0
 40
0.0
 41
1.0
 50
0.0
 71
     0
 42
0.2
  3
txt
  4

  0
ENDTAB
  0
TABLE
  2
VIEW
  5
6
330
0
100
AcDbSymbolTable
 70
     0
  0
ENDTAB
  0
TABLE
  2
UCS
  5
7
330
0
100
AcDbSymbolTable
 70
     0
  0
ENDTAB
  0
TABLE
  2
APPID
  5
9
330
0
100
AcDbSymbolTable
 70
     1
  0
APPID
  5
12
330
9
100
AcDbSymbolTableRecord
100
AcDbRegAppTableRecord
  2
ACAD
 70
     0
  0
ENDTAB
  0
TABLE
  2
DIMSTYLE
  5
A
330
0
100
AcDbSymbolTable
 70
     1
100
AcDbDimStyleTable
  0
DIMSTYLE
105
27
330
A
100
AcDbSymbolTableRecord
100
AcDbDimStyleTableRecord
  2
Standard
 70
     0
178
     0
340
11
  0
ENDTAB
  0
TABLE
  2
BLOCK_RECORD
  5
1
330
0
100
AcDbSymbolTable
 70
     7
  0
BLOCK_RECORD
  5
1F
330
1
100
AcDbSymbolTableRecord
100
AcDbBlockTableRecord
  2
*Model_Space
340
22
 70
     0
280
     1
281
     0
  0
BLOCK_RECORD
  5
1B
330
1
100
AcDbSymbolTableRecord
100
AcDbBlockTableRecord
  2
*Paper_Space
340
1E
 70
     0
280
     1
281
     0
  0
BLOCK_RECORD
  5
23
330
1
100
AcDbSymbolTableRecord
100
AcDbBlockTableRecord
  2
*Paper_Space0
340
26
 70
     0
280
     1
281
     0
  0
BLOCK_RECORD
  5
6E
330
1
100
AcDbSymbolTableRecord
100
AcDbBlockTableRecord
  2
1_023110_2
340
0
102
{BLKREFS
331
6F
102
}
 70
     0
280
     1
281
     0
  0
BLOCK_RECORD
  5
85
330
1
100
AcDbSymbolTableRecord
100
AcDbBlockTableRecord
  2
2_2_15_16C_1_0_in_023110_2
340
0
102
{BLKREFS
331
86
102
}
 70
     0
280
     1
281
     0
  0
BLOCK_RECORD
  5
C1
330
1
100
AcDbSymbolTableRecord
100
AcDbBlockTableRecord
  2
3_2_15_16C_2_0_in_023110_2
340
0
102
{BLKREFS
331
C2
102
}
 70
     0
280
     1
281
     0
  0
BLOCK_RECORD
  5
F8
330
1
100
AcDbSymbolTableRecord
100
AcDbBlockTableRecord
  2
4_2_15_16I_0_in_023110_2
340
0
102
{BLKREFS
331
F9
102
}
 70
     0
280
     1
281
     0
  0
BLOCK_RECORD
  5
14B
330
1
100
AcDbSymbolTableRecord
100
AcDbBlockTableRecord
  2
5_405015E_Inch_0_in_023110_2
340
0
102
{BLKREFS
331
14C
102
}
 70
     0
280
     1
281
     0
  0
BLOCK_RECORD
  5
181
330
1
100
AcDbSymbolTableRecord
100
AcDbBlockTableRecord
  2
6_023110H_0_in_023110_2
340
0
102
{BLKREFS
331
182
102
}
 70
     0
280
     1
281
     0
  0
ENDTAB
  0
ENDSEC
  0
SECTION
  2
BLOCKS
  0
BLOCK
  5
20
330
1F
100
AcDbEntity
  8
0
100
AcDbBlockBegin
  2
*Model_Space
 70
     0
 10
0.0
 20
0.0
 30
0.0
  3
*Model_Space
  1

  0
ENDBLK
  5
21
330
1F
100
AcDbEntity
  8
0
100
AcDbBlockEnd
  0
BLOCK
  5
1C
330
1B
100
AcDbEntity
 67
     1
  8
0
100
AcDbBlockBegin
  2
*Paper_Space
 70
     0
 10
0.0
 20
0.0
 30
0.0
  3
*Paper_Space
  1

  0
ENDBLK
  5
1D
330
1B
100
AcDbEntity
 67
     1
  8
0
100
AcDbBlockEnd
  0
BLOCK
  5
24
330
23
100
AcDbEntity
  8
0
100
AcDbBlockBegin
  2
*Paper_Space0
 70
     0
 10
0.0
 20
0.0
 30
0.0
  3
*Paper_Space0
  1

  0
ENDBLK
  5
25
330
23
100
AcDbEntity
  8
0
100
AcDbBlockEnd
  0
BLOCK
  5
70
330
6E
100
AcDbEntity
  8
0
100
AcDbBlockBegin
  2
1_023110_2
 70
     2
 10
0.0
 20
0.0
 30
0.0
  3
1_023110_2
  1

  0
ATTDEF
  5
73
330
6E
100
AcDbEntity
  8
AM_6
100
AcDbText
 10
5.23625
 20
3.875
 30
0.0
 40
0.5
  1
Four-Bolt Flange Expansion
100
AcDbAttributeDefinition
  3

  2
NN
 70
     8
280
     0
  0
ATTDEF
  5
74
330
6E
100
AcDbEntity
  8
AM_6
100
AcDbText
 10
5.23625
 20
3.375
 30
0.0
 40
0.5
  1
Type E 4-Bolt Flange Bearing -Inch
100
AcDbAttributeDefinition
  3

  2
NT
 70
     8
280
     0
  0
ATTDEF
  5
75
330
6E
100
AcDbEntity
  8
AM_6
100
AcDbText
 10
5.23625
 20
2.875
 30
0.0
 40
0.5
  1
023110
100
AcDbAttributeDefinition
  3

  2
NB
 70
     8
280
     0
  0
ATTDEF
  5
76
330
6E
100
AcDbEntity
  8
AM_6
100
AcDbText
 10
5.23625
 20
2.375
 30
0.0
 40
0.5
  1
$PN.
100
AcDbAttributeDefinition
  3

  2
NBSYN
 70
     8
280
     0
  0
ATTDEF
  5
77
330
6E
100
AcDbEntity
  8
AM_6
100
AcDbText
 10
5.23625
 20
1.875
 30
0.0
 40
0.5
  1
023110
100
AcDbAttributeDefinition
  3

  2
LINA
 70
     8
280
     0
  0
ATTDEF
  5
78
330
6E
100
AcDbEntity
  8
AM_6
100
AcDbText
 10
5.23625
 20
1.375
 30
0.0
 40
0.5
  1
2-15/16
100
AcDbAttributeDefinition
  3

  2
SS
 70
     8
280
     0
  0
ATTDEF
  5
79
330
6E
100
AcDbEntity
  8
AM_6
100
AcDbText
 10
5.23625
 20
0.875
 30
0.0
 40
0.5
  1
023110
100
AcDbAttributeDefinition
  3

  2
PN
 70
     8
280
     0
  0
ATTDEF
  5
7A
330
6E
100
AcDbEntity
  8
AM_6
100
AcDbText
 10
5.23625
 20
0.375
 30
0.0
 40
0.5
  1
F4B-E-215R
100
AcDbAttributeDefinition
  3

  2
DESCRIPTION
 70
     8
280
     0
  0
ATTDEF
  5
7B
330
6E
100
AcDbEntity
  8
AM_6
100
AcDbText
 10
5.23625
 20
-0.125
 30
0.0
 40
0.5
  1
4-11/16
100
AcDbAttributeDefinition
  3

  2
A
 70
     8
280
     0
  0
ATTDEF
  5
7C
330
6E
100
AcDbEntity
  8
AM_6
100
AcDbText
 10
5.23625
 20
-0.625
 30
0.0
 40
0.5
  1
7-3/4
100
AcDbAttributeDefinition
  3

  2
B
 70
     8
280
     0
  0
ATTDEF
  5
7D
330
6E
100
AcDbEntity
  8
AM_6
100
AcDbText
 10
5.23625
 20
-1.125
 30
0.0
 40
0.5
  1
3-15/16
100
AcDbAttributeDefinition
  3

  2
C
 70
     8
280
     0
  0
ATTDEF
  5
7E
330
6E
100
AcDbEntity
  8
AM_6
100
AcDbText
 10
5.23625
 20
-1.625
 30
0.0
 40
0.5
  1
6
100
AcDbAttributeDefinition
  3

  2
D
 70
     8
280
     0
  0
ATTDEF
  5
7F
330
6E
100
AcDbEntity
  8
AM_6
100
AcDbText
 10
5.23625
 20
-2.125
 30
0.0
 40
0.5
  1
3/16
100
AcDbAttributeDefinition
  3

  2
E
 70
     8
280
     0
  0
ATTDEF
  5
80
330
6E
100
AcDbEntity
  8
AM_6
100
AcDbText
 10
5.23625
 20
-2.625
 30
0.0
 40
0.5
  1
3/4
100
AcDbAttributeDefinition
  3

  2
F
 70
     8
280
     0
  0
ATTDEF
  5
81
330
6E
100
AcDbEntity
  8
AM_6
100
AcDbText
 10
5.23625
 20
-3.125
 30
0.0
 40
0.5
  1
1-5/8
100
AcDbAttributeDefinition
  3

  2
H
 70
     8
280
     0
  0
ATTDEF
  5
82
330
6E
100
AcDbEntity
  8
AM_6
100
AcDbText
 10
5.23625
 20
-3.625
 30
0.0
 40
0.5
  1
6
100
AcDbAttributeDefinition
  3

  2
J
 70
     8
280
     0
  0
ATTDEF
  5
83
330
6E
100
AcDbEntity
  8
AM_6
100
AcDbText
 10
5.23625
 20
-4.125
 30
0.0
 40
0.5
  1
4-23/32
100
AcDbAttributeDefinition
  3

  2
L
 70
     8
280
     0
  0
ATTDEF
  5
84
330
6E
100
AcDbEntity
  8
AM_6
100
AcDbText
 10
5.23625
 20
-4.625
 30
0.0
 40
0.5
  1
baldor
100
AcDbAttributeDefinition
  3

  2
COMPANY
 70
     8
280
     0
  0
INSERT
  5
86
330
6E
100
AcDbEntity
  8
0
100
AcDbBlockReference
  2
2_2_15_16C_1_0_in_023110_2
 10
0.0
 20
0.0
 30
0.0
  0
INSERT
  5
C2
330
6E
100
AcDbEntity
  8
0
100
AcDbBlockReference
  2
3_2_15_16C_2_0_in_023110_2
 10
0.0
 20
0.0
 30
0.0
  0
INSERT
  5
F9
330
6E
100
AcDbEntity
  8
0
100
AcDbBlockReference
  2
4_2_15_16I_0_in_023110_2
 10
0.0
 20
0.0
 30
0.0
  0
INSERT
  5
14C
330
6E
100
AcDbEntity
  8
0
100
AcDbBlockReference
  2
5_405015E_Inch_0_in_023110_2
 10
0.0
 20
0.0
 30
0.0
  0
INSERT
  5
182
330
6E
100
AcDbEntity
  8
0
100
AcDbBlockReference
  2
6_023110H_0_in_023110_2
 10
0.0
 20
0.0
 30
0.0
  0
ENDBLK
  5
71
330
6E
100
AcDbEntity
  8
0
100
AcDbBlockEnd
  0
BLOCK
  5
87
330
85
100
AcDbEntity
  8
0
100
AcDbBlockBegin
  2
2_2_15_16C_1_0_in_023110_2
 70
     2
 10
0.0
 20
0.0
 30
0.0
  3
2_2_15_16C_1_0_in_023110_2
  1

  0
ATTDEF
  5
89
330
85
100
AcDbEntity
  8
AM_6
100
AcDbText
 10
4.812500000000001
 20
2.359375
 30
0.0
 40
0.5
  1
E-Type Collar -Inch
100
AcDbAttributeDefinition
  3

  2
NN
 70
     8
280
     0
  0
ATTDEF
  5
8A
330
85
100
AcDbEntity
  8
AM_6
100
AcDbText
 10
4.812500000000001
 20
1.859375
 30
0.0
 40
0.5
  1
E-Type Bearings
100
AcDbAttributeDefinition
  3

  2
NT
 70
     8
280
     0
  0
ATTDEF
  5
8B
330
85
100
AcDbEntity
  8
AM_6
100
AcDbText
 10
4.812500000000001
 20
1.359375
 30
0.0
 40
0.5
  1
2-15/16C
100
AcDbAttributeDefinition
  3

  2
NB
 70
     8
280
     0
  0
ATTDEF
  5
8C
330
85
100
AcDbEntity
  8
AM_6
100
AcDbText
 10
4.812500000000001
 20
0.8593750000000004
 30
0.0
 40
0.5
  1
$BORE.C
100
AcDbAttributeDefinition
  3

  2
NBSYN
 70
     8
280
     0
  0
ATTDEF
  5
8D
330
85
100
AcDbEntity
  8
AM_6
100
AcDbText
 10
4.812500000000001
 20
0.3593750000000004
 30
0.0
 40
0.5
  1
2-15/16C
100
AcDbAttributeDefinition
  3

  2
LINA
 70
     8
280
     0
  0
ATTDEF
  5
8E
330
85
100
AcDbEntity
  8
AM_6
100
AcDbText
 10
4.812500000000001
 20
-0.1406249999999996
 30
0.0
 40
0.5
  1
2-15/16
100
AcDbAttributeDefinition
  3

  2
BORE
 70
     8
280
     0
  0
ATTDEF
  5
8F
330
85
100
AcDbEntity
  8
AM_6
100
AcDbText
 10
4.812500000000001
 20
-0.6406249999999996
 30
0.0
 40
0.5
  1
4.71875
100
AcDbAttributeDefinition
  3

  2
L
 70
     8
280
     0
  0
ATTDEF
  5
90
330
85
100
AcDbEntity
  8
AM_6
100
AcDbText
 10
4.812500000000001
 20
-1.140625
 30
0.0
 40
0.5
  1
4.50
100
AcDbAttributeDefinition
  3

  2
A
 70
     8
280
     0
  0
ATTDEF
  5
91
330
85
100
AcDbEntity
  8
AM_6
100
AcDbText
 10
4.812500000000001
 20
-1.640625
 30
0.0
 40
0.5
  1
1.94
100
AcDbAttributeDefinition
  3

  2
B
 70
     8
280
     0
  0
ATTDEF
  5
92
330
85
100
AcDbEntity
  8
AM_6
100
AcDbText
 10
4.812500000000001
 20
-2.140625
 30
0.0
 40
0.5
  1
3.47
100
AcDbAttributeDefinition
  3

  2
C
 70
     8
280
     0
  0
ATTDEF
  5
93
330
85
100
AcDbEntity
  8
AM_6
100
AcDbText
 10
4.812500000000001
 20
-2.640625
 30
0.0
 40
0.5
  1
4.78
100
AcDbAttributeDefinition
  3

  2
D
 70
     8
280
     0
  0
ATTDEF
  5
94
330
85
100
AcDbEntity
  8
AM_6
100
AcDbText
 10
4.812500000000001
 20
-3.140625
 30
0.0
 40
0.5
  1
0.54
100
AcDbAttributeDefinition
  3

  2
E
 70
     8
280
     0
  0
ATTDEF
  5
95
330
85
100
AcDbEntity
  8
AM_6
100
AcDbText
 10
4.812500000000001
 20
-3.640625
 30
0.0
 40
0.5
  1
0.44
100
AcDbAttributeDefinition
  3

  2
F
 70
     8
280
     0
  0
ATTDEF
  5
96
330
85
100
AcDbEntity
  8
AM_6
100
AcDbText
 10
4.812500000000001
 20
-4.140625
 30
0.0
 40
0.5
  1
1/2-13
100
AcDbAttributeDefinition
  3

  2
CS
 70
     8
280
     0
  0
ATTDEF
  5
97
330
85
100
AcDbEntity
  8
AM_6
100
AcDbText
 10
4.812500000000001
 20
-4.640625
 30
0.0
 40
0.5
  1
0.5000
100
AcDbAttributeDefinition
  3

  2
NDM
 70
     8
280
     0
  0
ATTDEF
  5
98
330
85
100
AcDbEntity
  8
AM_6
100
AcDbText
 10
4.812500000000001
 20
-5.140625
 30
0.0
 40
0.5
  1
0.4170
100
AcDbAttributeDefinition
  3

  2
KDM
 70
     8
280
     0
  0
ATTDEF
  5
99
330
85
100
AcDbEntity
  8
AM_6
100
AcDbText
 10
4.812500000000001
 20
-5.640625
 30
0.0
 40
0.5
  1
baldor
100
AcDbAttributeDefinition
  3

  2
COMPANY
 70
     8
280
     0
  0
LINE
  5
9C
330
85
100
AcDbEntity
  8
AM_9
100
AcDbLine
 10
-0.8358499999999999
 20
1.743316666666666
 30
0.0
 11
-0.8438079361810462
 21
1.73535873048562
 31
0.0
  0
LINE
  5
9D
330
85
100
AcDbEntity
  8
AM_9
100
AcDbLine
 10
-0.4110983223688188
 20
1.735264989035485
 30
0.0
 11
-0.41915
 21
1.743316666666666
 31
0.0
  0
LINE
  5
9E
330
85
100
AcDbEntity
  8
AM_9
100
AcDbLine
 10
-0.41915
 20
2.317725
 30
0.0
 11
-0.3779380170033499
 21
2.35893698299665
 31
0.0
  0
LINE
  5
9F
330
85
100
AcDbEntity
  8
AM_9
100
AcDbLine
 10
-0.8773874428775408
 20
2.359262442877541
 30
0.0
 11
-0.8358499999999999
 21
2.317725
 31
0.0
  0
LINE
  5
A0
330
85
100
AcDbEntity
  8
AM_9
100
AcDbLine
 10
-0.8358499999999999
 20
2.317725
 30
0.0
 11
-0.41915
 21
2.317725
 31
0.0
  0
LINE
  5
A1
330
85
100
AcDbEntity
  8
AM_9
100
AcDbLine
 10
-0.8358499999999999
 20
1.743316666666666
 30
0.0
 11
-0.41915
 21
1.743316666666666
 31
0.0
  0
LINE
  5
A2
330
85
100
AcDbEntity
  8
AM_9
100
AcDbLine
 10
-0.41915
 20
1.743316666666666
 30
0.0
 11
-0.41915
 21
2.317725
 31
0.0
  0
LINE
  5
A3
330
85
100
AcDbEntity
  8
AM_9
100
AcDbLine
 10
-0.8358499999999999
 20
2.317725
 30
0.0
 11
-0.8358499999999999
 21
1.743316666666666
 31
0.0
  0
ELLIPSE
  5
A4
330
85
100
AcDbEntity
  8
AM_9
100
AcDbEllipse
 10
-0.6275000000000004
 20
0.7367574593302578
 30
0.0
 11
0.2083499999999993
 21
3.104656934738150E-9
 31
0.0
210
0.0
220
0.0
230
1.0
 40
0.9063077870366496
 41
2.443456527349714
 42
3.141592638688632
  0
ELLIPSE
  5
A5
330
85
100
AcDbEntity
  8
AM_9
100
AcDbEllipse
 10
-0.6274999999999981
 20
0.7367574593302582
 30
0.0
 11
0.2083499999999983
 21
0.0
 31
0.0
210
0.0
220
0.0
230
1.0
 40
0.9063077870366496
 41
3.141592653589793
 42
6.981321418191389
  0
LINE
  5
A6
330
85
100
AcDbEntity
  8
AM_9
100
AcDbLine
 10
-0.4191499999999998
 20
0.736757459330257
 30
0.0
 11
-0.4191499999999998
 21
0.9795129106929624
 31
0.0
  0
LINE
  5
A7
330
85
100
AcDbEntity
  8
AM_9
100
AcDbLine
 10
-0.8358499999999998
 20
0.9795129106929624
 30
0.0
 11
-0.8358499999999998
 21
0.736757459330257
 31
0.0
  0
LWPOLYLINE
  5
A8
330
85
100
AcDbEntity
  8
AM_9
100
AcDbPolyline
 90
       39
 70
     0
 43
0.0
 10
-0.7830392328610218
 20
0.583721682818935
 10
-0.7593020073399115
 20
0.5621914304862247
 10
-0.7317956011396489
 20
0.5437817440865208
 10
-0.6987474223092733
 20
0.5286101330073821
 10
-0.6621911159565466
 20
0.5190210942237669
 10
-0.6280517197067836
 20
0.5161190449049239
 10
-0.5928403906606963
 20
0.519015792295342
 10
-0.5607707234464419
 20
0.5270396867747148
 10
-0.5296687269042435
 20
0.5402710588245739
 10
-0.5011536508204797
 20
0.5580495763906975
 10
-0.475285172213587
 20
0.5803142753877915
 10
-0.4525274301530843
 20
0.6070374533197813
 10
-0.4340418118523274
 20
0.6373402601943328
 10
-0.4203962996108407
 20
0.6709887290329132
 10
-0.4125397647807346
 20
0.7068459548476023
 10
-0.4110888856472377
 20
0.7434194750101198
 10
-0.4164327793524712
 20
0.7803295335151329
 10
-0.4283100347992052
 20
0.8148593693106497
 10
-0.447159265084318
 20
0.8476777130326709
 10
-0.4710152303493534
 20
0.8754861606673194
 10
-0.5010896657612361
 20
0.8997111918724506
 10
-0.5329287062291146
 20
0.9172133521964033
 10
-0.5691535482167999
 20
0.9298273669908831
 10
-0.6034737703881388
 20
0.9359405638623237
 10
-0.6396686019836118
 20
0.9368513382657403
 10
-0.6726114000926374
 20
0.9328134877579397
 10
-0.7052047867875992
 20
0.9239419010702572
 10
-0.7350779176451084
 20
0.9108887685538871
 10
-0.7628457638696461
 20
0.8934395013134132
 10
-0.7878449036910097
 20
0.8716330573039578
 10
-0.8091114495748076
 20
0.8458669307679773
 10
-0.8261785742680819
 20
0.8159806573729141
 10
-0.8379267998417806
 20
0.7828936477108869
 10
-0.8436687002437788
 20
0.7474362685283912
 10
-0.8428665351399928
 20
0.710202540741052
 10
-0.835387975067105
 20
0.6735643456235487
 10
-0.8208979793551926
 20
0.6372212244336629
 10
-0.8042645659920078
 20
0.6095458402862494
 10
-0.7830392328610218
 20
0.583721682818935
  0
LINE
  5
A9
330
85
100
AcDbEntity
  8
AM_9
100
AcDbLine
 10
-0.1874999999999999
 20
1.735
 30
0.0
 11
-0.4114549513324119
 21
1.735
 31
0.0
  0
LINE
  5
AA
330
85
100
AcDbEntity
  8
AM_9
100
AcDbLine
 10
-0.8433276019299764
 20
1.735
 30
0.0
 11
-1.0675
 21
1.735
 31
0.0
  0
LINE
  5
AB
330
85
100
AcDbEntity
  8
AM_9
100
AcDbLine
 10
-1.0675
 20
-1.735
 30
0.0
 11
-0.1874999999999999
 21
-1.735
 31
0.0
  0
LWPOLYLINE
  5
AC
330
85
100
AcDbEntity
  8
AM_9
100
AcDbPolyline
 90
       21
 70
     0
 43
0.0
 10
-0.8441666666665837
 20
1.734999999999989
 10
-0.8435397115659551
 20
1.734907118711451
 10
-0.8373295718192597
 20
1.734039130040588
 10
-0.8243123941853044
 20
1.732289344884671
 10
-0.8048702427688833
 20
1.729883667903581
 10
-0.779858578008821
 20
1.727145362185531
 10
-0.74964510553155
 20
1.724379603752346
 10
-0.7168736762419282
 20
1.722066215237736
 10
-0.6810623719178874
 20
1.720344091750088
 10
-0.6461818937934775
 20
1.719504029424383
 10
-0.6107217330306929
 20
1.719474752753205
 10
-0.5774936907023028
 20
1.720225087541898
 10
-0.5456449940781295
 20
1.721629502908366
 10
-0.5156771822723364
 20
1.723574843478317
 10
-0.4886310744035439
 20
1.725836063197507
 10
-0.4637857555859907
 20
1.728337819984525
 10
-0.4433245710662879
 20
1.730698950424888
 10
-0.4267569144571566
 20
1.732805942327863
 10
-0.4159331124537894
 20
1.734280483442391
 10
-0.4110440496708659
 20
1.734966500839165
 10
-0.410833333333926
 20
1.734999999999916
  0
LINE
  5
AD
330
85
100
AcDbEntity
  8
AM_9
100
AcDbLine
 10
-0.1874999999999998
 20
1.630991273491873
 30
0.0
 11
-0.1874999999999999
 21
2.212708333333333
 31
0.0
  0
LINE
  5
AE
330
85
100
AcDbEntity
  8
AM_9
100
AcDbLine
 10
-0.1874999999999999
 20
-2.212708333333333
 30
0.0
 11
-0.1874999999999998
 21
-1.630991273491872
 31
0.0
  0
ARC
  5
AF
330
85
100
AcDbEntity
  8
AM_9
100
AcDbCircle
 10
-0.3341666666666664
 20
2.212708333333333
 30
0.0
 40
0.1466666666666666
100
AcDbArc
 50
0.0
 51
90.0
  0
ARC
  5
B0
330
85
100
AcDbEntity
  8
AM_9
100
AcDbCircle
 10
-0.3341666666666664
 20
-2.212708333333333
 30
0.0
 40
0.1466666666666669
100
AcDbArc
 50
270.0
 51
0.0
  0
LINE
  5
B1
330
85
100
AcDbEntity
  8
AM_9
100
AcDbLine
 10
-1.0675
 20
-2.359375
 30
0.0
 11
-1.0675
 21
2.359375
 31
0.0
  0
LINE
  5
B2
330
85
100
AcDbEntity
  8
AM_9
100
AcDbLine
 10
-0.3341666666666664
 20
1.630991273491872
 30
0.0
 11
-0.3341666666666666
 21
2.359375
 31
0.0
  0
LINE
  5
B3
330
85
100
AcDbEntity
  8
AM_9
100
AcDbLine
 10
-0.3341666666666666
 20
-2.359375
 30
0.0
 11
-0.3341666666666664
 21
-1.630991273491872
 31
0.0
  0
LINE
  5
B4
330
85
100
AcDbEntity
  8
AM_9
100
AcDbLine
 10
-0.3341666666666666
 20
2.359375
 30
0.0
 11
-0.3782989494865168
 21
2.359375
 31
0.0
  0
LINE
  5
B5
330
85
100
AcDbEntity
  8
AM_9
100
AcDbLine
 10
-0.8772957916776868
 20
2.359375
 30
0.0
 11
-1.0675
 21
2.359375
 31
0.0
  0
LINE
  5
B6
330
85
100
AcDbEntity
  8
AM_9
100
AcDbLine
 10
-1.0675
 20
-2.359375
 30
0.0
 11
-0.3341666666666666
 21
-2.359375
 31
0.0
  0
LWPOLYLINE
  5
B7
330
85
100
AcDbEntity
  8
AM_9
100
AcDbPolyline
 90
       21
 70
     0
 43
0.0
 10
-0.3775000000000346
 20
2.359374999999997
 10
-0.3786734557515476
 20
2.359260938908822
 10
-0.3857261987131271
 20
2.358599597555123
 10
-0.3988665703048058
 20
2.357413158489149
 10
-0.4175959855859694
 20
2.355836730599555
 10
-0.4421125870783081
 20
2.353974265058031
 10
-0.4711539002004601
 20
2.352062358750359
 10
-0.5055987123995798
 20
2.350217076568643
 10
-0.543144220525499
 20
2.348718960754191
 10
-0.5845774773085264
 20
2.347704342650792
 10
-0.627164842657915
 20
2.347343497866978
 10
-0.6707719615784985
 20
2.347710618325879
 10
-0.7131593915874536
 20
2.34876177852493
 10
-0.7531116538133509
 20
2.350395065462159
 10
-0.7894038930652764
 20
2.352403149882938
 10
-0.8201238041137334
 20
2.354500549530383
 10
-0.8451711377865374
 20
2.356474669536132
 10
-0.8628265576168184
 20
2.35800827693602
 10
-0.8737803491658269
 20
2.359021229476038
 10
-0.8774618746953062
 20
2.359369290576375
 10
-0.8774999999999481
 20
2.359374999999995
  0
LINE
  5
B9
330
85
100
AcDbEntity
  8
AM_5
100
AcDbLine
 10
-0.3774999999999999
 20
2.359375
 30
0.0
 11
-0.3774999999999999
 21
1.735000000000001
 31
0.0
  0
LINE
  5
BA
330
85
100
AcDbEntity
  8
AM_5
100
AcDbLine
 10
-0.8774999999999998
 20
2.359375
 30
0.0
 11
-0.8774999999999998
 21
1.735000000000001
 31
0.0
  0
ELLIPSE
  5
BC
330
85
100
AcDbEntity
  8
AM_4
100
AcDbEllipse
 10
-0.6274999999999997
 20
0.736757459330257
 30
0.0
 11
0.2083499999999999
 21
0.0
 31
0.0
210
0.0
220
0.0
230
1.0
 40
0.9063077870366498
 41
0.6981361110118023
 42
2.44345654257799
  0
LINE
  5
BD
330
85
100
AcDbEntity
  8
AM_4
100
AcDbLine
 10
-0.1874999999999998
 20
-1.630991273491872
 30
0.0
 11
-0.1874999999999998
 21
1.630991273491873
 31
0.0
  0
LINE
  5
BE
330
85
100
AcDbEntity
  8
AM_4
100
AcDbLine
 10
-0.3341666666666664
 20
-1.630991273491872
 30
0.0
 11
-0.3341666666666664
 21
1.630991273491872
 31
0.0
  0
LWPOLYLINE
  5
BF
330
85
100
AcDbEntity
  8
AM_4
100
AcDbPolyline
 90
       39
 70
     0
 43
0.0
 10
-0.8000952549520932
 20
0.8385093147337453
 10
-0.8247134780299593
 20
0.862737203503287
 10
-0.8456344602379237
 20
0.8906225716712176
 10
-0.8628798580382664
 20
0.9239338725103374
 10
-0.8738719622330846
 20
0.9603962989784924
 10
-0.8774884932725727
 20
0.9950473933885903
 10
-0.8744521639981296
 20
1.030532815533235
 10
-0.8653207102797763
 20
1.063067470946235
 10
-0.8499275347429514
 20
1.094438538791401
 10
-0.8292117236984132
 20
1.12267065910018
 10
-0.8029576548433193
 20
1.148095216534088
 10
-0.7718697264264411
 20
1.169746465729017
 10
-0.7362857247382693
 20
1.187141718103831
 10
-0.6971753110536012
 20
1.199537369531373
 10
-0.6551300522458325
 20
1.206441329282228
 10
-0.6122148013822506
 20
1.20731766842915
 10
-0.5685174828859262
 20
1.201886585903598
 10
-0.5273607196578808
 20
1.190431006263062
 10
-0.487932170798222
 20
1.172496692467523
 10
-0.4542411987786895
 20
1.149879987294374
 10
-0.4247140819239391
 20
1.1214304996712
 10
-0.4029647055836432
 20
1.090889148105141
 10
-0.387170822905815
 20
1.056080092367966
 10
-0.3791819922182817
 20
1.02199746415789
 10
-0.3778428531510667
 20
0.9858213949814851
 10
-0.3830059916778568
 20
0.9519243529418752
 10
-0.3946057500177344
 20
0.9181095278410509
 10
-0.4117012258620538
 20
0.8870206335847499
 10
-0.4345960911945311
 20
0.8579609935641649
 10
-0.462518843368543
 20
0.8322819848151564
 10
-0.4953200055665748
 20
0.8104474423556529
 10
-0.5322140912049976
 20
0.7934091739102602
 10
-0.5726131961235097
 20
0.7818762920464113
 10
-0.6148677265138038
 20
0.7766466552211561
 10
-0.6586540654255092
 20
0.7781214911363368
 10
-0.7010188607437625
 20
0.7863542802511123
 10
-0.7424795999638363
 20
0.8016429023935602
 10
-0.772378636795653
 20
0.8180394830386665
 10
-0.8000952550007864
 20
0.8385093145636722
  0
ELLIPSE
  5
C0
330
85
100
AcDbEntity
  8
AM_4
100
AcDbEllipse
 10
-0.6274999999999998
 20
0.9795129106929624
 30
0.0
 11
0.2083499999999999
 21
0.0
 31
0.0
210
0.0
220
0.0
230
1.0
 40
0.9063077870366504
 41
0.0
 42
6.283185307179586
  0
ENDBLK
  5
88
330
85
100
AcDbEntity
  8
0
100
AcDbBlockEnd
  0
BLOCK
  5
C3
330
C1
100
AcDbEntity
  8
0
100
AcDbBlockBegin
  2
3_2_15_16C_2_0_in_023110_2
 70
     2
 10
0.0
 20
0.0
 30
0.0
  3
3_2_15_16C_2_0_in_023110_2
  1

  0
ATTDEF
  5
C5
330
C1
100
AcDbEntity
  8
AM_6
100
AcDbText
 10
1.192500000000001
 20
2.359375
 30
0.0
 40
0.5
  1
E-Type Collar -Inch
100
AcDbAttributeDefinition
  3

  2
NN
 70
     8
280
     0
  0
ATTDEF
  5
C6
330
C1
100
AcDbEntity
  8
AM_6
100
AcDbText
 10
1.192500000000001
 20
1.859375
 30
0.0
 40
0.5
  1
E-Type Bearings
100
AcDbAttributeDefinition
  3

  2
NT
 70
     8
280
     0
  0
ATTDEF
  5
C7
330
C1
100
AcDbEntity
  8
AM_6
100
AcDbText
 10
1.192500000000001
 20
1.359375
 30
0.0
 40
0.5
  1
2-15/16C
100
AcDbAttributeDefinition
  3

  2
NB
 70
     8
280
     0
  0
ATTDEF
  5
C8
330
C1
100
AcDbEntity
  8
AM_6
100
AcDbText
 10
1.192500000000001
 20
0.859375
 30
0.0
 40
0.5
  1
$BORE.C
100
AcDbAttributeDefinition
  3

  2
NBSYN
 70
     8
280
     0
  0
ATTDEF
  5
C9
330
C1
100
AcDbEntity
  8
AM_6
100
AcDbText
 10
1.192500000000001
 20
0.359375
 30
0.0
 40
0.5
  1
2-15/16C
100
AcDbAttributeDefinition
  3

  2
LINA
 70
     8
280
     0
  0
ATTDEF
  5
CA
330
C1
100
AcDbEntity
  8
AM_6
100
AcDbText
 10
1.192500000000001
 20
-0.140625
 30
0.0
 40
0.5
  1
2-15/16
100
AcDbAttributeDefinition
  3

  2
BORE
 70
     8
280
     0
  0
ATTDEF
  5
CB
330
C1
100
AcDbEntity
  8
AM_6
100
AcDbText
 10
1.192500000000001
 20
-0.640625
 30
0.0
 40
0.5
  1
4.71875
100
AcDbAttributeDefinition
  3

  2
L
 70
     8
280
     0
  0
ATTDEF
  5
CC
330
C1
100
AcDbEntity
  8
AM_6
100
AcDbText
 10
1.192500000000001
 20
-1.140625
 30
0.0
 40
0.5
  1
4.50
100
AcDbAttributeDefinition
  3

  2
A
 70
     8
280
     0
  0
ATTDEF
  5
CD
330
C1
100
AcDbEntity
  8
AM_6
100
AcDbText
 10
1.192500000000001
 20
-1.640625
 30
0.0
 40
0.5
  1
1.94
100
AcDbAttributeDefinition
  3

  2
B
 70
     8
280
     0
  0
ATTDEF
  5
CE
330
C1
100
AcDbEntity
  8
AM_6
100
AcDbText
 10
1.192500000000001
 20
-2.140625
 30
0.0
 40
0.5
  1
3.47
100
AcDbAttributeDefinition
  3

  2
C
 70
     8
280
     0
  0
ATTDEF
  5
CF
330
C1
100
AcDbEntity
  8
AM_6
100
AcDbText
 10
1.192500000000001
 20
-2.640625
 30
0.0
 40
0.5
  1
4.78
100
AcDbAttributeDefinition
  3

  2
D
 70
     8
280
     0
  0
ATTDEF
  5
D0
330
C1
100
AcDbEntity
  8
AM_6
100
AcDbText
 10
1.192500000000001
 20
-3.140625
 30
0.0
 40
0.5
  1
0.54
100
AcDbAttributeDefinition
  3

  2
E
 70
     8
280
     0
  0
ATTDEF
  5
D1
330
C1
100
AcDbEntity
  8
AM_6
100
AcDbText
 10
1.192500000000001
 20
-3.640625
 30
0.0
 40
0.5
  1
0.44
100
AcDbAttributeDefinition
  3

  2
F
 70
     8
280
     0
  0
ATTDEF
  5
D2
330
C1
100
AcDbEntity
  8
AM_6
100
AcDbText
 10
1.192500000000001
 20
-4.140625
 30
0.0
 40
0.5
  1
1/2-13
100
AcDbAttributeDefinition
  3

  2
CS
 70
     8
280
     0
  0
ATTDEF
  5
D3
330
C1
100
AcDbEntity
  8
AM_6
100
AcDbText
 10
1.192500000000001
 20
-4.640625
 30
0.0
 40
0.5
  1
0.5000
100
AcDbAttributeDefinition
  3

  2
NDM
 70
     8
280
     0
  0
ATTDEF
  5
D4
330
C1
100
AcDbEntity
  8
AM_6
100
AcDbText
 10
1.192500000000001
 20
-5.140625
 30
0.0
 40
0.5
  1
0.4170
100
AcDbAttributeDefinition
  3

  2
KDM
 70
     8
280
     0
  0
ATTDEF
  5
D5
330
C1
100
AcDbEntity
  8
AM_6
100
AcDbText
 10
1.192500000000001
 20
-5.640625
 30
0.0
 40
0.5
  1
baldor
100
AcDbAttributeDefinition
  3

  2
COMPANY
 70
     8
280
     0
  0
LINE
  5
D6
330
C1
100
AcDbEntity
  8
AM_9
100
AcDbLine
 10
-4.039149999999999
 20
1.743316666666667
 30
0.0
 11
-4.039149999999999
 21
2.317725
 31
0.0
  0
LINE
  5
D7
330
C1
100
AcDbEntity
  8
AM_9
100
AcDbLine
 10
-4.455849999999999
 20
2.317725
 30
0.0
 11
-4.455849999999999
 21
1.743316666666667
 31
0.0
  0
LINE
  5
D8
330
C1
100
AcDbEntity
  8
AM_9
100
AcDbLine
 10
-4.455849999999999
 20
1.743316666666667
 30
0.0
 11
-4.039149999999999
 21
1.743316666666667
 31
0.0
  0
LINE
  5
D9
330
C1
100
AcDbEntity
  8
AM_9
100
AcDbLine
 10
-4.455849999999999
 20
1.743316666666667
 30
0.0
 11
-4.463883499926557
 21
1.735283166740109
 31
0.0
  0
LINE
  5
DA
330
C1
100
AcDbEntity
  8
AM_9
100
AcDbLine
 10
-4.031178349708308
 20
1.735345016374976
 30
0.0
 11
-4.039149999999999
 21
1.743316666666667
 31
0.0
  0
LINE
  5
DB
330
C1
100
AcDbEntity
  8
AM_9
100
AcDbLine
 10
-4.455849999999999
 20
2.317725
 30
0.0
 11
-4.039149999999999
 21
2.317725
 31
0.0
  0
LINE
  5
DC
330
C1
100
AcDbEntity
  8
AM_9
100
AcDbLine
 10
-4.039149999999999
 20
2.317725
 30
0.0
 11
-3.997499999999999
 21
2.359375
 31
0.0
  0
LINE
  5
DD
330
C1
100
AcDbEntity
  8
AM_9
100
AcDbLine
 10
-4.4975
 20
2.359375
 30
0.0
 11
-4.455849999999999
 21
2.317725
 31
0.0
  0
LWPOLYLINE
  5
DE
330
C1
100
AcDbEntity
  8
AM_9
100
AcDbPolyline
 90
       38
 70
     0
 43
0.0
 10
-4.087055668756485
 20
0.5890254700626292
 10
-4.067559625999035
 20
0.6141961062210209
 10
-4.051990675361803
 20
0.6415065184640424
 10
-4.038904494522101
 20
0.6760599527747658
 10
-4.031961797028246
 20
0.7117782647958293
 10
-4.031460288434045
 20
0.7488859425485209
 10
-4.037670428180739
 20
0.7851620103667684
 10
-4.050687605814695
 20
0.8198680908671213
 10
-4.070129757231116
 20
0.85175045400154
 10
-4.095141421991178
 20
0.879352269910662
 10
-4.125354894468449
 20
0.9024724552481161
 10
-4.158126323758071
 20
0.9194273976470249
 10
-4.193937628082112
 20
0.9310007182481714
 10
-4.228818106206522
 20
0.9364023306210565
 10
-4.264278266969306
 20
0.9365686464404278
 10
-4.297506309297696
 20
0.9317852251762043
 10
-4.32935500592187
 20
0.9224310735818785
 10
-4.359322817727663
 20
0.9085724076092766
 10
-4.386368925596456
 20
0.8907712261375355
 10
-4.411214244414008
 20
0.8680718266968884
 10
-4.431675428933711
 20
0.8420767489012024
 10
-4.448243085542843
 20
0.811286905893542
 10
-4.45906688754621
 20
0.778219582931986
 10
-4.463955950329133
 20
0.7420183810332149
 10
-4.46223876642017
 20
0.7051854586134623
 10
-4.453666359535574
 20
0.6681214688356935
 10
-4.43847284027298
 20
0.632567701221001
 10
-4.41710814663297
 20
0.5999750677882284
 10
-4.390025984542449
 20
0.5711544343957886
 10
-4.359209367588373
 20
0.5482001815905637
 10
-4.324552376945245
 20
0.5307967420929403
 10
-4.289806650676081
 20
0.520478917735267
 10
-4.253696659427122
 20
0.5162103991709229
 10
-4.219682542507812
 20
0.5180049648621396
 10
-4.186463263442655
 20
0.5252208835120284
 10
-4.155262826461813
 20
0.5374759647080078
 10
-4.126492724445748
 20
0.5542453298024038
 10
-4.087055668756485
 20
0.589025470062629
  0
LINE
  5
DF
330
C1
100
AcDbEntity
  8
AM_9
100
AcDbLine
 10
-4.6875
 20
-1.735
 30
0.0
 11
-3.807499999999999
 21
-1.735
 31
0.0
  0
LINE
  5
E0
330
C1
100
AcDbEntity
  8
AM_9
100
AcDbLine
 10
-3.807499999999999
 20
1.735
 30
0.0
 11
-4.031638124101324
 21
1.735
 31
0.0
  0
LINE
  5
E1
330
C1
100
AcDbEntity
  8
AM_9
100
AcDbLine
 10
-4.463505839839121
 20
1.735
 30
0.0
 11
-4.6875
 21
1.735
 31
0.0
  0
LWPOLYLINE
  5
E2
330
C1
100
AcDbEntity
  8
AM_9
100
AcDbPolyline
 90
       21
 70
     0
 43
0.0
 10
-4.464166666666195
 20
1.734999999999933
 10
-4.463911114352761
 20
1.734963553231908
 10
-4.458567220647528
 20
1.73421087214332
 10
-4.446689965200794
 20
1.732602866727684
 10
-4.427840734915681
 20
1.730235875674304
 10
-4.403984769650646
 20
1.72756835787447
 10
-4.373910334238763
 20
1.724733588278365
 10
-4.342071293770885
 20
1.722381168611359
 10
-4.305846451783199
 20
1.720523846078998
 10
-4.271526229611861
 20
1.719574172208164
 10
-4.235331398016387
 20
1.719429892626525
 10
-4.202388599907362
 20
1.720064026576171
 10
-4.1697952132124
 20
1.721407489605135
 10
-4.13992208235489
 20
1.723261129001908
 10
-4.112154236130353
 20
1.725513960970386
 10
-4.087155096308989
 20
1.727974975329969
 10
-4.065888550425191
 20
1.730388278227267
 10
-4.048821425731918
 20
1.732535648310732
 10
-4.037073200158218
 20
1.734121883030203
 10
-4.031331299756221
 20
1.7349290183679
 10
-4.030833333333539
 20
1.734999999999971
  0
ELLIPSE
  5
E3
330
C1
100
AcDbEntity
  8
AM_9
100
AcDbEllipse
 10
-4.247499999999996
 20
0.7367574593302573
 30
0.0
 11
0.2083500000000029
 21
0.0
 31
0.0
210
0.0
220
0.0
230
1.0
 40
0.9063077870366496
 41
2.443456542577992
 42
3.141592653589793
  0
LINE
  5
E4
330
C1
100
AcDbEntity
  8
AM_9
100
AcDbLine
 10
-4.039149999999999
 20
0.7367574593302569
 30
0.0
 11
-4.039149999999999
 21
0.9795129106929624
 31
0.0
  0
LINE
  5
E5
330
C1
100
AcDbEntity
  8
AM_9
100
AcDbLine
 10
-4.455849999999999
 20
0.9795129106929624
 30
0.0
 11
-4.455849999999999
 21
0.7367574593302569
 31
0.0
  0
ELLIPSE
  5
E6
330
C1
100
AcDbEntity
  8
AM_9
100
AcDbEllipse
 10
-4.247499999999999
 20
0.7367574593302568
 30
0.0
 11
0.2083500000000002
 21
3.104656934738163E-9
 31
0.0
210
0.0
220
0.0
230
1.0
 40
0.9063077870366489
 41
3.141592638688632
 42
6.981321402963124
  0
LINE
  5
E7
330
C1
100
AcDbEntity
  8
AM_9
100
AcDbLine
 10
-3.9375
 20
-2.359375
 30
0.0
 11
-3.807499999999999
 21
-2.359375
 31
0.0
  0
LINE
  5
E8
330
C1
100
AcDbEntity
  8
AM_9
100
AcDbLine
 10
-3.807499999999999
 20
2.359375
 30
0.0
 11
-3.9375
 21
2.359375
 31
0.0
  0
LINE
  5
E9
330
C1
100
AcDbEntity
  8
AM_9
100
AcDbLine
 10
-3.807499999999999
 20
2.359375
 30
0.0
 11
-3.807499999999999
 21
-2.359375
 31
0.0
  0
LINE
  5
EA
330
C1
100
AcDbEntity
  8
AM_5
100
AcDbLine
 10
-4.4975
 20
2.359375
 30
0.0
 11
-4.4975
 21
1.735
 31
0.0
  0
LINE
  5
EB
330
C1
100
AcDbEntity
  8
AM_5
100
AcDbLine
 10
-3.9975
 20
2.359375
 30
0.0
 11
-3.9975
 21
1.735
 31
0.0
  0
ELLIPSE
  5
EC
330
C1
100
AcDbEntity
  8
AM_4
100
AcDbEllipse
 10
-4.2475
 20
0.7367574593302573
 30
0.0
 11
0.2083499999999993
 21
3.104656934738150E-9
 31
0.0
210
0.0
220
0.0
230
1.0
 40
0.906307787036651
 41
1.570796313289858
 42
2.443456527349705
  0
ELLIPSE
  5
ED
330
C1
100
AcDbEntity
  8
AM_4
100
AcDbEllipse
 10
-4.2475
 20
0.7367574593302573
 30
0.0
 11
0.2083499999999993
 21
3.104656934738150E-9
 31
0.0
210
0.0
220
0.0
230
1.0
 40
0.906307787036651
 41
0.6981360957835321
 42
1.570796313289858
  0
LWPOLYLINE
  5
EE
330
C1
100
AcDbEntity
  8
AM_4
100
AcDbPolyline
 90
       38
 70
     0
 43
0.0
 10
-4.056785365243439
 20
0.8556327230851023
 10
-4.082902722853203
 20
0.8319978546552359
 10
-4.112430600228177
 20
0.8120887096414533
 10
-4.149608774653522
 20
0.7944148519389849
 10
-4.189331614328398
 20
0.7825650159382259
 10
-4.23206404648549
 20
0.7768118464194397
 10
-4.275218466308975
 20
0.777752811058333
 10
-4.318297789163622
 20
0.7856384364243614
 10
-4.359356891605149
 20
0.8002116877431518
 10
-4.396893492189768
 20
0.8210175879704965
 10
-4.430047175440949
 20
0.8474712925964307
 10
-4.456843903191147
 20
0.8778414006266254
 10
-4.477507460099332
 20
0.9119003483436747
 10
-4.490622732471661
 20
0.9467604126244724
 10
-4.496958491903517
 20
0.9829201152517155
 10
-4.496326544248451
 20
1.017684204968099
 10
-4.489273801286872
 20
1.051604492999284
 10
-4.476133429695193
 20
1.083405041817086
 10
-4.457404014414029
 20
1.112683192664022
 10
-4.432887412921691
 20
1.139418418871424
 10
-4.403846099799539
 20
1.162249125616388
 10
-4.36940128760042
 20
1.181473742283764
 10
-4.3318557794745
 20
1.195611589965185
 10
-4.290422522691473
 20
1.204626370398941
 10
-4.247835157342084
 20
1.207702717556654
 10
-4.204228038421501
 20
1.204574167944354
 10
-4.161840608412546
 20
1.195222351923879
 10
-4.121888346186648
 20
1.179716108074031
 10
-4.085596106934723
 20
1.158432437544275
 10
-4.054876195886266
 20
1.132409697208659
 10
-4.029828862213462
 20
1.101882776657778
 10
-4.012173442383181
 20
1.069193830356992
 10
-4.001219650834172
 20
1.033993748365556
 10
-3.997538125304693
 20
0.9991012288579005
 10
-4.00046951277289
 20
0.9638860810333546
 10
-4.009715035880981
 20
0.9301675331894284
 10
-4.024844822729625
 20
0.8980713951308601
 10
-4.056785365177163
 20
0.8556327229866553
  0
LINE
  5
EF
330
C1
100
AcDbEntity
  8
AM_4
100
AcDbLine
 10
-4.540833333333333
 20
-2.359375
 30
0.0
 11
-3.9375
 21
-2.359375
 31
0.0
  0
LINE
  5
F0
330
C1
100
AcDbEntity
  8
AM_4
100
AcDbLine
 10
-3.9375
 20
2.359375
 30
0.0
 11
-3.997499999999999
 21
2.359375
 31
0.0
  0
LINE
  5
F1
330
C1
100
AcDbEntity
  8
AM_4
100
AcDbLine
 10
-4.4975
 20
2.359375
 30
0.0
 11
-4.540833333333333
 21
2.359375
 31
0.0
  0
LWPOLYLINE
  5
F2
330
C1
100
AcDbEntity
  8
AM_4
100
AcDbPolyline
 90
       20
 70
     0
 43
0.0
 10
-3.997500000000038
 20
2.359374999999996
 10
-4.00054783600187
 20
2.359084739458873
 10
-4.009679289720223
 20
2.358236048300077
 10
-4.025072465257048
 20
2.35687660944692
 10
-4.045788276301586
 20
2.355188665856818
 10
-4.07204234515668
 20
2.353283729386875
 10
-4.103130273573558
 20
2.351368178351641
 10
-4.13871427526173
 20
2.349630216729071
 10
-4.177824688946398
 20
2.348282025785208
 10
-4.219869947754167
 20
2.347491113295463
 10
-4.262785198617748
 20
2.347388660866131
 10
-4.306482517114073
 20
2.348016128508163
 10
-4.347639280342118
 20
2.349281417176336
 10
-4.387067829201778
 20
2.351105280705856
 10
-4.42075880122131
 20
2.353136104588019
 10
-4.450285918076061
 20
2.355272190414748
 10
-4.472035294416356
 20
2.35705746351865
 10
-4.487829177094184
 20
2.358466058397719
 10
-4.495818007781717
 20
2.359214383260974
 10
-4.49749999999988
 20
2.359374999999988
  0
LINE
  5
F3
330
C1
100
AcDbEntity
  8
AM_4
100
AcDbLine
 10
-4.6875
 20
2.212708333333333
 30
0.0
 11
-4.6875
 21
-2.212708333333333
 31
0.0
  0
ARC
  5
F4
330
C1
100
AcDbEntity
  8
AM_4
100
AcDbCircle
 10
-4.54083333333333
 20
-2.212708333333331
 30
0.0
 40
0.1466666666666701
100
AcDbArc
 50
180.0
 51
270.0
  0
ARC
  5
F5
330
C1
100
AcDbEntity
  8
AM_4
100
AcDbCircle
 10
-4.54083333333333
 20
2.212708333333331
 30
0.0
 40
0.1466666666666692
100
AcDbArc
 50
90.0
 51
180.0
  0
LINE
  5
F6
330
C1
100
AcDbEntity
  8
AM_4
100
AcDbLine
 10
-4.540833333333333
 20
2.359375
 30
0.0
 11
-4.540833333333333
 21
-2.359375
 31
0.0
  0
ELLIPSE
  5
F7
330
C1
100
AcDbEntity
  8
AM_4
100
AcDbEllipse
 10
-4.2475
 20
0.9795129106929613
 30
0.0
 11
0.2083500000000011
 21
0.0
 31
0.0
210
0.0
220
0.0
230
1.0
 40
0.9063077870366515
 41
0.0
 42
6.283185307179586
  0
ENDBLK
  5
C4
330
C1
100
AcDbEntity
  8
0
100
AcDbBlockEnd
  0
BLOCK
  5
FA
330
F8
100
AcDbEntity
  8
0
100
AcDbBlockBegin
  2
4_2_15_16I_0_in_023110_2
 70
     2
 10
0.0
 20
0.0
 30
0.0
  3
4_2_15_16I_0_in_023110_2
  1

  0
ATTDEF
  5
FC
330
F8
100
AcDbEntity
  8
AM_6
100
AcDbText
 10
4.8125
 20
2.392260416666667
 30
0.0
 40
0.5
  1
E-Type Insert -Inch
100
AcDbAttributeDefinition
  3

  2
NN
 70
     8
280
     0
  0
ATTDEF
  5
FD
330
F8
100
AcDbEntity
  8
AM_6
100
AcDbText
 10
4.8125
 20
1.892260416666667
 30
0.0
 40
0.5
  1
E-Type Bearings
100
AcDbAttributeDefinition
  3

  2
NT
 70
     8
280
     0
  0
ATTDEF
  5
FE
330
F8
100
AcDbEntity
  8
AM_6
100
AcDbText
 10
4.8125
 20
1.392260416666667
 30
0.0
 40
0.5
  1
2-15/16I
100
AcDbAttributeDefinition
  3

  2
NB
 70
     8
280
     0
  0
ATTDEF
  5
FF
330
F8
100
AcDbEntity
  8
AM_6
100
AcDbText
 10
4.8125
 20
0.8922604166666668
 30
0.0
 40
0.5
  1
$BORE.I
100
AcDbAttributeDefinition
  3

  2
NBSYN
 70
     8
280
     0
  0
ATTDEF
  5
100
330
F8
100
AcDbEntity
  8
AM_6
100
AcDbText
 10
4.8125
 20
0.3922604166666668
 30
0.0
 40
0.5
  1
2-15/16I
100
AcDbAttributeDefinition
  3

  2
LINA
 70
     8
280
     0
  0
ATTDEF
  5
101
330
F8
100
AcDbEntity
  8
AM_6
100
AcDbText
 10
4.8125
 20
-0.1077395833333332
 30
0.0
 40
0.5
  1
2-15/16
100
AcDbAttributeDefinition
  3

  2
BORE
 70
     8
280
     0
  0
ATTDEF
  5
102
330
F8
100
AcDbEntity
  8
AM_6
100
AcDbText
 10
4.8125
 20
-0.6077395833333332
 30
0.0
 40
0.5
  1
4.50
100
AcDbAttributeDefinition
  3

  2
A
 70
     8
280
     0
  0
ATTDEF
  5
103
330
F8
100
AcDbEntity
  8
AM_6
100
AcDbText
 10
4.8125
 20
-1.107739583333333
 30
0.0
 40
0.5
  1
1.94
100
AcDbAttributeDefinition
  3

  2
B
 70
     8
280
     0
  0
ATTDEF
  5
104
330
F8
100
AcDbEntity
  8
AM_6
100
AcDbText
 10
4.8125
 20
-1.607739583333333
 30
0.0
 40
0.5
  1
3.47
100
AcDbAttributeDefinition
  3

  2
C
 70
     8
280
     0
  0
ATTDEF
  5
105
330
F8
100
AcDbEntity
  8
AM_6
100
AcDbText
 10
4.8125
 20
-2.107739583333333
 30
0.0
 40
0.5
  1
4.78
100
AcDbAttributeDefinition
  3

  2
D
 70
     8
280
     0
  0
ATTDEF
  5
106
330
F8
100
AcDbEntity
  8
AM_6
100
AcDbText
 10
4.8125
 20
-2.607739583333333
 30
0.0
 40
0.5
  1
0.54
100
AcDbAttributeDefinition
  3

  2
E
 70
     8
280
     0
  0
ATTDEF
  5
107
330
F8
100
AcDbEntity
  8
AM_6
100
AcDbText
 10
4.8125
 20
-3.107739583333333
 30
0.0
 40
0.5
  1
0.44
100
AcDbAttributeDefinition
  3

  2
F
 70
     8
280
     0
  0
ATTDEF
  5
108
330
F8
100
AcDbEntity
  8
AM_6
100
AcDbText
 10
4.8125
 20
-3.607739583333333
 30
0.0
 40
0.5
  1
baldor
100
AcDbAttributeDefinition
  3

  2
COMPANY
 70
     8
280
     0
  0
LINE
  5
109
330
F8
100
AcDbEntity
  8
AM_9
100
AcDbLine
 10
-0.8975
 20
1.735
 30
0.0
 11
-0.8975
 21
1.46875
 31
0.0
  0
LINE
  5
10A
330
F8
100
AcDbEntity
  8
AM_9
100
AcDbLine
 10
-0.3574999999999997
 20
1.46875
 30
0.0
 11
-0.3574999999999997
 21
1.735
 31
0.0
  0
LINE
  5
10B
330
F8
100
AcDbEntity
  8
AM_9
100
AcDbLine
 10
-4.5175
 20
1.735000000000001
 30
0.0
 11
-4.5175
 21
1.46875
 31
0.0
  0
LINE
  5
10C
330
F8
100
AcDbEntity
  8
AM_9
100
AcDbLine
 10
-3.9775
 20
1.46875
 30
0.0
 11
-3.9775
 21
1.735000000000001
 31
0.0
  0
LINE
  5
10D
330
F8
100
AcDbEntity
  8
AM_9
100
AcDbLine
 10
-4.6875
 20
-1.46875
 30
0.0
 11
-0.1874999999999998
 21
-1.46875
 31
0.0
  0
LINE
  5
10E
330
F8
100
AcDbEntity
  8
AM_9
100
AcDbLine
 10
-0.1874999999999998
 20
1.46875
 30
0.0
 11
-0.3574999999999997
 21
1.46875
 31
0.0
  0
LINE
  5
10F
330
F8
100
AcDbEntity
  8
AM_9
100
AcDbLine
 10
-0.8975
 20
1.46875
 30
0.0
 11
-3.9775
 21
1.46875
 31
0.0
  0
LINE
  5
110
330
F8
100
AcDbEntity
  8
AM_9
100
AcDbLine
 10
-4.5175
 20
1.46875
 30
0.0
 11
-4.6875
 21
1.46875
 31
0.0
  0
LWPOLYLINE
  5
111
330
F8
100
AcDbEntity
  8
AM_9
100
AcDbPolyline
 90
       21
 70
     0
 43
0.0
 10
-0.8974999999991011
 20
1.468749999999835
 10
-0.8959288277657141
 20
1.46846198387145
 10
-0.887605178908813
 20
1.466963280588572
 10
-0.8718173937474728
 20
1.464246410747712
 10
-0.8497511502687425
 20
1.460726578212288
 10
-0.8208671395161073
 20
1.456611620558014
 10
-0.7869928959814133
 20
1.452502855889976
 10
-0.7475182068001408
 20
1.448699738546094
 10
-0.7056716100142294
 20
1.44583448676265
 10
-0.6602546679864263
 20
1.444091212761473
 10
-0.6158379920911908
 20
1.44376679728011
 10
-0.5704626513292894
 20
1.444845950834684
 10
-0.528294184821612
 20
1.447124167535464
 10
-0.4877463826327757
 20
1.450468074818341
 10
-0.451736776220192
 20
1.454379342995998
 10
-0.4196950317141668
 20
1.458598459941692
 10
-0.3939476309035071
 20
1.462488725293492
 10
-0.3742084440722694
 20
1.465770505503604
 10
-0.3622194827047857
 20
1.467889749046711
 10
-0.3575333073860774
 20
1.468743877475205
 10
-0.3575000000009113
 20
1.468749999999833
  0
LINE
  5
112
330
F8
100
AcDbEntity
  8
AM_9
100
AcDbLine
 10
-0.6204910598591814
 20
1.443736709979315
 30
0.0
 11
-0.6274999999999998
 21
1.443719696651673
 31
0.0
  0
LINE
  5
113
330
F8
100
AcDbEntity
  8
AM_9
100
AcDbLine
 10
-0.3575000000009113
 20
1.468749999999833
 30
0.0
 11
-0.3783386854214505
 21
1.465062429790113
 31
0.0
  0
LWPOLYLINE
  5
114
330
F8
100
AcDbEntity
  8
AM_9
100
AcDbPolyline
 90
       21
 70
     0
 43
0.0
 10
-4.517499999999101
 20
1.468749999999835
 10
-4.515928827765714
 20
1.46846198387145
 10
-4.507605178908813
 20
1.466963280588572
 10
-4.491817393747473
 20
1.464246410747712
 10
-4.469751150268743
 20
1.460726578212288
 10
-4.440867139516108
 20
1.456611620558014
 10
-4.406992895981413
 20
1.452502855889976
 10
-4.367518206800141
 20
1.448699738546094
 10
-4.325671610014229
 20
1.44583448676265
 10
-4.280254667986426
 20
1.444091212761473
 10
-4.235837992091191
 20
1.44376679728011
 10
-4.19046265132929
 20
1.444845950834684
 10
-4.148294184821612
 20
1.447124167535464
 10
-4.107746382632776
 20
1.450468074818341
 10
-4.071736776220192
 20
1.454379342995998
 10
-4.039695031714167
 20
1.458598459941692
 10
-4.013947630903507
 20
1.462488725293492
 10
-3.99420844407227
 20
1.465770505503604
 10
-3.982219482704786
 20
1.467889749046711
 10
-3.977533307386078
 20
1.468743877475205
 10
-3.977500000000911
 20
1.468749999999833
  0
LINE
  5
115
330
F8
100
AcDbEntity
  8
AM_9
100
AcDbLine
 10
-4.240491059859182
 20
1.443736709979315
 30
0.0
 11
-4.2475
 21
1.443719696651673
 31
0.0
  0
LINE
  5
116
330
F8
100
AcDbEntity
  8
AM_9
100
AcDbLine
 10
-3.977500000000911
 20
1.468749999999833
 30
0.0
 11
-3.998338685421443
 21
1.465062429790115
 31
0.0
  0
LWPOLYLINE
  5
117
330
F8
100
AcDbEntity
  8
AM_9
100
AcDbPolyline
 90
        4
 70
     0
 43
0.0
 10
-0.8899198467026144
 20
0.6777157102165215
 10
-0.8904980366448542
 20
0.6755500854848517
 10
-0.8969703524482966
 20
0.6359992588781278
 10
-0.8974999992044566
 20
0.6207393565795334
  0
LWPOLYLINE
  5
118
330
F8
100
AcDbEntity
  8
AM_9
100
AcDbPolyline
 90
        4
 70
     0
 43
0.0
 10
-0.8305709736668444
 20
0.7774157203666493
 10
-0.8551660819992802
 20
0.7492314867968826
 10
-0.8761330883427325
 20
0.7145304328268821
 10
-0.8899198467026144
 20
0.6777157102165215
  0
LWPOLYLINE
  5
119
330
F8
100
AcDbEntity
  8
AM_9
100
AcDbPolyline
 90
        5
 70
     0
 43
0.0
 10
-0.7521672142410437
 20
0.8294694863411795
 10
-0.7565343790635876
 20
0.827524420901277
 10
-0.7945318970791392
 20
0.8064699022870238
 10
-0.8272358460687362
 20
0.7806066863761535
 10
-0.8305709736668444
 20
0.7774157203666493
  0
LINE
  5
11A
330
F8
100
AcDbEntity
  8
AM_9
100
AcDbLine
 10
-0.8975
 20
0.733231005674801
 30
0.0
 11
-0.8975
 21
0.6206498696221466
 31
0.0
  0
LINE
  5
11B
330
F8
100
AcDbEntity
  8
AM_9
100
AcDbLine
 10
-0.3574999999999997
 20
0.6206963085489487
 30
0.0
 11
-0.3574999999999997
 21
0.7331837551069111
 31
0.0
  0
LWPOLYLINE
  5
11C
330
F8
100
AcDbEntity
  8
AM_9
100
AcDbPolyline
 90
       21
 70
     0
 43
0.0
 10
-0.8974999992044566
 20
0.6207393565795334
 10
-0.8959288277657141
 20
0.5942384652990501
 10
-0.887605178908813
 20
0.5543266602890735
 10
-0.8718173937474728
 20
0.5146549001252677
 10
-0.8497511502687425
 20
0.4783822910042209
 10
-0.8208671395161073
 20
0.4448071962208214
 10
-0.7869928959814133
 20
0.416408021693074
 10
-0.7475182068001406
 20
0.3930485434822679
 10
-0.7056716100142291
 20
0.3768134399344055
 10
-0.6602546679864263
 20
0.3674035359155821
 10
-0.6158379920911908
 20
0.3656874776556234
 10
-0.5704626513292894
 20
0.3714375963189231
 10
-0.528294184821612
 20
0.3839945893020683
 10
-0.4877463826327757
 20
0.4036216489379055
 10
-0.451736776220192
 20
0.4288933275494775
 10
-0.4196950317141668
 20
0.460195145270786
 10
-0.3939476309035071
 20
0.4952930133785908
 10
-0.3742084440722694
 20
0.5347160913211636
 10
-0.3622194827047857
 20
0.5748043660216929
 10
-0.3575333073860774
 20
0.6168744615420734
 10
-0.3575000008077867
 20
0.6207016431600074
  0
LWPOLYLINE
  5
11D
330
F8
100
AcDbEntity
  8
AM_9
100
AcDbPolyline
 90
        4
 70
     0
 43
0.0
 10
-0.4244514776393526
 20
0.7774376176221025
 10
-0.4422197270007083
 20
0.7931411348950417
 10
-0.4781873743001141
 20
0.8172771728725324
 10
-0.5024700193291614
 20
0.8293112358193158
  0
LWPOLYLINE
  5
11E
330
F8
100
AcDbEntity
  8
AM_9
100
AcDbPolyline
 90
        5
 70
     0
 43
0.0
 10
-0.3646802370096094
 20
0.6762276122259999
 10
-0.3709766191534732
 20
0.6960428836190908
 10
-0.3881252286331145
 20
0.7316689537200969
 10
-0.4123867810931133
 20
0.7647653412907126
 10
-0.4244514776393526
 20
0.7774376176221025
  0
LWPOLYLINE
  5
11F
330
F8
100
AcDbEntity
  8
AM_9
100
AcDbPolyline
 90
        3
 70
     0
 43
0.0
 10
-0.3575000008077867
 20
0.6207016431600074
 10
-0.3604698719040151
 20
0.6566856791621793
 10
-0.3646802370096094
 20
0.6762276122259999
  0
LWPOLYLINE
  5
120
330
F8
100
AcDbEntity
  8
AM_9
100
AcDbPolyline
 90
       21
 70
     0
 43
0.0
 10
-0.3575000009394229
 20
0.7332630968872687
 10
-0.3591383107480844
 20
0.7062192301036738
 10
-0.3678138085245009
 20
0.6656760509708041
 10
-0.3836250742934825
 20
0.6265951842282542
 10
-0.4063144360474026
 20
0.590019755107444
 10
-0.435105292961221
 20
0.5571759590203642
 10
-0.4696735693071405
 20
0.5288625129938059
 10
-0.5087188072382276
 20
0.506295908375424
 10
-0.5512489504845455
 20
0.4903139345042478
 10
-0.595979851350669
 20
0.481402205714283
 10
-0.6411612936216337
 20
0.4799717700862892
 10
-0.6859541314426059
 20
0.4858312307011138
 10
-0.7288359265464247
 20
0.498788371175763
 10
-0.7688967599492068
 20
0.5183059791630641
 10
-0.8052723509504445
 20
0.5440508430748552
 10
-0.8366915933989035
 20
0.5749774044417181
 10
-0.8624208963996564
 20
0.6105139554012956
 10
-0.8815031028337729
 20
0.6492435274687914
 10
-0.8932465815048639
 20
0.6898451008822204
 10
-0.8974908230997388
 20
0.7312245649614673
 10
-0.8974999996621129
 20
0.7332304419296061
  0
LWPOLYLINE
  5
121
330
F8
100
AcDbEntity
  8
AM_9
100
AcDbPolyline
 90
        7
 70
     0
 43
0.0
 10
-0.8167309731389987
 20
0.9032587527007591
 10
-0.8102181921754468
 20
0.9085405041072084
 10
-0.7743784591817415
 20
0.9322922846077885
 10
-0.7340932164652809
 20
0.9505108006401444
 10
-0.690739549598172
 20
0.9626988618758441
 10
-0.6593462138835954
 20
0.9674242732439081
 10
-0.6274999999999998
 20
0.9690127339343693
  0
LWPOLYLINE
  5
122
330
F8
100
AcDbEntity
  8
AM_9
100
AcDbPolyline
 90
        6
 70
     0
 43
0.0
 10
-0.8974999996621129
 20
0.7332304419296061
 10
-0.8940728054469794
 20
0.7717267926801303
 10
-0.8832879294335011
 20
0.8106767367509481
 10
-0.8653733757649229
 20
0.8469703838685858
 10
-0.8409304201123243
 20
0.8797811018221683
 10
-0.8167309731389987
 20
0.9032587527007591
  0
LWPOLYLINE
  5
123
330
F8
100
AcDbEntity
  8
AM_9
100
AcDbPolyline
 90
        4
 70
     0
 43
0.0
 10
-4.509919846702615
 20
0.6777157102165219
 10
-4.510498036644854
 20
0.6755500854848517
 10
-4.516970352448297
 20
0.6359992588781278
 10
-4.517499999204457
 20
0.6207393565795335
  0
LWPOLYLINE
  5
124
330
F8
100
AcDbEntity
  8
AM_9
100
AcDbPolyline
 90
        4
 70
     0
 43
0.0
 10
-4.45106331537677
 20
0.7769340739845706
 10
-4.47516608199928
 20
0.7492314867968826
 10
-4.496133088342733
 20
0.7145304328268821
 10
-4.509919846702615
 20
0.6777157102165219
  0
LWPOLYLINE
  5
125
330
F8
100
AcDbEntity
  8
AM_9
100
AcDbPolyline
 90
        5
 70
     0
 43
0.0
 10
-4.371502916339876
 20
0.8297577337815345
 10
-4.376534379063588
 20
0.827524420901277
 10
-4.414531897079139
 20
0.8064699022870238
 10
-4.447235846068736
 20
0.7806066863761535
 10
-4.45106331537677
 20
0.7769340739845706
  0
LINE
  5
126
330
F8
100
AcDbEntity
  8
AM_9
100
AcDbLine
 10
-4.5175
 20
0.7332310056748012
 30
0.0
 11
-4.5175
 21
0.6206498696221466
 31
0.0
  0
LINE
  5
127
330
F8
100
AcDbEntity
  8
AM_9
100
AcDbLine
 10
-3.9775
 20
0.6206963085489487
 30
0.0
 11
-3.9775
 21
0.7331837551069114
 31
0.0
  0
LWPOLYLINE
  5
128
330
F8
100
AcDbEntity
  8
AM_9
100
AcDbPolyline
 90
       21
 70
     0
 43
0.0
 10
-4.517499999204457
 20
0.6207393565795335
 10
-4.515928827765714
 20
0.5942384652990501
 10
-4.507605178908813
 20
0.5543266602890735
 10
-4.491817393747473
 20
0.5146549001252677
 10
-4.469751150268743
 20
0.4783822910042209
 10
-4.440867139516108
 20
0.4448071962208214
 10
-4.406992895981413
 20
0.416408021693074
 10
-4.367518206800141
 20
0.3930485434822679
 10
-4.325671610014229
 20
0.3768134399344055
 10
-4.280254667986426
 20
0.3674035359155821
 10
-4.235837992091191
 20
0.3656874776556234
 10
-4.19046265132929
 20
0.3714375963189231
 10
-4.148294184821612
 20
0.3839945893020683
 10
-4.107746382632776
 20
0.4036216489379055
 10
-4.071736776220192
 20
0.4288933275494775
 10
-4.039695031714167
 20
0.460195145270786
 10
-4.013947630903507
 20
0.4952930133785908
 10
-3.99420844407227
 20
0.5347160913211636
 10
-3.982219482704786
 20
0.5748043660216929
 10
-3.977533307386078
 20
0.6168744615420734
 10
-3.977500000807786
 20
0.6207016431600076
  0
LWPOLYLINE
  5
129
330
F8
100
AcDbEntity
  8
AM_9
100
AcDbPolyline
 90
        4
 70
     0
 43
0.0
 10
-4.045182051032798
 20
0.7781470303547089
 10
-4.062219727000708
 20
0.7931411348950417
 10
-4.098187374300115
 20
0.8172771728725324
 10
-4.122687334418709
 20
0.8294061072555784
  0
LWPOLYLINE
  5
12A
330
F8
100
AcDbEntity
  8
AM_9
100
AcDbPolyline
 90
        5
 70
     0
 43
0.0
 10
-3.98468023700961
 20
0.6762276122260004
 10
-3.990976619153473
 20
0.6960428836190908
 10
-4.008125228633115
 20
0.7316689537200969
 10
-4.032386781093114
 20
0.7647653412907126
 10
-4.045182051032798
 20
0.7781470303547089
  0
LWPOLYLINE
  5
12B
330
F8
100
AcDbEntity
  8
AM_9
100
AcDbPolyline
 90
        3
 70
     0
 43
0.0
 10
-3.977500000807786
 20
0.6207016431600076
 10
-3.980469871904015
 20
0.6566856791621793
 10
-3.98468023700961
 20
0.6762276122260004
  0
LWPOLYLINE
  5
12C
330
F8
100
AcDbEntity
  8
AM_9
100
AcDbPolyline
 90
       21
 70
     0
 43
0.0
 10
-3.977500000939423
 20
0.733263096887269
 10
-3.979138310748084
 20
0.7062192301036742
 10
-3.987813808524501
 20
0.6656760509708044
 10
-4.003625074293482
 20
0.6265951842282544
 10
-4.026314436047402
 20
0.5900197551074442
 10
-4.055105292961221
 20
0.5571759590203644
 10
-4.08967356930714
 20
0.5288625129938062
 10
-4.128718807238227
 20
0.5062959083754243
 10
-4.171248950484546
 20
0.490313934504248
 10
-4.215979851350669
 20
0.4814022057142832
 10
-4.261161293621634
 20
0.4799717700862896
 10
-4.305954131442606
 20
0.4858312307011141
 10
-4.348835926546426
 20
0.4987883711757633
 10
-4.388896759949207
 20
0.5183059791630643
 10
-4.425272350950444
 20
0.5440508430748555
 10
-4.456691593398904
 20
0.5749774044417187
 10
-4.482420896399657
 20
0.6105139554012962
 10
-4.501503102833773
 20
0.6492435274687917
 10
-4.513246581504863
 20
0.6898451008822204
 10
-4.517490823099739
 20
0.7312245649614674
 10
-4.517499999662113
 20
0.7332304419296062
  0
LWPOLYLINE
  5
12D
330
F8
100
AcDbEntity
  8
AM_9
100
AcDbPolyline
 90
        7
 70
     0
 43
0.0
 10
-4.43645629646396
 20
0.9034902711692209
 10
-4.430218192175447
 20
0.9085405041072088
 10
-4.394378459181742
 20
0.9322922846077888
 10
-4.354093216465281
 20
0.9505108006401448
 10
-4.310739549598172
 20
0.9626988618758444
 10
-4.279346213883596
 20
0.9674242732439081
 10
-4.2475
 20
0.9690127339343694
  0
LWPOLYLINE
  5
12E
330
F8
100
AcDbEntity
  8
AM_9
100
AcDbPolyline
 90
        6
 70
     0
 43
0.0
 10
-4.517499999662113
 20
0.7332304419296062
 10
-4.51407280544698
 20
0.7717267926801307
 10
-4.503287929433502
 20
0.8106767367509483
 10
-4.485373375764923
 20
0.8469703838685863
 10
-4.460930420112324
 20
0.8797811018221688
 10
-4.43645629646396
 20
0.9034902711692209
  0
LWPOLYLINE
  5
12F
330
F8
100
AcDbEntity
  8
AM_9
100
AcDbPolyline
 90
        7
 70
     0
 43
0.0
 10
-0.437901884983386
 20
0.9029482358160037
 10
-0.4269237597174577
 20
0.8930299250944533
 10
-0.3994670202387043
 20
0.8617190865714432
 10
-0.3783929096320375
 20
0.8262393862674882
 10
-0.3643822004648917
 20
0.7876929872279017
 10
-0.3579827760655973
 20
0.7474031802326289
 10
-0.3575000009394229
 20
0.7332630968872687
  0
LWPOLYLINE
  5
130
330
F8
100
AcDbEntity
  8
AM_9
100
AcDbPolyline
 90
        6
 70
     0
 43
0.0
 10
-0.6274999999999998
 20
0.9690127339343693
 10
-0.5824835975445015
 20
0.9658156537625587
 10
-0.538743579628362
 20
0.95638393892102
 10
-0.4975585771570418
 20
0.9408645784788014
 10
-0.4600025877267562
 20
0.9196851739790676
 10
-0.437901884983386
 20
0.9029482358160037
  0
LINE
  5
131
330
F8
100
AcDbEntity
  8
AM_9
100
AcDbLine
 10
-1.467499999999999
 20
-1.735
 30
0.0
 11
-0.1874999999999998
 21
-1.735
 31
0.0
  0
LINE
  5
132
330
F8
100
AcDbEntity
  8
AM_9
100
AcDbLine
 10
-0.1874999999999998
 20
1.735
 30
0.0
 11
-0.3574999999999996
 21
1.735
 31
0.0
  0
LINE
  5
133
330
F8
100
AcDbEntity
  8
AM_9
100
AcDbLine
 10
-0.8975
 20
1.735
 30
0.0
 11
-1.467499999999999
 21
1.735
 31
0.0
  0
LWPOLYLINE
  5
134
330
F8
100
AcDbEntity
  8
AM_9
100
AcDbPolyline
 90
       21
 70
     0
 43
0.0
 10
-0.3575000000005406
 20
1.734999999999916
 10
-0.3591383107480844
 20
1.734745801625743
 10
-0.3676143516886284
 20
1.733454801890785
 10
-0.3836250742934827
 20
1.731126794717348
 10
-0.4059317252789969
 20
1.728125429580516
 10
-0.435105292961221
 20
1.724627705708261
 10
-0.469129304081697
 20
1.721164221486621
 10
-0.5087188072382279
 20
1.717973798331601
 10
-0.5505989960698245
 20
1.715587002866794
 10
-0.5959798513506692
 20
1.714152420227232
 10
-0.640508072990912
 20
1.713911960972015
 10
-0.6859541314426059
 20
1.714859144502169
 10
-0.7282588584426071
 20
1.716821874148468
 10
-0.7688967599492068
 20
1.719685449064489
 10
-0.8048097430778642
 20
1.72301008267228
 10
-0.8366915933989039
 20
1.726582208511594
 10
-0.8621183710663188
 20
1.729847039492745
 10
-0.8815031028337731
 20
1.732582631867579
 10
-0.8931559397970802
 20
1.73432928775059
 10
-0.8974908230997388
 20
1.734998571918166
 10
-0.8974999999998216
 20
1.734999999999972
  0
LINE
  5
135
330
F8
100
AcDbEntity
  8
AM_9
100
AcDbLine
 10
-0.635616623983593
 20
1.713881816107777
 30
0.0
 11
-0.6274999999999998
 21
1.713862596592854
 31
0.0
  0
LINE
  5
136
330
F8
100
AcDbEntity
  8
AM_9
100
AcDbLine
 10
-0.8974999999998216
 20
1.734999999999972
 30
0.0
 11
-0.8827315043794715
 21
1.732763146199679
 31
0.0
  0
LWPOLYLINE
  5
137
330
F8
100
AcDbEntity
  8
AM_9
100
AcDbPolyline
 90
        7
 70
     0
 43
0.0
 10
-4.057239453338352
 20
0.9023848781945687
 10
-4.046923759717457
 20
0.8930299250944533
 10
-4.019467020238704
 20
0.8617190865714432
 10
-3.998392909632038
 20
0.8262393862674884
 10
-3.984382200464892
 20
0.7876929872279023
 10
-3.977982776065597
 20
0.7474031802326294
 10
-3.977500000939423
 20
0.733263096887269
  0
LWPOLYLINE
  5
138
330
F8
100
AcDbEntity
  8
AM_9
100
AcDbPolyline
 90
        6
 70
     0
 43
0.0
 10
-4.2475
 20
0.9690127339343694
 10
-4.202483597544501
 20
0.9658156537625591
 10
-4.158743579628362
 20
0.9563839389210202
 10
-4.117558577157042
 20
0.9408645784788018
 10
-4.080002587726757
 20
0.9196851739790678
 10
-4.057239453338352
 20
0.9023848781945687
  0
LINE
  5
139
330
F8
100
AcDbEntity
  8
AM_9
100
AcDbLine
 10
-4.6875
 20
-1.735000000000001
 30
0.0
 11
-3.4075
 21
-1.735000000000001
 31
0.0
  0
LINE
  5
13A
330
F8
100
AcDbEntity
  8
AM_9
100
AcDbLine
 10
-3.4075
 20
1.735000000000001
 30
0.0
 11
-3.9775
 21
1.735000000000001
 31
0.0
  0
LINE
  5
13B
330
F8
100
AcDbEntity
  8
AM_9
100
AcDbLine
 10
-4.5175
 20
1.735000000000001
 30
0.0
 11
-4.6875
 21
1.735000000000001
 31
0.0
  0
LWPOLYLINE
  5
13C
330
F8
100
AcDbEntity
  8
AM_9
100
AcDbPolyline
 90
       21
 70
     0
 43
0.0
 10
-3.977500000000541
 20
1.734999999999917
 10
-3.979138310748084
 20
1.734745801625744
 10
-3.987614351688629
 20
1.733454801890786
 10
-4.003625074293482
 20
1.731126794717349
 10
-4.025931725278997
 20
1.728125429580517
 10
-4.055105292961221
 20
1.724627705708261
 10
-4.089129304081697
 20
1.721164221486622
 10
-4.128718807238227
 20
1.717973798331602
 10
-4.170598996069825
 20
1.715587002866795
 10
-4.215979851350669
 20
1.714152420227232
 10
-4.260508072990912
 20
1.713911960972015
 10
-4.305954131442606
 20
1.714859144502169
 10
-4.348258858442607
 20
1.716821874148469
 10
-4.388896759949207
 20
1.71968544906449
 10
-4.424809743077865
 20
1.723010082672281
 10
-4.456691593398904
 20
1.726582208511594
 10
-4.482118371066319
 20
1.729847039492745
 10
-4.501503102833773
 20
1.732582631867579
 10
-4.51315593979708
 20
1.734329287750591
 10
-4.517490823099739
 20
1.734998571918167
 10
-4.517499999999822
 20
1.734999999999973
  0
LINE
  5
13D
330
F8
100
AcDbEntity
  8
AM_9
100
AcDbLine
 10
-4.255616623983595
 20
1.713881816107778
 30
0.0
 11
-4.2475
 21
1.713862596592855
 31
0.0
  0
LINE
  5
13E
330
F8
100
AcDbEntity
  8
AM_9
100
AcDbLine
 10
-4.517499999999822
 20
1.734999999999973
 30
0.0
 11
-4.514029221525541
 21
1.734463267390524
 31
0.0
  0
LINE
  5
13F
330
F8
100
AcDbEntity
  8
AM_9
100
AcDbLine
 10
-3.4075
 20
-2.39
 30
0.0
 11
-1.467499999999999
 21
-2.39
 31
0.0
  0
LINE
  5
140
330
F8
100
AcDbEntity
  8
AM_9
100
AcDbLine
 10
-1.467499999999999
 20
2.39
 30
0.0
 11
-3.4075
 21
2.39
 31
0.0
  0
LINE
  5
141
330
F8
100
AcDbEntity
  8
AM_9
100
AcDbLine
 10
-3.4075
 20
2.39
 30
0.0
 11
-3.4075
 21
-2.39
 31
0.0
  0
LINE
  5
142
330
F8
100
AcDbEntity
  8
AM_9
100
AcDbLine
 10
-1.467499999999999
 20
2.39
 30
0.0
 11
-1.467499999999999
 21
-2.39
 31
0.0
  0
LINE
  5
145
330
F8
100
AcDbEntity
  8
AM_7
100
AcDbLine
 10
-0.6274999999999998
 20
-0.088974358974359
 30
0.0
 11
-0.6275
 21
2.392260416666667
 31
0.0
  0
LINE
  5
146
330
F8
100
AcDbEntity
  8
AM_7
100
AcDbLine
 10
-4.2475
 20
-0.088974358974359
 30
0.0
 11
-4.2475
 21
2.392260416666667
 31
0.0
  0
LWPOLYLINE
  5
147
330
F8
100
AcDbEntity
  8
AM_4
100
AcDbPolyline
 90
        4
 70
     0
 43
0.0
 10
-0.6274999999999998
 20
0.8548454111396356
 10
-0.6717560005100975
 20
0.8518224301524164
 10
-0.7160120010201954
 20
0.8424685757147893
 10
-0.7521672142410437
 20
0.8294694863411795
  0
LWPOLYLINE
  5
148
330
F8
100
AcDbEntity
  8
AM_4
100
AcDbPolyline
 90
        5
 70
     0
 43
0.0
 10
-0.5024700193291614
 20
0.8293112358193158
 10
-0.517674055758454
 20
0.8354497333277936
 10
-0.5615784779693564
 20
0.8480755618015013
 10
-0.5940186881459424
 20
0.8531207494939239
 10
-0.6274999999999998
 20
0.8548454111396356
  0
LWPOLYLINE
  5
149
330
F8
100
AcDbEntity
  8
AM_4
100
AcDbPolyline
 90
        4
 70
     0
 43
0.0
 10
-4.2475
 20
0.8548454111396356
 10
-4.291756000510098
 20
0.8518224301524164
 10
-4.336012001020196
 20
0.8424685757147893
 10
-4.371502916339876
 20
0.8297577337815345
  0
LWPOLYLINE
  5
14A
330
F8
100
AcDbEntity
  8
AM_4
100
AcDbPolyline
 90
        5
 70
     0
 43
0.0
 10
-4.122687334418709
 20
0.8294061072555784
 10
-4.137674055758454
 20
0.8354497333277936
 10
-4.181578477969357
 20
0.8480755618015013
 10
-4.214018688145942
 20
0.8531207494939239
 10
-4.2475
 20
0.8548454111396356
  0
ENDBLK
  5
FB
330
F8
100
AcDbEntity
  8
0
100
AcDbBlockEnd
  0
BLOCK
  5
14D
330
14B
100
AcDbEntity
  8
0
100
AcDbBlockBegin
  2
5_405015E_Inch_0_in_023110_2
 70
     2
 10
0.0
 20
0.0
 30
0.0
  3
5_405015E_Inch_0_in_023110_2
  1

  0
ATTDEF
  5
14F
330
14B
100
AcDbEntity
  8
AM_6
100
AcDbText
 10
2.78125
 20
3.507
 30
0.0
 40
0.5
  1
405015E -Inch
100
AcDbAttributeDefinition
  3

  2
NN
 70
     8
280
     0
  0
ATTDEF
  5
150
330
14B
100
AcDbEntity
  8
AM_6
100
AcDbText
 10
2.78125
 20
3.007
 30
0.0
 40
0.5
  1
Grease Fitting
100
AcDbAttributeDefinition
  3

  2
NT
 70
     8
280
     0
  0
ATTDEF
  5
151
330
14B
100
AcDbEntity
  8
AM_6
100
AcDbText
 10
2.78125
 20
2.507
 30
0.0
 40
0.5
  1
405015E-Inch
100
AcDbAttributeDefinition
  3

  2
NB
 70
     8
280
     0
  0
ATTDEF
  5
152
330
14B
100
AcDbEntity
  8
AM_6
100
AcDbText
 10
2.78125
 20
2.007
 30
0.0
 40
0.5
  1
$MN.-Inch
100
AcDbAttributeDefinition
  3

  2
NBSYN
 70
     8
280
     0
  0
ATTDEF
  5
153
330
14B
100
AcDbEntity
  8
AM_6
100
AcDbText
 10
2.78125
 20
1.507
 30
0.0
 40
0.5
  1
405015E
100
AcDbAttributeDefinition
  3

  2
LINA
 70
     8
280
     0
  0
ATTDEF
  5
154
330
14B
100
AcDbEntity
  8
AM_6
100
AcDbText
 10
2.78125
 20
1.007
 30
0.0
 40
0.5
  1
405015E
100
AcDbAttributeDefinition
  3

  2
MN
 70
     8
280
     0
  0
ATTDEF
  5
155
330
14B
100
AcDbEntity
  8
AM_6
100
AcDbText
 10
2.78125
 20
0.5070000000000001
 30
0.0
 40
0.5
  1
1/8 x 27PTF
100
AcDbAttributeDefinition
  3

  2
T
 70
     8
280
     0
  0
ATTDEF
  5
156
330
14B
100
AcDbEntity
  8
AM_6
100
AcDbText
 10
2.78125
 20
0.0070000000000001
 30
0.0
 40
0.5
  1
baldor
100
AcDbAttributeDefinition
  3

  2
COMPANY
 70
     8
280
     0
  0
LINE
  5
157
330
14B
100
AcDbEntity
  8
AM_9
100
AcDbLine
 10
-2.599402872472269
 20
2.835
 30
0.0
 11
-2.275597127527731
 21
2.835
 31
0.0
  0
LINE
  5
158
330
14B
100
AcDbEntity
  8
AM_9
100
AcDbLine
 10
-2.275597127527731
 20
2.835
 30
0.0
 11
-2.238882373218785
 21
2.871714754308947
 31
0.0
  0
LINE
  5
159
330
14B
100
AcDbEntity
  8
AM_9
100
AcDbLine
 10
-2.636117626781215
 20
2.871714754308947
 30
0.0
 11
-2.599402872472269
 21
2.835
 31
0.0
  0
LINE
  5
15A
330
14B
100
AcDbEntity
  8
AM_9
100
AcDbLine
 10
-2.636117626781215
 20
2.871714754308947
 30
0.0
 11
-2.238882373218785
 21
2.871714754308947
 31
0.0
  0
LINE
  5
15B
330
14B
100
AcDbEntity
  8
AM_9
100
AcDbLine
 10
-2.238882373218785
 20
2.871714754308947
 30
0.0
 11
-2.23174810277693
 21
3.1
 31
0.0
  0
LINE
  5
15C
330
14B
100
AcDbEntity
  8
AM_9
100
AcDbLine
 10
-2.643251897223069
 20
3.1
 30
0.0
 11
-2.636117626781215
 21
2.871714754308947
 31
0.0
  0
LINE
  5
15D
330
14B
100
AcDbEntity
  8
AM_5
100
AcDbLine
 10
-2.269350875147652
 20
3.034870087748463
 30
0.0
 11
-2.275597127527731
 21
2.835
 31
0.0
  0
LINE
  5
15E
330
14B
100
AcDbEntity
  8
AM_5
100
AcDbLine
 10
-2.23174810277693
 20
3.1
 30
0.0
 11
-2.269350875147652
 21
3.034870087748463
 31
0.0
  0
LINE
  5
15F
330
14B
100
AcDbEntity
  8
AM_5
100
AcDbLine
 10
-2.641216485751557
 20
3.034870087748463
 30
0.0
 11
-2.233783514248443
 21
3.034870087748463
 31
0.0
  0
LINE
  5
160
330
14B
100
AcDbEntity
  8
AM_5
100
AcDbLine
 10
-2.605649124852348
 20
3.034870087748463
 30
0.0
 11
-2.599402872472269
 21
2.835
 31
0.0
  0
LINE
  5
161
330
14B
100
AcDbEntity
  8
AM_5
100
AcDbLine
 10
-2.643251897223069
 20
3.1
 30
0.0
 11
-2.605649124852348
 21
3.034870087748463
 31
0.0
  0
LINE
  5
162
330
14B
100
AcDbEntity
  8
AM_7
100
AcDbLine
 10
-2.4375
 20
3.507
 30
0.0
 11
-2.4375
 21
2.803
 31
0.0
  0
LINE
  5
163
330
14B
100
AcDbEntity
  8
AM_4
100
AcDbLine
 10
-2.3325
 20
3.305000000000001
 30
0.0
 11
-2.3325
 21
3.335
 31
0.0
  0
LINE
  5
164
330
14B
100
AcDbEntity
  8
AM_4
100
AcDbLine
 10
-2.5425
 20
3.335
 30
0.0
 11
-2.5425
 21
3.305000000000001
 31
0.0
  0
LINE
  5
165
330
14B
100
AcDbEntity
  8
AM_4
100
AcDbLine
 10
-2.5425
 20
3.305000000000001
 30
0.0
 11
-2.3325
 21
3.305000000000001
 31
0.0
  0
LINE
  5
166
330
14B
100
AcDbEntity
  8
AM_4
100
AcDbLine
 10
-2.5425
 20
3.305000000000001
 30
0.0
 11
-2.556320090734897
 21
3.272753121618573
 31
0.0
  0
LINE
  5
167
330
14B
100
AcDbEntity
  8
AM_4
100
AcDbLine
 10
-2.318679909265102
 20
3.272753121618573
 30
0.0
 11
-2.3325
 21
3.305000000000001
 31
0.0
  0
LINE
  5
168
330
14B
100
AcDbEntity
  8
AM_4
100
AcDbLine
 10
-2.5425
 20
3.335
 30
0.0
 11
-2.3325
 21
3.335
 31
0.0
  0
LINE
  5
169
330
14B
100
AcDbEntity
  8
AM_4
100
AcDbLine
 10
-2.3325
 20
3.335
 30
0.0
 11
-2.3025
 21
3.395
 31
0.0
  0
LINE
  5
16A
330
14B
100
AcDbEntity
  8
AM_4
100
AcDbLine
 10
-2.5725
 20
3.395
 30
0.0
 11
-2.5425
 21
3.335
 31
0.0
  0
LINE
  5
16B
330
14B
100
AcDbEntity
  8
AM_4
100
AcDbLine
 10
-2.540177901933187
 20
3.475000000000001
 30
0.0
 11
-2.334822098066812
 21
3.475000000000001
 31
0.0
  0
LINE
  5
16C
330
14B
100
AcDbEntity
  8
AM_4
100
AcDbLine
 10
-2.5725
 20
3.395
 30
0.0
 11
-2.3025
 21
3.395
 31
0.0
  0
LINE
  5
16D
330
14B
100
AcDbEntity
  8
AM_4
100
AcDbLine
 10
-2.540177901933187
 20
3.475000000000001
 30
0.0
 11
-2.5725
 21
3.395
 31
0.0
  0
LINE
  5
16E
330
14B
100
AcDbEntity
  8
AM_4
100
AcDbLine
 10
-2.3025
 20
3.395
 30
0.0
 11
-2.334822098066812
 21
3.475000000000001
 31
0.0
  0
LINE
  5
16F
330
14B
100
AcDbEntity
  8
AM_4
100
AcDbLine
 10
-2.21875
 20
3.1
 30
0.0
 11
-2.21875
 21
3.2
 31
0.0
  0
LINE
  5
170
330
14B
100
AcDbEntity
  8
AM_4
100
AcDbLine
 10
-2.65625
 20
3.2
 30
0.0
 11
-2.21875
 21
3.2
 31
0.0
  0
LINE
  5
171
330
14B
100
AcDbEntity
  8
AM_4
100
AcDbLine
 10
-2.65625
 20
3.2
 30
0.0
 11
-2.65625
 21
3.1
 31
0.0
  0
LINE
  5
172
330
14B
100
AcDbEntity
  8
AM_4
100
AcDbLine
 10
-2.556320090734897
 20
3.272753121618573
 30
0.0
 11
-2.318679909265102
 21
3.272753121618573
 31
0.0
  0
LINE
  5
173
330
14B
100
AcDbEntity
  8
AM_4
100
AcDbLine
 10
-2.556320090734897
 20
3.272753121618573
 30
0.0
 11
-2.610034053283015
 21
3.218318198540882
 31
0.0
  0
LINE
  5
174
330
14B
100
AcDbEntity
  8
AM_4
100
AcDbLine
 10
-2.264965946716984
 20
3.218318198540882
 30
0.0
 11
-2.318679909265102
 21
3.272753121618573
 31
0.0
  0
LWPOLYLINE
  5
175
330
14B
100
AcDbEntity
  8
AM_4
100
AcDbPolyline
 90
        3
 70
     0
 43
0.0
 10
-2.328125
 20
3.2
 10
-2.244294059514195
 20
3.194517587482157
 10
-2.21875
 20
3.190932400303386
  0
LWPOLYLINE
  5
176
330
14B
100
AcDbEntity
  8
AM_4
100
AcDbPolyline
 90
        3
 70
     0
 43
0.0
 10
-2.21875
 20
3.109067599696615
 10
-2.244294059514195
 20
3.105482412517844
 10
-2.328125
 20
3.1
  0
LWPOLYLINE
  5
177
330
14B
100
AcDbEntity
  8
AM_4
100
AcDbPolyline
 90
        3
 70
     0
 43
0.0
 10
-2.328125
 20
3.1
 10
-2.3828125
 20
3.102393380785035
 10
-2.4375
 20
3.109067599696615
  0
LWPOLYLINE
  5
178
330
14B
100
AcDbEntity
  8
AM_4
100
AcDbPolyline
 90
        3
 70
     0
 43
0.0
 10
-2.4375
 20
3.190932400303386
 10
-2.38305838972585
 20
3.19758547505038
 10
-2.328125
 20
3.2
  0
LINE
  5
179
330
14B
100
AcDbEntity
  8
AM_4
100
AcDbLine
 10
-2.610034053283015
 20
3.218318198540882
 30
0.0
 11
-2.264965946716984
 21
3.218318198540882
 31
0.0
  0
LINE
  5
17A
330
14B
100
AcDbEntity
  8
AM_4
100
AcDbLine
 10
-2.610034053283015
 20
3.218318198540882
 30
0.0
 11
-2.65125
 21
3.2
 31
0.0
  0
LINE
  5
17B
330
14B
100
AcDbEntity
  8
AM_4
100
AcDbLine
 10
-2.22375
 20
3.2
 30
0.0
 11
-2.264965946716984
 21
3.218318198540882
 31
0.0
  0
LINE
  5
17C
330
14B
100
AcDbEntity
  8
AM_4
100
AcDbLine
 10
-2.4375
 20
3.190932400303386
 30
0.0
 11
-2.4375
 21
3.109067599696615
 31
0.0
  0
LWPOLYLINE
  5
17D
330
14B
100
AcDbEntity
  8
AM_4
100
AcDbPolyline
 90
        3
 70
     0
 43
0.0
 10
-2.546875
 20
3.2
 10
-2.4921875
 20
3.197606619214965
 10
-2.4375
 20
3.190932400303386
  0
LWPOLYLINE
  5
17E
330
14B
100
AcDbEntity
  8
AM_4
100
AcDbPolyline
 90
        3
 70
     0
 43
0.0
 10
-2.65625
 20
3.190932400303386
 10
-2.60180838972585
 20
3.19758547505038
 10
-2.546875
 20
3.2
  0
LWPOLYLINE
  5
17F
330
14B
100
AcDbEntity
  8
AM_4
100
AcDbPolyline
 90
        3
 70
     0
 43
0.0
 10
-2.546875
 20
3.1
 10
-2.6015625
 20
3.102393380785035
 10
-2.65625
 20
3.109067599696615
  0
LWPOLYLINE
  5
180
330
14B
100
AcDbEntity
  8
AM_4
100
AcDbPolyline
 90
        3
 70
     0
 43
0.0
 10
-2.4375
 20
3.109067599696615
 10
-2.491941610274149
 20
3.10241452494962
 10
-2.546875
 20
3.1
  0
ENDBLK
  5
14E
330
14B
100
AcDbEntity
  8
0
100
AcDbBlockEnd
  0
BLOCK
  5
183
330
181
100
AcDbEntity
  8
0
100
AcDbBlockBegin
  2
6_023110H_0_in_023110_2
 70
     2
 10
0.0
 20
0.0
 30
0.0
  3
6_023110H_0_in_023110_2
  1

  0
ATTDEF
  5
185
330
181
100
AcDbEntity
  8
AM_6
100
AcDbText
 10
5.23625
 20
3.875
 30
0.0
 40
0.5
  1
F4B-E-Housing
100
AcDbAttributeDefinition
  3

  2
NN
 70
     8
280
     0
  0
ATTDEF
  5
186
330
181
100
AcDbEntity
  8
AM_6
100
AcDbText
 10
5.23625
 20
3.375
 30
0.0
 40
0.5
  1
Type E Flange Bearing -Inch (4-Bolt Flange)
100
AcDbAttributeDefinition
  3

  2
NT
 70
     8
280
     0
  0
ATTDEF
  5
187
330
181
100
AcDbEntity
  8
AM_6
100
AcDbText
 10
5.23625
 20
2.875
 30
0.0
 40
0.5
  1
023110H
100
AcDbAttributeDefinition
  3

  2
NB
 70
     8
280
     0
  0
ATTDEF
  5
188
330
181
100
AcDbEntity
  8
AM_6
100
AcDbText
 10
5.23625
 20
2.375
 30
0.0
 40
0.5
  1
$PN.H
100
AcDbAttributeDefinition
  3

  2
NBSYN
 70
     8
280
     0
  0
ATTDEF
  5
189
330
181
100
AcDbEntity
  8
AM_6
100
AcDbText
 10
5.23625
 20
1.875
 30
0.0
 40
0.5
  1
023110
100
AcDbAttributeDefinition
  3

  2
LINA
 70
     8
280
     0
  0
ATTDEF
  5
18A
330
181
100
AcDbEntity
  8
AM_6
100
AcDbText
 10
5.23625
 20
1.375
 30
0.0
 40
0.5
  1
2-15/16
100
AcDbAttributeDefinition
  3

  2
SS
 70
     8
280
     0
  0
ATTDEF
  5
18B
330
181
100
AcDbEntity
  8
AM_6
100
AcDbText
 10
5.23625
 20
0.875
 30
0.0
 40
0.5
  1
023110
100
AcDbAttributeDefinition
  3

  2
PN
 70
     8
280
     0
  0
ATTDEF
  5
18C
330
181
100
AcDbEntity
  8
AM_6
100
AcDbText
 10
5.23625
 20
0.375
 30
0.0
 40
0.5
  1
F4B-E-215R
100
AcDbAttributeDefinition
  3

  2
DESCRIPTION
 70
     8
280
     0
  0
ATTDEF
  5
18D
330
181
100
AcDbEntity
  8
AM_6
100
AcDbText
 10
5.23625
 20
-0.125
 30
0.0
 40
0.5
  1
4-11/16
100
AcDbAttributeDefinition
  3

  2
A
 70
     8
280
     0
  0
ATTDEF
  5
18E
330
181
100
AcDbEntity
  8
AM_6
100
AcDbText
 10
5.23625
 20
-0.625
 30
0.0
 40
0.5
  1
7-3/4
100
AcDbAttributeDefinition
  3

  2
B
 70
     8
280
     0
  0
ATTDEF
  5
18F
330
181
100
AcDbEntity
  8
AM_6
100
AcDbText
 10
5.23625
 20
-1.125
 30
0.0
 40
0.5
  1
3-15/16
100
AcDbAttributeDefinition
  3

  2
C
 70
     8
280
     0
  0
ATTDEF
  5
190
330
181
100
AcDbEntity
  8
AM_6
100
AcDbText
 10
5.23625
 20
-1.625
 30
0.0
 40
0.5
  1
3/16
100
AcDbAttributeDefinition
  3

  2
E
 70
     8
280
     0
  0
ATTDEF
  5
191
330
181
100
AcDbEntity
  8
AM_6
100
AcDbText
 10
5.23625
 20
-2.125
 30
0.0
 40
0.5
  1
0.187500
100
AcDbAttributeDefinition
  3

  2
E1
 70
     8
280
     0
  0
ATTDEF
  5
192
330
181
100
AcDbEntity
  8
AM_6
100
AcDbText
 10
5.23625
 20
-2.625
 30
0.0
 40
0.5
  1
3/4
100
AcDbAttributeDefinition
  3

  2
F
 70
     8
280
     0
  0
ATTDEF
  5
193
330
181
100
AcDbEntity
  8
AM_6
100
AcDbText
 10
5.23625
 20
-3.125
 30
0.0
 40
0.5
  1
0.750000
100
AcDbAttributeDefinition
  3

  2
F1
 70
     8
280
     0
  0
ATTDEF
  5
194
330
181
100
AcDbEntity
  8
AM_6
100
AcDbText
 10
5.23625
 20
-3.625
 30
0.0
 40
0.5
  1
1-5/8
100
AcDbAttributeDefinition
  3

  2
H
 70
     8
280
     0
  0
ATTDEF
  5
195
330
181
100
AcDbEntity
  8
AM_6
100
AcDbText
 10
5.23625
 20
-4.125
 30
0.0
 40
0.5
  1
6
100
AcDbAttributeDefinition
  3

  2
J
 70
     8
280
     0
  0
ATTDEF
  5
196
330
181
100
AcDbEntity
  8
AM_6
100
AcDbText
 10
5.23625
 20
-4.625
 30
0.0
 40
0.5
  1
6.0000000
100
AcDbAttributeDefinition
  3

  2
J1
 70
     8
280
     0
  0
ATTDEF
  5
197
330
181
100
AcDbEntity
  8
AM_6
100
AcDbText
 10
5.23625
 20
-5.125
 30
0.0
 40
0.5
  1
4-23/32
100
AcDbAttributeDefinition
  3

  2
L
 70
     8
280
     0
  0
ATTDEF
  5
198
330
181
100
AcDbEntity
  8
AM_6
100
AcDbText
 10
5.23625
 20
-5.625
 30
0.0
 40
0.5
  1
4.50
100
AcDbAttributeDefinition
  3

  2
AINS
 70
     8
280
     0
  0
ATTDEF
  5
199
330
181
100
AcDbEntity
  8
AM_6
100
AcDbText
 10
5.23625
 20
-6.125
 30
0.0
 40
0.5
  1
4.78
100
AcDbAttributeDefinition
  3

  2
BORE
 70
     8
280
     0
  0
ATTDEF
  5
19A
330
181
100
AcDbEntity
  8
AM_6
100
AcDbText
 10
5.23625
 20
-6.625
 30
0.0
 40
0.5
  1
baldor
100
AcDbAttributeDefinition
  3

  2
COMPANY
 70
     8
280
     0
  0
LINE
  5
19B
330
181
100
AcDbEntity
  8
AM_9
100
AcDbLine
 10
-0.975
 20
-2.258925717334538
 30
0.0
 11
-0.9749999999999999
 21
-3.875
 31
0.0
  0
LINE
  5
19C
330
181
100
AcDbEntity
  8
AM_9
100
AcDbLine
 10
-0.9749999999999999
 20
-2.537730736663844
 30
0.0
 11
0.0000000000000001
 21
-2.537730736663844
 31
0.0
  0
LINE
  5
19D
330
181
100
AcDbEntity
  8
AM_9
100
AcDbLine
 10
-0.9749999999999999
 20
3.875
 30
0.0
 11
-0.975
 21
2.25892571733454
 31
0.0
  0
LINE
  5
19E
330
181
100
AcDbEntity
  8
AM_9
100
AcDbLine
 10
-0.9749999999999999
 20
2.537730736663844
 30
0.0
 11
0.0000000000000001
 21
2.537730736663844
 31
0.0
  0
LINE
  5
19F
330
181
100
AcDbEntity
  8
AM_9
100
AcDbLine
 10
-3.9375
 20
-2.39
 30
0.0
 11
-0.9749999999999999
 21
-2.39
 31
0.0
  0
LINE
  5
1A0
330
181
100
AcDbEntity
  8
AM_9
100
AcDbLine
 10
-0.9749999999999999
 20
2.39
 30
0.0
 11
-3.9375
 21
2.39
 31
0.0
  0
LINE
  5
1A1
330
181
100
AcDbEntity
  8
AM_9
100
AcDbLine
 10
-1.53125
 20
3.724949559195758
 30
0.0
 11
-1.625
 21
3.724949559195758
 31
0.0
  0
LINE
  5
1A2
330
181
100
AcDbEntity
  8
AM_9
100
AcDbLine
 10
-1.53125
 20
3.875
 30
0.0
 11
-1.53125
 21
2.867335008385763
 31
0.0
  0
LINE
  5
1A3
330
181
100
AcDbEntity
  8
AM_9
100
AcDbLine
 10
-1.53125
 20
-3.724949559195759
 30
0.0
 11
-1.625
 21
-3.724949559195759
 31
0.0
  0
LINE
  5
1A4
330
181
100
AcDbEntity
  8
AM_9
100
AcDbLine
 10
-1.53125
 20
-2.867335008385771
 30
0.0
 11
-1.53125
 21
-3.875
 31
0.0
  0
LINE
  5
1A5
330
181
100
AcDbEntity
  8
AM_9
100
AcDbLine
 10
-1.53125
 20
2.776082558804604
 30
0.0
 11
-1.625
 21
2.776082558804604
 31
0.0
  0
LINE
  5
1A6
330
181
100
AcDbEntity
  8
AM_9
100
AcDbLine
 10
-1.625
 20
-2.776082558804604
 30
0.0
 11
-1.53125
 21
-2.776082558804604
 31
0.0
  0
LINE
  5
1A7
330
181
100
AcDbEntity
  8
AM_9
100
AcDbLine
 10
-1.625
 20
-3.375
 30
0.0
 11
0.0000000000000002
 21
-3.375
 31
0.0
  0
LINE
  5
1A8
330
181
100
AcDbEntity
  8
AM_9
100
AcDbLine
 10
0.0000000000000002
 20
-2.625
 30
0.0
 11
-1.625
 21
-2.625
 31
0.0
  0
LINE
  5
1A9
330
181
100
AcDbEntity
  8
AM_9
100
AcDbLine
 10
-1.625
 20
2.625
 30
0.0
 11
0.0000000000000002
 21
2.625
 31
0.0
  0
LINE
  5
1AA
330
181
100
AcDbEntity
  8
AM_9
100
AcDbLine
 10
0.0000000000000002
 20
3.375
 30
0.0
 11
-1.625
 21
3.375
 31
0.0
  0
LINE
  5
1AB
330
181
100
AcDbEntity
  8
AM_9
100
AcDbLine
 10
-0.9749999999999999
 20
1.927373122318569
 30
0.0
 11
0.0000000000000002
 21
1.927373122318569
 31
0.0
  0
LINE
  5
1AC
330
181
100
AcDbEntity
  8
AM_9
100
AcDbLine
 10
-0.9749999999999999
 20
-1.927373122318568
 30
0.0
 11
0.0000000000000002
 21
-1.927373122318568
 31
0.0
  0
LINE
  5
1AD
330
181
100
AcDbEntity
  8
AM_7
100
AcDbLine
 10
0.0812499999999998
 20
3.0
 30
0.0
 11
-1.70625
 21
3.0
 31
0.0
  0
LINE
  5
1AE
330
181
100
AcDbEntity
  8
AM_7
100
AcDbLine
 10
0.0812499999999998
 20
-3.0
 30
0.0
 11
-1.70625
 21
-3.0
 31
0.0
  0
LINE
  5
1AF
330
181
100
AcDbEntity
  8
AM_7
100
AcDbLine
 10
0.23625
 20
0.0
 30
0.0
 11
-4.96125
 21
0.0
 31
0.0
  0
LINE
  5
1B0
330
181
100
AcDbEntity
  8
AM_4
100
AcDbLine
 10
-2.837499999999999
 20
3.1
 30
0.0
 11
-2.037500000680324
 21
3.1
 31
0.0
  0
ARC
  5
1B1
330
181
100
AcDbEntity
  8
AM_4
100
AcDbCircle
 10
-2.0375
 20
3.0
 30
0.0
 40
0.1000000000000003
100
AcDbArc
 50
0.0
 51
90.0
  0
ARC
  5
1B2
330
181
100
AcDbEntity
  8
AM_4
100
AcDbCircle
 10
-2.837499999999999
 20
3.0
 30
0.0
 40
0.1000000000000005
100
AcDbArc
 50
90.0
 51
180.0
  0
LINE
  5
1B3
330
181
100
AcDbEntity
  8
AM_4
100
AcDbLine
 10
-2.9375
 20
3.0
 30
0.0
 11
-1.9375
 21
3.0
 31
0.0
  0
LINE
  5
1B4
330
181
100
AcDbEntity
  8
AM_4
100
AcDbLine
 10
-3.9375
 20
2.796875
 30
0.0
 11
-3.9375
 21
-2.796875
 31
0.0
  0
ARC
  5
1B5
330
181
100
AcDbEntity
  8
AM_4
100
AcDbCircle
 10
-3.734375
 20
-2.796875
 30
0.0
 40
0.2031249999999996
100
AcDbArc
 50
180.0
 51
270.0
  0
ARC
  5
1B6
330
181
100
AcDbEntity
  8
AM_4
100
AcDbCircle
 10
-3.734375
 20
2.796875
 30
0.0
 40
0.2031249999999996
100
AcDbArc
 50
90.0
 51
180.0
  0
LWPOLYLINE
  5
1B7
330
181
100
AcDbEntity
  8
AM_4
100
AcDbPolyline
 90
       22
 70
     0
 43
0.0
 10
-2.9375
 20
3.0
 10
-2.930712334000205
 20
2.998876190577052
 10
-2.909764359908433
 20
2.995502232621388
 10
-2.876460887104451
 20
2.990432520624321
 10
-2.82988271310996
 20
2.983951104416346
 10
-2.773359119745372
 20
2.977045741723855
 10
-2.705604388099363
 20
2.970164972340447
 10
-2.631755463741172
 20
2.964411439930918
 10
-2.591459829818759
 20
2.962044821475308
 10
-2.550004511099802
 20
2.960178586676453
 10
-2.468101170159699
 20
2.958198173147827
 10
-2.382890668348179
 20
2.958543928878437
 10
-2.302463557994798
 20
2.961120538017563
 10
-2.223601175643501
 20
2.96576342735915
 10
-2.152474270073156
 20
2.971740174833649
 10
-2.08741853536549
 20
2.978683775072581
 10
-2.03312865668398
 20
2.985551236086093
 10
-1.988910549839141
 20
2.991861042026454
 10
-1.958477851594567
 20
2.996575081432627
 10
-1.947949105193694
 20
2.998275702564468
 10
-1.941024031246273
 20
2.999414674157268
 10
-1.9375
 20
3.0
  0
LINE
  5
1B8
330
181
100
AcDbEntity
  8
AM_4
100
AcDbLine
 10
-3.734375
 20
-3.0
 30
0.0
 11
-1.625
 21
-3.0
 31
0.0
  0
LINE
  5
1B9
330
181
100
AcDbEntity
  8
AM_4
100
AcDbLine
 10
-1.625
 20
3.0
 30
0.0
 11
-1.9375
 21
3.0
 31
0.0
  0
LINE
  5
1BA
330
181
100
AcDbEntity
  8
AM_4
100
AcDbLine
 10
-2.9375
 20
3.0
 30
0.0
 11
-3.734375
 21
3.0
 31
0.0
  0
LINE
  5
1BB
330
181
100
AcDbEntity
  8
AM_4
100
AcDbLine
 10
-3.734375
 20
3.0
 30
0.0
 11
-3.734375
 21
-3.0
 31
0.0
  0
LINE
  5
1BC
330
181
100
AcDbEntity
  8
AM_4
100
AcDbLine
 10
-1.53125
 20
-1.137262338557328
 30
0.0
 11
-1.625
 21
-1.137262338557328
 31
0.0
  0
LINE
  5
1BD
330
181
100
AcDbEntity
  8
AM_4
100
AcDbLine
 10
-1.625
 20
1.137262338557327
 30
0.0
 11
-1.53125
 21
1.137262338557327
 31
0.0
  0
LINE
  5
1BE
330
181
100
AcDbEntity
  8
AM_4
100
AcDbLine
 10
-1.625
 20
-3.875
 30
0.0
 11
-1.625
 21
-1.137262338557328
 31
0.0
  0
LINE
  5
1BF
330
181
100
AcDbEntity
  8
AM_4
100
AcDbLine
 10
-1.625
 20
-3.875
 30
0.0
 11
0.0000000000000002
 21
-3.875
 31
0.0
  0
LINE
  5
1C0
330
181
100
AcDbEntity
  8
AM_4
100
AcDbLine
 10
-1.53125
 20
2.492384853829324
 30
0.0
 11
-1.625
 21
2.492384853829324
 31
0.0
  0
LINE
  5
1C1
330
181
100
AcDbEntity
  8
AM_4
100
AcDbLine
 10
-0.9749999999999999
 20
1.630991273491872
 30
0.0
 11
0.0000000000000002
 21
1.630991273491872
 31
0.0
  0
LINE
  5
1C2
330
181
100
AcDbEntity
  8
AM_4
100
AcDbLine
 10
0.0000000000000002
 20
-1.630991273491872
 30
0.0
 11
-0.9749999999999999
 21
-1.630991273491872
 31
0.0
  0
LINE
  5
1C3
330
181
100
AcDbEntity
  8
AM_4
100
AcDbLine
 10
0.0000000000000002
 20
-1.630991273491872
 30
0.0
 11
0.0000000000000002
 21
-3.875
 31
0.0
  0
LINE
  5
1C4
330
181
100
AcDbEntity
  8
AM_4
100
AcDbLine
 10
0.0000000000000002
 20
1.630991273491872
 30
0.0
 11
0.0000000000000002
 21
3.875
 31
0.0
  0
LINE
  5
1C5
330
181
100
AcDbEntity
  8
AM_4
100
AcDbLine
 10
-1.625
 20
1.137262338557327
 30
0.0
 11
-1.625
 21
3.875
 31
0.0
  0
LINE
  5
1C6
330
181
100
AcDbEntity
  8
AM_4
100
AcDbLine
 10
-1.625
 20
3.875
 30
0.0
 11
0.0000000000000002
 21
3.875
 31
0.0
  0
LINE
  5
1C7
330
181
100
AcDbEntity
  8
AM_4
100
AcDbLine
 10
-1.53125
 20
-2.492384853829325
 30
0.0
 11
-1.625
 21
-2.492384853829325
 31
0.0
  0
LINE
  5
1C8
330
181
100
AcDbEntity
  8
AM_4
100
AcDbLine
 10
-0.9749999999999998
 20
-2.258925717334538
 30
0.0
 11
-0.9749999999999998
 21
2.25892571733454
 31
0.0
  0
LINE
  5
1C9
330
181
100
AcDbEntity
  8
AM_4
100
AcDbLine
 10
0.0000000000000002
 20
-2.258925717334538
 30
0.0
 11
-0.9749999999999998
 21
-2.258925717334538
 31
0.0
  0
LINE
  5
1CA
330
181
100
AcDbEntity
  8
AM_4
100
AcDbLine
 10
-0.9749999999999998
 20
2.25892571733454
 30
0.0
 11
0.0000000000000002
 21
2.25892571733454
 31
0.0
  0
LINE
  5
1CB
330
181
100
AcDbEntity
  8
AM_4
100
AcDbLine
 10
-1.625
 20
3.0
 30
0.0
 11
0.0000000000000002
 21
3.0
 31
0.0
  0
LINE
  5
1CC
330
181
100
AcDbEntity
  8
AM_4
100
AcDbLine
 10
-1.53125
 20
2.867335008385763
 30
0.0
 11
-1.625
 21
2.867335008385763
 31
0.0
  0
LINE
  5
1CD
330
181
100
AcDbEntity
  8
AM_4
100
AcDbLine
 10
-1.53125
 20
-2.867335008385771
 30
0.0
 11
-1.53125
 21
2.867335008385763
 31
0.0
  0
LINE
  5
1CE
330
181
100
AcDbEntity
  8
AM_4
100
AcDbLine
 10
-1.625
 20
-2.867335008385771
 30
0.0
 11
-1.53125
 21
-2.867335008385771
 31
0.0
  0
LINE
  5
1CF
330
181
100
AcDbEntity
  8
AM_4
100
AcDbLine
 10
-1.625
 20
-2.999999986961483
 30
0.0
 11
0.0000000000000002
 21
-2.999999986961483
 31
0.0
  0
ENDBLK
  5
184
330
181
100
AcDbEntity
  8
0
100
AcDbBlockEnd
  0
ENDSEC
  0
SECTION
  2
ENTITIES
  0
INSERT
  5
6F
330
1F
100
AcDbEntity
  8
0
100
AcDbBlockReference
  2
1_023110_2
 10
0.0
 20
0.0
 30
0.0
  0
POINT
  5
1D1
330
1F
100
AcDbEntity
  8
ConnectionPoints
100
AcDbPoint
 10
-4.6875
 20
0.0000000000000001
 30
0.0000000000000003
  0
POINT
  5
1D2
330
1F
100
AcDbEntity
  8
ConnectionPoints
100
AcDbPoint
 10
-4.6875
 20
0.0
 30
0.0000000000000003
  0
POINT
  5
1D3
330
1F
100
AcDbEntity
  8
ConnectionPoints
100
AcDbPoint
 10
-0.1875
 20
0.0
 30
0.0
  0
POINT
  5
1D4
330
1F
100
AcDbEntity
  8
ConnectionPoints
100
AcDbPoint
 10
-2.4375
 20
0.0
 30
0.0000000000000001
  0
POINT
  5
1D5
330
1F
100
AcDbEntity
  8
ConnectionPoints
100
AcDbPoint
 10
-2.4375
 20
3.1
 30
0.0000000000000001
  0
POINT
  5
1D6
330
1F
100
AcDbEntity
  8
ConnectionPoints
100
AcDbPoint
 10
-2.4375
 20
3.1
 30
0.0000000000000001
  0
POINT
  5
1D7
330
1F
100
AcDbEntity
  8
ConnectionPoints
100
AcDbPoint
 10
-2.4375
 20
0.0
 30
0.0000000000000001
  0
ENDSEC
  0
SECTION
  2
OBJECTS
  0
DICTIONARY
  5
C
330
0
100
AcDbDictionary
281
     1
  3
ACAD_DETAILVIEWSTYLE
350
1DF
  3
ACAD_GROUP
350
D
  3
ACAD_LAYOUT
350
1A
  3
ACAD_MATERIAL
350
43
  3
ACAD_MLEADERSTYLE
350
6B
  3
ACAD_MLINESTYLE
350
17
  3
ACAD_PLOTSETTINGS
350
19
  3
ACAD_PLOTSTYLENAME
350
E
  3
ACAD_SCALELIST
350
47
  3
ACAD_SECTIONVIEWSTYLE
350
1E0
  3
ACAD_TABLESTYLE
350
69
  3
ACAD_VISUALSTYLE
350
2A
  3
ACDB_RECOMPOSE_DATA
350
1DC
  3
AcDbVariableDictionary
350
1D8
  0
SUN
  5
6D
330
29
100
AcDbSun
 90
        1
290
     0
 63
     7
421
 16777215
 40
1.0
291
     1
 91
  2455826
 92
 54000000
292
     0
 70
     2
 71
   256
280
     1
  0
DICTIONARY
  5
1DF
102
{ACAD_REACTORS
330
C
102
}
330
C
100
AcDbDictionary
281
     1
  0
DICTIONARY
  5
D
102
{ACAD_REACTORS
330
C
102
}
330
C
100
AcDbDictionary
281
     1
  0
DICTIONARY
  5
1A
102
{ACAD_REACTORS
330
C
102
}
330
C
100
AcDbDictionary
281
     1
  3
Layout1
350
1E
  3
Layout2
350
26
  3
Model
350
22
  0
DICTIONARY
  5
43
102
{ACAD_REACTORS
330
C
102
}
330
C
100
AcDbDictionary
281
     1
  3
ByBlock
350
45
  3
ByLayer
350
44
  3
Global
350
46
  0
DICTIONARY
  5
6B
102
{ACAD_REACTORS
330
C
102
}
330
C
100
AcDbDictionary
281
     1
  3
Standard
350
6C
  0
DICTIONARY
  5
17
102
{ACAD_REACTORS
330
C
102
}
330
C
100
AcDbDictionary
281
     1
  3
Standard
350
18
  0
DICTIONARY
  5
19
102
{ACAD_REACTORS
330
C
102
}
330
C
100
AcDbDictionary
281
     1
  0
ACDBDICTIONARYWDFLT
  5
E
102
{ACAD_REACTORS
330
C
102
}
330
C
100
AcDbDictionary
281
     1
  3
Normal
350
F
100
AcDbDictionaryWithDefault
340
F
  0
DICTIONARY
  5
47
102
{ACAD_REACTORS
330
C
102
}
330
C
100
AcDbDictionary
281
     1
  3
A0
350
48
  3
A1
350
49
  3
A2
350
4A
  3
A3
350
4B
  3
A4
350
4C
  3
A5
350
4D
  3
A6
350
4E
  3
A7
350
4F
  3
A8
350
50
  3
A9
350
51
  3
B0
350
52
  3
B1
350
53
  3
B2
350
54
  3
B3
350
55
  3
B4
350
56
  3
B5
350
57
  3
B6
350
58
  3
B7
350
59
  3
B8
350
5A
  3
B9
350
5B
  3
C0
350
5C
  3
C1
350
5D
  3
C2
350
5E
  3
C3
350
5F
  3
C4
350
60
  3
C5
350
61
  3
C6
350
62
  3
C7
350
63
  3
C8
350
64
  3
C9
350
65
  3
D0
350
66
  3
D1
350
67
  3
D2
350
68
  0
DICTIONARY
  5
1E0
102
{ACAD_REACTORS
330
C
102
}
330
C
100
AcDbDictionary
281
     1
  0
DICTIONARY
  5
69
102
{ACAD_REACTORS
330
C
102
}
330
C
100
AcDbDictionary
281
     1
  3
Standard
350
6A
  0
DICTIONARY
  5
2A
102
{ACAD_REACTORS
330
C
102
}
330
C
100
AcDbDictionary
281
     1
  3
2dWireframe
350
2F
  3
Basic
350
32
  3
Brighten
350
36
  3
ColorChange
350
3A
  3
Conceptual
350
34
  3
Dim
350
35
  3
EdgeColorOff
350
3D
  3
Facepattern
350
39
  3
Flat
350
2B
  3
FlatWithEdges
350
2C
  3
Gouraud
350
2D
  3
GouraudWithEdges
350
2E
  3
Hidden
350
31
  3
JitterOff
350
3B
  3
Linepattern
350
38
  3
OverhangOff
350
3C
  3
Realistic
350
33
  3
Shaded
350
42
  3
Shaded with edges
350
41
  3
Shades of Gray
350
3E
  3
Sketchy
350
3F
  3
Thicken
350
37
  3
Wireframe
350
30
  3
X-Ray
350
40
  0
XRECORD
  5
1DC
102
{ACAD_REACTORS
330
C
102
}
330
C
100
AcDbXrecord
280
     1
 90
        1
330
6A
  0
DICTIONARY
  5
1D8
102
{ACAD_REACTORS
330
C
102
}
330
C
100
AcDbDictionary
281
     1
  3
CANNOSCALE
350
1D9
  3
CMLEADERSTYLE
350
1DE
  3
CTABLESTYLE
350
1DD
  0
LAYOUT
  5
1E
102
{ACAD_REACTORS
330
1A
102
}
330
1A
100
AcDbPlotSettings
  1

  2
none_device
  4

  6

 40
0.0
 41
0.0
 42
0.0
 43
0.0
 44
0.0
 45
0.0
 46
0.0
 47
0.0
 48
0.0
 49
0.0
140
0.0
141
0.0
142
1.0
143
1.0
 70
   688
 72
     0
 73
     0
 74
     5
  7

 75
    16
 76
     0
 77
     2
 78
   300
147
1.0
148
0.0
149
0.0
100
AcDbLayout
  1
Layout1
 70
     1
 71
     1
 10
0.0
 20
0.0
 11
12.0
 21
9.0
 12
0.0
 22
0.0
 32
0.0
 14
1.000000000000000E+20
 24
1.000000000000000E+20
 34
1.000000000000000E+20
 15
-1.000000000000000E+20
 25
-1.000000000000000E+20
 35
-1.000000000000000E+20
146
0.0
 13
0.0
 23
0.0
 33
0.0
 16
1.0
 26
0.0
 36
0.0
 17
0.0
 27
1.0
 37
0.0
 76
     0
330
1B
  0
LAYOUT
  5
26
102
{ACAD_REACTORS
330
1A
102
}
330
1A
100
AcDbPlotSettings
  1

  2
none_device
  4

  6

 40
0.0
 41
0.0
 42
0.0
 43
0.0
 44
0.0
 45
0.0
 46
0.0
 47
0.0
 48
0.0
 49
0.0
140
0.0
141
0.0
142
1.0
143
1.0
 70
   688
 72
     0
 73
     0
 74
     5
  7

 75
    16
 76
     0
 77
     2
 78
   300
147
1.0
148
0.0
149
0.0
100
AcDbLayout
  1
Layout2
 70
     1
 71
     2
 10
0.0
 20
0.0
 11
0.0
 21
0.0
 12
0.0
 22
0.0
 32
0.0
 14
0.0
 24
0.0
 34
0.0
 15
0.0
 25
0.0
 35
0.0
146
0.0
 13
0.0
 23
0.0
 33
0.0
 16
1.0
 26
0.0
 36
0.0
 17
0.0
 27
1.0
 37
0.0
 76
     0
330
23
  0
LAYOUT
  5
22
102
{ACAD_REACTORS
330
1A
102
}
330
1A
100
AcDbPlotSettings
  1

  2
none_device
  4
Letter_(8.50_x_11.00_Inches)
  6

 40
6.35
 41
6.35
 42
6.35000508
 43
6.35000508
 44
215.9
 45
279.4
 46
0.0
 47
0.0
 48
0.0
 49
0.0
140
0.0
141
0.0
142
1.0
143
1.0
 70
  1712
 72
     0
 73
     0
 74
     0
  7

 75
     0
 76
     0
 77
     2
 78
   300
147
1.0
148
0.0
149
0.0
100
AcDbLayout
  1
Model
 70
     1
 71
     0
 10
0.0
 20
0.0
 11
12.0
 21
9.0
 12
0.0
 22
0.0
 32
0.0
 14
1.000000000000000E+20
 24
1.000000000000000E+20
 34
1.000000000000000E+20
 15
-1.000000000000000E+20
 25
-1.000000000000000E+20
 35
-1.000000000000000E+20
146
0.0
 13
0.0
 23
0.0
 33
0.0
 16
1.0
 26
0.0
 36
0.0
 17
0.0
 27
1.0
 37
0.0
 76
     0
330
1F
331
29
  0
MATERIAL
  5
45
102
{ACAD_REACTORS
330
43
102
}
330
43
100
AcDbMaterial
  1
ByBlock
 72
     1
 94
      127
  0
MATERIAL
  5
44
102
{ACAD_REACTORS
330
43
102
}
330
43
100
AcDbMaterial
  1
ByLayer
 72
     1
 94
      127
  0
MATERIAL
  5
46
102
{ACAD_REACTORS
330
43
102
}
330
43
100
AcDbMaterial
  1
Global
 72
     1
 94
      127
  0
MLEADERSTYLE
  5
6C
102
{ACAD_REACTORS
330
6B
102
}
330
6B
100
AcDbMLeaderStyle
179
     2
170
     2
171
     1
172
     0
 90
        2
 40
0.0
 41
0.0
173
     1
 91
-1056964608
340
14
 92
       -2
290
     1
 42
0.09
291
     1
 43
0.36
  3
Standard
341
0
 44
0.18
300

342
11
174
     1
178
     6
175
     1
176
     0
 93
-1056964608
 45
0.18
292
     0
297
     0
 46
0.18
343
0
 94
-1056964608
 47
1.0
 49
1.0
140
1.0
293
     1
141
0.0
294
     1
177
     0
142
1.0
295
     0
296
     0
143
0.125
271
     0
272
     9
273
     9
298
     0
  0
MLINESTYLE
  5
18
102
{ACAD_REACTORS
330
17
102
}
330
17
100
AcDbMlineStyle
  2
Standard
 70
     0
  3

 62
   256
 51
90.0
 52
90.0
 71
     2
 49
0.5
 62
   256
  6
BYLAYER
 49
-0.5
 62
   256
  6
BYLAYER
  0
ACDBPLACEHOLDER
  5
F
102
{ACAD_REACTORS
330
E
102
}
330
E
  0
SCALE
  5
48
102
{ACAD_REACTORS
330
47
102
}
330
47
100
AcDbScale
 70
     0
300
1:1
140
1.0
141
1.0
290
     1
  0
SCALE
  5
49
102
{ACAD_REACTORS
330
47
102
}
330
47
100
AcDbScale
 70
     0
300
1:2
140
1.0
141
2.0
290
     0
  0
SCALE
  5
4A
102
{ACAD_REACTORS
330
47
102
}
330
47
100
AcDbScale
 70
     0
300
1:4
140
1.0
141
4.0
290
     0
  0
SCALE
  5
4B
102
{ACAD_REACTORS
330
47
102
}
330
47
100
AcDbScale
 70
     0
300
1:5
140
1.0
141
5.0
290
     0
  0
SCALE
  5
4C
102
{ACAD_REACTORS
330
47
102
}
330
47
100
AcDbScale
 70
     0
300
1:8
140
1.0
141
8.0
290
     0
  0
SCALE
  5
4D
102
{ACAD_REACTORS
330
47
102
}
330
47
100
AcDbScale
 70
     0
300
1:10
140
1.0
141
10.0
290
     0
  0
SCALE
  5
4E
102
{ACAD_REACTORS
330
47
102
}
330
47
100
AcDbScale
 70
     0
300
1:16
140
1.0
141
16.0
290
     0
  0
SCALE
  5
4F
102
{ACAD_REACTORS
330
47
102
}
330
47
100
AcDbScale
 70
     0
300
1:20
140
1.0
141
20.0
290
     0
  0
SCALE
  5
50
102
{ACAD_REACTORS
330
47
102
}
330
47
100
AcDbScale
 70
     0
300
1:30
140
1.0
141
30.0
290
     0
  0
SCALE
  5
51
102
{ACAD_REACTORS
330
47
102
}
330
47
100
AcDbScale
 70
     0
300
1:40
140
1.0
141
40.0
290
     0
  0
SCALE
  5
52
102
{ACAD_REACTORS
330
47
102
}
330
47
100
AcDbScale
 70
     0
300
1:50
140
1.0
141
50.0
290
     0
  0
SCALE
  5
53
102
{ACAD_REACTORS
330
47
102
}
330
47
100
AcDbScale
 70
     0
300
1:100
140
1.0
141
100.0
290
     0
  0
SCALE
  5
54
102
{ACAD_REACTORS
330
47
102
}
330
47
100
AcDbScale
 70
     0
300
2:1
140
2.0
141
1.0
290
     0
  0
SCALE
  5
55
102
{ACAD_REACTORS
330
47
102
}
330
47
100
AcDbScale
 70
     0
300
4:1
140
4.0
141
1.0
290
     0
  0
SCALE
  5
56
102
{ACAD_REACTORS
330
47
102
}
330
47
100
AcDbScale
 70
     0
300
8:1
140
8.0
141
1.0
290
     0
  0
SCALE
  5
57
102
{ACAD_REACTORS
330
47
102
}
330
47
100
AcDbScale
 70
     0
300
10:1
140
10.0
141
1.0
290
     0
  0
SCALE
  5
58
102
{ACAD_REACTORS
330
47
102
}
330
47
100
AcDbScale
 70
     0
300
100:1
140
100.0
141
1.0
290
     0
  0
SCALE
  5
59
102
{ACAD_REACTORS
330
47
102
}
330
47
100
AcDbScale
 70
     0
300
1/128" = 1'-0"
140
0.0078125
141
12.0
290
     0
  0
SCALE
  5
5A
102
{ACAD_REACTORS
330
47
102
}
330
47
100
AcDbScale
 70
     0
300
1/64" = 1'-0"
140
0.015625
141
12.0
290
     0
  0
SCALE
  5
5B
102
{ACAD_REACTORS
330
47
102
}
330
47
100
AcDbScale
 70
     0
300
1/32" = 1'-0"
140
0.03125
141
12.0
290
     0
  0
SCALE
  5
5C
102
{ACAD_REACTORS
330
47
102
}
330
47
100
AcDbScale
 70
     0
300
1/16" = 1'-0"
140
0.0625
141
12.0
290
     0
  0
SCALE
  5
5D
102
{ACAD_REACTORS
330
47
102
}
330
47
100
AcDbScale
 70
     0
300
3/32" = 1'-0"
140
0.09375
141
12.0
290
     0
  0
SCALE
  5
5E
102
{ACAD_REACTORS
330
47
102
}
330
47
100
AcDbScale
 70
     0
300
1/8" = 1'-0"
140
0.125
141
12.0
290
     0
  0
SCALE
  5
5F
102
{ACAD_REACTORS
330
47
102
}
330
47
100
AcDbScale
 70
     0
300
3/16" = 1'-0"
140
0.1875
141
12.0
290
     0
  0
SCALE
  5
60
102
{ACAD_REACTORS
330
47
102
}
330
47
100
AcDbScale
 70
     0
300
1/4" = 1'-0"
140
0.25
141
12.0
290
     0
  0
SCALE
  5
61
102
{ACAD_REACTORS
330
47
102
}
330
47
100
AcDbScale
 70
     0
300
3/8" = 1'-0"
140
0.375
141
12.0
290
     0
  0
SCALE
  5
62
102
{ACAD_REACTORS
330
47
102
}
330
47
100
AcDbScale
 70
     0
300
1/2" = 1'-0"
140
0.5
141
12.0
290
     0
  0
SCALE
  5
63
102
{ACAD_REACTORS
330
47
102
}
330
47
100
AcDbScale
 70
     0
300
3/4" = 1'-0"
140
0.75
141
12.0
290
     0
  0
SCALE
  5
64
102
{ACAD_REACTORS
330
47
102
}
330
47
100
AcDbScale
 70
     0
300
1" = 1'-0"
140
1.0
141
12.0
290
     0
  0
SCALE
  5
65
102
{ACAD_REACTORS
330
47
102
}
330
47
100
AcDbScale
 70
     0
300
1-1/2" = 1'-0"
140
1.5
141
12.0
290
     0
  0
SCALE
  5
66
102
{ACAD_REACTORS
330
47
102
}
330
47
100
AcDbScale
 70
     0
300
3" = 1'-0"
140
3.0
141
12.0
290
     0
  0
SCALE
  5
67
102
{ACAD_REACTORS
330
47
102
}
330
47
100
AcDbScale
 70
     0
300
6" = 1'-0"
140
6.0
141
12.0
290
     0
  0
SCALE
  5
68
102
{ACAD_REACTORS
330
47
102
}
330
47
100
AcDbScale
 70
     0
300
1'-0" = 1'-0"
140
12.0
141
12.0
290
     0
  0
TABLESTYLE
  5
6A
102
{ACAD_REACTORS
330
69
102
}
102
{ACAD_XDICTIONARY
360
1DA
102
}
330
69
100
AcDbTableStyle
  3
Standard
 70
     0
 71
     0
 40
0.06
 41
0.06
280
     0
281
     0
  7
Standard
140
0.18
170
     2
 62
     0
 63
   257
283
     0
 90
        4
 91
        0
  1

274
    -2
284
     1
 64
     0
275
    -2
285
     1
 65
     0
276
    -2
286
     1
 66
     0
277
    -2
287
     1
 67
     0
278
    -2
288
     1
 68
     0
279
    -2
289
     1
 69
     0
  7
Standard
140
0.25
170
     5
 62
     0
 63
   257
283
     0
 90
        4
 91
        0
  1

274
    -2
284
     1
 64
     0
275
    -2
285
     1
 65
     0
276
    -2
286
     1
 66
     0
277
    -2
287
     1
 67
     0
278
    -2
288
     1
 68
     0
279
    -2
289
     1
 69
     0
  7
Standard
140
0.18
170
     5
 62
     0
 63
   257
283
     0
 90
        4
 91
        0
  1

274
    -2
284
     1
 64
     0
275
    -2
285
     1
 65
     0
276
    -2
286
     1
 66
     0
277
    -2
287
     1
 67
     0
278
    -2
288
     1
 68
     0
279
    -2
289
     1
 69
     0
  0
VISUALSTYLE
  5
2F
102
{ACAD_REACTORS
330
2A
102
}
330
2A
100
AcDbVisualStyle
  2
2dWireframe
 70
     4
177
     3
291
     0
 70
    58
 90
        0
176
     1
 90
        2
176
     1
 90
        0
176
     1
 90
        0
176
     1
 40
0.6
176
     1
 40
30.0
176
     1
 62
     7
420
 16777215
176
     1
 90
        1
176
     1
 90
        4
176
     1
 62
     7
176
     1
 62
   257
176
     1
 90
        1
176
     1
 90
        1
176
     1
 40
1.0
176
     1
 90
        0
176
     1
 62
   257
176
     1
 40
1.0
176
     1
 90
        1
176
     1
 90
        6
176
     1
 90
        2
176
     1
 62
     7
176
     1
 90
        5
176
     1
 90
        0
176
     1
 90
        0
176
     1
290
     0
176
     1
 90
        1
176
     1
 40
0.0
176
     1
 90
        0
176
     1
290
     1
176
     1
290
     1
176
     1
290
     0
176
     1
290
     0
176
     1
290
     0
176
     1
290
     0
176
     1
290
     0
176
     1
290
     0
176
     1
290
     0
176
     1
 90
       50
176
     1
 40
0.0
176
     1
 40
1.0
176
     1
 90
        0
176
     1
 62
    18
420
        0
176
     1
 90
       50
176
     1
 90
        3
176
     1
 62
     5
420
      255
176
     1
290
     0
176
     1
 90
       50
176
     1
 90
       50
176
     1
 90
       50
176
     1
290
     0
176
     1
 90
       50
176
     1
 62
   256
176
     0
 40
1.0
176
     0
 90
        2
176
     1
  1
strokes_ogs.tif
176
     1
290
     0
176
     1
 40
1.0
176
     1
 40
1.0
176
     1
  0
VISUALSTYLE
  5
32
102
{ACAD_REACTORS
330
2A
102
}
330
2A
100
AcDbVisualStyle
  2
Basic
 70
     7
177
     3
291
     1
 70
    58
 90
        1
176
     1
 90
        0
176
     1
 90
        1
176
     1
 90
        0
176
     1
 40
0.6
176
     1
 40
30.0
176
     1
 62
     7
420
 16777215
176
     1
 90
        0
176
     1
 90
        4
176
     1
 62
     7
176
     1
 62
   257
176
     1
 90
        1
176
     1
 90
        1
176
     1
 40
1.0
176
     1
 90
        8
176
     1
 62
     7
176
     1
 40
1.0
176
     1
 90
        1
176
     1
 90
        6
176
     1
 90
        2
176
     1
 62
     7
176
     1
 90
        5
176
     1
 90
        0
176
     1
 90
        0
176
     1
290
     0
176
     1
 90
        1
176
     1
 40
0.0
176
     1
 90
        0
176
     1
290
     0
176
     1
290
     1
176
     1
290
     1
176
     1
290
     0
176
     1
290
     0
176
     1
290
     0
176
     1
290
     0
176
     1
290
     0
176
     1
290
     0
176
     1
 90
       50
176
     1
 40
0.0
176
     1
 40
1.0
176
     1
 90
        0
176
     1
 62
    18
420
        0
176
     1
 90
       50
176
     1
 90
        3
176
     1
 62
     5
420
      255
176
     1
290
     0
176
     1
 90
       50
176
     1
 90
       50
176
     1
 90
       50
176
     1
290
     0
176
     1
 90
       50
176
     1
 62
   256
176
     0
 40
1.0
176
     0
 90
        2
176
     1
  1
strokes_ogs.tif
176
     1
290
     0
176
     1
 40
1.0
176
     1
 40
1.0
176
     1
  0
VISUALSTYLE
  5
36
102
{ACAD_REACTORS
330
2A
102
}
330
2A
100
AcDbVisualStyle
  2
Brighten
 70
    12
177
     3
291
     1
 70
    58
 90
        2
176
     1
 90
        2
176
     1
 90
        0
176
     1
 90
        0
176
     1
 40
0.6
176
     1
 40
30.0
176
     1
 62
     7
420
 16777215
176
     1
 90
        1
176
     1
 90
        4
176
     1
 62
     7
176
     1
 62
   257
176
     1
 90
        1
176
     1
 90
        1
176
     1
 40
1.0
176
     1
 90
        8
176
     1
 62
     7
176
     1
 40
1.0
176
     1
 90
        1
176
     1
 90
        6
176
     1
 90
        2
176
     1
 62
     7
176
     1
 90
        5
176
     1
 90
        0
176
     1
 90
        0
176
     1
290
     0
176
     1
 90
        1
176
     1
 40
50.0
176
     1
 90
        0
176
     1
290
     0
176
     1
290
     1
176
     1
290
     1
176
     1
290
     0
176
     1
290
     0
176
     1
290
     0
176
     1
290
     0
176
     1
290
     0
176
     1
290
     0
176
     1
 90
       50
176
     1
 40
0.0
176
     1
 40
1.0
176
     1
 90
        0
176
     1
 62
    18
420
        0
176
     1
 90
       50
176
     1
 90
        3
176
     1
 62
     5
420
      255
176
     1
290
     0
176
     1
 90
       50
176
     1
 90
       50
176
     1
 90
       50
176
     1
290
     0
176
     1
 90
       50
176
     1
 62
   256
176
     0
 40
1.0
176
     0
 90
        2
176
     1
  1
strokes_ogs.tif
176
     1
290
     0
176
     1
 40
1.0
176
     1
 40
1.0
176
     1
  0
VISUALSTYLE
  5
3A
102
{ACAD_REACTORS
330
2A
102
}
330
2A
100
AcDbVisualStyle
  2
ColorChange
 70
    16
177
     3
291
     1
 70
    58
 90
        2
176
     1
 90
        2
176
     1
 90
        3
176
     1
 90
        0
176
     1
 40
0.6
176
     1
 40
30.0
176
     1
 62
     8
420
  8421504
176
     1
 90
        1
176
     1
 90
        4
176
     1
 62
     7
176
     1
 62
   257
176
     1
 90
        1
176
     1
 90
        1
176
     1
 40
1.0
176
     1
 90
        8
176
     1
 62
     8
420
  8421504
176
     1
 40
1.0
176
     1
 90
        1
176
     1
 90
        6
176
     1
 90
        2
176
     1
 62
     7
176
     1
 90
        5
176
     1
 90
        0
176
     1
 90
        0
176
     1
290
     0
176
     1
 90
        1
176
     1
 40
0.0
176
     1
 90
        0
176
     1
290
     0
176
     1
290
     1
176
     1
290
     1
176
     1
290
     0
176
     1
290
     0
176
     1
290
     0
176
     1
290
     0
176
     1
290
     0
176
     1
290
     0
176
     1
 90
       50
176
     1
 40
0.0
176
     1
 40
1.0
176
     1
 90
        0
176
     1
 62
    18
420
        0
176
     1
 90
       50
176
     1
 90
        3
176
     1
 62
     5
420
      255
176
     1
290
     0
176
     1
 90
       50
176
     1
 90
       50
176
     1
 90
       50
176
     1
290
     0
176
     1
 90
       50
176
     1
 62
   256
176
     0
 40
1.0
176
     0
 90
        2
176
     1
  1
strokes_ogs.tif
176
     1
290
     0
176
     1
 40
1.0
176
     1
 40
1.0
176
     1
  0
VISUALSTYLE
  5
34
102
{ACAD_REACTORS
330
2A
102
}
330
2A
100
AcDbVisualStyle
  2
Conceptual
 70
     9
177
     3
291
     0
 70
    58
 90
        3
176
     1
 90
        2
176
     1
 90
        0
176
     1
 90
        0
176
     1
 40
0.6
176
     1
 40
30.0
176
     1
 62
     7
420
 16777215
176
     1
 90
        2
176
     1
 90
        2
176
     1
 62
     7
176
     1
 62
   257
176
     1
 90
        1
176
     1
 90
        1
176
     1
 40
179.0
176
     1
 90
        8
176
     1
 62
     7
176
     1
 40
1.0
176
     1
 90
        1
176
     1
 90
        6
176
     1
 90
        2
176
     1
 62
     7
176
     1
 90
        3
176
     1
 90
        0
176
     1
 90
        0
176
     1
290
     0
176
     1
 90
        1
176
     1
 40
0.0
176
     1
 90
        0
176
     1
290
     0
176
     1
290
     1
176
     1
290
     1
176
     1
290
     0
176
     1
290
     0
176
     1
290
     0
176
     1
290
     0
176
     1
290
     0
176
     1
290
     0
176
     1
 90
       50
176
     1
 40
0.0
176
     1
 40
1.0
176
     1
 90
        0
176
     1
 62
    18
420
        0
176
     1
 90
       50
176
     1
 90
        3
176
     1
 62
     5
420
      255
176
     1
290
     0
176
     1
 90
       50
176
     1
 90
       50
176
     1
 90
       50
176
     1
290
     0
176
     1
 90
       50
176
     1
 62
   256
176
     0
 40
1.0
176
     0
 90
        2
176
     1
  1
strokes_ogs.tif
176
     1
290
     0
176
     1
 40
1.0
176
     1
 40
1.0
176
     1
  0
VISUALSTYLE
  5
35
102
{ACAD_REACTORS
330
2A
102
}
330
2A
100
AcDbVisualStyle
  2
Dim
 70
    11
177
     3
291
     1
 70
    58
 90
        2
176
     1
 90
        2
176
     1
 90
        0
176
     1
 90
        0
176
     1
 40
0.6
176
     1
 40
30.0
176
     1
 62
     7
420
 16777215
176
     1
 90
        1
176
     1
 90
        4
176
     1
 62
     7
176
     1
 62
   257
176
     1
 90
        1
176
     1
 90
        1
176
     1
 40
1.0
176
     1
 90
        8
176
     1
 62
     7
176
     1
 40
1.0
176
     1
 90
        1
176
     1
 90
        6
176
     1
 90
        2
176
     1
 62
     7
176
     1
 90
        5
176
     1
 90
        0
176
     1
 90
        0
176
     1
290
     0
176
     1
 90
        1
176
     1
 40
-50.0
176
     1
 90
        0
176
     1
290
     0
176
     1
290
     1
176
     1
290
     1
176
     1
290
     0
176
     1
290
     0
176
     1
290
     0
176
     1
290
     0
176
     1
290
     0
176
     1
290
     0
176
     1
 90
       50
176
     1
 40
0.0
176
     1
 40
1.0
176
     1
 90
        0
176
     1
 62
    18
420
        0
176
     1
 90
       50
176
     1
 90
        3
176
     1
 62
     5
420
      255
176
     1
290
     0
176
     1
 90
       50
176
     1
 90
       50
176
     1
 90
       50
176
     1
290
     0
176
     1
 90
       50
176
     1
 62
   256
176
     0
 40
1.0
176
     0
 90
        2
176
     1
  1
strokes_ogs.tif
176
     1
290
     0
176
     1
 40
1.0
176
     1
 40
1.0
176
     1
  0
VISUALSTYLE
  5
3D
102
{ACAD_REACTORS
330
2A
102
}
330
2A
100
AcDbVisualStyle
  2
EdgeColorOff
 70
    22
177
     3
291
     1
 70
    58
 90
        2
176
     0
 90
        2
176
     0
 90
        0
176
     0
 90
        0
176
     0
 40
0.6
176
     0
 40
30.0
176
     0
 62
     7
420
 16777215
176
     0
 90
        1
176
     0
 90
        4
176
     0
 62
     7
176
     0
 62
   257
176
     0
 90
        1
176
     0
 90
        1
176
     0
 40
1.0
176
     0
 90
        8
176
     2
 62
     7
176
     0
 40
1.0
176
     0
 90
        1
176
     0
 90
        6
176
     0
 90
        2
176
     0
 62
     7
176
     0
 90
        5
176
     0
 90
        0
176
     0
 90
        0
176
     0
290
     0
176
     0
 90
        1
176
     0
 40
0.0
176
     0
 90
        0
176
     0
290
     0
176
     0
290
     1
176
     0
290
     1
176
     0
290
     0
176
     0
290
     0
176
     0
290
     0
176
     0
290
     0
176
     0
290
     0
176
     0
290
     0
176
     0
 90
       50
176
     0
 40
0.0
176
     0
 40
1.0
176
     0
 90
        0
176
     0
 62
    18
420
        0
176
     0
 90
       50
176
     0
 90
        3
176
     0
 62
     5
420
      255
176
     0
290
     0
176
     0
 90
       50
176
     0
 90
       50
176
     0
 90
       50
176
     0
290
     0
176
     0
 90
       50
176
     0
 62
   256
176
     0
 40
1.0
176
     0
 90
        2
176
     0
  1
strokes_ogs.tif
176
     0
290
     0
176
     0
 40
1.0
176
     0
 40
1.0
176
     0
  0
VISUALSTYLE
  5
39
102
{ACAD_REACTORS
330
2A
102
}
330
2A
100
AcDbVisualStyle
  2
Facepattern
 70
    15
177
     3
291
     1
 70
    58
 90
        2
176
     1
 90
        2
176
     1
 90
        0
176
     1
 90
        0
176
     1
 40
0.6
176
     1
 40
30.0
176
     1
 62
     7
420
 16777215
176
     1
 90
        1
176
     1
 90
        4
176
     1
 62
     7
176
     1
 62
   257
176
     1
 90
        1
176
     1
 90
        1
176
     1
 40
1.0
176
     1
 90
        8
176
     1
 62
     7
176
     1
 40
1.0
176
     1
 90
        1
176
     1
 90
        6
176
     1
 90
        2
176
     1
 62
     7
176
     1
 90
        5
176
     1
 90
        0
176
     1
 90
        0
176
     1
290
     0
176
     1
 90
        1
176
     1
 40
0.0
176
     1
 90
        0
176
     1
290
     0
176
     1
290
     1
176
     1
290
     1
176
     1
290
     0
176
     1
290
     0
176
     1
290
     0
176
     1
290
     0
176
     1
290
     0
176
     1
290
     0
176
     1
 90
       50
176
     1
 40
0.0
176
     1
 40
1.0
176
     1
 90
        0
176
     1
 62
    18
420
        0
176
     1
 90
       50
176
     1
 90
        3
176
     1
 62
     5
420
      255
176
     1
290
     0
176
     1
 90
       50
176
     1
 90
       50
176
     1
 90
       50
176
     1
290
     0
176
     1
 90
       50
176
     1
 62
   256
176
     0
 40
1.0
176
     0
 90
        2
176
     1
  1
strokes_ogs.tif
176
     1
290
     0
176
     1
 40
1.0
176
     1
 40
1.0
176
     1
  0
VISUALSTYLE
  5
2B
102
{ACAD_REACTORS
330
2A
102
}
330
2A
100
AcDbVisualStyle
  2
Flat
 70
     0
177
     3
291
     1
 70
    58
 90
        2
176
     1
 90
        1
176
     1
 90
        1
176
     1
 90
        2
176
     1
 40
0.6
176
     1
 40
30.0
176
     1
 62
     7
420
 16777215
176
     1
 90
        0
176
     1
 90
        0
176
     1
 62
     7
176
     1
 62
   257
176
     1
 90
        1
176
     1
 90
        1
176
     1
 40
1.0
176
     1
 90
        8
176
     1
 62
     7
176
     1
 40
1.0
176
     1
 90
        1
176
     1
 90
        6
176
     1
 90
        2
176
     1
 62
     7
176
     1
 90
        5
176
     1
 90
        0
176
     1
 90
        0
176
     1
290
     0
176
     1
 90
       13
176
     1
 40
0.0
176
     1
 90
        0
176
     1
290
     0
176
     1
290
     1
176
     1
290
     1
176
     1
290
     0
176
     1
290
     0
176
     1
290
     0
176
     1
290
     0
176
     1
290
     0
176
     1
290
     0
176
     1
 90
       50
176
     1
 40
0.0
176
     1
 40
1.0
176
     1
 90
        0
176
     1
 62
    18
420
        0
176
     1
 90
       50
176
     1
 90
        3
176
     1
 62
     5
420
      255
176
     1
290
     0
176
     1
 90
       50
176
     1
 90
       50
176
     1
 90
       50
176
     1
290
     0
176
     1
 90
       50
176
     1
 62
   256
176
     0
 40
1.0
176
     0
 90
        2
176
     1
  1
strokes_ogs.tif
176
     1
290
     0
176
     1
 40
1.0
176
     1
 40
1.0
176
     1
  0
VISUALSTYLE
  5
2C
102
{ACAD_REACTORS
330
2A
102
}
330
2A
100
AcDbVisualStyle
  2
FlatWithEdges
 70
     1
177
     3
291
     1
 70
    58
 90
        2
176
     1
 90
        1
176
     1
 90
        1
176
     1
 90
        2
176
     1
 40
0.6
176
     1
 40
30.0
176
     1
 62
     7
420
 16777215
176
     1
 90
        1
176
     1
 90
        0
176
     1
 62
     7
176
     1
 62
   257
176
     1
 90
        1
176
     1
 90
        1
176
     1
 40
1.0
176
     1
 90
        0
176
     1
 62
   257
176
     1
 40
1.0
176
     1
 90
        1
176
     1
 90
        6
176
     1
 90
        2
176
     1
 62
     7
176
     1
 90
        5
176
     1
 90
        0
176
     1
 90
        0
176
     1
290
     0
176
     1
 90
       13
176
     1
 40
0.0
176
     1
 90
        0
176
     1
290
     0
176
     1
290
     1
176
     1
290
     1
176
     1
290
     0
176
     1
290
     0
176
     1
290
     0
176
     1
290
     0
176
     1
290
     0
176
     1
290
     0
176
     1
 90
       50
176
     1
 40
0.0
176
     1
 40
1.0
176
     1
 90
        0
176
     1
 62
    18
420
        0
176
     1
 90
       50
176
     1
 90
        3
176
     1
 62
     5
420
      255
176
     1
290
     0
176
     1
 90
       50
176
     1
 90
       50
176
     1
 90
       50
176
     1
290
     0
176
     1
 90
       50
176
     1
 62
   256
176
     0
 40
1.0
176
     0
 90
        2
176
     1
  1
strokes_ogs.tif
176
     1
290
     0
176
     1
 40
1.0
176
     1
 40
1.0
176
     1
  0
VISUALSTYLE
  5
2D
102
{ACAD_REACTORS
330
2A
102
}
330
2A
100
AcDbVisualStyle
  2
Gouraud
 70
     2
177
     3
291
     1
 70
    58
 90
        2
176
     1
 90
        2
176
     1
 90
        1
176
     1
 90
        2
176
     1
 40
0.6
176
     1
 40
30.0
176
     1
 62
     7
420
 16777215
176
     1
 90
        0
176
     1
 90
        0
176
     1
 62
     7
176
     1
 62
   257
176
     1
 90
        1
176
     1
 90
        1
176
     1
 40
1.0
176
     1
 90
        0
176
     1
 62
     7
176
     1
 40
1.0
176
     1
 90
        1
176
     1
 90
        6
176
     1
 90
        2
176
     1
 62
     7
176
     1
 90
        5
176
     1
 90
        0
176
     1
 90
        0
176
     1
290
     0
176
     1
 90
       13
176
     1
 40
0.0
176
     1
 90
        0
176
     1
290
     0
176
     1
290
     1
176
     1
290
     1
176
     1
290
     0
176
     1
290
     0
176
     1
290
     0
176
     1
290
     0
176
     1
290
     0
176
     1
290
     0
176
     1
 90
       50
176
     1
 40
0.0
176
     1
 40
1.0
176
     1
 90
        0
176
     1
 62
    18
420
        0
176
     1
 90
       50
176
     1
 90
        3
176
     1
 62
     5
420
      255
176
     1
290
     0
176
     1
 90
       50
176
     1
 90
       50
176
     1
 90
       50
176
     1
290
     0
176
     1
 90
       50
176
     1
 62
   256
176
     0
 40
1.0
176
     0
 90
        2
176
     1
  1
strokes_ogs.tif
176
     1
290
     0
176
     1
 40
1.0
176
     1
 40
1.0
176
     1
  0
VISUALSTYLE
  5
2E
102
{ACAD_REACTORS
330
2A
102
}
330
2A
100
AcDbVisualStyle
  2
GouraudWithEdges
 70
     3
177
     3
291
     1
 70
    58
 90
        2
176
     1
 90
        2
176
     1
 90
        1
176
     1
 90
        2
176
     1
 40
0.6
176
     1
 40
30.0
176
     1
 62
     7
420
 16777215
176
     1
 90
        1
176
     1
 90
        0
176
     1
 62
     7
176
     1
 62
   257
176
     1
 90
        1
176
     1
 90
        1
176
     1
 40
1.0
176
     1
 90
        0
176
     1
 62
   257
176
     1
 40
1.0
176
     1
 90
        1
176
     1
 90
        6
176
     1
 90
        2
176
     1
 62
     7
176
     1
 90
        5
176
     1
 90
        0
176
     1
 90
        0
176
     1
290
     0
176
     1
 90
       13
176
     1
 40
0.0
176
     1
 90
        0
176
     1
290
     0
176
     1
290
     1
176
     1
290
     1
176
     1
290
     0
176
     1
290
     0
176
     1
290
     0
176
     1
290
     0
176
     1
290
     0
176
     1
290
     0
176
     1
 90
       50
176
     1
 40
0.0
176
     1
 40
1.0
176
     1
 90
        0
176
     1
 62
    18
420
        0
176
     1
 90
       50
176
     1
 90
        3
176
     1
 62
     5
420
      255
176
     1
290
     0
176
     1
 90
       50
176
     1
 90
       50
176
     1
 90
       50
176
     1
290
     0
176
     1
 90
       50
176
     1
 62
   256
176
     0
 40
1.0
176
     0
 90
        2
176
     1
  1
strokes_ogs.tif
176
     1
290
     0
176
     1
 40
1.0
176
     1
 40
1.0
176
     1
  0
VISUALSTYLE
  5
31
102
{ACAD_REACTORS
330
2A
102
}
330
2A
100
AcDbVisualStyle
  2
Hidden
 70
     6
177
     3
291
     0
 70
    58
 90
        1
176
     1
 90
        2
176
     1
 90
        2
176
     1
 90
        0
176
     1
 40
0.6
176
     1
 40
30.0
176
     1
 62
     7
420
 16777215
176
     1
 90
        2
176
     1
 90
        2
176
     1
 62
     7
176
     1
 62
   257
176
     1
 90
        2
176
     1
 90
        1
176
     1
 40
40.0
176
     1
 90
        0
176
     1
 62
   257
176
     1
 40
1.0
176
     1
 90
        1
176
     1
 90
        6
176
     1
 90
        2
176
     1
 62
     7
176
     1
 90
        3
176
     1
 90
        0
176
     1
 90
        0
176
     1
290
     0
176
     1
 90
        1
176
     1
 40
0.0
176
     1
 90
        0
176
     1
290
     0
176
     1
290
     1
176
     1
290
     1
176
     1
290
     0
176
     1
290
     0
176
     1
290
     0
176
     1
290
     0
176
     1
290
     0
176
     1
290
     0
176
     1
 90
       50
176
     1
 40
0.0
176
     1
 40
1.0
176
     1
 90
        0
176
     1
 62
    18
420
        0
176
     1
 90
       50
176
     1
 90
        3
176
     1
 62
     5
420
      255
176
     1
290
     0
176
     1
 90
       50
176
     1
 90
       50
176
     1
 90
       50
176
     1
290
     0
176
     1
 90
       50
176
     1
 62
   256
176
     0
 40
1.0
176
     0
 90
        2
176
     1
  1
strokes_ogs.tif
176
     1
290
     0
176
     1
 40
1.0
176
     1
 40
1.0
176
     1
  0
VISUALSTYLE
  5
3B
102
{ACAD_REACTORS
330
2A
102
}
330
2A
100
AcDbVisualStyle
  2
JitterOff
 70
    20
177
     3
291
     1
 70
    58
 90
        2
176
     0
 90
        2
176
     0
 90
        0
176
     0
 90
        0
176
     0
 40
0.6
176
     0
 40
30.0
176
     0
 62
     7
420
 16777215
176
     0
 90
        1
176
     0
 90
        4
176
     0
 62
     7
176
     0
 62
   257
176
     0
 90
        1
176
     0
 90
        1
176
     0
 40
1.0
176
     0
 90
       10
176
     2
 62
     7
176
     0
 40
1.0
176
     0
 90
        1
176
     0
 90
        6
176
     0
 90
        2
176
     0
 62
     7
176
     0
 90
        5
176
     0
 90
        0
176
     0
 90
        0
176
     0
290
     0
176
     0
 90
        1
176
     0
 40
0.0
176
     0
 90
        0
176
     0
290
     0
176
     0
290
     1
176
     0
290
     1
176
     0
290
     0
176
     0
290
     0
176
     0
290
     0
176
     0
290
     0
176
     0
290
     0
176
     0
290
     0
176
     0
 90
       50
176
     0
 40
0.0
176
     0
 40
1.0
176
     0
 90
        0
176
     0
 62
    18
420
        0
176
     0
 90
       50
176
     0
 90
        3
176
     0
 62
     5
420
      255
176
     0
290
     0
176
     0
 90
       50
176
     0
 90
       50
176
     0
 90
       50
176
     0
290
     0
176
     0
 90
       50
176
     0
 62
   256
176
     0
 40
1.0
176
     0
 90
        2
176
     0
  1
strokes_ogs.tif
176
     0
290
     0
176
     0
 40
1.0
176
     0
 40
1.0
176
     0
  0
VISUALSTYLE
  5
38
102
{ACAD_REACTORS
330
2A
102
}
330
2A
100
AcDbVisualStyle
  2
Linepattern
 70
    14
177
     3
291
     1
 70
    58
 90
        2
176
     1
 90
        2
176
     1
 90
        0
176
     1
 90
        0
176
     1
 40
0.6
176
     1
 40
30.0
176
     1
 62
     7
420
 16777215
176
     1
 90
        1
176
     1
 90
        4
176
     1
 62
     7
176
     1
 62
   257
176
     1
 90
        7
176
     1
 90
        7
176
     1
 40
1.0
176
     1
 90
        8
176
     1
 62
     7
176
     1
 40
1.0
176
     1
 90
        1
176
     1
 90
        6
176
     1
 90
        2
176
     1
 62
     7
176
     1
 90
        5
176
     1
 90
        0
176
     1
 90
        0
176
     1
290
     0
176
     1
 90
        1
176
     1
 40
0.0
176
     1
 90
        0
176
     1
290
     0
176
     1
290
     1
176
     1
290
     1
176
     1
290
     0
176
     1
290
     0
176
     1
290
     0
176
     1
290
     0
176
     1
290
     0
176
     1
290
     0
176
     1
 90
       50
176
     1
 40
0.0
176
     1
 40
1.0
176
     1
 90
        0
176
     1
 62
    18
420
        0
176
     1
 90
       50
176
     1
 90
        3
176
     1
 62
     5
420
      255
176
     1
290
     0
176
     1
 90
       50
176
     1
 90
       50
176
     1
 90
       50
176
     1
290
     0
176
     1
 90
       50
176
     1
 62
   256
176
     0
 40
1.0
176
     0
 90
        2
176
     1
  1
strokes_ogs.tif
176
     1
290
     0
176
     1
 40
1.0
176
     1
 40
1.0
176
     1
  0
VISUALSTYLE
  5
3C
102
{ACAD_REACTORS
330
2A
102
}
330
2A
100
AcDbVisualStyle
  2
OverhangOff
 70
    21
177
     3
291
     1
 70
    58
 90
        2
176
     0
 90
        2
176
     0
 90
        0
176
     0
 90
        0
176
     0
 40
0.6
176
     0
 40
30.0
176
     0
 62
     7
420
 16777215
176
     0
 90
        1
176
     0
 90
        4
176
     0
 62
     7
176
     0
 62
   257
176
     0
 90
        1
176
     0
 90
        1
176
     0
 40
1.0
176
     0
 90
        9
176
     2
 62
     7
176
     0
 40
1.0
176
     0
 90
        1
176
     0
 90
        6
176
     0
 90
        2
176
     0
 62
     7
176
     0
 90
        5
176
     0
 90
        0
176
     0
 90
        0
176
     0
290
     0
176
     0
 90
        1
176
     0
 40
0.0
176
     0
 90
        0
176
     0
290
     0
176
     0
290
     1
176
     0
290
     1
176
     0
290
     0
176
     0
290
     0
176
     0
290
     0
176
     0
290
     0
176
     0
290
     0
176
     0
290
     0
176
     0
 90
       50
176
     0
 40
0.0
176
     0
 40
1.0
176
     0
 90
        0
176
     0
 62
    18
420
        0
176
     0
 90
       50
176
     0
 90
        3
176
     0
 62
     5
420
      255
176
     0
290
     0
176
     0
 90
       50
176
     0
 90
       50
176
     0
 90
       50
176
     0
290
     0
176
     0
 90
       50
176
     0
 62
   256
176
     0
 40
1.0
176
     0
 90
        2
176
     0
  1
strokes_ogs.tif
176
     0
290
     0
176
     0
 40
1.0
176
     0
 40
1.0
176
     0
  0
VISUALSTYLE
  5
33
102
{ACAD_REACTORS
330
2A
102
}
330
2A
100
AcDbVisualStyle
  2
Realistic
 70
     8
177
     3
291
     0
 70
    58
 90
        2
176
     1
 90
        3
176
     1
 90
        0
176
     1
 90
        2
176
     1
 40
0.6
176
     1
 40
30.0
176
     1
 62
     7
420
 16777215
176
     1
 90
        0
176
     1
 90
        0
176
     1
 62
     7
176
     1
 62
   257
176
     1
 90
        1
176
     1
 90
        1
176
     1
 40
1.0
176
     1
 90
        8
176
     1
 62
   257
176
     1
 40
1.0
176
     1
 90
        1
176
     1
 90
        6
176
     1
 90
        2
176
     1
 62
     7
176
     1
 90
        3
176
     1
 90
        0
176
     1
 90
        0
176
     1
290
     0
176
     1
 90
       13
176
     1
 40
0.0
176
     1
 90
        0
176
     1
290
     0
176
     1
290
     1
176
     1
290
     1
176
     1
290
     0
176
     1
290
     0
176
     1
290
     0
176
     1
290
     0
176
     1
290
     0
176
     1
290
     0
176
     1
 90
       50
176
     1
 40
0.0
176
     1
 40
1.0
176
     1
 90
        0
176
     1
 62
    18
420
        0
176
     1
 90
       50
176
     1
 90
        3
176
     1
 62
     5
420
      255
176
     1
290
     0
176
     1
 90
       50
176
     1
 90
       50
176
     1
 90
       50
176
     1
290
     0
176
     1
 90
       50
176
     1
 62
   256
176
     0
 40
1.0
176
     0
 90
        2
176
     1
  1
strokes_ogs.tif
176
     1
290
     0
176
     1
 40
1.0
176
     1
 40
1.0
176
     1
  0
VISUALSTYLE
  5
42
102
{ACAD_REACTORS
330
2A
102
}
330
2A
100
AcDbVisualStyle
  2
Shaded
 70
    27
177
     3
291
     0
 70
    58
 90
        2
176
     1
 90
        2
176
     1
 90
        1
176
     1
 90
        2
176
     1
 40
0.6
176
     1
 40
30.0
176
     1
 62
     7
420
 16777215
176
     1
 90
        0
176
     1
 90
        4
176
     1
 62
     7
176
     1
 62
   257
176
     1
 90
        1
176
     1
 90
        1
176
     1
 40
1.0
176
     1
 90
        8
176
     1
 62
   257
176
     1
 40
1.0
176
     1
 90
        1
176
     1
 90
        6
176
     1
 90
        2
176
     1
 62
     8
420
  7895160
176
     1
 90
        3
176
     1
 90
        0
176
     1
 90
        0
176
     1
290
     0
176
     1
 90
        5
176
     1
 40
0.0
176
     1
 90
        0
176
     1
290
     0
176
     1
290
     1
176
     1
290
     1
176
     1
290
     0
176
     1
290
     0
176
     1
290
     0
176
     1
290
     0
176
     1
290
     0
176
     1
290
     0
176
     1
 90
       50
176
     1
 40
0.0
176
     1
 40
1.0
176
     1
 90
        0
176
     1
 62
    18
420
        0
176
     1
 90
       50
176
     1
 90
        3
176
     1
 62
     5
420
      255
176
     1
290
     0
176
     1
 90
       50
176
     1
 90
       50
176
     1
 90
       50
176
     1
290
     0
176
     1
 90
       50
176
     1
 62
   256
176
     0
 40
1.0
176
     0
 90
        2
176
     1
  1
strokes_ogs.tif
176
     1
290
     0
176
     1
 40
1.0
176
     1
 40
1.0
176
     1
  0
VISUALSTYLE
  5
41
102
{ACAD_REACTORS
330
2A
102
}
330
2A
100
AcDbVisualStyle
  2
Shaded with edges
 70
    26
177
     3
291
     0
 70
    58
 90
        2
176
     1
 90
        2
176
     1
 90
        1
176
     1
 90
        2
176
     1
 40
0.6
176
     1
 40
30.0
176
     1
 62
     7
420
 16777215
176
     1
 90
        1
176
     1
 90
       10
176
     1
 62
     7
176
     1
 62
   257
176
     1
 90
        2
176
     1
 90
        1
176
     1
 40
1.0
176
     1
 90
        8
176
     1
 62
   257
176
     1
 40
1.0
176
     1
 90
        1
176
     1
 90
        6
176
     1
 90
        2
176
     1
 62
     7
176
     1
 90
        3
176
     1
 90
        0
176
     1
 90
        0
176
     1
290
     0
176
     1
 90
        5
176
     1
 40
0.0
176
     1
 90
        0
176
     1
290
     0
176
     1
290
     1
176
     1
290
     1
176
     1
290
     0
176
     1
290
     0
176
     1
290
     0
176
     1
290
     0
176
     1
290
     0
176
     1
290
     0
176
     1
 90
       50
176
     1
 40
0.0
176
     1
 40
1.0
176
     1
 90
        0
176
     1
 62
    18
420
        0
176
     1
 90
       50
176
     1
 90
        3
176
     1
 62
     5
420
      255
176
     1
290
     0
176
     1
 90
       50
176
     1
 90
       50
176
     1
 90
       50
176
     1
290
     0
176
     1
 90
       50
176
     1
 62
   256
176
     0
 40
1.0
176
     0
 90
        2
176
     1
  1
strokes_ogs.tif
176
     1
290
     0
176
     1
 40
1.0
176
     1
 40
1.0
176
     1
  0
VISUALSTYLE
  5
3E
102
{ACAD_REACTORS
330
2A
102
}
330
2A
100
AcDbVisualStyle
  2
Shades of Gray
 70
    23
177
     3
291
     0
 70
    58
 90
        2
176
     1
 90
        2
176
     1
 90
        3
176
     1
 90
        0
176
     1
 40
0.6
176
     1
 40
30.0
176
     1
 62
     7
420
 16777215
176
     1
 90
        2
176
     1
 90
        2
176
     1
 62
     7
176
     1
 62
     7
176
     1
 90
        1
176
     1
 90
        1
176
     1
 40
40.0
176
     1
 90
        8
176
     1
 62
     7
176
     1
 40
1.0
176
     1
 90
        1
176
     1
 90
        6
176
     1
 90
        2
176
     1
 62
     7
176
     1
 90
        3
176
     1
 90
        0
176
     1
 90
        0
176
     1
290
     0
176
     1
 90
        1
176
     1
 40
0.0
176
     1
 90
        0
176
     1
290
     0
176
     1
290
     1
176
     1
290
     1
176
     1
290
     0
176
     1
290
     0
176
     1
290
     0
176
     1
290
     0
176
     1
290
     0
176
     1
290
     0
176
     1
 90
       50
176
     1
 40
0.0
176
     1
 40
1.0
176
     1
 90
        0
176
     1
 62
    18
420
        0
176
     1
 90
       50
176
     1
 90
        3
176
     1
 62
     5
420
      255
176
     1
290
     0
176
     1
 90
       50
176
     1
 90
       50
176
     1
 90
       50
176
     1
290
     0
176
     1
 90
       50
176
     1
 62
   256
176
     0
 40
1.0
176
     0
 90
        2
176
     1
  1
strokes_ogs.tif
176
     1
290
     0
176
     1
 40
1.0
176
     1
 40
1.0
176
     1
  0
VISUALSTYLE
  5
3F
102
{ACAD_REACTORS
330
2A
102
}
330
2A
100
AcDbVisualStyle
  2
Sketchy
 70
    24
177
     3
291
     0
 70
    58
 90
        1
176
     1
 90
        2
176
     1
 90
        2
176
     1
 90
        0
176
     1
 40
0.6
176
     1
 40
30.0
176
     1
 62
     7
420
 16777215
176
     1
 90
        2
176
     1
 90
        2
176
     1
 62
     7
176
     1
 62
     7
176
     1
 90
        1
176
     1
 90
        1
176
     1
 40
40.0
176
     1
 90
       11
176
     1
 62
     7
176
     1
 40
1.0
176
     1
 90
        1
176
     1
 90
        6
176
     1
 90
        2
176
     1
 62
     7
176
     1
 90
        6
176
     1
 90
        0
176
     1
 90
        0
176
     1
290
     0
176
     1
 90
        1
176
     1
 40
0.0
176
     1
 90
        0
176
     1
290
     0
176
     1
290
     1
176
     1
290
     1
176
     1
290
     0
176
     1
290
     0
176
     1
290
     0
176
     1
290
     0
176
     1
290
     0
176
     1
290
     0
176
     1
 90
       50
176
     1
 40
0.0
176
     1
 40
1.0
176
     1
 90
        0
176
     1
 62
    18
420
        0
176
     1
 90
       50
176
     1
 90
        3
176
     1
 62
     5
420
      255
176
     1
290
     0
176
     1
 90
       50
176
     1
 90
       50
176
     1
 90
       50
176
     1
290
     0
176
     1
 90
       50
176
     1
 62
   256
176
     0
 40
1.0
176
     0
 90
        2
176
     1
  1
strokes_ogs.tif
176
     1
290
     0
176
     1
 40
1.0
176
     1
 40
1.0
176
     1
  0
VISUALSTYLE
  5
37
102
{ACAD_REACTORS
330
2A
102
}
330
2A
100
AcDbVisualStyle
  2
Thicken
 70
    13
177
     3
291
     1
 70
    58
 90
        2
176
     1
 90
        2
176
     1
 90
        0
176
     1
 90
        0
176
     1
 40
0.6
176
     1
 40
30.0
176
     1
 62
     7
420
 16777215
176
     1
 90
        1
176
     1
 90
        4
176
     1
 62
     7
176
     1
 62
   257
176
     1
 90
        1
176
     1
 90
        1
176
     1
 40
1.0
176
     1
 90
       12
176
     1
 62
     7
176
     1
 40
1.0
176
     1
 90
        1
176
     1
 90
        6
176
     1
 90
        2
176
     1
 62
     7
176
     1
 90
        5
176
     1
 90
        0
176
     1
 90
        0
176
     1
290
     0
176
     1
 90
        1
176
     1
 40
0.0
176
     1
 90
        0
176
     1
290
     0
176
     1
290
     1
176
     1
290
     1
176
     1
290
     0
176
     1
290
     0
176
     1
290
     0
176
     1
290
     0
176
     1
290
     0
176
     1
290
     0
176
     1
 90
       50
176
     1
 40
0.0
176
     1
 40
1.0
176
     1
 90
        0
176
     1
 62
    18
420
        0
176
     1
 90
       50
176
     1
 90
        3
176
     1
 62
     5
420
      255
176
     1
290
     0
176
     1
 90
       50
176
     1
 90
       50
176
     1
 90
       50
176
     1
290
     0
176
     1
 90
       50
176
     1
 62
   256
176
     0
 40
1.0
176
     0
 90
        2
176
     1
  1
strokes_ogs.tif
176
     1
290
     0
176
     1
 40
1.0
176
     1
 40
1.0
176
     1
  0
VISUALSTYLE
  5
30
102
{ACAD_REACTORS
330
2A
102
}
330
2A
100
AcDbVisualStyle
  2
Wireframe
 70
     5
177
     3
291
     0
 70
    58
 90
        0
176
     1
 90
        2
176
     1
 90
        0
176
     1
 90
        0
176
     1
 40
0.6
176
     1
 40
30.0
176
     1
 62
     7
420
 16777215
176
     1
 90
        1
176
     1
 90
        4
176
     1
 62
     7
176
     1
 62
   257
176
     1
 90
        1
176
     1
 90
        1
176
     1
 40
1.0
176
     1
 90
        0
176
     1
 62
   257
176
     1
 40
1.0
176
     1
 90
        1
176
     1
 90
        6
176
     1
 90
        2
176
     1
 62
     7
176
     1
 90
        3
176
     1
 90
        0
176
     1
 90
        0
176
     1
290
     0
176
     1
 90
        1
176
     1
 40
0.0
176
     1
 90
        0
176
     1
290
     0
176
     1
290
     1
176
     1
290
     1
176
     1
290
     0
176
     1
290
     0
176
     1
290
     0
176
     1
290
     0
176
     1
290
     0
176
     1
290
     0
176
     1
 90
       50
176
     1
 40
0.0
176
     1
 40
1.0
176
     1
 90
        0
176
     1
 62
    18
420
        0
176
     1
 90
       50
176
     1
 90
        3
176
     1
 62
     5
420
      255
176
     1
290
     0
176
     1
 90
       50
176
     1
 90
       50
176
     1
 90
       50
176
     1
290
     0
176
     1
 90
       50
176
     1
 62
   256
176
     0
 40
1.0
176
     0
 90
        2
176
     1
  1
strokes_ogs.tif
176
     1
290
     0
176
     1
 40
1.0
176
     1
 40
1.0
176
     1
  0
VISUALSTYLE
  5
40
102
{ACAD_REACTORS
330
2A
102
}
330
2A
100
AcDbVisualStyle
  2
X-Ray
 70
    25
177
     3
291
     0
 70
    58
 90
        2
176
     1
 90
        2
176
     1
 90
        1
176
     1
 90
        1
176
     1
 40
0.5
176
     1
 40
30.0
176
     1
 62
     7
420
 16777215
176
     1
 90
        1
176
     1
 90
        0
176
     1
 62
     7
176
     1
 62
   257
176
     1
 90
        1
176
     1
 90
        1
176
     1
 40
1.0
176
     1
 90
        8
176
     1
 62
     7
176
     1
 40
1.0
176
     1
 90
        1
176
     1
 90
        6
176
     1
 90
        2
176
     1
 62
     7
176
     1
 90
        3
176
     1
 90
        0
176
     1
 90
        0
176
     1
290
     0
176
     1
 90
       13
176
     1
 40
0.0
176
     1
 90
        0
176
     1
290
     0
176
     1
290
     1
176
     1
290
     1
176
     1
290
     0
176
     1
290
     0
176
     1
290
     0
176
     1
290
     0
176
     1
290
     0
176
     1
290
     0
176
     1
 90
       50
176
     1
 40
0.0
176
     1
 40
1.0
176
     1
 90
        0
176
     1
 62
    18
420
        0
176
     1
 90
       50
176
     1
 90
        3
176
     1
 62
     5
420
      255
176
     1
290
     0
176
     1
 90
       50
176
     1
 90
       50
176
     1
 90
       50
176
     1
290
     0
176
     1
 90
       50
176
     1
 62
   256
176
     0
 40
1.0
176
     0
 90
        2
176
     1
  1
strokes_ogs.tif
176
     1
290
     0
176
     1
 40
1.0
176
     1
 40
1.0
176
     1
  0
DICTIONARYVAR
  5
1D9
102
{ACAD_REACTORS
330
1D8
102
}
330
1D8
100
DictionaryVariables
280
     0
  1
1:1
  0
DICTIONARYVAR
  5
1DE
102
{ACAD_REACTORS
330
1D8
102
}
330
1D8
100
DictionaryVariables
280
     0
  1
Standard
  0
DICTIONARYVAR
  5
1DD
102
{ACAD_REACTORS
330
1D8
102
}
330
1D8
100
DictionaryVariables
280
     0
  1
Standard
  0
DICTIONARY
  5
1DA
330
6A
100
AcDbDictionary
280
     1
281
     1
  3
ACAD_ROUNDTRIP_2008_TABLESTYLE_CELLSTYLEMAP
360
1DB
  0
CELLSTYLEMAP
  5
1DB
102
{ACAD_REACTORS
330
1DA
102
}
330
1DA
100
AcDbCellStyleMap
 90
        3
300
CELLSTYLE
  1
TABLEFORMAT_BEGIN
 90
        5
170
     1
 91
        0
 92
    32768
 62
   257
 93
        1
300
CONTENTFORMAT
  1
CONTENTFORMAT_BEGIN
 90
        0
 91
        0
 92
        4
 93
        0
300

 40
0.0
140
1.0
 94
        5
 62
     0
340
11
144
0.25
309
CONTENTFORMAT_END
171
     1
301
MARGIN
  1
CELLMARGIN_BEGIN
 40
0.06
 40
0.06
 40
0.06
 40
0.06
 40
0.06
 40
0.06
309
CELLMARGIN_END
 94
        6
 95
        1
302
GRIDFORMAT
  1
GRIDFORMAT_BEGIN
 90
        0
 91
        1
 62
     0
 92
       -2
340
14
 93
        0
 40
0.045
309
GRIDFORMAT_END
 95
        2
302
GRIDFORMAT
  1
GRIDFORMAT_BEGIN
 90
        0
 91
        1
 62
     0
 92
       -2
340
14
 93
        0
 40
0.045
309
GRIDFORMAT_END
 95
        4
302
GRIDFORMAT
  1
GRIDFORMAT_BEGIN
 90
        0
 91
        1
 62
     0
 92
       -2
340
14
 93
        0
 40
0.045
309
GRIDFORMAT_END
 95
        8
302
GRIDFORMAT
  1
GRIDFORMAT_BEGIN
 90
        0
 91
        1
 62
     0
 92
       -2
340
14
 93
        0
 40
0.045
309
GRIDFORMAT_END
 95
       16
302
GRIDFORMAT
  1
GRIDFORMAT_BEGIN
 90
        0
 91
        1
 62
     0
 92
       -2
340
14
 93
        0
 40
0.045
309
GRIDFORMAT_END
 95
       32
302
GRIDFORMAT
  1
GRIDFORMAT_BEGIN
 90
        0
 91
        1
 62
     0
 92
       -2
340
14
 93
        0
 40
0.045
309
GRIDFORMAT_END
309
TABLEFORMAT_END
  1
CELLSTYLE_BEGIN
 90
        1
 91
        1
300
_TITLE
309
CELLSTYLE_END
300
CELLSTYLE
  1
TABLEFORMAT_BEGIN
 90
        5
170
     1
 91
        0
 92
        0
 62
   257
 93
        1
300
CONTENTFORMAT
  1
CONTENTFORMAT_BEGIN
 90
        0
 91
        0
 92
        4
 93
        0
300

 40
0.0
140
1.0
 94
        5
 62
     0
340
11
144
0.18
309
CONTENTFORMAT_END
171
     1
301
MARGIN
  1
CELLMARGIN_BEGIN
 40
0.06
 40
0.06
 40
0.06
 40
0.06
 40
0.06
 40
0.06
309
CELLMARGIN_END
 94
        6
 95
        1
302
GRIDFORMAT
  1
GRIDFORMAT_BEGIN
 90
        0
 91
        1
 62
     0
 92
       -2
340
14
 93
        0
 40
0.045
309
GRIDFORMAT_END
 95
        2
302
GRIDFORMAT
  1
GRIDFORMAT_BEGIN
 90
        0
 91
        1
 62
     0
 92
       -2
340
14
 93
        0
 40
0.045
309
GRIDFORMAT_END
 95
        4
302
GRIDFORMAT
  1
GRIDFORMAT_BEGIN
 90
        0
 91
        1
 62
     0
 92
       -2
340
14
 93
        0
 40
0.045
309
GRIDFORMAT_END
 95
        8
302
GRIDFORMAT
  1
GRIDFORMAT_BEGIN
 90
        0
 91
        1
 62
     0
 92
       -2
340
14
 93
        0
 40
0.045
309
GRIDFORMAT_END
 95
       16
302
GRIDFORMAT
  1
GRIDFORMAT_BEGIN
 90
        0
 91
        1
 62
     0
 92
       -2
340
14
 93
        0
 40
0.045
309
GRIDFORMAT_END
 95
       32
302
GRIDFORMAT
  1
GRIDFORMAT_BEGIN
 90
        0
 91
        1
 62
     0
 92
       -2
340
14
 93
        0
 40
0.045
309
GRIDFORMAT_END
309
TABLEFORMAT_END
  1
CELLSTYLE_BEGIN
 90
        2
 91
        1
300
_HEADER
309
CELLSTYLE_END
300
CELLSTYLE
  1
TABLEFORMAT_BEGIN
 90
        5
170
     1
 91
        0
 92
        0
 62
   257
 93
        1
300
CONTENTFORMAT
  1
CONTENTFORMAT_BEGIN
 90
        0
 91
        0
 92
        4
 93
        0
300

 40
0.0
140
1.0
 94
        2
 62
     0
340
11
144
0.18
309
CONTENTFORMAT_END
171
     1
301
MARGIN
  1
CELLMARGIN_BEGIN
 40
0.06
 40
0.06
 40
0.06
 40
0.06
 40
0.06
 40
0.06
309
CELLMARGIN_END
 94
        6
 95
        1
302
GRIDFORMAT
  1
GRIDFORMAT_BEGIN
 90
        0
 91
        1
 62
     0
 92
       -2
340
14
 93
        0
 40
0.045
309
GRIDFORMAT_END
 95
        2
302
GRIDFORMAT
  1
GRIDFORMAT_BEGIN
 90
        0
 91
        1
 62
     0
 92
       -2
340
14
 93
        0
 40
0.045
309
GRIDFORMAT_END
 95
        4
302
GRIDFORMAT
  1
GRIDFORMAT_BEGIN
 90
        0
 91
        1
 62
     0
 92
       -2
340
14
 93
        0
 40
0.045
309
GRIDFORMAT_END
 95
        8
302
GRIDFORMAT
  1
GRIDFORMAT_BEGIN
 90
        0
 91
        1
 62
     0
 92
       -2
340
14
 93
        0
 40
0.045
309
GRIDFORMAT_END
 95
       16
302
GRIDFORMAT
  1
GRIDFORMAT_BEGIN
 90
        0
 91
        1
 62
     0
 92
       -2
340
14
 93
        0
 40
0.045
309
GRIDFORMAT_END
 95
       32
302
GRIDFORMAT
  1
GRIDFORMAT_BEGIN
 90
        0
 91
        1
 62
     0
 92
       -2
340
14
 93
        0
 40
0.045
309
GRIDFORMAT_END
309
TABLEFORMAT_END
  1
CELLSTYLE_BEGIN
 90
        3
 91
        2
300
_DATA
309
CELLSTYLE_END
  0
ENDSEC
  0
EOF