0
SECTION
  2
HEADER
  9
$ACADVER
  1
AC1027
  9
$ACADMAINTVER
 70
     8
  9
$DWGCODEPAGE
  3
ANSI_1252
  9
$REQUIREDVERSIONS
160
                 0
  9
$COMMENTS
  1
File was created by Cadenas
  9
$CUSTOMPROPERTYTAG
  1
NN
  9
$CUSTOMPROPERTY
  1
Four-Bolt Flange Expansion
  9
$CUSTOMPROPERTYTAG
  1
NT
  9
$CUSTOMPROPERTY
  1
Type E 4-Bolt Flange Bearing -Inch
  9
$CUSTOMPROPERTYTAG
  1
NB
  9
$CUSTOMPROPERTY
  1
023107
  9
$CUSTOMPROPERTYTAG
  1
NBSYN
  9
$CUSTOMPROPERTY
  1
$PN.
  9
$CUSTOMPROPERTYTAG
  1
LINA
  9
$CUSTOMPROPERTY
  1
023107
  9
$CUSTOMPROPERTYTAG
  1
SS
  9
$CUSTOMPROPERTY
  1
2-1/2
  9
$CUSTOMPROPERTYTAG
  1
PN
  9
$CUSTOMPROPERTY
  1
023107
  9
$CUSTOMPROPERTYTAG
  1
DESCRIPTION
  9
$CUSTOMPROPERTY
  1
F4B-E-208R
  9
$CUSTOMPROPERTYTAG
  1
A
  9
$CUSTOMPROPERTY
  1
4-3/16
  9
$CUSTOMPROPERTYTAG
  1
B
  9
$CUSTOMPROPERTY
  1
6-7/8
  9
$CUSTOMPROPERTYTAG
  1
C
  9
$CUSTOMPROPERTY
  1
3-9/16
  9
$CUSTOMPROPERTYTAG
  1
D
  9
$CUSTOMPROPERTY
  1
5-3/8
  9
$CUSTOMPROPERTYTAG
  1
E
  9
$CUSTOMPROPERTY
  1
3/16
  9
$CUSTOMPROPERTYTAG
  1
F
  9
$CUSTOMPROPERTY
  1
5/8
  9
$CUSTOMPROPERTYTAG
  1
H
  9
$CUSTOMPROPERTY
  1
1-1/2
  9
$CUSTOMPROPERTYTAG
  1
J
  9
$CUSTOMPROPERTY
  1
5-5/16
  9
$CUSTOMPROPERTYTAG
  1
L
  9
$CUSTOMPROPERTY
  1
4-1/16
  9
$CUSTOMPROPERTYTAG
  1
COMPANY
  9
$CUSTOMPROPERTY
  1
baldor
  9
$INSBASE
 10
0.0
 20
0.0
 30
0.0
  9
$EXTMIN
 10
1.000000000000000E+20
 20
1.000000000000000E+20
 30
1.000000000000000E+20
  9
$EXTMAX
 10
-1.000000000000000E+20
 20
-1.000000000000000E+20
 30
-1.000000000000000E+20
  9
$LIMMIN
 10
0.0
 20
0.0
  9
$LIMMAX
 10
12.0
 20
9.0
  9
$ORTHOMODE
 70
     0
  9
$REGENMODE
 70
     1
  9
$FILLMODE
 70
     1
  9
$QTEXTMODE
 70
     0
  9
$MIRRTEXT
 70
     1
  9
$LTSCALE
 40
1.0
  9
$ATTMODE
 70
     1
  9
$TEXTSIZE
 40
0.2
  9
$TRACEWID
 40
0.05
  9
$TEXTSTYLE
  7
Standard
  9
$CLAYER
  8
0
  9
$CELTYPE
  6
ByLayer
  9
$CECOLOR
 62
   256
  9
$CELTSCALE
 40
1.0
  9
$DISPSILH
 70
     0
  9
$DIMSCALE
 40
1.0
  9
$DIMASZ
 40
0.18
  9
$DIMEXO
 40
0.0625
  9
$DIMDLI
 40
0.38
  9
$DIMRND
 40
0.0
  9
$DIMDLE
 40
0.0
  9
$DIMEXE
 40
0.18
  9
$DIMTP
 40
0.0
  9
$DIMTM
 40
0.0
  9
$DIMTXT
 40
0.18
  9
$DIMCEN
 40
0.09
  9
$DIMTSZ
 40
0.0
  9
$DIMTOL
 70
     0
  9
$DIMLIM
 70
     0
  9
$DIMTIH
 70
     1
  9
$DIMTOH
 70
     1
  9
$DIMSE1
 70
     0
  9
$DIMSE2
 70
     0
  9
$DIMTAD
 70
     0
  9
$DIMZIN
 70
     0
  9
$DIMBLK
  1

  9
$DIMASO
 70
     1
  9
$DIMSHO
 70
     1
  9
$DIMPOST
  1

  9
$DIMAPOST
  1

  9
$DIMALT
 70
     0
  9
$DIMALTD
 70
     2
  9
$DIMALTF
 40
25.4
  9
$DIMLFAC
 40
1.0
  9
$DIMTOFL
 70
     0
  9
$DIMTVP
 40
0.0
  9
$DIMTIX
 70
     0
  9
$DIMSOXD
 70
     0
  9
$DIMSAH
 70
     0
  9
$DIMBLK1
  1

  9
$DIMBLK2
  1

  9
$DIMSTYLE
  2
Standard
  9
$DIMCLRD
 70
     0
  9
$DIMCLRE
 70
     0
  9
$DIMCLRT
 70
     0
  9
$DIMTFAC
 40
1.0
  9
$DIMGAP
 40
0.09
  9
$DIMJUST
 70
     0
  9
$DIMSD1
 70
     0
  9
$DIMSD2
 70
     0
  9
$DIMTOLJ
 70
     1
  9
$DIMTZIN
 70
     0
  9
$DIMALTZ
 70
     0
  9
$DIMALTTZ
 70
     0
  9
$DIMUPT
 70
     0
  9
$DIMDEC
 70
     4
  9
$DIMTDEC
 70
     4
  9
$DIMALTU
 70
     2
  9
$DIMALTTD
 70
     2
  9
$DIMTXSTY
  7
Standard
  9
$DIMAUNIT
 70
     0
  9
$DIMADEC
 70
     0
  9
$DIMALTRND
 40
0.0
  9
$DIMAZIN
 70
     0
  9
$DIMDSEP
 70
    46
  9
$DIMATFIT
 70
     3
  9
$DIMFRAC
 70
     0
  9
$DIMLDRBLK
  1

  9
$DIMLUNIT
 70
     2
  9
$DIMLWD
 70
    -2
  9
$DIMLWE
 70
    -2
  9
$DIMTMOVE
 70
     0
  9
$DIMFXL
 40
1.0
  9
$DIMFXLON
 70
     0
  9
$DIMJOGANG
 40
0.7853981633974483
  9
$DIMTFILL
 70
     0
  9
$DIMTFILLCLR
 70
     0
  9
$DIMARCSYM
 70
     0
  9
$DIMLTYPE
  6

  9
$DIMLTEX1
  6

  9
$DIMLTEX2
  6

  9
$DIMTXTDIRECTION
 70
     0
  9
$LUNITS
 70
     2
  9
$LUPREC
 70
     4
  9
$SKETCHINC
 40
0.1
  9
$FILLETRAD
 40
0.5
  9
$AUNITS
 70
     0
  9
$AUPREC
 70
     0
  9
$MENU
  1
.
  9
$ELEVATION
 40
0.0
  9
$PELEVATION
 40
0.0
  9
$THICKNESS
 40
0.0
  9
$LIMCHECK
 70
     0
  9
$CHAMFERA
 40
0.0
  9
$CHAMFERB
 40
0.0
  9
$CHAMFERC
 40
0.0
  9
$CHAMFERD
 40
0.0
  9
$SKPOLY
 70
     0
  9
$TDCREATE
 40
2458169.017036227
  9
$TDUCREATE
 40
2458168.97536956
  9
$TDUPDATE
 40
2458169.017036412
  9
$TDUUPDATE
 40
2458168.975369745
  9
$TDINDWG
 40
0.0000000116
  9
$TDUSRTIMER
 40
0.0000000116
  9
$USRTIMER
 70
     1
  9
$ANGBASE
 50
0.0
  9
$ANGDIR
 70
     0
  9
$PDMODE
 70
     0
  9
$PDSIZE
 40
0.0
  9
$PLINEWID
 40
0.0
  9
$SPLFRAME
 70
     0
  9
$SPLINETYPE
 70
     6
  9
$SPLINESEGS
 70
     8
  9
$HANDSEED
  5
1E4
  9
$SURFTAB1
 70
     6
  9
$SURFTAB2
 70
     6
  9
$SURFTYPE
 70
     6
  9
$SURFU
 70
     6
  9
$SURFV
 70
     6
  9
$UCSBASE
  2

  9
$UCSNAME
  2

  9
$UCSORG
 10
0.0
 20
0.0
 30
0.0
  9
$UCSXDIR
 10
1.0
 20
0.0
 30
0.0
  9
$UCSYDIR
 10
0.0
 20
1.0
 30
0.0
  9
$UCSORTHOREF
  2

  9
$UCSORTHOVIEW
 70
     0
  9
$UCSORGTOP
 10
0.0
 20
0.0
 30
0.0
  9
$UCSORGBOTTOM
 10
0.0
 20
0.0
 30
0.0
  9
$UCSORGLEFT
 10
0.0
 20
0.0
 30
0.0
  9
$UCSORGRIGHT
 10
0.0
 20
0.0
 30
0.0
  9
$UCSORGFRONT
 10
0.0
 20
0.0
 30
0.0
  9
$UCSORGBACK
 10
0.0
 20
0.0
 30
0.0
  9
$PUCSBASE
  2

  9
$PUCSNAME
  2

  9
$PUCSORG
 10
0.0
 20
0.0
 30
0.0
  9
$PUCSXDIR
 10
1.0
 20
0.0
 30
0.0
  9
$PUCSYDIR
 10
0.0
 20
1.0
 30
0.0
  9
$PUCSORTHOREF
  2

  9
$PUCSORTHOVIEW
 70
     0
  9
$PUCSORGTOP
 10
0.0
 20
0.0
 30
0.0
  9
$PUCSORGBOTTOM
 10
0.0
 20
0.0
 30
0.0
  9
$PUCSORGLEFT
 10
0.0
 20
0.0
 30
0.0
  9
$PUCSORGRIGHT
 10
0.0
 20
0.0
 30
0.0
  9
$PUCSORGFRONT
 10
0.0
 20
0.0
 30
0.0
  9
$PUCSORGBACK
 10
0.0
 20
0.0
 30
0.0
  9
$USERI1
 70
     0
  9
$USERI2
 70
     0
  9
$USERI3
 70
     0
  9
$USERI4
 70
     0
  9
$USERI5
 70
     0
  9
$USERR1
 40
0.0
  9
$USERR2
 40
0.0
  9
$USERR3
 40
0.0
  9
$USERR4
 40
0.0
  9
$USERR5
 40
0.0
  9
$WORLDVIEW
 70
     1
  9
$SHADEDGE
 70
     3
  9
$SHADEDIF
 70
    70
  9
$TILEMODE
 70
     1
  9
$MAXACTVP
 70
    64
  9
$PINSBASE
 10
0.0
 20
0.0
 30
0.0
  9
$PLIMCHECK
 70
     0
  9
$PEXTMIN
 10
1.000000000000000E+20
 20
1.000000000000000E+20
 30
1.000000000000000E+20
  9
$PEXTMAX
 10
-1.000000000000000E+20
 20
-1.000000000000000E+20
 30
-1.000000000000000E+20
  9
$PLIMMIN
 10
0.0
 20
0.0
  9
$PLIMMAX
 10
12.0
 20
9.0
  9
$UNITMODE
 70
     0
  9
$VISRETAIN
 70
     1
  9
$PLINEGEN
 70
     0
  9
$PSLTSCALE
 70
     1
  9
$TREEDEPTH
 70
  3020
  9
$CMLSTYLE
  2
Standard
  9
$CMLJUST
 70
     0
  9
$CMLSCALE
 40
1.0
  9
$PROXYGRAPHICS
 70
     1
  9
$MEASUREMENT
 70
     0
  9
$CELWEIGHT
370
    -1
  9
$ENDCAPS
280
     0
  9
$JOINSTYLE
280
     0
  9
$LWDISPLAY
290
     0
  9
$INSUNITS
 70
     1
  9
$HYPERLINKBASE
  1

  9
$STYLESHEET
  1

  9
$XEDIT
290
     1
  9
$CEPSNTYPE
380
     0
  9
$PSTYLEMODE
290
     1
  9
$FINGERPRINTGUID
  2
{7E1432A6-E224-4E82-9262-BECC06A6F724}
  9
$VERSIONGUID
  2
{FAEB1C32-E019-11D5-929B-00C0DF256EC4}
  9
$EXTNAMES
290
     1
  9
$PSVPSCALE
 40
0.0
  9
$OLESTARTUP
290
     0
  9
$SORTENTS
280
   127
  9
$INDEXCTL
280
     0
  9
$HIDETEXT
280
     1
  9
$XCLIPFRAME
280
     2
  9
$HALOGAP
280
     0
  9
$OBSCOLOR
 70
   257
  9
$OBSLTYPE
280
     0
  9
$INTERSECTIONDISPLAY
280
     0
  9
$INTERSECTIONCOLOR
 70
   257
  9
$DIMASSOC
280
     2
  9
$PROJECTNAME
  1

  9
$CAMERADISPLAY
290
     0
  9
$LENSLENGTH
 40
50.0
  9
$CAMERAHEIGHT
 40
0.0
  9
$STEPSPERSEC
 40
2.0
  9
$STEPSIZE
 40
6.0
  9
$3DDWFPREC
 40
2.0
  9
$PSOLWIDTH
 40
0.25
  9
$PSOLHEIGHT
 40
4.0
  9
$LOFTANG1
 40
1.570796326794897
  9
$LOFTANG2
 40
1.570796326794897
  9
$LOFTMAG1
 40
0.0
  9
$LOFTMAG2
 40
0.0
  9
$LOFTPARAM
 70
     7
  9
$LOFTNORMALS
280
     1
  9
$LATITUDE
 40
37.795
  9
$LONGITUDE
 40
-122.394
  9
$NORTHDIRECTION
 40
0.0
  9
$TIMEZONE
 70
 -8000
  9
$LIGHTGLYPHDISPLAY
280
     1
  9
$TILEMODELIGHTSYNCH
280
     1
  9
$CMATERIAL
347
44
  9
$SOLIDHIST
280
     0
  9
$SHOWHIST
280
     1
  9
$DWFFRAME
280
     2
  9
$DGNFRAME
280
     2
  9
$REALWORLDSCALE
290
     1
  9
$INTERFERECOLOR
 62
   256
  9
$CSHADOW
280
     0
  9
$SHADOWPLANELOCATION
 40
0.0
  0
ENDSEC
  0
SECTION
  2
CLASSES
  0
CLASS
  1
ACDBDICTIONARYWDFLT
  2
AcDbDictionaryWithDefault
  3
ObjectDBX Classes
 90
        0
 91
        4
280
     0
281
     0
  0
CLASS
  1
VISUALSTYLE
  2
AcDbVisualStyle
  3
ObjectDBX Classes
 90
     4095
 91
        4
280
     0
281
     0
  0
CLASS
  1
MATERIAL
  2
AcDbMaterial
  3
ObjectDBX Classes
 90
     1153
 91
        4
280
     0
281
     0
  0
CLASS
  1
SCALE
  2
AcDbScale
  3
ObjectDBX Classes
 90
     1153
 91
        4
280
     0
281
     0
  0
CLASS
  1
TABLESTYLE
  2
AcDbTableStyle
  3
ObjectDBX Classes
 90
     4095
 91
        4
280
     0
281
     0
  0
CLASS
  1
MLEADERSTYLE
  2
AcDbMLeaderStyle
  3
ACDB_MLEADERSTYLE_CLASS
 90
     4095
 91
        4
280
     0
281
     0
  0
CLASS
  1
SUN
  2
AcDbSun
  3
SCENEOE
 90
     1153
 91
        4
280
     0
281
     0
  0
CLASS
  1
DICTIONARYVAR
  2
AcDbDictionaryVar
  3
ObjectDBX Classes
 90
        0
 91
        4
280
     0
281
     0
  0
CLASS
  1
CELLSTYLEMAP
  2
AcDbCellStyleMap
  3
ObjectDBX Classes
 90
     1152
 91
        4
280
     0
281
     0
  0
ENDSEC
  0
SECTION
  2
TABLES
  0
TABLE
  2
VPORT
  5
8
330
0
100
AcDbSymbolTable
 70
     1
  0
VPORT
  5
29
330
8
100
AcDbSymbolTableRecord
100
AcDbViewportTableRecord
  2
*Active
 70
     0
 10
0.0
 20
0.0
 11
1.0
 21
1.0
 12
-2.137499999999999
 22
0.0
 13
0.0
 23
0.0
 14
0.5
 24
0.5
 15
0.5
 25
0.5
 16
0.0
 26
0.0
 36
1.0
 17
0.0
 27
0.0
 37
0.0
 40
7.0125
 41
0.684
 42
50.0
 43
0.0
 44
0.0
 50
0.0
 51
0.0
 71
     0
 72
   100
 73
     1
 74
     3
 75
     0
 76
     0
 77
     0
 78
     0
281
     0
 65
     1
110
0.0
120
0.0
130
0.0
111
1.0
121
0.0
131
0.0
112
0.0
122
1.0
132
0.0
 79
     0
146
0.0
348
2F
 60
     3
 61
     5
292
     1
282
     1
141
0.0
142
0.0
 63
   250
361
6D
  0
ENDTAB
  0
TABLE
  2
LTYPE
  5
5
330
0
100
AcDbSymbolTable
 70
     3
  0
LTYPE
  5
14
330
5
100
AcDbSymbolTableRecord
100
AcDbLinetypeTableRecord
  2
ByBlock
 70
     0
  3

 72
    65
 73
     0
 40
0.0
  0
LTYPE
  5
15
330
5
100
AcDbSymbolTableRecord
100
AcDbLinetypeTableRecord
  2
ByLayer
 70
     0
  3

 72
    65
 73
     0
 40
0.0
  0
LTYPE
  5
16
330
5
100
AcDbSymbolTableRecord
100
AcDbLinetypeTableRecord
  2
Continuous
 70
     0
  3
Solid line
 72
    65
 73
     0
 40
0.0
  0
LTYPE
  5
9A
330
5
100
AcDbSymbolTableRecord
100
AcDbLinetypeTableRecord
  2
Dashed
 70
     0
  3

 72
    65
 73
     2
 40
2.0
 49
1.0
 74
     0
 49
-1.0
 74
     0
  0
LTYPE
  5
EF
330
5
100
AcDbSymbolTableRecord
100
AcDbLinetypeTableRecord
  2
Center
 70
     0
  3

 72
    65
 73
     4
 40
1.5
 49
0.45
 74
     0
 49
-0.5
 74
     0
 49
0.05
 74
     0
 49
-0.5
 74
     0
  0
ENDTAB
  0
TABLE
  2
LAYER
  5
2
330
0
100
AcDbSymbolTable
 70
     7
  0
LAYER
  5
10
330
2
100
AcDbSymbolTableRecord
100
AcDbLayerTableRecord
  2
0
 70
     0
 62
     7
  6
Continuous
370
    -3
390
F
347
46
348
0
  0
LAYER
  5
72
330
2
100
AcDbSymbolTableRecord
100
AcDbLayerTableRecord
  2
AM_6
 70
     0
 62
    -2
  6
Continuous
370
    35
390
F
347
46
348
0
  0
LAYER
  5
9B
330
2
100
AcDbSymbolTableRecord
100
AcDbLayerTableRecord
  2
AM_9
 70
     0
 62
     6
  6
Dashed
370
    25
390
F
347
46
348
0
  0
LAYER
  5
BA
330
2
100
AcDbSymbolTableRecord
100
AcDbLayerTableRecord
  2
AM_5
 70
     0
 62
     3
  6
Continuous
370
    25
390
F
347
46
348
0
  0
LAYER
  5
BD
330
2
100
AcDbSymbolTableRecord
100
AcDbLayerTableRecord
  2
AM_4
 70
     0
 62
     7
  6
Continuous
370
    50
390
F
347
46
348
0
  0
LAYER
  5
F0
330
2
100
AcDbSymbolTableRecord
100
AcDbLayerTableRecord
  2
AM_7
 70
     0
 62
     7
  6
Center
370
    25
390
F
347
46
348
0
  0
LAYER
  5
1D3
330
2
100
AcDbSymbolTableRecord
100
AcDbLayerTableRecord
  2
ConnectionPoints
 70
     0
 62
     7
  6
Continuous
370
    50
390
F
347
46
348
0
  0
ENDTAB
  0
TABLE
  2
STYLE
  5
3
330
0
100
AcDbSymbolTable
 70
     1
  0
STYLE
  5
11
330
3
100
AcDbSymbolTableRecord
100
AcDbTextStyleTableRecord
  2
Standard
 70
     0
 40
0.0
 41
1.0
 50
0.0
 71
     0
 42
0.2
  3
txt
  4

  0
ENDTAB
  0
TABLE
  2
VIEW
  5
6
330
0
100
AcDbSymbolTable
 70
     0
  0
ENDTAB
  0
TABLE
  2
UCS
  5
7
330
0
100
AcDbSymbolTable
 70
     0
  0
ENDTAB
  0
TABLE
  2
APPID
  5
9
330
0
100
AcDbSymbolTable
 70
     1
  0
APPID
  5
12
330
9
100
AcDbSymbolTableRecord
100
AcDbRegAppTableRecord
  2
ACAD
 70
     0
  0
ENDTAB
  0
TABLE
  2
DIMSTYLE
  5
A
330
0
100
AcDbSymbolTable
 70
     1
100
AcDbDimStyleTable
  0
DIMSTYLE
105
27
330
A
100
AcDbSymbolTableRecord
100
AcDbDimStyleTableRecord
  2
Standard
 70
     0
178
     0
340
11
  0
ENDTAB
  0
TABLE
  2
BLOCK_RECORD
  5
1
330
0
100
AcDbSymbolTable
 70
     7
  0
BLOCK_RECORD
  5
1F
330
1
100
AcDbSymbolTableRecord
100
AcDbBlockTableRecord
  2
*Model_Space
340
22
 70
     0
280
     1
281
     0
  0
BLOCK_RECORD
  5
1B
330
1
100
AcDbSymbolTableRecord
100
AcDbBlockTableRecord
  2
*Paper_Space
340
1E
 70
     0
280
     1
281
     0
  0
BLOCK_RECORD
  5
23
330
1
100
AcDbSymbolTableRecord
100
AcDbBlockTableRecord
  2
*Paper_Space0
340
26
 70
     0
280
     1
281
     0
  0
BLOCK_RECORD
  5
6E
330
1
100
AcDbSymbolTableRecord
100
AcDbBlockTableRecord
  2
1_023107_2
340
0
102
{BLKREFS
331
6F
102
}
 70
     0
280
     1
281
     0
  0
BLOCK_RECORD
  5
85
330
1
100
AcDbSymbolTableRecord
100
AcDbBlockTableRecord
  2
2_2_1_2C_1_0_in_023107_2
340
0
102
{BLKREFS
331
86
102
}
 70
     0
280
     1
281
     0
  0
BLOCK_RECORD
  5
C4
330
1
100
AcDbSymbolTableRecord
100
AcDbBlockTableRecord
  2
3_2_1_2C_2_0_in_023107_2
340
0
102
{BLKREFS
331
C5
102
}
 70
     0
280
     1
281
     0
  0
BLOCK_RECORD
  5
FE
330
1
100
AcDbSymbolTableRecord
100
AcDbBlockTableRecord
  2
4_2_1_2I_0_in_023107_2
340
0
102
{BLKREFS
331
FF
102
}
 70
     0
280
     1
281
     0
  0
BLOCK_RECORD
  5
14C
330
1
100
AcDbSymbolTableRecord
100
AcDbBlockTableRecord
  2
5_405015E_Inch_0_in_023107_2
340
0
102
{BLKREFS
331
14D
102
}
 70
     0
280
     1
281
     0
  0
BLOCK_RECORD
  5
182
330
1
100
AcDbSymbolTableRecord
100
AcDbBlockTableRecord
  2
6_023107H_0_in_023107_2
340
0
102
{BLKREFS
331
183
102
}
 70
     0
280
     1
281
     0
  0
ENDTAB
  0
ENDSEC
  0
SECTION
  2
BLOCKS
  0
BLOCK
  5
20
330
1F
100
AcDbEntity
  8
0
100
AcDbBlockBegin
  2
*Model_Space
 70
     0
 10
0.0
 20
0.0
 30
0.0
  3
*Model_Space
  1

  0
ENDBLK
  5
21
330
1F
100
AcDbEntity
  8
0
100
AcDbBlockEnd
  0
BLOCK
  5
1C
330
1B
100
AcDbEntity
 67
     1
  8
0
100
AcDbBlockBegin
  2
*Paper_Space
 70
     0
 10
0.0
 20
0.0
 30
0.0
  3
*Paper_Space
  1

  0
ENDBLK
  5
1D
330
1B
100
AcDbEntity
 67
     1
  8
0
100
AcDbBlockEnd
  0
BLOCK
  5
24
330
23
100
AcDbEntity
  8
0
100
AcDbBlockBegin
  2
*Paper_Space0
 70
     0
 10
0.0
 20
0.0
 30
0.0
  3
*Paper_Space0
  1

  0
ENDBLK
  5
25
330
23
100
AcDbEntity
  8
0
100
AcDbBlockEnd
  0
BLOCK
  5
70
330
6E
100
AcDbEntity
  8
0
100
AcDbBlockBegin
  2
1_023107_2
 70
     2
 10
0.0
 20
0.0
 30
0.0
  3
1_023107_2
  1

  0
ATTDEF
  5
73
330
6E
100
AcDbEntity
  8
AM_6
100
AcDbText
 10
5.21375
 20
3.437500000000001
 30
0.0
 40
0.5
  1
Four-Bolt Flange Expansion
100
AcDbAttributeDefinition
  3

  2
NN
 70
     8
280
     0
  0
ATTDEF
  5
74
330
6E
100
AcDbEntity
  8
AM_6
100
AcDbText
 10
5.21375
 20
2.937500000000001
 30
0.0
 40
0.5
  1
Type E 4-Bolt Flange Bearing -Inch
100
AcDbAttributeDefinition
  3

  2
NT
 70
     8
280
     0
  0
ATTDEF
  5
75
330
6E
100
AcDbEntity
  8
AM_6
100
AcDbText
 10
5.21375
 20
2.437500000000001
 30
0.0
 40
0.5
  1
023107
100
AcDbAttributeDefinition
  3

  2
NB
 70
     8
280
     0
  0
ATTDEF
  5
76
330
6E
100
AcDbEntity
  8
AM_6
100
AcDbText
 10
5.21375
 20
1.937500000000001
 30
0.0
 40
0.5
  1
$PN.
100
AcDbAttributeDefinition
  3

  2
NBSYN
 70
     8
280
     0
  0
ATTDEF
  5
77
330
6E
100
AcDbEntity
  8
AM_6
100
AcDbText
 10
5.21375
 20
1.437500000000001
 30
0.0
 40
0.5
  1
023107
100
AcDbAttributeDefinition
  3

  2
LINA
 70
     8
280
     0
  0
ATTDEF
  5
78
330
6E
100
AcDbEntity
  8
AM_6
100
AcDbText
 10
5.21375
 20
0.9375000000000009
 30
0.0
 40
0.5
  1
2-1/2
100
AcDbAttributeDefinition
  3

  2
SS
 70
     8
280
     0
  0
ATTDEF
  5
79
330
6E
100
AcDbEntity
  8
AM_6
100
AcDbText
 10
5.21375
 20
0.4375000000000009
 30
0.0
 40
0.5
  1
023107
100
AcDbAttributeDefinition
  3

  2
PN
 70
     8
280
     0
  0
ATTDEF
  5
7A
330
6E
100
AcDbEntity
  8
AM_6
100
AcDbText
 10
5.21375
 20
-0.0624999999999991
 30
0.0
 40
0.5
  1
F4B-E-208R
100
AcDbAttributeDefinition
  3

  2
DESCRIPTION
 70
     8
280
     0
  0
ATTDEF
  5
7B
330
6E
100
AcDbEntity
  8
AM_6
100
AcDbText
 10
5.21375
 20
-0.5624999999999991
 30
0.0
 40
0.5
  1
4-3/16
100
AcDbAttributeDefinition
  3

  2
A
 70
     8
280
     0
  0
ATTDEF
  5
7C
330
6E
100
AcDbEntity
  8
AM_6
100
AcDbText
 10
5.21375
 20
-1.062499999999999
 30
0.0
 40
0.5
  1
6-7/8
100
AcDbAttributeDefinition
  3

  2
B
 70
     8
280
     0
  0
ATTDEF
  5
7D
330
6E
100
AcDbEntity
  8
AM_6
100
AcDbText
 10
5.21375
 20
-1.562499999999999
 30
0.0
 40
0.5
  1
3-9/16
100
AcDbAttributeDefinition
  3

  2
C
 70
     8
280
     0
  0
ATTDEF
  5
7E
330
6E
100
AcDbEntity
  8
AM_6
100
AcDbText
 10
5.21375
 20
-2.062499999999999
 30
0.0
 40
0.5
  1
5-3/8
100
AcDbAttributeDefinition
  3

  2
D
 70
     8
280
     0
  0
ATTDEF
  5
7F
330
6E
100
AcDbEntity
  8
AM_6
100
AcDbText
 10
5.21375
 20
-2.562499999999999
 30
0.0
 40
0.5
  1
3/16
100
AcDbAttributeDefinition
  3

  2
E
 70
     8
280
     0
  0
ATTDEF
  5
80
330
6E
100
AcDbEntity
  8
AM_6
100
AcDbText
 10
5.21375
 20
-3.062499999999999
 30
0.0
 40
0.5
  1
5/8
100
AcDbAttributeDefinition
  3

  2
F
 70
     8
280
     0
  0
ATTDEF
  5
81
330
6E
100
AcDbEntity
  8
AM_6
100
AcDbText
 10
5.21375
 20
-3.562499999999999
 30
0.0
 40
0.5
  1
1-1/2
100
AcDbAttributeDefinition
  3

  2
H
 70
     8
280
     0
  0
ATTDEF
  5
82
330
6E
100
AcDbEntity
  8
AM_6
100
AcDbText
 10
5.21375
 20
-4.062499999999999
 30
0.0
 40
0.5
  1
5-5/16
100
AcDbAttributeDefinition
  3

  2
J
 70
     8
280
     0
  0
ATTDEF
  5
83
330
6E
100
AcDbEntity
  8
AM_6
100
AcDbText
 10
5.21375
 20
-4.562499999999999
 30
0.0
 40
0.5
  1
4-1/16
100
AcDbAttributeDefinition
  3

  2
L
 70
     8
280
     0
  0
ATTDEF
  5
84
330
6E
100
AcDbEntity
  8
AM_6
100
AcDbText
 10
5.21375
 20
-5.062499999999999
 30
0.0
 40
0.5
  1
baldor
100
AcDbAttributeDefinition
  3

  2
COMPANY
 70
     8
280
     0
  0
INSERT
  5
86
330
6E
100
AcDbEntity
  8
0
100
AcDbBlockReference
  2
2_2_1_2C_1_0_in_023107_2
 10
0.0
 20
0.0
 30
0.0
  0
INSERT
  5
C5
330
6E
100
AcDbEntity
  8
0
100
AcDbBlockReference
  2
3_2_1_2C_2_0_in_023107_2
 10
0.0
 20
0.0
 30
0.0
  0
INSERT
  5
FF
330
6E
100
AcDbEntity
  8
0
100
AcDbBlockReference
  2
4_2_1_2I_0_in_023107_2
 10
0.0
 20
0.0
 30
0.0
  0
INSERT
  5
14D
330
6E
100
AcDbEntity
  8
0
100
AcDbBlockReference
  2
5_405015E_Inch_0_in_023107_2
 10
0.0
 20
0.0
 30
0.0
  0
INSERT
  5
183
330
6E
100
AcDbEntity
  8
0
100
AcDbBlockReference
  2
6_023107H_0_in_023107_2
 10
0.0
 20
0.0
 30
0.0
  0
ENDBLK
  5
71
330
6E
100
AcDbEntity
  8
0
100
AcDbBlockEnd
  0
BLOCK
  5
87
330
85
100
AcDbEntity
  8
0
100
AcDbBlockBegin
  2
2_2_1_2C_1_0_in_023107_2
 70
     2
 10
0.0
 20
0.0
 30
0.0
  3
2_2_1_2C_1_0_in_023107_2
  1

  0
ATTDEF
  5
89
330
85
100
AcDbEntity
  8
AM_6
100
AcDbText
 10
4.8125
 20
2.03125
 30
0.0
 40
0.5
  1
E-Type Collar -Inch
100
AcDbAttributeDefinition
  3

  2
NN
 70
     8
280
     0
  0
ATTDEF
  5
8A
330
85
100
AcDbEntity
  8
AM_6
100
AcDbText
 10
4.8125
 20
1.53125
 30
0.0
 40
0.5
  1
E-Type Bearings
100
AcDbAttributeDefinition
  3

  2
NT
 70
     8
280
     0
  0
ATTDEF
  5
8B
330
85
100
AcDbEntity
  8
AM_6
100
AcDbText
 10
4.8125
 20
1.03125
 30
0.0
 40
0.5
  1
2-1/2C
100
AcDbAttributeDefinition
  3

  2
NB
 70
     8
280
     0
  0
ATTDEF
  5
8C
330
85
100
AcDbEntity
  8
AM_6
100
AcDbText
 10
4.8125
 20
0.53125
 30
0.0
 40
0.5
  1
$BORE.C
100
AcDbAttributeDefinition
  3

  2
NBSYN
 70
     8
280
     0
  0
ATTDEF
  5
8D
330
85
100
AcDbEntity
  8
AM_6
100
AcDbText
 10
4.8125
 20
0.03125
 30
0.0
 40
0.5
  1
2-1/2C
100
AcDbAttributeDefinition
  3

  2
LINA
 70
     8
280
     0
  0
ATTDEF
  5
8E
330
85
100
AcDbEntity
  8
AM_6
100
AcDbText
 10
4.8125
 20
-0.46875
 30
0.0
 40
0.5
  1
2-1/2
100
AcDbAttributeDefinition
  3

  2
BORE
 70
     8
280
     0
  0
ATTDEF
  5
8F
330
85
100
AcDbEntity
  8
AM_6
100
AcDbText
 10
4.8125
 20
-0.96875
 30
0.0
 40
0.5
  1
4.06250
100
AcDbAttributeDefinition
  3

  2
L
 70
     8
280
     0
  0
ATTDEF
  5
90
330
85
100
AcDbEntity
  8
AM_6
100
AcDbText
 10
4.8125
 20
-1.46875
 30
0.0
 40
0.5
  1
4.00
100
AcDbAttributeDefinition
  3

  2
A
 70
     8
280
     0
  0
ATTDEF
  5
91
330
85
100
AcDbEntity
  8
AM_6
100
AcDbText
 10
4.8125
 20
-1.96875
 30
0.0
 40
0.5
  1
1.70
100
AcDbAttributeDefinition
  3

  2
B
 70
     8
280
     0
  0
ATTDEF
  5
92
330
85
100
AcDbEntity
  8
AM_6
100
AcDbText
 10
4.8125
 20
-2.46875
 30
0.0
 40
0.5
  1
2.94
100
AcDbAttributeDefinition
  3

  2
C
 70
     8
280
     0
  0
ATTDEF
  5
93
330
85
100
AcDbEntity
  8
AM_6
100
AcDbText
 10
4.8125
 20
-2.96875
 30
0.0
 40
0.5
  1
4.12
100
AcDbAttributeDefinition
  3

  2
D
 70
     8
280
     0
  0
ATTDEF
  5
94
330
85
100
AcDbEntity
  8
AM_6
100
AcDbText
 10
4.8125
 20
-3.46875
 30
0.0
 40
0.5
  1
0.41
100
AcDbAttributeDefinition
  3

  2
E
 70
     8
280
     0
  0
ATTDEF
  5
95
330
85
100
AcDbEntity
  8
AM_6
100
AcDbText
 10
4.8125
 20
-3.96875
 30
0.0
 40
0.5
  1
0.31
100
AcDbAttributeDefinition
  3

  2
F
 70
     8
280
     0
  0
ATTDEF
  5
96
330
85
100
AcDbEntity
  8
AM_6
100
AcDbText
 10
4.8125
 20
-4.46875
 30
0.0
 40
0.5
  1
3/8-16
100
AcDbAttributeDefinition
  3

  2
CS
 70
     8
280
     0
  0
ATTDEF
  5
97
330
85
100
AcDbEntity
  8
AM_6
100
AcDbText
 10
4.8125
 20
-4.96875
 30
0.0
 40
0.5
  1
0.3750
100
AcDbAttributeDefinition
  3

  2
NDM
 70
     8
280
     0
  0
ATTDEF
  5
98
330
85
100
AcDbEntity
  8
AM_6
100
AcDbText
 10
4.8125
 20
-5.46875
 30
0.0
 40
0.5
  1
0.3070
100
AcDbAttributeDefinition
  3

  2
KDM
 70
     8
280
     0
  0
ATTDEF
  5
99
330
85
100
AcDbEntity
  8
AM_6
100
AcDbText
 10
4.8125
 20
-5.96875
 30
0.0
 40
0.5
  1
baldor
100
AcDbAttributeDefinition
  3

  2
COMPANY
 70
     8
280
     0
  0
LINE
  5
9C
330
85
100
AcDbEntity
  8
AM_9
100
AcDbLine
 10
-0.65115
 20
1.47885
 30
0.0
 11
-0.6597257349479552
 21
1.470274265052044
 31
0.0
  0
LINE
  5
9D
330
85
100
AcDbEntity
  8
AM_9
100
AcDbLine
 10
-0.3351873398521294
 20
1.470187339852129
 30
0.0
 11
-0.34385
 21
1.47885
 31
0.0
  0
LINE
  5
9E
330
85
100
AcDbEntity
  8
AM_9
100
AcDbLine
 10
-0.34385
 20
1.9974
 30
0.0
 11
-0.3103353152471297
 21
2.030914684752871
 31
0.0
  0
LINE
  5
9F
330
85
100
AcDbEntity
  8
AM_9
100
AcDbLine
 10
-0.6848882796368136
 20
2.031138279636814
 30
0.0
 11
-0.65115
 21
1.9974
 31
0.0
  0
LINE
  5
A0
330
85
100
AcDbEntity
  8
AM_9
100
AcDbLine
 10
-0.65115
 20
1.9974
 30
0.0
 11
-0.34385
 21
1.9974
 31
0.0
  0
LINE
  5
A1
330
85
100
AcDbEntity
  8
AM_9
100
AcDbLine
 10
-0.65115
 20
1.47885
 30
0.0
 11
-0.34385
 21
1.47885
 31
0.0
  0
LINE
  5
A2
330
85
100
AcDbEntity
  8
AM_9
100
AcDbLine
 10
-0.34385
 20
1.47885
 30
0.0
 11
-0.34385
 21
1.9974
 31
0.0
  0
LINE
  5
A3
330
85
100
AcDbEntity
  8
AM_9
100
AcDbLine
 10
-0.65115
 20
1.9974
 30
0.0
 11
-0.65115
 21
1.47885
 31
0.0
  0
ELLIPSE
  5
A4
330
85
100
AcDbEntity
  8
AM_9
100
AcDbEllipse
 10
-0.4974999999999998
 20
0.624989016375233
 30
0.0
 11
0.1536500000000002
 21
0.0
 31
0.0
210
0.0
220
0.0
230
1.0
 40
0.9063077870366498
 41
2.235879076071467
 42
3.141592653589793
  0
ELLIPSE
  5
A5
330
85
100
AcDbEntity
  8
AM_9
100
AcDbEllipse
 10
-0.4974999999999996
 20
0.6249890163752333
 30
0.0
 11
0.1536499999999997
 21
0.0
 31
0.0
210
0.0
220
0.0
230
1.0
 40
0.9063077870366496
 41
0.0
 42
0.9057135775183269
  0
LINE
  5
A6
330
85
100
AcDbEntity
  8
AM_9
100
AcDbLine
 10
-0.3438499999999999
 20
0.6249890163752333
 30
0.0
 11
-0.3438499999999999
 21
0.8441377160008731
 31
0.0
  0
LINE
  5
A7
330
85
100
AcDbEntity
  8
AM_9
100
AcDbLine
 10
-0.65115
 20
0.8441377160008731
 30
0.0
 11
-0.65115
 21
0.6249890163752333
 31
0.0
  0
ELLIPSE
  5
A8
330
85
100
AcDbEntity
  8
AM_9
100
AcDbEllipse
 10
-0.4974999999999999
 20
0.6249890163752333
 30
0.0
 11
0.1536500000000001
 21
0.0
 31
0.0
210
0.0
220
0.0
230
1.0
 40
0.9063077870366505
 41
3.141592653589793
 42
6.283185307179586
  0
LWPOLYLINE
  5
A9
330
85
100
AcDbEntity
  8
AM_9
100
AcDbPolyline
 90
       39
 70
     0
 43
0.0
 10
-0.6138601802656337
 20
0.5100422893824198
 10
-0.5959977075446411
 20
0.4941635447891023
 10
-0.5753380414597462
 20
0.4806332120418467
 10
-0.5505764741768672
 20
0.4695291633212383
 10
-0.5232598272706706
 20
0.4625453939470356
 10
-0.4974903128074801
 20
0.4604490717065904
 10
-0.4709347312710781
 20
0.462679383748995
 10
-0.4466029886463191
 20
0.4687806193540641
 10
-0.4230160578415837
 20
0.4788306083035441
 10
-0.4015080006279907
 20
0.4922777406085644
 10
-0.3820326836562222
 20
0.5091324824233574
 10
-0.3651240664572524
 20
0.5291726887586347
 10
-0.3514663547971048
 20
0.5519024876337305
 10
-0.34157773431866
 20
0.5769228345318209
 10
-0.3360373051804588
 20
0.603577764764505
 10
-0.3352953050128386
 20
0.630643499024298
 10
-0.3396096605753652
 20
0.6579452036985324
 10
-0.3487465866931415
 20
0.6834374594141045
 10
-0.3630353803470291
 20
0.7076433373178745
 10
-0.3809760638208225
 20
0.7281248571984245
 10
-0.4034592294006676
 20
0.7459317210207804
 10
-0.4272775376273312
 20
0.7588299019781066
 10
-0.4542683431835665
 20
0.7680896846634432
 10
-0.4800921411491395
 20
0.7725917136927856
 10
-0.507278322460302
 20
0.7731773265779555
 10
-0.5322488834305514
 20
0.7700092455852307
 10
-0.5569388702783675
 20
0.7631380083318725
 10
-0.5795286860739735
 20
0.7530707346136768
 10
-0.6004941213000166
 20
0.7396272005133632
 10
-0.6191537326171145
 20
0.7229948919995901
 10
-0.6349562541990657
 20
0.7033729983806895
 10
-0.6474180899437265
 20
0.680881815700055
 10
-0.655863214027696
 20
0.6560490625118364
 10
-0.6597627888465922
 20
0.6296710416026867
 10
-0.658777416125659
 20
0.6020647661951051
 10
-0.652846489716492
 20
0.575049843573597
 10
-0.6417212106705743
 20
0.5483537164655945
 10
-0.629403491787568
 20
0.5285167017657625
 10
-0.6138601802656337
 20
0.5100422893824198
  0
LINE
  5
AA
330
85
100
AcDbEntity
  8
AM_9
100
AcDbLine
 10
-0.1875000000000001
 20
1.47
 30
0.0
 11
-0.335430209664163
 21
1.47
 31
0.0
  0
LINE
  5
AB
330
85
100
AcDbEntity
  8
AM_9
100
AcDbLine
 10
-0.6593722946465909
 20
1.47
 30
0.0
 11
-0.8075000000000001
 21
1.47
 31
0.0
  0
LINE
  5
AC
330
85
100
AcDbEntity
  8
AM_9
100
AcDbLine
 10
-0.8075000000000001
 20
-1.47
 30
0.0
 11
-0.1875000000000001
 21
-1.47
 31
0.0
  0
LWPOLYLINE
  5
AD
330
85
100
AcDbEntity
  8
AM_9
100
AcDbPolyline
 90
       21
 70
     0
 43
0.0
 10
-0.6599999999999777
 20
1.469999999999997
 10
-0.6595026841380025
 20
1.469936001642588
 10
-0.6548209806569972
 20
1.469366285953305
 10
-0.6450979883238355
 20
1.468228957037321
 10
-0.6306259737657436
 20
1.46667078683383
 10
-0.612038378042645
 20
1.464899635045273
 10
-0.589630183145505
 20
1.463111594796918
 10
-0.5652245941515124
 20
1.461605387236967
 10
-0.5385782560146893
 20
1.460477948057676
 10
-0.5123271738607884
 20
1.459912414373765
 10
-0.4856226203756877
 20
1.459877589195312
 10
-0.460379103793909
 20
1.46036099966823
 10
-0.4361639849748606
 20
1.461282550240359
 10
-0.4134258403977678
 20
1.462564344678365
 10
-0.3929088037336442
 20
1.464058302407597
 10
-0.374244912965657
 20
1.465697401023953
 10
-0.358900847946912
 20
1.467242165832214
 10
-0.3466219781894151
 20
1.468604394836947
 10
-0.3386452595589685
 20
1.469551884108942
 10
-0.3351299262997292
 20
1.469981627734536
 10
-0.3350000000002679
 20
1.469999999999966
  0
LINE
  5
AE
330
85
100
AcDbEntity
  8
AM_9
100
AcDbLine
 10
-0.1874999999999999
 20
1.219350796652067
 30
0.0
 11
-0.1875000000000001
 21
1.927916666666667
 31
0.0
  0
LINE
  5
AF
330
85
100
AcDbEntity
  8
AM_9
100
AcDbLine
 10
-0.1875000000000001
 20
-1.927916666666667
 30
0.0
 11
-0.1874999999999999
 21
-1.219350796652066
 31
0.0
  0
ARC
  5
B0
330
85
100
AcDbEntity
  8
AM_9
100
AcDbCircle
 10
-0.2908333333333338
 20
1.927916666666666
 30
0.0
 40
0.1033333333333338
100
AcDbArc
 50
0.0000008537736463
 51
90.0
  0
ARC
  5
B1
330
85
100
AcDbEntity
  8
AM_9
100
AcDbCircle
 10
-0.2908333333333334
 20
-1.927916666666667
 30
0.0
 40
0.1033333333333331
100
AcDbArc
 50
270.0
 51
0.0
  0
LINE
  5
B2
330
85
100
AcDbEntity
  8
AM_9
100
AcDbLine
 10
-0.2908333333333333
 20
1.219350796652066
 30
0.0
 11
-0.2908333333333334
 21
2.03125
 31
0.0
  0
LINE
  5
B3
330
85
100
AcDbEntity
  8
AM_9
100
AcDbLine
 10
-0.2908333333333334
 20
-2.03125
 30
0.0
 11
-0.2908333333333333
 21
-1.219350796652066
 31
0.0
  0
LINE
  5
B4
330
85
100
AcDbEntity
  8
AM_9
100
AcDbLine
 10
-0.8074999999999999
 20
1.219350796652066
 30
0.0
 11
-0.8075000000000001
 21
2.03125
 31
0.0
  0
LINE
  5
B5
330
85
100
AcDbEntity
  8
AM_9
100
AcDbLine
 10
-0.8075000000000001
 20
-2.03125
 30
0.0
 11
-0.8074999999999999
 21
-1.219350796652066
 31
0.0
  0
LINE
  5
B6
330
85
100
AcDbEntity
  8
AM_9
100
AcDbLine
 10
-0.2908333333333334
 20
2.03125
 30
0.0
 11
-0.310617970306378
 21
2.03125
 31
0.0
  0
LINE
  5
B7
330
85
100
AcDbEntity
  8
AM_9
100
AcDbLine
 10
-0.6847946449785995
 20
2.03125
 30
0.0
 11
-0.8075000000000001
 21
2.03125
 31
0.0
  0
LINE
  5
B8
330
85
100
AcDbEntity
  8
AM_9
100
AcDbLine
 10
-0.8075000000000001
 20
-2.03125
 30
0.0
 11
-0.2908333333333334
 21
-2.03125
 31
0.0
  0
LWPOLYLINE
  5
B9
330
85
100
AcDbEntity
  8
AM_9
100
AcDbPolyline
 90
       21
 70
     0
 43
0.0
 10
-0.3100000000000084
 20
2.031249999999999
 10
-0.3108063623315084
 20
2.031180708010907
 10
-0.3160174887095798
 20
2.030749526976402
 10
-0.3258761505971003
 20
2.029963874386495
 10
-0.3400102679739067
 20
2.028914418210492
 10
-0.3584956827993228
 20
2.027676614664936
 10
-0.3804339568866767
 20
2.026405214548296
 10
-0.4063279435170963
 20
2.025186008897015
 10
-0.4345669434482116
 20
2.024197570951205
 10
-0.4655891080493266
 20
2.023533119176956
 10
-0.4974730547521091
 20
2.023298971950866
 10
-0.530043888133743
 20
2.023542644512497
 10
-0.5616973270503131
 20
2.024234022290471
 10
-0.5915225633024057
 20
2.025306072832807
 10
-0.6186166659932038
 20
2.026623563708347
 10
-0.6416092795148068
 20
2.028003333555437
 10
-0.6603808849884573
 20
2.029304391416135
 10
-0.6737249142178834
 20
2.030324498446657
 10
-0.6820594767010663
 20
2.031003426218121
 10
-0.6849633688857065
 20
2.031245515218369
 10
-0.6849999999999643
 20
2.031249999999997
  0
LINE
  5
BB
330
85
100
AcDbEntity
  8
AM_5
100
AcDbLine
 10
-0.3100000000000001
 20
2.03125
 30
0.0
 11
-0.3100000000000001
 21
1.47
 31
0.0
  0
LINE
  5
BC
330
85
100
AcDbEntity
  8
AM_5
100
AcDbLine
 10
-0.6849999999999999
 20
2.03125
 30
0.0
 11
-0.6849999999999999
 21
1.47
 31
0.0
  0
ELLIPSE
  5
BE
330
85
100
AcDbEntity
  8
AM_4
100
AcDbEllipse
 10
-0.4974999999999999
 20
0.6249890163752332
 30
0.0
 11
0.1536500000000002
 21
0.0
 31
0.0
210
0.0
220
0.0
230
1.0
 40
0.9063077870366489
 41
0.905713577518326
 42
2.235879076071468
  0
LINE
  5
BF
330
85
100
AcDbEntity
  8
AM_4
100
AcDbLine
 10
-0.1874999999999999
 20
-1.219350796652066
 30
0.0
 11
-0.1874999999999999
 21
1.219350796652067
 31
0.0
  0
LINE
  5
C0
330
85
100
AcDbEntity
  8
AM_4
100
AcDbLine
 10
-0.2908333333333333
 20
-1.219350796652066
 30
0.0
 11
-0.2908333333333333
 21
1.219350796652066
 31
0.0
  0
LWPOLYLINE
  5
C1
330
85
100
AcDbEntity
  8
AM_4
100
AcDbPolyline
 90
       39
 70
     0
 43
0.0
 10
-0.6272477358571911
 20
0.7392673396850795
 10
-0.645672850096497
 20
0.7575200228888174
 10
-0.6613017160232026
 20
0.7785117591012475
 10
-0.6741627968198588
 20
0.8035858255498107
 10
-0.6823308793715415
 20
0.8310109988510239
 10
-0.6849949407615376
 20
0.8572487394973152
 10
-0.6826307070210201
 20
0.8841260699025818
 10
-0.6756332046307784
 20
0.9088693727194829
 10
-0.6638639635796748
 20
0.932738584021536
 10
-0.6480745364115322
 20
0.9541694112127278
 10
-0.6280655651676241
 20
0.9734585230414029
 10
-0.6045214341443571
 20
0.9897600655154972
 10
-0.5775842218043804
 20
1.002812820616006
 10
-0.5481746897973683
 20
1.01199088913944
 10
-0.5165887777456522
 20
1.016997804021045
 10
-0.4845016999212559
 20
1.017433801220836
 10
-0.4518730901390502
 20
1.01311017968238
 10
-0.421223638476192
 20
1.004273753907257
 10
-0.3919098606682786
 20
0.9905866482702799
 10
-0.3668813215449848
 20
0.9734150873423991
 10
-0.3449905547574947
 20
0.9519203132114539
 10
-0.3288269135788873
 20
0.9288258904597708
 10
-0.3171253155147225
 20
0.9025934841050574
 10
-0.3112015539586661
 20
0.8767785607737734
 10
-0.3102874301162412
 20
0.8494335621543032
 10
-0.3142892925810508
 20
0.8237115210271408
 10
-0.3231856678226314
 20
0.7980862647491266
 10
-0.3362562814287968
 20
0.77457300023745
 10
-0.3537491734953666
 20
0.7526343005464364
 10
-0.3749615389525369
 20
0.7333976060132862
 10
-0.3998680432881656
 20
0.7171015999804957
 10
-0.4276851202414576
 20
0.7045419719249261
 10
-0.4581159505770921
 20
0.6961412539511909
 10
-0.4897651030894953
 20
0.6925009516856472
 10
-0.5225174708040254
 20
0.6938738384454158
 10
-0.554097452035426
 20
0.7002657023501518
 10
-0.5849513621366346
 20
0.7118986767696197
 10
-0.6069066091802696
 20
0.7241145193065057
 10
-0.627247735897452
 20
0.7392673395446646
  0
LINE
  5
C2
330
85
100
AcDbEntity
  8
AM_4
100
AcDbLine
 10
-0.8074999999999999
 20
-1.219350796652066
 30
0.0
 11
-0.8074999999999999
 21
1.219350796652066
 31
0.0
  0
ELLIPSE
  5
C3
330
85
100
AcDbEntity
  8
AM_4
100
AcDbEllipse
 10
-0.4975
 20
0.8441377160008731
 30
0.0
 11
0.1536500000000001
 21
2.289563417434694E-9
 31
0.0
210
0.0
220
0.0
230
1.0
 40
0.9063077870366495
 41
0.0
 42
6.283185307179586
  0
ENDBLK
  5
88
330
85
100
AcDbEntity
  8
0
100
AcDbBlockEnd
  0
BLOCK
  5
C6
330
C4
100
AcDbEntity
  8
0
100
AcDbBlockBegin
  2
3_2_1_2C_2_0_in_023107_2
 70
     2
 10
0.0
 20
0.0
 30
0.0
  3
3_2_1_2C_2_0_in_023107_2
  1

  0
ATTDEF
  5
C8
330
C4
100
AcDbEntity
  8
AM_6
100
AcDbText
 10
1.432500000000001
 20
2.0605625
 30
0.0
 40
0.5
  1
E-Type Collar -Inch
100
AcDbAttributeDefinition
  3

  2
NN
 70
     8
280
     0
  0
ATTDEF
  5
C9
330
C4
100
AcDbEntity
  8
AM_6
100
AcDbText
 10
1.432500000000001
 20
1.5605625
 30
0.0
 40
0.5
  1
E-Type Bearings
100
AcDbAttributeDefinition
  3

  2
NT
 70
     8
280
     0
  0
ATTDEF
  5
CA
330
C4
100
AcDbEntity
  8
AM_6
100
AcDbText
 10
1.432500000000001
 20
1.0605625
 30
0.0
 40
0.5
  1
2-1/2C
100
AcDbAttributeDefinition
  3

  2
NB
 70
     8
280
     0
  0
ATTDEF
  5
CB
330
C4
100
AcDbEntity
  8
AM_6
100
AcDbText
 10
1.432500000000001
 20
0.5605625000000001
 30
0.0
 40
0.5
  1
$BORE.C
100
AcDbAttributeDefinition
  3

  2
NBSYN
 70
     8
280
     0
  0
ATTDEF
  5
CC
330
C4
100
AcDbEntity
  8
AM_6
100
AcDbText
 10
1.432500000000001
 20
0.0605625000000001
 30
0.0
 40
0.5
  1
2-1/2C
100
AcDbAttributeDefinition
  3

  2
LINA
 70
     8
280
     0
  0
ATTDEF
  5
CD
330
C4
100
AcDbEntity
  8
AM_6
100
AcDbText
 10
1.432500000000001
 20
-0.4394374999999999
 30
0.0
 40
0.5
  1
2-1/2
100
AcDbAttributeDefinition
  3

  2
BORE
 70
     8
280
     0
  0
ATTDEF
  5
CE
330
C4
100
AcDbEntity
  8
AM_6
100
AcDbText
 10
1.432500000000001
 20
-0.9394374999999999
 30
0.0
 40
0.5
  1
4.06250
100
AcDbAttributeDefinition
  3

  2
L
 70
     8
280
     0
  0
ATTDEF
  5
CF
330
C4
100
AcDbEntity
  8
AM_6
100
AcDbText
 10
1.432500000000001
 20
-1.4394375
 30
0.0
 40
0.5
  1
4.00
100
AcDbAttributeDefinition
  3

  2
A
 70
     8
280
     0
  0
ATTDEF
  5
D0
330
C4
100
AcDbEntity
  8
AM_6
100
AcDbText
 10
1.432500000000001
 20
-1.9394375
 30
0.0
 40
0.5
  1
1.70
100
AcDbAttributeDefinition
  3

  2
B
 70
     8
280
     0
  0
ATTDEF
  5
D1
330
C4
100
AcDbEntity
  8
AM_6
100
AcDbText
 10
1.432500000000001
 20
-2.4394375
 30
0.0
 40
0.5
  1
2.94
100
AcDbAttributeDefinition
  3

  2
C
 70
     8
280
     0
  0
ATTDEF
  5
D2
330
C4
100
AcDbEntity
  8
AM_6
100
AcDbText
 10
1.432500000000001
 20
-2.9394375
 30
0.0
 40
0.5
  1
4.12
100
AcDbAttributeDefinition
  3

  2
D
 70
     8
280
     0
  0
ATTDEF
  5
D3
330
C4
100
AcDbEntity
  8
AM_6
100
AcDbText
 10
1.432500000000001
 20
-3.4394375
 30
0.0
 40
0.5
  1
0.41
100
AcDbAttributeDefinition
  3

  2
E
 70
     8
280
     0
  0
ATTDEF
  5
D4
330
C4
100
AcDbEntity
  8
AM_6
100
AcDbText
 10
1.432500000000001
 20
-3.9394375
 30
0.0
 40
0.5
  1
0.31
100
AcDbAttributeDefinition
  3

  2
F
 70
     8
280
     0
  0
ATTDEF
  5
D5
330
C4
100
AcDbEntity
  8
AM_6
100
AcDbText
 10
1.432500000000001
 20
-4.4394375
 30
0.0
 40
0.5
  1
3/8-16
100
AcDbAttributeDefinition
  3

  2
CS
 70
     8
280
     0
  0
ATTDEF
  5
D6
330
C4
100
AcDbEntity
  8
AM_6
100
AcDbText
 10
1.432500000000001
 20
-4.9394375
 30
0.0
 40
0.5
  1
0.3750
100
AcDbAttributeDefinition
  3

  2
NDM
 70
     8
280
     0
  0
ATTDEF
  5
D7
330
C4
100
AcDbEntity
  8
AM_6
100
AcDbText
 10
1.432500000000001
 20
-5.4394375
 30
0.0
 40
0.5
  1
0.3070
100
AcDbAttributeDefinition
  3

  2
KDM
 70
     8
280
     0
  0
ATTDEF
  5
D8
330
C4
100
AcDbEntity
  8
AM_6
100
AcDbText
 10
1.432500000000001
 20
-5.9394375
 30
0.0
 40
0.5
  1
baldor
100
AcDbAttributeDefinition
  3

  2
COMPANY
 70
     8
280
     0
  0
LINE
  5
D9
330
C4
100
AcDbEntity
  8
AM_9
100
AcDbLine
 10
-3.72385
 20
1.47885
 30
0.0
 11
-3.72385
 21
1.9974
 31
0.0
  0
LINE
  5
DA
330
C4
100
AcDbEntity
  8
AM_9
100
AcDbLine
 10
-4.03115
 20
1.9974
 30
0.0
 11
-4.03115
 21
1.47885
 31
0.0
  0
LINE
  5
DB
330
C4
100
AcDbEntity
  8
AM_9
100
AcDbLine
 10
-4.03115
 20
1.47885
 30
0.0
 11
-3.72385
 21
1.47885
 31
0.0
  0
LINE
  5
DC
330
C4
100
AcDbEntity
  8
AM_9
100
AcDbLine
 10
-4.03115
 20
1.47885
 30
0.0
 11
-4.039757593413386
 21
1.470242406586614
 31
0.0
  0
LINE
  5
DD
330
C4
100
AcDbEntity
  8
AM_9
100
AcDbLine
 10
-3.715235870667618
 20
1.470235870667618
 30
0.0
 11
-3.72385
 21
1.47885
 31
0.0
  0
LINE
  5
DE
330
C4
100
AcDbEntity
  8
AM_9
100
AcDbLine
 10
-4.03115
 20
1.9974
 30
0.0
 11
-3.72385
 21
1.9974
 31
0.0
  0
LINE
  5
DF
330
C4
100
AcDbEntity
  8
AM_9
100
AcDbLine
 10
-3.72385
 20
1.9974
 30
0.0
 11
-3.69
 21
2.03125
 31
0.0
  0
LINE
  5
E0
330
C4
100
AcDbEntity
  8
AM_9
100
AcDbLine
 10
-4.065
 20
2.03125
 30
0.0
 11
-4.03115
 21
1.9974
 31
0.0
  0
LWPOLYLINE
  5
E1
330
C4
100
AcDbEntity
  8
AM_9
100
AcDbPolyline
 90
       38
 70
     0
 43
0.0
 10
-3.756789438370362
 20
0.5146837495901997
 10
-3.742205728926732
 20
0.533395665387327
 10
-3.730577262917381
 20
0.5537257927356822
 10
-3.720895802571748
 20
0.5793069639454874
 10
-3.715795237646095
 20
0.6057766466606562
 10
-3.715497315861997
 20
0.6332314413594383
 10
-3.720179019343003
 20
0.6600965568428381
 10
-3.729902011676164
 20
0.6858111942120637
 10
-3.744374026234256
 20
0.7094555039507517
 10
-3.762961621957355
 20
0.7299599228603243
 10
-3.785369816854495
 20
0.7471624406600673
 10
-3.809775405848487
 20
0.7598840809393814
 10
-3.83642174398531
 20
0.7686191919518975
 10
-3.862672826139211
 20
0.7728099352040113
 10
-3.889377379624312
 20
0.7730491941003077
 10
-3.914620896206091
 20
0.7695031008768268
 10
-3.938836015025139
 20
0.7624416362604652
 10
-3.961574159602232
 20
0.7519380922144729
 10
-3.982091196266355
 20
0.7384022811345642
 10
-4.000755087034343
 20
0.7212715702002607
 10
-4.016099152053088
 20
0.7016531834582257
 10
-4.028378021810584
 20
0.6786357754527865
 10
-4.036354740441031
 20
0.653953065992132
 10
-4.03987007370027
 20
0.6271002309954915
 10
-4.038476259825302
 20
0.5998334414846981
 10
-4.031998321371628
 20
0.5724815177461745
 10
-4.020620512588065
 20
0.5462978730967153
 10
-4.004688425922102
 20
0.5223442253456689
 10
-3.984553118707598
 20
0.5011961950238533
 10
-3.961618876585749
 20
0.4843112398157979
 10
-3.935872362384886
 20
0.4714948147030074
 10
-3.909823361674164
 20
0.4637829448334964
 10
-3.882753692110982
 20
0.4605357747473236
 10
-3.856975178627994
 20
0.4617948268101639
 10
-3.831782242319744
 20
0.4671394148390464
 10
-3.808082022152444
 20
0.4763093135388531
 10
-3.786229825610207
 20
0.4889197175227187
 10
-3.756789438370362
 20
0.5146837495901998
  0
LINE
  5
E2
330
C4
100
AcDbEntity
  8
AM_9
100
AcDbLine
 10
-4.1875
 20
-1.47
 30
0.0
 11
-3.567499999999999
 21
-1.47
 31
0.0
  0
LINE
  5
E3
330
C4
100
AcDbEntity
  8
AM_9
100
AcDbLine
 10
-3.567499999999999
 20
1.47
 30
0.0
 11
-3.715538830069028
 21
1.47
 31
0.0
  0
LINE
  5
E4
330
C4
100
AcDbEntity
  8
AM_9
100
AcDbLine
 10
-4.039446352836782
 20
1.47
 30
0.0
 11
-4.1875
 21
1.47
 31
0.0
  0
LWPOLYLINE
  5
E5
330
C4
100
AcDbEntity
  8
AM_9
100
AcDbPolyline
 90
       21
 70
     0
 43
0.0
 10
-4.039999999999877
 20
1.469999999999984
 10
-4.039704694987161
 20
1.469963330931792
 10
-4.035390339424635
 20
1.469434979268364
 10
-4.026253413306859
 20
1.468361743863902
 10
-4.011964619652971
 20
1.466808455843292
 10
-3.994023936179177
 20
1.465075748064412
 10
-3.971540770599332
 20
1.463249050051434
 10
-3.947722462372668
 20
1.461735503021439
 10
-3.920731656816433
 20
1.460548397930296
 10
-3.89490785885086
 20
1.459940495715826
 10
-3.867721677539698
 20
1.459859932564025
 10
-3.842751116569448
 20
1.460291675631193
 10
-3.818061129721632
 20
1.461193739523056
 10
-3.795471313926026
 20
1.462431313695708
 10
-3.774505878699983
 20
1.463930347093519
 10
-3.755846267382885
 20
1.465546352084191
 10
-3.740043745800934
 20
1.467120992139931
 10
-3.727581910056273
 20
1.468495087636685
 10
-3.719136785972304
 20
1.469492214862596
 10
-3.715237211153408
 20
1.469970539544335
 10
-3.715000000000197
 20
1.469999999999975
  0
LINE
  5
E6
330
C4
100
AcDbEntity
  8
AM_9
100
AcDbLine
 10
-3.757921459401524
 20
1.465353575083229
 30
0.0
 11
-3.761139819734366
 21
1.465061053601682
 31
0.0
  0
LINE
  5
E7
330
C4
100
AcDbEntity
  8
AM_9
100
AcDbLine
 10
-3.715000000000197
 20
1.469999999999975
 30
0.0
 11
-3.71965108171601
 21
1.4694299736686
 31
0.0
  0
ELLIPSE
  5
E8
330
C4
100
AcDbEntity
  8
AM_9
100
AcDbEllipse
 10
-3.877499999999996
 20
0.624989016375231
 30
0.0
 11
0.1536500000000038
 21
0.0
 31
0.0
210
0.0
220
0.0
230
1.0
 40
0.906307787036652
 41
2.235879076071491
 42
3.141592653589793
  0
LINE
  5
E9
330
C4
100
AcDbEntity
  8
AM_9
100
AcDbLine
 10
-3.72385
 20
0.6249890163752333
 30
0.0
 11
-3.72385
 21
0.8441377160008731
 31
0.0
  0
LINE
  5
EA
330
C4
100
AcDbEntity
  8
AM_9
100
AcDbLine
 10
-4.03115
 20
0.8441377160008731
 30
0.0
 11
-4.03115
 21
0.6249890163752333
 31
0.0
  0
ELLIPSE
  5
EB
330
C4
100
AcDbEntity
  8
AM_9
100
AcDbEllipse
 10
-3.8775
 20
0.6249890163752333
 30
0.0
 11
0.1536499999999998
 21
0.0
 31
0.0
210
0.0
220
0.0
230
1.0
 40
0.9063077870366512
 41
3.141592653589793
 42
6.283185307179586
  0
ELLIPSE
  5
EC
330
C4
100
AcDbEntity
  8
AM_9
100
AcDbEllipse
 10
-3.8775
 20
0.6249890163752326
 30
0.0
 11
0.1536499999999998
 21
0.0
 31
0.0
210
0.0
220
0.0
230
1.0
 40
0.9063077870366518
 41
0.0
 42
0.9057135775183143
  0
LINE
  5
ED
330
C4
100
AcDbEntity
  8
AM_5
100
AcDbLine
 10
-4.065
 20
2.03125
 30
0.0
 11
-4.065
 21
1.47
 31
0.0
  0
LINE
  5
EE
330
C4
100
AcDbEntity
  8
AM_5
100
AcDbLine
 10
-3.69
 20
2.03125
 30
0.0
 11
-3.69
 21
1.47
 31
0.0
  0
LINE
  5
F1
330
C4
100
AcDbEntity
  8
AM_7
100
AcDbLine
 10
-3.8775
 20
2.0605625
 30
0.0
 11
-3.8775
 21
-0.0753846153846154
 31
0.0
  0
ELLIPSE
  5
F2
330
C4
100
AcDbEntity
  8
AM_4
100
AcDbEllipse
 10
-3.8775
 20
0.624989016375235
 30
0.0
 11
0.1536499999999994
 21
0.0
 31
0.0
210
0.0
220
0.0
230
1.0
 40
0.9063077870366429
 41
0.9057135775183083
 42
2.235879076071487
  0
LWPOLYLINE
  5
F3
330
C4
100
AcDbEntity
  8
AM_4
100
AcDbPolyline
 90
       38
 70
     0
 43
0.0
 10
-3.734570705293375
 20
0.7517660994475587
 10
-3.754172137683651
 20
0.7340240845006035
 10
-3.776347159619536
 20
0.7190808457793569
 10
-3.804240961797477
 20
0.7058410427565713
 10
-3.834055141894785
 20
0.6969729168029961
 10
-3.866013000457021
 20
0.6926921268128664
 10
-3.898285716259739
 20
0.6934025263490667
 10
-3.930454677460486
 20
0.6992790809403207
 10
-3.96111408782087
 20
0.7101265778736733
 10
-3.989160044583945
 20
0.7256139653596464
 10
-4.013943637532695
 20
0.7453002672348101
 10
-4.034063918051435
 20
0.7679761972836505
 10
-4.049620635656466
 20
0.7934177361282476
 10
-4.059616596303496
 20
0.819649671075944
 10
-4.064528004913195
 20
0.8468968648124913
 10
-4.064193637668492
 20
0.8732938233921331
 10
-4.05898251129042
 20
0.8990953747037947
 10
-4.0491238494029
 20
0.9233504462743256
 10
-4.034989732026093
 20
0.945712451683705
 10
-4.016504317200677
 20
0.9660716685324106
 10
-3.994566043113323
 20
0.9834680517021913
 10
-3.968672056482903
 20
0.9980309116205284
 10
-3.940433056551788
 20
1.008735439579442
 10
-3.909410891950673
 20
1.015515635531445
 10
-3.877526945247891
 20
1.017809724108686
 10
-3.844956111866257
 20
1.0154222800121
 10
-3.813302672949686
 20
1.008354914458461
 10
-3.783477436697595
 20
0.9966704912144219
 10
-3.756383334006796
 20
0.9806671568216612
 10
-3.733390720485193
 20
0.9610956736041052
 10
-3.714619115011542
 20
0.9381767645037178
 10
-3.701275085782116
 20
0.913533584712539
 10
-3.692940523298933
 20
0.8870226721215105
 10
-3.690036631114293
 20
0.8605809500955569
 10
-3.692134957275815
 20
0.8339004735777731
 10
-3.699045326578184
 20
0.8082818371173552
 10
-3.710449818905222
 20
0.7839007875900547
 10
-3.734570705266322
 20
0.7517660994071064
  0
LINE
  5
F4
330
C4
100
AcDbEntity
  8
AM_4
100
AcDbLine
 10
-4.084166666666667
 20
-2.03125
 30
0.0
 11
-3.567499999999999
 21
-2.03125
 31
0.0
  0
LINE
  5
F5
330
C4
100
AcDbEntity
  8
AM_4
100
AcDbLine
 10
-3.567499999999999
 20
2.03125
 30
0.0
 11
-3.69
 21
2.03125
 31
0.0
  0
LINE
  5
F6
330
C4
100
AcDbEntity
  8
AM_4
100
AcDbLine
 10
-4.065
 20
2.03125
 30
0.0
 11
-4.084166666666667
 21
2.03125
 31
0.0
  0
LWPOLYLINE
  5
F7
330
C4
100
AcDbEntity
  8
AM_4
100
AcDbPolyline
 90
       20
 70
     0
 43
0.0
 10
-3.690000000000011
 20
2.031249999999999
 10
-3.69236929297898
 20
2.03105102523948
 10
-3.699366795369222
 20
2.030477942861427
 10
-3.711136036420325
 20
2.029563245768623
 10
-3.726925463588468
 20
2.028433227628702
 10
-3.746934434832375
 20
2.027161591354826
 10
-3.770478565855643
 20
2.025895633551818
 10
-3.797415778195619
 20
2.024753736269771
 10
-3.826825310202632
 20
2.023881682247449
 10
-3.858411222254347
 20
2.023381675578007
 10
-3.890498300078744
 20
2.023337320520983
 10
-3.92312690986095
 20
2.023771398522443
 10
-3.953776361523808
 20
2.024618763205512
 10
-3.983090139331721
 20
2.025826721945777
 10
-4.008118678455015
 20
2.027164729078158
 10
-4.030009445242505
 20
2.028565711567188
 10
-4.046173086421113
 20
2.029737839284003
 10
-4.057874684485277
 20
2.030659144469329
 10
-4.063798446041334
 20
2.031148780959285
 10
-4.064999999999953
 20
2.031249999999996
  0
LINE
  5
F8
330
C4
100
AcDbEntity
  8
AM_4
100
AcDbLine
 10
-3.567499999999999
 20
2.03125
 30
0.0
 11
-3.567499999999999
 21
-2.03125
 31
0.0
  0
LINE
  5
F9
330
C4
100
AcDbEntity
  8
AM_4
100
AcDbLine
 10
-4.1875
 20
1.927916666666667
 30
0.0
 11
-4.1875
 21
-1.927916666666667
 31
0.0
  0
ARC
  5
FA
330
C4
100
AcDbEntity
  8
AM_4
100
AcDbCircle
 10
-4.084166666666666
 20
-1.927916666666666
 30
0.0
 40
0.1033333333333344
100
AcDbArc
 50
180.0
 51
270.0
  0
ARC
  5
FB
330
C4
100
AcDbEntity
  8
AM_4
100
AcDbCircle
 10
-4.084166666666666
 20
1.927916666666666
 30
0.0
 40
0.1033333333333342
100
AcDbArc
 50
90.0
 51
180.0
  0
LINE
  5
FC
330
C4
100
AcDbEntity
  8
AM_4
100
AcDbLine
 10
-4.084166666666667
 20
2.03125
 30
0.0
 11
-4.084166666666667
 21
-2.03125
 31
0.0
  0
ELLIPSE
  5
FD
330
C4
100
AcDbEntity
  8
AM_4
100
AcDbEllipse
 10
-3.8775
 20
0.8441377160008731
 30
0.0
 11
0.1536499999999998
 21
0.0
 31
0.0
210
0.0
220
0.0
230
1.0
 40
0.9063077870366512
 41
0.0
 42
6.283185307179586
  0
ENDBLK
  5
C7
330
C4
100
AcDbEntity
  8
0
100
AcDbBlockEnd
  0
BLOCK
  5
100
330
FE
100
AcDbEntity
  8
0
100
AcDbBlockBegin
  2
4_2_1_2I_0_in_023107_2
 70
     2
 10
0.0
 20
0.0
 30
0.0
  3
4_2_1_2I_0_in_023107_2
  1

  0
ATTDEF
  5
102
330
FE
100
AcDbEntity
  8
AM_6
100
AcDbText
 10
4.8125
 20
2.0605625
 30
0.0
 40
0.5
  1
E-Type Insert -Inch
100
AcDbAttributeDefinition
  3

  2
NN
 70
     8
280
     0
  0
ATTDEF
  5
103
330
FE
100
AcDbEntity
  8
AM_6
100
AcDbText
 10
4.8125
 20
1.5605625
 30
0.0
 40
0.5
  1
E-Type Bearings
100
AcDbAttributeDefinition
  3

  2
NT
 70
     8
280
     0
  0
ATTDEF
  5
104
330
FE
100
AcDbEntity
  8
AM_6
100
AcDbText
 10
4.8125
 20
1.0605625
 30
0.0
 40
0.5
  1
2-1/2I
100
AcDbAttributeDefinition
  3

  2
NB
 70
     8
280
     0
  0
ATTDEF
  5
105
330
FE
100
AcDbEntity
  8
AM_6
100
AcDbText
 10
4.8125
 20
0.5605625000000001
 30
0.0
 40
0.5
  1
$BORE.I
100
AcDbAttributeDefinition
  3

  2
NBSYN
 70
     8
280
     0
  0
ATTDEF
  5
106
330
FE
100
AcDbEntity
  8
AM_6
100
AcDbText
 10
4.8125
 20
0.0605625000000001
 30
0.0
 40
0.5
  1
2-1/2I
100
AcDbAttributeDefinition
  3

  2
LINA
 70
     8
280
     0
  0
ATTDEF
  5
107
330
FE
100
AcDbEntity
  8
AM_6
100
AcDbText
 10
4.8125
 20
-0.4394374999999999
 30
0.0
 40
0.5
  1
2-1/2
100
AcDbAttributeDefinition
  3

  2
BORE
 70
     8
280
     0
  0
ATTDEF
  5
108
330
FE
100
AcDbEntity
  8
AM_6
100
AcDbText
 10
4.8125
 20
-0.9394374999999999
 30
0.0
 40
0.5
  1
4.00
100
AcDbAttributeDefinition
  3

  2
A
 70
     8
280
     0
  0
ATTDEF
  5
109
330
FE
100
AcDbEntity
  8
AM_6
100
AcDbText
 10
4.8125
 20
-1.4394375
 30
0.0
 40
0.5
  1
1.70
100
AcDbAttributeDefinition
  3

  2
B
 70
     8
280
     0
  0
ATTDEF
  5
10A
330
FE
100
AcDbEntity
  8
AM_6
100
AcDbText
 10
4.8125
 20
-1.9394375
 30
0.0
 40
0.5
  1
2.94
100
AcDbAttributeDefinition
  3

  2
C
 70
     8
280
     0
  0
ATTDEF
  5
10B
330
FE
100
AcDbEntity
  8
AM_6
100
AcDbText
 10
4.8125
 20
-2.4394375
 30
0.0
 40
0.5
  1
4.12
100
AcDbAttributeDefinition
  3

  2
D
 70
     8
280
     0
  0
ATTDEF
  5
10C
330
FE
100
AcDbEntity
  8
AM_6
100
AcDbText
 10
4.8125
 20
-2.9394375
 30
0.0
 40
0.5
  1
0.41
100
AcDbAttributeDefinition
  3

  2
E
 70
     8
280
     0
  0
ATTDEF
  5
10D
330
FE
100
AcDbEntity
  8
AM_6
100
AcDbText
 10
4.8125
 20
-3.4394375
 30
0.0
 40
0.5
  1
0.31
100
AcDbAttributeDefinition
  3

  2
F
 70
     8
280
     0
  0
ATTDEF
  5
10E
330
FE
100
AcDbEntity
  8
AM_6
100
AcDbText
 10
4.8125
 20
-3.9394375
 30
0.0
 40
0.5
  1
baldor
100
AcDbAttributeDefinition
  3

  2
COMPANY
 70
     8
280
     0
  0
LINE
  5
10F
330
FE
100
AcDbEntity
  8
AM_9
100
AcDbLine
 10
-0.7024999999999999
 20
1.469999999999999
 30
0.0
 11
-0.7024999999999999
 21
1.25
 31
0.0
  0
LINE
  5
110
330
FE
100
AcDbEntity
  8
AM_9
100
AcDbLine
 10
-0.2925000000000002
 20
1.25
 30
0.0
 11
-0.2925000000000002
 21
1.469999999999999
 31
0.0
  0
LINE
  5
111
330
FE
100
AcDbEntity
  8
AM_9
100
AcDbLine
 10
-4.0825
 20
1.469999999999999
 30
0.0
 11
-4.0825
 21
1.25
 31
0.0
  0
LINE
  5
112
330
FE
100
AcDbEntity
  8
AM_9
100
AcDbLine
 10
-3.6725
 20
1.25
 30
0.0
 11
-3.6725
 21
1.469999999999999
 31
0.0
  0
LINE
  5
113
330
FE
100
AcDbEntity
  8
AM_9
100
AcDbLine
 10
-4.1875
 20
-1.25
 30
0.0
 11
-0.1875000000000001
 21
-1.25
 31
0.0
  0
LINE
  5
114
330
FE
100
AcDbEntity
  8
AM_9
100
AcDbLine
 10
-0.1875000000000001
 20
1.25
 30
0.0
 11
-0.2925000000000002
 21
1.25
 31
0.0
  0
LINE
  5
115
330
FE
100
AcDbEntity
  8
AM_9
100
AcDbLine
 10
-0.7024999999999999
 20
1.25
 30
0.0
 11
-3.6725
 21
1.25
 31
0.0
  0
LINE
  5
116
330
FE
100
AcDbEntity
  8
AM_9
100
AcDbLine
 10
-4.0825
 20
1.25
 30
0.0
 11
-4.1875
 21
1.25
 31
0.0
  0
LWPOLYLINE
  5
117
330
FE
100
AcDbEntity
  8
AM_9
100
AcDbPolyline
 90
       21
 70
     0
 43
0.0
 10
-0.7024999999995145
 20
1.249999999999921
 10
-0.7012704901136364
 20
1.249798948887841
 10
-0.6948675277445984
 20
1.248770972199472
 10
-0.6827589025448818
 20
1.246914536354491
 10
-0.6658735498560804
 20
1.244517839282
 10
-0.6437848134743605
 20
1.241722290471274
 10
-0.6179832895854251
 20
1.238947627250371
 10
-0.5879485107079933
 20
1.236388261465343
 10
-0.5561578609169328
 20
1.234469823303653
 10
-0.521694584136658
 20
1.233312765644443
 10
-0.4879101501157274
 20
1.233112713915805
 10
-0.4534202111298384
 20
1.233863050661149
 10
-0.4213285968260008
 20
1.235425870969803
 10
-0.3904926570775825
 20
1.237709809058374
 10
-0.3632041447800991
 20
1.240367033070956
 10
-0.3389628648046901
 20
1.243225250401526
 10
-0.3195890460087468
 20
1.245844014132619
 10
-0.3047956210249885
 20
1.248042458282628
 10
-0.2958768315518175
 20
1.249450640103515
 10
-0.2925109489522427
 20
1.249998204418494
 10
-0.2925000000002403
 20
1.249999999999961
  0
LWPOLYLINE
  5
118
330
FE
100
AcDbEntity
  8
AM_9
100
AcDbPolyline
 90
       21
 70
     0
 43
0.0
 10
-4.082499999999515
 20
1.249999999999921
 10
-4.081270490113637
 20
1.249798948887841
 10
-4.074867527744598
 20
1.248770972199472
 10
-4.062758902544881
 20
1.246914536354491
 10
-4.045873549856081
 20
1.244517839282
 10
-4.023784813474361
 20
1.241722290471274
 10
-3.997983289585425
 20
1.238947627250371
 10
-3.967948510707993
 20
1.236388261465343
 10
-3.936157860916933
 20
1.234469823303653
 10
-3.901694584136658
 20
1.233312765644443
 10
-3.867910150115728
 20
1.233112713915805
 10
-3.833420211129838
 20
1.233863050661149
 10
-3.801328596826
 20
1.235425870969803
 10
-3.770492657077582
 20
1.237709809058374
 10
-3.743204144780099
 20
1.240367033070956
 10
-3.71896286480469
 20
1.243225250401526
 10
-3.699589046008747
 20
1.245844014132619
 10
-3.684795621024988
 20
1.248042458282628
 10
-3.675876831551817
 20
1.249450640103515
 10
-3.672510948952243
 20
1.249998204418494
 10
-3.67250000000024
 20
1.249999999999961
  0
LWPOLYLINE
  5
119
330
FE
100
AcDbEntity
  8
AM_9
100
AcDbPolyline
 90
        4
 70
     0
 43
0.0
 10
-0.6957832951347098
 20
0.5749839731181279
 10
-0.6972493012764736
 20
0.5696942970342385
 10
-0.7021174840818476
 20
0.5395909529632144
 10
-0.7024999993215026
 20
0.5282879432990742
  0
LWPOLYLINE
  5
11A
330
FE
100
AcDbEntity
  8
AM_9
100
AcDbPolyline
 90
        5
 70
     0
 43
0.0
 10
-0.6485843583954009
 20
0.6505941782588934
 10
-0.6493855023165244
 20
0.649839117977959
 10
-0.6705584760937879
 20
0.6258214560997338
 10
-0.6864094185880852
 20
0.5993541695095864
 10
-0.6957832951347098
 20
0.5749839731181279
  0
LWPOLYLINE
  5
11B
330
FE
100
AcDbEntity
  8
AM_9
100
AcDbPolyline
 90
        6
 70
     0
 43
0.0
 10
-0.5065416912888551
 20
0.7067464961694243
 10
-0.5311686387909832
 20
0.7045846009297264
 10
-0.5648372775819661
 20
0.6973806103694619
 10
-0.595668457615583
 20
0.6858741331958658
 10
-0.624575228579358
 20
0.6696714838083072
 10
-0.6485843583954009
 20
0.6505941782588934
  0
LINE
  5
11C
330
FE
100
AcDbEntity
  8
AM_9
100
AcDbLine
 10
-0.7024999999999999
 20
0.6212443873315786
 30
0.0
 11
-0.7024999999999999
 21
0.5282254139434219
 31
0.0
  0
LINE
  5
11D
330
FE
100
AcDbEntity
  8
AM_9
100
AcDbLine
 10
-0.2925000000000002
 20
0.5282616046692952
 30
0.0
 11
-0.2925000000000002
 21
0.6212090516748283
 31
0.0
  0
LWPOLYLINE
  5
11E
330
FE
100
AcDbEntity
  8
AM_9
100
AcDbPolyline
 90
       21
 70
     0
 43
0.0
 10
-0.7024999993215026
 20
0.5282879432990742
 10
-0.7012704901136364
 20
0.5078698342292753
 10
-0.6948675277445984
 20
0.4775284354495404
 10
-0.6827589025448818
 20
0.4474192965775411
 10
-0.6658735498560804
 20
0.4199708448777718
 10
-0.6437848134743605
 20
0.3946135924141317
 10
-0.6179832895854251
 20
0.3732837667975327
 10
-0.5879485107079933
 20
0.3557890164000164
 10
-0.5561578609169328
 20
0.3436845816524355
 10
-0.521694584136658
 20
0.3367259204044039
 10
-0.4879101501157274
 20
0.335546256427582
 10
-0.4534202111298382
 20
0.340005865208453
 10
-0.4213285968260005
 20
0.3496221433130131
 10
-0.3904926570775822
 20
0.3646059116727089
 10
-0.3632041447800989
 20
0.3838275170164405
 10
-0.3389628648046901
 20
0.4076211393499961
 10
-0.3195890460087468
 20
0.4342122317596547
 10
-0.3047956210249882
 20
0.4640686138745475
 10
-0.2958768315518175
 20
0.4944571178528605
 10
-0.2925109489522427
 20
0.5263518610072415
 10
-0.2925000003363202
 20
0.5282621846432627
  0
LWPOLYLINE
  5
11F
330
FE
100
AcDbEntity
  8
AM_9
100
AcDbPolyline
 90
        6
 70
     0
 43
0.0
 10
-0.3476744423854355
 20
0.6517625056257509
 10
-0.3579547088662627
 20
0.6605501048333338
 10
-0.3854628053366156
 20
0.678858176731048
 10
-0.4155399590014929
 20
0.6925680626966946
 10
-0.4489147610319229
 20
0.7020242858426744
 10
-0.4878959632504201
 20
0.7067250910214191
  0
LWPOLYLINE
  5
120
330
FE
100
AcDbEntity
  8
AM_9
100
AcDbPolyline
 90
        5
 70
     0
 43
0.0
 10
-0.2988792967910416
 20
0.5738258383616084
 10
-0.3031323534407604
 20
0.5866122712079047
 10
-0.3163958575242953
 20
0.613764943006507
 10
-0.3350906936969601
 20
0.6389934917559867
 10
-0.3476744423854355
 20
0.6517625056257509
  0
LWPOLYLINE
  5
121
330
FE
100
AcDbEntity
  8
AM_9
100
AcDbPolyline
 90
        3
 70
     0
 43
0.0
 10
-0.2925000003363202
 20
0.5282621846432627
 10
-0.2949332607536265
 20
0.5566461680183014
 10
-0.2988792967910416
 20
0.5738258383616084
  0
LWPOLYLINE
  5
122
330
FE
100
AcDbEntity
  8
AM_9
100
AcDbPolyline
 90
       21
 70
     0
 43
0.0
 10
-0.2925000007643008
 20
0.6212648882383816
 10
-0.2937697909403045
 20
0.6005270811700684
 10
-0.3004163879872846
 20
0.5697244006287627
 10
-0.3125054065755523
 20
0.5400731111374376
 10
-0.3298266620542473
 20
0.5123838179549528
 10
-0.3517933469916317
 20
0.4875599373016697
 10
-0.3780961105234606
 20
0.466244207318571
 10
-0.407782365402957
 20
0.4492902770233033
 10
-0.4400847753416577
 20
0.4373214580255931
 10
-0.4740365391677306
 20
0.4306859754589515
 10
-0.5083837257718784
 20
0.4296858064352356
 10
-0.5424219265451633
 20
0.4341935961795557
 10
-0.575032713685614
 20
0.4440790393074447
 10
-0.6054799766407593
 20
0.4589384412991212
 10
-0.6330596989194401
 20
0.4784917840481279
 10
-0.656851424487539
 20
0.5019708780063699
 10
-0.6762623291188041
 20
0.5288946185330613
 10
-0.6906185366281311
 20
0.5582356776910137
 10
-0.6994060511464663
 20
0.5890213510587594
 10
-0.7024979095017047
 20
0.6204096645978546
 10
-0.702499999910733
 20
0.6212433618124849
  0
LWPOLYLINE
  5
123
330
FE
100
AcDbEntity
  8
AM_9
100
AcDbPolyline
 90
        5
 70
     0
 43
0.0
 10
-0.6222151699542707
 20
0.7648877769671486
 10
-0.6080931766430885
 20
0.7733887608419929
 10
-0.5774422727244566
 20
0.7871704464638192
 10
-0.5444992922831153
 20
0.7963430923755211
 10
-0.4975000000000001
 20
0.800971283344228
  0
LWPOLYLINE
  5
124
330
FE
100
AcDbEntity
  8
AM_9
100
AcDbPolyline
 90
        7
 70
     0
 43
0.0
 10
-0.702499999910733
 20
0.6212433618124849
 10
-0.6997658500870443
 20
0.6512157025837275
 10
-0.6914233888714795
 20
0.6808587422273499
 10
-0.6776479146981681
 20
0.7085024323850196
 10
-0.6589019015349251
 20
0.7334965180114494
 10
-0.6354353961912954
 20
0.755355172483647
 10
-0.6222151699542707
 20
0.7648877769671486
  0
LWPOLYLINE
  5
125
330
FE
100
AcDbEntity
  8
AM_9
100
AcDbPolyline
 90
        4
 70
     0
 43
0.0
 10
-4.07578329513471
 20
0.5749839731181275
 10
-4.077249301276473
 20
0.5696942970342385
 10
-4.082117484081848
 20
0.5395909529632144
 10
-4.082499999321503
 20
0.5282879432990742
  0
LWPOLYLINE
  5
126
330
FE
100
AcDbEntity
  8
AM_9
100
AcDbPolyline
 90
        5
 70
     0
 43
0.0
 10
-4.026867368010006
 20
0.6521823923174955
 10
-4.029385502316525
 20
0.649839117977959
 10
-4.050558476093788
 20
0.6258214560997338
 10
-4.066409418588085
 20
0.5993541695095864
 10
-4.07578329513471
 20
0.5749839731181275
  0
LWPOLYLINE
  5
127
330
FE
100
AcDbEntity
  8
AM_9
100
AcDbPolyline
 90
        6
 70
     0
 43
0.0
 10
-3.883410416880978
 20
0.7068420390149309
 10
-3.911168638790983
 20
0.7045846009297264
 10
-3.944837277581966
 20
0.6973806103694619
 10
-3.975668457615583
 20
0.6858741331958658
 10
-4.004575228579358
 20
0.6696714838083072
 10
-4.026867368010006
 20
0.6521823923174955
  0
LINE
  5
128
330
FE
100
AcDbEntity
  8
AM_9
100
AcDbLine
 10
-4.0825
 20
0.6212443873315786
 30
0.0
 11
-4.0825
 21
0.5282254139434219
 31
0.0
  0
LINE
  5
129
330
FE
100
AcDbEntity
  8
AM_9
100
AcDbLine
 10
-3.6725
 20
0.5282616046692952
 30
0.0
 11
-3.6725
 21
0.6212090516748283
 31
0.0
  0
LWPOLYLINE
  5
12A
330
FE
100
AcDbEntity
  8
AM_9
100
AcDbPolyline
 90
       21
 70
     0
 43
0.0
 10
-4.082499999321503
 20
0.5282879432990742
 10
-4.081270490113637
 20
0.5078698342292753
 10
-4.074867527744598
 20
0.4775284354495404
 10
-4.062758902544881
 20
0.4474192965775411
 10
-4.045873549856081
 20
0.4199708448777718
 10
-4.023784813474361
 20
0.3946135924141317
 10
-3.997983289585425
 20
0.3732837667975327
 10
-3.967948510707993
 20
0.3557890164000164
 10
-3.936157860916933
 20
0.3436845816524355
 10
-3.901694584136658
 20
0.3367259204044039
 10
-3.867910150115728
 20
0.335546256427582
 10
-3.833420211129838
 20
0.340005865208453
 10
-3.801328596826
 20
0.3496221433130131
 10
-3.770492657077582
 20
0.3646059116727089
 10
-3.743204144780099
 20
0.3838275170164405
 10
-3.71896286480469
 20
0.4076211393499961
 10
-3.699589046008747
 20
0.4342122317596547
 10
-3.684795621024988
 20
0.4640686138745475
 10
-3.675876831551817
 20
0.4944571178528605
 10
-3.672510948952243
 20
0.5263518610072415
 10
-3.67250000033632
 20
0.5282621846432627
  0
LWPOLYLINE
  5
12B
330
FE
100
AcDbEntity
  8
AM_9
100
AcDbPolyline
 90
        6
 70
     0
 43
0.0
 10
-3.727790109652873
 20
0.6518687711409752
 10
-3.737954708866263
 20
0.6605501048333338
 10
-3.765462805336615
 20
0.678858176731048
 10
-3.795539959001493
 20
0.6925680626966946
 10
-3.828914761031923
 20
0.7020242858426744
 10
-3.868230374834958
 20
0.7067379760361061
  0
LWPOLYLINE
  5
12C
330
FE
100
AcDbEntity
  8
AM_9
100
AcDbPolyline
 90
        5
 70
     0
 43
0.0
 10
-3.678879296791041
 20
0.5738258383616074
 10
-3.683132353440761
 20
0.5866122712079047
 10
-3.696395857524295
 20
0.613764943006507
 10
-3.71509069369696
 20
0.6389934917559867
 10
-3.727790109652873
 20
0.6518687711409752
  0
LWPOLYLINE
  5
12D
330
FE
100
AcDbEntity
  8
AM_9
100
AcDbPolyline
 90
        3
 70
     0
 43
0.0
 10
-3.67250000033632
 20
0.5282621846432627
 10
-3.674933260753626
 20
0.5566461680183014
 10
-3.678879296791041
 20
0.5738258383616074
  0
LWPOLYLINE
  5
12E
330
FE
100
AcDbEntity
  8
AM_9
100
AcDbPolyline
 90
       21
 70
     0
 43
0.0
 10
-3.672500000764301
 20
0.6212648882383816
 10
-3.673769790940304
 20
0.6005270811700684
 10
-3.680416387987284
 20
0.5697244006287627
 10
-3.692505406575552
 20
0.5400731111374376
 10
-3.709826662054247
 20
0.5123838179549528
 10
-3.731793346991632
 20
0.4875599373016697
 10
-3.758096110523461
 20
0.466244207318571
 10
-3.787782365402957
 20
0.4492902770233033
 10
-3.820084775341657
 20
0.4373214580255931
 10
-3.85403653916773
 20
0.4306859754589515
 10
-3.888383725771878
 20
0.4296858064352356
 10
-3.922421926545164
 20
0.4341935961795557
 10
-3.955032713685614
 20
0.4440790393074447
 10
-3.985479976640759
 20
0.4589384412991212
 10
-4.013059698919441
 20
0.4784917840481279
 10
-4.036851424487539
 20
0.5019708780063699
 10
-4.056262329118804
 20
0.5288946185330613
 10
-4.070618536628132
 20
0.5582356776910137
 10
-4.079406051146466
 20
0.5890213510587594
 10
-4.082497909501705
 20
0.6204096645978546
 10
-4.082499999910733
 20
0.6212433618124849
  0
LWPOLYLINE
  5
12F
330
FE
100
AcDbEntity
  8
AM_9
100
AcDbPolyline
 90
        5
 70
     0
 43
0.0
 10
-4.002024540607167
 20
0.7650131780778526
 10
-3.988093176643089
 20
0.7733887608419929
 10
-3.957442272724457
 20
0.7871704464638192
 10
-3.924499292283115
 20
0.7963430923755211
 10
-3.8775
 20
0.800971283344228
  0
LWPOLYLINE
  5
130
330
FE
100
AcDbEntity
  8
AM_9
100
AcDbPolyline
 90
        7
 70
     0
 43
0.0
 10
-4.082499999910733
 20
0.6212433618124849
 10
-4.079765850087044
 20
0.6512157025837275
 10
-4.071423388871479
 20
0.6808587422273499
 10
-4.057647914698168
 20
0.7085024323850196
 10
-4.038901901534925
 20
0.7334965180114494
 10
-4.015435396191295
 20
0.755355172483647
 10
-4.002024540607167
 20
0.7650131780778526
  0
LWPOLYLINE
  5
131
330
FE
100
AcDbEntity
  8
AM_9
100
AcDbPolyline
 90
        8
 70
     0
 43
0.0
 10
-3.752315694846715
 20
0.7645778412375812
 10
-3.750150483436233
 20
0.7631226077835981
 10
-3.725049255928544
 20
0.7427291822337232
 10
-3.704226005882894
 20
0.7188069979816564
 10
-3.688273625633185
 20
0.6917725498070586
 10
-3.677680492161406
 20
0.6624514986069256
 10
-3.672853877162551
 20
0.6318063993270573
 10
-3.672500000764301
 20
0.6212648882383816
  0
LWPOLYLINE
  5
132
330
FE
100
AcDbEntity
  8
AM_9
100
AcDbPolyline
 90
        5
 70
     0
 43
0.0
 10
-3.8775
 20
0.800971283344228
 10
-3.843274677095872
 20
0.798516892145376
 10
-3.810018628677903
 20
0.7912773730048465
 10
-3.778702433054943
 20
0.7793672504553468
 10
-3.752315694846715
 20
0.7645778412375812
  0
LINE
  5
133
330
FE
100
AcDbEntity
  8
AM_9
100
AcDbLine
 10
-3.5625
 20
-1.469999999999999
 30
0.0
 11
-3.0375
 21
-1.469999999999999
 31
0.0
  0
LINE
  5
134
330
FE
100
AcDbEntity
  8
AM_9
100
AcDbLine
 10
-4.1875
 20
-1.469999999999999
 30
0.0
 11
-3.567499999999999
 21
-1.469999999999999
 31
0.0
  0
LINE
  5
135
330
FE
100
AcDbEntity
  8
AM_9
100
AcDbLine
 10
-3.567499999999999
 20
1.469999999999999
 30
0.0
 11
-3.6725
 21
1.469999999999999
 31
0.0
  0
LINE
  5
136
330
FE
100
AcDbEntity
  8
AM_9
100
AcDbLine
 10
-3.0375
 20
1.469999999999999
 30
0.0
 11
-3.5625
 21
1.469999999999999
 31
0.0
  0
LINE
  5
137
330
FE
100
AcDbEntity
  8
AM_9
100
AcDbLine
 10
-4.0825
 20
1.469999999999999
 30
0.0
 11
-4.1875
 21
1.469999999999999
 31
0.0
  0
LWPOLYLINE
  5
138
330
FE
100
AcDbEntity
  8
AM_9
100
AcDbPolyline
 90
       21
 70
     0
 43
0.0
 10
-3.672500000000285
 20
1.46999999999996
 10
-3.673769790940304
 20
1.469823458134855
 10
-3.680263625593496
 20
1.468937434810966
 10
-3.692505406575552
 20
1.467343858676716
 10
-3.709533297566067
 20
1.465294445879915
 10
-3.731793346991632
 20
1.462909918187343
 10
-3.757681971473905
 20
1.460558578065213
 10
-3.787782365402957
 20
1.45839783802558
 10
-3.819593513030557
 20
1.456786930622711
 10
-3.85403653916773
 20
1.455824692054035
 10
-3.887888439059973
 20
1.455672669134823
 10
-3.922421926545164
 20
1.456328595985304
 10
-3.954592595119145
 20
1.45767563889303
 10
-3.985479976640759
 20
1.459635117197218
 10
-4.012708009282972
 20
1.461901571848892
 10
-4.036851424487539
 20
1.464331887410161
 10
-4.056034933557701
 20
1.466543460829051
 10
-4.070618536628132
 20
1.468390196504114
 10
-4.07933938479574
 20
1.469562566634957
 10
-4.082497909501705
 20
1.469999708469382
 10
-4.082499999999969
 20
1.469999999999995
  0
LINE
  5
139
330
FE
100
AcDbEntity
  8
AM_9
100
AcDbLine
 10
-3.881566872330927
 20
1.455641281171482
 30
0.0
 11
-3.8775
 21
1.455635600004341
 31
0.0
  0
LINE
  5
13A
330
FE
100
AcDbEntity
  8
AM_9
100
AcDbLine
 10
-4.082499999999969
 20
1.469999999999995
 30
0.0
 11
-4.071173396143553
 21
1.468463273076237
 31
0.0
  0
LWPOLYLINE
  5
13B
330
FE
100
AcDbEntity
  8
AM_9
100
AcDbPolyline
 90
        8
 70
     0
 43
0.0
 10
-0.3725077551533562
 20
0.7647049550126991
 10
-0.3701504834362333
 20
0.7631226077835981
 10
-0.3450492559285444
 20
0.7427291822337232
 10
-0.3242260058828937
 20
0.7188069979816564
 10
-0.308273625633185
 20
0.6917725498070586
 10
-0.297680492161406
 20
0.6624514986069256
 10
-0.2928538771625511
 20
0.6318063993270573
 10
-0.2925000007643008
 20
0.6212648882383816
  0
LWPOLYLINE
  5
13C
330
FE
100
AcDbEntity
  8
AM_9
100
AcDbPolyline
 90
        5
 70
     0
 43
0.0
 10
-0.4975000000000001
 20
0.800971283344228
 10
-0.4632746770958717
 20
0.798516892145376
 10
-0.4300186286779031
 20
0.7912773730048465
 10
-0.3987024330549427
 20
0.7793672504553468
 10
-0.3725077551533562
 20
0.7647049550126991
  0
LINE
  5
13D
330
FE
100
AcDbEntity
  8
AM_9
100
AcDbLine
 10
-1.3375
 20
-1.469999999999999
 30
0.0
 11
-0.1875000000000001
 21
-1.469999999999999
 31
0.0
  0
LINE
  5
13E
330
FE
100
AcDbEntity
  8
AM_9
100
AcDbLine
 10
-0.1875000000000001
 20
1.469999999999999
 30
0.0
 11
-0.2925000000000002
 21
1.469999999999999
 31
0.0
  0
LINE
  5
13F
330
FE
100
AcDbEntity
  8
AM_9
100
AcDbLine
 10
-0.7024999999999999
 20
1.469999999999999
 30
0.0
 11
-1.3375
 21
1.469999999999999
 31
0.0
  0
LWPOLYLINE
  5
140
330
FE
100
AcDbEntity
  8
AM_9
100
AcDbPolyline
 90
       21
 70
     0
 43
0.0
 10
-0.2925000000002846
 20
1.46999999999996
 10
-0.2937697909403045
 20
1.469823458134855
 10
-0.300263625593496
 20
1.468937434810966
 10
-0.3125054065755523
 20
1.467343858676716
 10
-0.3295332975660672
 20
1.465294445879915
 10
-0.3517933469916317
 20
1.462909918187343
 10
-0.3776819714739053
 20
1.460558578065213
 10
-0.407782365402957
 20
1.45839783802558
 10
-0.4395935130305567
 20
1.456786930622711
 10
-0.4740365391677306
 20
1.455824692054035
 10
-0.5078884390599729
 20
1.455672669134823
 10
-0.5424219265451633
 20
1.456328595985304
 10
-0.5745925951191447
 20
1.45767563889303
 10
-0.6054799766407589
 20
1.459635117197218
 10
-0.6327080092829714
 20
1.461901571848892
 10
-0.656851424487539
 20
1.464331887410161
 10
-0.6760349335577007
 20
1.466543460829051
 10
-0.6906185366281311
 20
1.468390196504114
 10
-0.6993393847957406
 20
1.469562566634957
 10
-0.7024979095017047
 20
1.469999708469382
 10
-0.7024999999999696
 20
1.469999999999995
  0
LINE
  5
141
330
FE
100
AcDbEntity
  8
AM_9
100
AcDbLine
 10
-3.0375
 20
-2.06
 30
0.0
 11
-1.3375
 21
-2.06
 31
0.0
  0
LINE
  5
142
330
FE
100
AcDbEntity
  8
AM_9
100
AcDbLine
 10
-1.3375
 20
2.06
 30
0.0
 11
-3.0375
 21
2.06
 31
0.0
  0
LINE
  5
143
330
FE
100
AcDbEntity
  8
AM_9
100
AcDbLine
 10
-3.0375
 20
2.06
 30
0.0
 11
-3.0375
 21
-2.06
 31
0.0
  0
LINE
  5
144
330
FE
100
AcDbEntity
  8
AM_9
100
AcDbLine
 10
-1.3375
 20
2.06
 30
0.0
 11
-1.3375
 21
-2.06
 31
0.0
  0
LINE
  5
145
330
FE
100
AcDbEntity
  8
AM_7
100
AcDbLine
 10
-0.4975000000000001
 20
-0.0753846153846154
 30
0.0
 11
-0.4975
 21
2.0605625
 31
0.0
  0
LINE
  5
146
330
FE
100
AcDbEntity
  8
AM_4
100
AcDbLine
 10
-0.4975000000000001
 20
0.7069132884104561
 30
0.0
 11
-0.5065416912888551
 21
0.7067464961694243
 31
0.0
  0
LINE
  5
147
330
FE
100
AcDbEntity
  8
AM_4
100
AcDbLine
 10
-0.4878959632504201
 20
0.7067250910214191
 30
0.0
 11
-0.4975000000000001
 21
0.7069132884104561
 31
0.0
  0
LINE
  5
148
330
FE
100
AcDbEntity
  8
AM_4
100
AcDbLine
 10
-3.8775
 20
0.7069132884104561
 30
0.0
 11
-3.883410416880978
 21
0.7068420390149309
 31
0.0
  0
LINE
  5
149
330
FE
100
AcDbEntity
  8
AM_4
100
AcDbLine
 10
-3.868230374834958
 20
0.7067379760361061
 30
0.0
 11
-3.8775
 21
0.7069132884104561
 31
0.0
  0
LINE
  5
14A
330
FE
100
AcDbEntity
  8
AM_4
100
AcDbLine
 10
-3.567499999999999
 20
-1.469999999999999
 30
0.0
 11
-3.5625
 21
-1.469999999999999
 31
0.0
  0
LINE
  5
14B
330
FE
100
AcDbEntity
  8
AM_4
100
AcDbLine
 10
-3.5625
 20
1.469999999999999
 30
0.0
 11
-3.567499999999999
 21
1.469999999999999
 31
0.0
  0
ENDBLK
  5
101
330
FE
100
AcDbEntity
  8
0
100
AcDbBlockEnd
  0
BLOCK
  5
14E
330
14C
100
AcDbEntity
  8
0
100
AcDbBlockBegin
  2
5_405015E_Inch_0_in_023107_2
 70
     2
 10
0.0
 20
0.0
 30
0.0
  3
5_405015E_Inch_0_in_023107_2
  1

  0
ATTDEF
  5
150
330
14C
100
AcDbEntity
  8
AM_6
100
AcDbText
 10
3.03125
 20
3.16325
 30
0.0
 40
0.5
  1
405015E -Inch
100
AcDbAttributeDefinition
  3

  2
NN
 70
     8
280
     0
  0
ATTDEF
  5
151
330
14C
100
AcDbEntity
  8
AM_6
100
AcDbText
 10
3.03125
 20
2.66325
 30
0.0
 40
0.5
  1
Grease Fitting
100
AcDbAttributeDefinition
  3

  2
NT
 70
     8
280
     0
  0
ATTDEF
  5
152
330
14C
100
AcDbEntity
  8
AM_6
100
AcDbText
 10
3.03125
 20
2.16325
 30
0.0
 40
0.5
  1
405015E-Inch
100
AcDbAttributeDefinition
  3

  2
NB
 70
     8
280
     0
  0
ATTDEF
  5
153
330
14C
100
AcDbEntity
  8
AM_6
100
AcDbText
 10
3.03125
 20
1.66325
 30
0.0
 40
0.5
  1
$MN.-Inch
100
AcDbAttributeDefinition
  3

  2
NBSYN
 70
     8
280
     0
  0
ATTDEF
  5
154
330
14C
100
AcDbEntity
  8
AM_6
100
AcDbText
 10
3.03125
 20
1.16325
 30
0.0
 40
0.5
  1
405015E
100
AcDbAttributeDefinition
  3

  2
LINA
 70
     8
280
     0
  0
ATTDEF
  5
155
330
14C
100
AcDbEntity
  8
AM_6
100
AcDbText
 10
3.03125
 20
0.6632499999999997
 30
0.0
 40
0.5
  1
405015E
100
AcDbAttributeDefinition
  3

  2
MN
 70
     8
280
     0
  0
ATTDEF
  5
156
330
14C
100
AcDbEntity
  8
AM_6
100
AcDbText
 10
3.03125
 20
0.1632499999999997
 30
0.0
 40
0.5
  1
1/8 x 27PTF
100
AcDbAttributeDefinition
  3

  2
T
 70
     8
280
     0
  0
ATTDEF
  5
157
330
14C
100
AcDbEntity
  8
AM_6
100
AcDbText
 10
3.03125
 20
-0.3367500000000003
 30
0.0
 40
0.5
  1
baldor
100
AcDbAttributeDefinition
  3

  2
COMPANY
 70
     8
280
     0
  0
LINE
  5
158
330
14C
100
AcDbEntity
  8
AM_9
100
AcDbLine
 10
-2.349402872472269
 20
2.49125
 30
0.0
 11
-2.025597127527731
 21
2.49125
 31
0.0
  0
LINE
  5
159
330
14C
100
AcDbEntity
  8
AM_9
100
AcDbLine
 10
-2.025597127527731
 20
2.49125
 30
0.0
 11
-1.988882373218785
 21
2.527964754308946
 31
0.0
  0
LINE
  5
15A
330
14C
100
AcDbEntity
  8
AM_9
100
AcDbLine
 10
-2.386117626781215
 20
2.527964754308946
 30
0.0
 11
-2.349402872472269
 21
2.49125
 31
0.0
  0
LINE
  5
15B
330
14C
100
AcDbEntity
  8
AM_9
100
AcDbLine
 10
-2.386117626781215
 20
2.527964754308946
 30
0.0
 11
-1.988882373218785
 21
2.527964754308946
 31
0.0
  0
LINE
  5
15C
330
14C
100
AcDbEntity
  8
AM_9
100
AcDbLine
 10
-1.988882373218785
 20
2.527964754308946
 30
0.0
 11
-1.98174810277693
 21
2.75625
 31
0.0
  0
LINE
  5
15D
330
14C
100
AcDbEntity
  8
AM_9
100
AcDbLine
 10
-2.39325189722307
 20
2.75625
 30
0.0
 11
-2.386117626781215
 21
2.527964754308946
 31
0.0
  0
LINE
  5
15E
330
14C
100
AcDbEntity
  8
AM_5
100
AcDbLine
 10
-2.019350875147652
 20
2.691120087748463
 30
0.0
 11
-2.025597127527731
 21
2.49125
 31
0.0
  0
LINE
  5
15F
330
14C
100
AcDbEntity
  8
AM_5
100
AcDbLine
 10
-1.98174810277693
 20
2.75625
 30
0.0
 11
-2.019350875147652
 21
2.691120087748463
 31
0.0
  0
LINE
  5
160
330
14C
100
AcDbEntity
  8
AM_5
100
AcDbLine
 10
-2.391216485751557
 20
2.691120087748463
 30
0.0
 11
-1.983783514248443
 21
2.691120087748463
 31
0.0
  0
LINE
  5
161
330
14C
100
AcDbEntity
  8
AM_5
100
AcDbLine
 10
-2.355649124852348
 20
2.691120087748463
 30
0.0
 11
-2.349402872472269
 21
2.49125
 31
0.0
  0
LINE
  5
162
330
14C
100
AcDbEntity
  8
AM_5
100
AcDbLine
 10
-2.39325189722307
 20
2.75625
 30
0.0
 11
-2.355649124852348
 21
2.691120087748463
 31
0.0
  0
LINE
  5
163
330
14C
100
AcDbEntity
  8
AM_7
100
AcDbLine
 10
-2.1875
 20
3.16325
 30
0.0
 11
-2.1875
 21
2.45925
 31
0.0
  0
LINE
  5
164
330
14C
100
AcDbEntity
  8
AM_4
100
AcDbLine
 10
-2.0825
 20
2.96125
 30
0.0
 11
-2.0825
 21
2.99125
 31
0.0
  0
LINE
  5
165
330
14C
100
AcDbEntity
  8
AM_4
100
AcDbLine
 10
-2.2925
 20
2.99125
 30
0.0
 11
-2.2925
 21
2.96125
 31
0.0
  0
LINE
  5
166
330
14C
100
AcDbEntity
  8
AM_4
100
AcDbLine
 10
-2.2925
 20
2.96125
 30
0.0
 11
-2.0825
 21
2.96125
 31
0.0
  0
LINE
  5
167
330
14C
100
AcDbEntity
  8
AM_4
100
AcDbLine
 10
-2.2925
 20
2.96125
 30
0.0
 11
-2.306320090734897
 21
2.929003121618572
 31
0.0
  0
LINE
  5
168
330
14C
100
AcDbEntity
  8
AM_4
100
AcDbLine
 10
-2.068679909265103
 20
2.929003121618572
 30
0.0
 11
-2.0825
 21
2.96125
 31
0.0
  0
LINE
  5
169
330
14C
100
AcDbEntity
  8
AM_4
100
AcDbLine
 10
-2.2925
 20
2.99125
 30
0.0
 11
-2.0825
 21
2.99125
 31
0.0
  0
LINE
  5
16A
330
14C
100
AcDbEntity
  8
AM_4
100
AcDbLine
 10
-2.0825
 20
2.99125
 30
0.0
 11
-2.0525
 21
3.05125
 31
0.0
  0
LINE
  5
16B
330
14C
100
AcDbEntity
  8
AM_4
100
AcDbLine
 10
-2.3225
 20
3.05125
 30
0.0
 11
-2.2925
 21
2.99125
 31
0.0
  0
LINE
  5
16C
330
14C
100
AcDbEntity
  8
AM_4
100
AcDbLine
 10
-2.290177901933188
 20
3.13125
 30
0.0
 11
-2.084822098066813
 21
3.13125
 31
0.0
  0
LINE
  5
16D
330
14C
100
AcDbEntity
  8
AM_4
100
AcDbLine
 10
-2.3225
 20
3.05125
 30
0.0
 11
-2.0525
 21
3.05125
 31
0.0
  0
LINE
  5
16E
330
14C
100
AcDbEntity
  8
AM_4
100
AcDbLine
 10
-2.290177901933188
 20
3.13125
 30
0.0
 11
-2.3225
 21
3.05125
 31
0.0
  0
LINE
  5
16F
330
14C
100
AcDbEntity
  8
AM_4
100
AcDbLine
 10
-2.0525
 20
3.05125
 30
0.0
 11
-2.084822098066813
 21
3.13125
 31
0.0
  0
LINE
  5
170
330
14C
100
AcDbEntity
  8
AM_4
100
AcDbLine
 10
-1.96875
 20
2.75625
 30
0.0
 11
-1.96875
 21
2.85625
 31
0.0
  0
LINE
  5
171
330
14C
100
AcDbEntity
  8
AM_4
100
AcDbLine
 10
-2.40625
 20
2.85625
 30
0.0
 11
-1.96875
 21
2.85625
 31
0.0
  0
LINE
  5
172
330
14C
100
AcDbEntity
  8
AM_4
100
AcDbLine
 10
-2.40625
 20
2.85625
 30
0.0
 11
-2.40625
 21
2.75625
 31
0.0
  0
LINE
  5
173
330
14C
100
AcDbEntity
  8
AM_4
100
AcDbLine
 10
-2.306320090734897
 20
2.929003121618572
 30
0.0
 11
-2.068679909265103
 21
2.929003121618572
 31
0.0
  0
LINE
  5
174
330
14C
100
AcDbEntity
  8
AM_4
100
AcDbLine
 10
-2.306320090734897
 20
2.929003121618572
 30
0.0
 11
-2.360034053283016
 21
2.874568198540882
 31
0.0
  0
LINE
  5
175
330
14C
100
AcDbEntity
  8
AM_4
100
AcDbLine
 10
-2.014965946716985
 20
2.874568198540882
 30
0.0
 11
-2.068679909265103
 21
2.929003121618572
 31
0.0
  0
LWPOLYLINE
  5
176
330
14C
100
AcDbEntity
  8
AM_4
100
AcDbPolyline
 90
        4
 70
     0
 43
0.0
 10
-2.078125
 20
2.85625
 10
-2.036209529757098
 20
2.854832439282863
 10
-1.994294059514195
 20
2.850767587482156
 10
-1.96875
 20
2.847182400303385
  0
LWPOLYLINE
  5
177
330
14C
100
AcDbEntity
  8
AM_4
100
AcDbPolyline
 90
        4
 70
     0
 43
0.0
 10
-1.96875
 20
2.765317599696614
 10
-1.994294059514195
 20
2.761732412517844
 10
-2.036086012717731
 20
2.757675828243072
 10
-2.078125
 20
2.75625
  0
LWPOLYLINE
  5
178
330
14C
100
AcDbEntity
  8
AM_4
100
AcDbPolyline
 90
        3
 70
     0
 43
0.0
 10
-2.078125
 20
2.75625
 10
-2.1328125
 20
2.758643380785035
 10
-2.1875
 20
2.765317599696614
  0
LWPOLYLINE
  5
179
330
14C
100
AcDbEntity
  8
AM_4
100
AcDbPolyline
 90
        3
 70
     0
 43
0.0
 10
-2.1875
 20
2.847182400303385
 10
-2.133058389725851
 20
2.85383547505038
 10
-2.078125
 20
2.85625
  0
LINE
  5
17A
330
14C
100
AcDbEntity
  8
AM_4
100
AcDbLine
 10
-2.360034053283016
 20
2.874568198540882
 30
0.0
 11
-2.014965946716985
 21
2.874568198540882
 31
0.0
  0
LINE
  5
17B
330
14C
100
AcDbEntity
  8
AM_4
100
AcDbLine
 10
-2.360034053283016
 20
2.874568198540882
 30
0.0
 11
-2.40125
 21
2.85625
 31
0.0
  0
LINE
  5
17C
330
14C
100
AcDbEntity
  8
AM_4
100
AcDbLine
 10
-1.97375
 20
2.85625
 30
0.0
 11
-2.014965946716985
 21
2.874568198540882
 31
0.0
  0
LINE
  5
17D
330
14C
100
AcDbEntity
  8
AM_4
100
AcDbLine
 10
-2.1875
 20
2.847182400303385
 30
0.0
 11
-2.1875
 21
2.765317599696614
 31
0.0
  0
LWPOLYLINE
  5
17E
330
14C
100
AcDbEntity
  8
AM_4
100
AcDbPolyline
 90
        3
 70
     0
 43
0.0
 10
-2.296875
 20
2.85625
 10
-2.2421875
 20
2.853856619214965
 10
-2.1875
 20
2.847182400303385
  0
LWPOLYLINE
  5
17F
330
14C
100
AcDbEntity
  8
AM_4
100
AcDbPolyline
 90
        3
 70
     0
 43
0.0
 10
-2.40625
 20
2.847182400303385
 10
-2.35180838972585
 20
2.85383547505038
 10
-2.296875
 20
2.85625
  0
LWPOLYLINE
  5
180
330
14C
100
AcDbEntity
  8
AM_4
100
AcDbPolyline
 90
        3
 70
     0
 43
0.0
 10
-2.296875
 20
2.75625
 10
-2.3515625
 20
2.758643380785035
 10
-2.40625
 20
2.765317599696614
  0
LWPOLYLINE
  5
181
330
14C
100
AcDbEntity
  8
AM_4
100
AcDbPolyline
 90
        3
 70
     0
 43
0.0
 10
-2.1875
 20
2.765317599696614
 10
-2.24194161027415
 20
2.75866452494962
 10
-2.296875
 20
2.75625
  0
ENDBLK
  5
14F
330
14C
100
AcDbEntity
  8
0
100
AcDbBlockEnd
  0
BLOCK
  5
184
330
182
100
AcDbEntity
  8
0
100
AcDbBlockBegin
  2
6_023107H_0_in_023107_2
 70
     2
 10
0.0
 20
0.0
 30
0.0
  3
6_023107H_0_in_023107_2
  1

  0
ATTDEF
  5
186
330
182
100
AcDbEntity
  8
AM_6
100
AcDbText
 10
5.21375
 20
3.437500000000001
 30
0.0
 40
0.5
  1
F4B-E-Housing
100
AcDbAttributeDefinition
  3

  2
NN
 70
     8
280
     0
  0
ATTDEF
  5
187
330
182
100
AcDbEntity
  8
AM_6
100
AcDbText
 10
5.21375
 20
2.937500000000001
 30
0.0
 40
0.5
  1
Type E Flange Bearing -Inch (4-Bolt Flange)
100
AcDbAttributeDefinition
  3

  2
NT
 70
     8
280
     0
  0
ATTDEF
  5
188
330
182
100
AcDbEntity
  8
AM_6
100
AcDbText
 10
5.21375
 20
2.437500000000001
 30
0.0
 40
0.5
  1
023107H
100
AcDbAttributeDefinition
  3

  2
NB
 70
     8
280
     0
  0
ATTDEF
  5
189
330
182
100
AcDbEntity
  8
AM_6
100
AcDbText
 10
5.21375
 20
1.937500000000001
 30
0.0
 40
0.5
  1
$PN.H
100
AcDbAttributeDefinition
  3

  2
NBSYN
 70
     8
280
     0
  0
ATTDEF
  5
18A
330
182
100
AcDbEntity
  8
AM_6
100
AcDbText
 10
5.21375
 20
1.437500000000001
 30
0.0
 40
0.5
  1
023107
100
AcDbAttributeDefinition
  3

  2
LINA
 70
     8
280
     0
  0
ATTDEF
  5
18B
330
182
100
AcDbEntity
  8
AM_6
100
AcDbText
 10
5.21375
 20
0.9375000000000009
 30
0.0
 40
0.5
  1
2-1/2
100
AcDbAttributeDefinition
  3

  2
SS
 70
     8
280
     0
  0
ATTDEF
  5
18C
330
182
100
AcDbEntity
  8
AM_6
100
AcDbText
 10
5.21375
 20
0.4375000000000009
 30
0.0
 40
0.5
  1
023107
100
AcDbAttributeDefinition
  3

  2
PN
 70
     8
280
     0
  0
ATTDEF
  5
18D
330
182
100
AcDbEntity
  8
AM_6
100
AcDbText
 10
5.21375
 20
-0.0624999999999991
 30
0.0
 40
0.5
  1
F4B-E-208R
100
AcDbAttributeDefinition
  3

  2
DESCRIPTION
 70
     8
280
     0
  0
ATTDEF
  5
18E
330
182
100
AcDbEntity
  8
AM_6
100
AcDbText
 10
5.21375
 20
-0.5624999999999991
 30
0.0
 40
0.5
  1
4-3/16
100
AcDbAttributeDefinition
  3

  2
A
 70
     8
280
     0
  0
ATTDEF
  5
18F
330
182
100
AcDbEntity
  8
AM_6
100
AcDbText
 10
5.21375
 20
-1.062499999999999
 30
0.0
 40
0.5
  1
6-7/8
100
AcDbAttributeDefinition
  3

  2
B
 70
     8
280
     0
  0
ATTDEF
  5
190
330
182
100
AcDbEntity
  8
AM_6
100
AcDbText
 10
5.21375
 20
-1.562499999999999
 30
0.0
 40
0.5
  1
3-9/16
100
AcDbAttributeDefinition
  3

  2
C
 70
     8
280
     0
  0
ATTDEF
  5
191
330
182
100
AcDbEntity
  8
AM_6
100
AcDbText
 10
5.21375
 20
-2.062499999999999
 30
0.0
 40
0.5
  1
3/16
100
AcDbAttributeDefinition
  3

  2
E
 70
     8
280
     0
  0
ATTDEF
  5
192
330
182
100
AcDbEntity
  8
AM_6
100
AcDbText
 10
5.21375
 20
-2.562499999999999
 30
0.0
 40
0.5
  1
0.187500
100
AcDbAttributeDefinition
  3

  2
E1
 70
     8
280
     0
  0
ATTDEF
  5
193
330
182
100
AcDbEntity
  8
AM_6
100
AcDbText
 10
5.21375
 20
-3.062499999999999
 30
0.0
 40
0.5
  1
5/8
100
AcDbAttributeDefinition
  3

  2
F
 70
     8
280
     0
  0
ATTDEF
  5
194
330
182
100
AcDbEntity
  8
AM_6
100
AcDbText
 10
5.21375
 20
-3.562499999999999
 30
0.0
 40
0.5
  1
0.625000
100
AcDbAttributeDefinition
  3

  2
F1
 70
     8
280
     0
  0
ATTDEF
  5
195
330
182
100
AcDbEntity
  8
AM_6
100
AcDbText
 10
5.21375
 20
-4.062499999999999
 30
0.0
 40
0.5
  1
1-1/2
100
AcDbAttributeDefinition
  3

  2
H
 70
     8
280
     0
  0
ATTDEF
  5
196
330
182
100
AcDbEntity
  8
AM_6
100
AcDbText
 10
5.21375
 20
-4.562499999999999
 30
0.0
 40
0.5
  1
5-5/16
100
AcDbAttributeDefinition
  3

  2
J
 70
     8
280
     0
  0
ATTDEF
  5
197
330
182
100
AcDbEntity
  8
AM_6
100
AcDbText
 10
5.21375
 20
-5.062499999999999
 30
0.0
 40
0.5
  1
5.3125000
100
AcDbAttributeDefinition
  3

  2
J1
 70
     8
280
     0
  0
ATTDEF
  5
198
330
182
100
AcDbEntity
  8
AM_6
100
AcDbText
 10
5.21375
 20
-5.562499999999999
 30
0.0
 40
0.5
  1
4-1/16
100
AcDbAttributeDefinition
  3

  2
L
 70
     8
280
     0
  0
ATTDEF
  5
199
330
182
100
AcDbEntity
  8
AM_6
100
AcDbText
 10
5.21375
 20
-6.062499999999999
 30
0.0
 40
0.5
  1
4.00
100
AcDbAttributeDefinition
  3

  2
AINS
 70
     8
280
     0
  0
ATTDEF
  5
19A
330
182
100
AcDbEntity
  8
AM_6
100
AcDbText
 10
5.21375
 20
-6.562499999999999
 30
0.0
 40
0.5
  1
4.12
100
AcDbAttributeDefinition
  3

  2
BORE
 70
     8
280
     0
  0
ATTDEF
  5
19B
330
182
100
AcDbEntity
  8
AM_6
100
AcDbText
 10
5.21375
 20
-7.062499999999999
 30
0.0
 40
0.5
  1
baldor
100
AcDbAttributeDefinition
  3

  2
COMPANY
 70
     8
280
     0
  0
LINE
  5
19C
330
182
100
AcDbEntity
  8
AM_9
100
AcDbLine
 10
-0.8999999999999999
 20
-1.732995509395468
 30
0.0
 11
-0.8999999999999998
 21
-3.4375
 31
0.0
  0
LINE
  5
19D
330
182
100
AcDbEntity
  8
AM_9
100
AcDbLine
 10
-0.8999999999999998
 20
-2.299298072170045
 30
0.0
 11
0.0000000000000001
 21
-2.299298072170045
 31
0.0
  0
LINE
  5
19E
330
182
100
AcDbEntity
  8
AM_9
100
AcDbLine
 10
-0.8999999999999998
 20
3.4375
 30
0.0
 11
-0.8999999999999999
 21
1.732995509395469
 31
0.0
  0
LINE
  5
19F
330
182
100
AcDbEntity
  8
AM_9
100
AcDbLine
 10
-0.8999999999999998
 20
2.299298072170045
 30
0.0
 11
0.0000000000000001
 21
2.299298072170045
 31
0.0
  0
LINE
  5
1A0
330
182
100
AcDbEntity
  8
AM_9
100
AcDbLine
 10
-3.5625
 20
-2.06
 30
0.0
 11
-0.8999999999999997
 21
-2.06
 31
0.0
  0
LINE
  5
1A1
330
182
100
AcDbEntity
  8
AM_9
100
AcDbLine
 10
-0.8999999999999997
 20
2.06
 30
0.0
 11
-3.5625
 21
2.06
 31
0.0
  0
LINE
  5
1A2
330
182
100
AcDbEntity
  8
AM_9
100
AcDbLine
 10
-1.40625
 20
3.310055553659635
 30
0.0
 11
-1.5
 21
3.310055553659635
 31
0.0
  0
LINE
  5
1A3
330
182
100
AcDbEntity
  8
AM_9
100
AcDbLine
 10
-1.40625
 20
-3.310055553659634
 30
0.0
 11
-1.5
 21
-3.310055553659634
 31
0.0
  0
LINE
  5
1A4
330
182
100
AcDbEntity
  8
AM_9
100
AcDbLine
 10
-1.40625
 20
3.4375
 30
0.0
 11
-1.40625
 21
2.564617942725535
 31
0.0
  0
LINE
  5
1A5
330
182
100
AcDbEntity
  8
AM_9
100
AcDbLine
 10
-1.40625
 20
-2.56461794272553
 30
0.0
 11
-1.40625
 21
-3.4375
 31
0.0
  0
LINE
  5
1A6
330
182
100
AcDbEntity
  8
AM_9
100
AcDbLine
 10
-1.40625
 20
2.450770695016716
 30
0.0
 11
-1.5
 21
2.450770695016717
 31
0.0
  0
LINE
  5
1A7
330
182
100
AcDbEntity
  8
AM_9
100
AcDbLine
 10
-1.5
 20
-2.450770695016717
 30
0.0
 11
-1.40625
 21
-2.450770695016717
 31
0.0
  0
LINE
  5
1A8
330
182
100
AcDbEntity
  8
AM_9
100
AcDbLine
 10
-1.5
 20
-2.65625
 30
0.0
 11
-1.40625
 21
-2.65625
 31
0.0
  0
LINE
  5
1A9
330
182
100
AcDbEntity
  8
AM_9
100
AcDbLine
 10
-1.40625
 20
2.65625
 30
0.0
 11
-1.5
 21
2.65625
 31
0.0
  0
LINE
  5
1AA
330
182
100
AcDbEntity
  8
AM_9
100
AcDbLine
 10
-1.5
 20
2.375
 30
0.0
 11
0.0000000000000002
 21
2.375
 31
0.0
  0
LINE
  5
1AB
330
182
100
AcDbEntity
  8
AM_9
100
AcDbLine
 10
0.0000000000000002
 20
3.0
 30
0.0
 11
-1.5
 21
3.0
 31
0.0
  0
LINE
  5
1AC
330
182
100
AcDbEntity
  8
AM_9
100
AcDbLine
 10
-1.5
 20
-3.0
 30
0.0
 11
0.0000000000000002
 21
-3.0
 31
0.0
  0
LINE
  5
1AD
330
182
100
AcDbEntity
  8
AM_9
100
AcDbLine
 10
0.0000000000000002
 20
-2.375
 30
0.0
 11
-1.5
 21
-2.375
 31
0.0
  0
LINE
  5
1AE
330
182
100
AcDbEntity
  8
AM_9
100
AcDbLine
 10
-0.8999999999999998
 20
1.502466689511915
 30
0.0
 11
0.0000000000000001
 21
1.502466689511915
 31
0.0
  0
LINE
  5
1AF
330
182
100
AcDbEntity
  8
AM_9
100
AcDbLine
 10
-0.8999999999999998
 20
-1.502466689511917
 30
0.0
 11
0.0000000000000001
 21
-1.502466689511917
 31
0.0
  0
LINE
  5
1B0
330
182
100
AcDbEntity
  8
AM_7
100
AcDbLine
 10
0.0749999999999998
 20
2.6875
 30
0.0
 11
-1.575
 21
2.6875
 31
0.0
  0
LINE
  5
1B1
330
182
100
AcDbEntity
  8
AM_7
100
AcDbLine
 10
0.0749999999999998
 20
-2.6875
 30
0.0
 11
-1.575
 21
-2.6875
 31
0.0
  0
LINE
  5
1B2
330
182
100
AcDbEntity
  8
AM_7
100
AcDbLine
 10
0.21375
 20
0.0
 30
0.0
 11
-4.48875
 21
0.0
 31
0.0
  0
LINE
  5
1B3
330
182
100
AcDbEntity
  8
AM_4
100
AcDbLine
 10
-2.6875
 20
2.65625
 30
0.0
 11
-1.6875
 21
2.65625
 31
0.0
  0
LINE
  5
1B4
330
182
100
AcDbEntity
  8
AM_4
100
AcDbLine
 10
-2.587500000000001
 20
2.75625
 30
0.0
 11
-1.787500000434642
 21
2.75625
 31
0.0
  0
ARC
  5
1B5
330
182
100
AcDbEntity
  8
AM_4
100
AcDbCircle
 10
-1.787499999999999
 20
2.65625
 30
0.0
 40
0.099999999999999
100
AcDbArc
 50
0.0
 51
90.0
  0
ARC
  5
1B6
330
182
100
AcDbEntity
  8
AM_4
100
AcDbCircle
 10
-2.5875
 20
2.65625
 30
0.0
 40
0.1000000000000001
100
AcDbArc
 50
90.0
 51
180.0
  0
LINE
  5
1B7
330
182
100
AcDbEntity
  8
AM_4
100
AcDbLine
 10
-3.5625
 20
2.46875
 30
0.0
 11
-3.5625
 21
-2.46875
 31
0.0
  0
ARC
  5
1B8
330
182
100
AcDbEntity
  8
AM_4
100
AcDbCircle
 10
-3.375000000000001
 20
-2.46875
 30
0.0
 40
0.1874999999999991
100
AcDbArc
 50
180.0
 51
270.0
  0
ARC
  5
1B9
330
182
100
AcDbEntity
  8
AM_4
100
AcDbCircle
 10
-3.375000000000001
 20
2.46875
 30
0.0
 40
0.1874999999999996
100
AcDbArc
 50
90.0
 51
180.0
  0
LWPOLYLINE
  5
1BA
330
182
100
AcDbEntity
  8
AM_4
100
AcDbPolyline
 90
       38
 70
     0
 43
0.0
 10
-2.6875
 20
2.65625
 10
-2.68580406596011
 20
2.655930779843055
 10
-2.680741464824416
 20
2.654986102623163
 10
-2.672042132782495
 20
2.653383240610655
 10
-2.65988603968422
 20
2.651190795282101
 10
-2.644846819206701
 20
2.648552199749795
 10
-2.626743095050783
 20
2.645486450362162
 10
-2.605051074995455
 20
2.641971343038349
 10
-2.580408700110788
 20
2.638189020734251
 10
-2.553475775063976
 20
2.634312675364047
 10
-2.524041071554934
 20
2.630384754240973
 10
-2.491351444523048
 20
2.626402939981641
 10
-2.456448236640638
 20
2.622593604905668
 10
-2.420343621404533
 20
2.619138052363715
 10
-2.382592040539382
 20
2.616051407518938
 10
-2.342262887079221
 20
2.613354461714763
 10
-2.300757916783993
 20
2.611224122555214
 10
-2.260106141461497
 20
2.609778080953453
 10
-2.218941285173906
 20
2.608956231314237
 10
-2.176316190936473
 20
2.608792074315561
 10
-2.133775144964726
 20
2.609319915715311
 10
-2.093372658004403
 20
2.610465374562224
 10
-2.053617199767451
 20
2.612199966828364
 10
-2.013681608077804
 20
2.61455195915169
 10
-1.974996846622106
 20
2.617407429632526
 10
-1.938627028736997
 20
2.620611601674067
 10
-1.903949316096281
 20
2.624131294894039
 10
-1.87030212567036
 20
2.627980358229482
 10
-1.838909425391415
 20
2.631953542752217
 10
-1.810331422220969
 20
2.635890908360695
 10
-1.784352831838654
 20
2.639733263361378
 10
-1.760530366056716
 20
2.643476201999728
 10
-1.739821584444545
 20
2.646900078630518
 10
-1.722826499891913
 20
2.649827123171974
 10
-1.709048979181325
 20
2.652278160718146
 10
-1.698343821431197
 20
2.65422963618999
 10
-1.691248065631663
 20
2.655547033073283
 10
-1.6875
 20
2.65625
  0
LINE
  5
1BB
330
182
100
AcDbEntity
  8
AM_4
100
AcDbLine
 10
-3.375
 20
-2.65625
 30
0.0
 11
-1.5
 21
-2.65625
 31
0.0
  0
LINE
  5
1BC
330
182
100
AcDbEntity
  8
AM_4
100
AcDbLine
 10
-1.5
 20
2.65625
 30
0.0
 11
-1.6875
 21
2.65625
 31
0.0
  0
LINE
  5
1BD
330
182
100
AcDbEntity
  8
AM_4
100
AcDbLine
 10
-2.6875
 20
2.65625
 30
0.0
 11
-3.375
 21
2.65625
 31
0.0
  0
LINE
  5
1BE
330
182
100
AcDbEntity
  8
AM_4
100
AcDbLine
 10
-3.375
 20
2.65625
 30
0.0
 11
-3.375
 21
-2.65625
 31
0.0
  0
LINE
  5
1BF
330
182
100
AcDbEntity
  8
AM_4
100
AcDbLine
 10
-1.5
 20
1.02439595027864
 30
0.0
 11
-1.40625
 21
1.02439595027864
 31
0.0
  0
LINE
  5
1C0
330
182
100
AcDbEntity
  8
AM_4
100
AcDbLine
 10
-1.40625
 20
-1.024395950278641
 30
0.0
 11
-1.5
 21
-1.024395950278641
 31
0.0
  0
LINE
  5
1C1
330
182
100
AcDbEntity
  8
AM_4
100
AcDbLine
 10
-1.40625
 20
2.251581908373204
 30
0.0
 11
-1.5
 21
2.251581908373204
 31
0.0
  0
LINE
  5
1C2
330
182
100
AcDbEntity
  8
AM_4
100
AcDbLine
 10
-0.8999999999999998
 20
1.219350796652066
 30
0.0
 11
0.0000000000000002
 21
1.219350796652066
 31
0.0
  0
LINE
  5
1C3
330
182
100
AcDbEntity
  8
AM_4
100
AcDbLine
 10
0.0000000000000002
 20
-1.219350796652066
 30
0.0
 11
-0.8999999999999998
 21
-1.219350796652066
 31
0.0
  0
LINE
  5
1C4
330
182
100
AcDbEntity
  8
AM_4
100
AcDbLine
 10
-1.40625
 20
-2.251581908373204
 30
0.0
 11
-1.5
 21
-2.251581908373204
 31
0.0
  0
LINE
  5
1C5
330
182
100
AcDbEntity
  8
AM_4
100
AcDbLine
 10
-1.5
 20
1.02439595027864
 30
0.0
 11
-1.5
 21
3.437500000000001
 31
0.0
  0
LINE
  5
1C6
330
182
100
AcDbEntity
  8
AM_4
100
AcDbLine
 10
0.0000000000000002
 20
1.219350796652066
 30
0.0
 11
0.0000000000000002
 21
3.437500000000001
 31
0.0
  0
LINE
  5
1C7
330
182
100
AcDbEntity
  8
AM_4
100
AcDbLine
 10
-1.5
 20
3.437500000000001
 30
0.0
 11
0.0000000000000002
 21
3.437500000000001
 31
0.0
  0
LINE
  5
1C8
330
182
100
AcDbEntity
  8
AM_4
100
AcDbLine
 10
0.0000000000000002
 20
-1.732995509395468
 30
0.0
 11
-0.8999999999999997
 21
-1.732995509395468
 31
0.0
  0
LINE
  5
1C9
330
182
100
AcDbEntity
  8
AM_4
100
AcDbLine
 10
-0.8999999999999997
 20
-1.732995509395468
 30
0.0
 11
-0.8999999999999997
 21
1.732995509395469
 31
0.0
  0
LINE
  5
1CA
330
182
100
AcDbEntity
  8
AM_4
100
AcDbLine
 10
-0.8999999999999997
 20
1.732995509395469
 30
0.0
 11
0.0000000000000002
 21
1.732995509395469
 31
0.0
  0
LINE
  5
1CB
330
182
100
AcDbEntity
  8
AM_4
100
AcDbLine
 10
-1.5
 20
2.6875
 30
0.0
 11
0.0000000000000002
 21
2.6875
 31
0.0
  0
LINE
  5
1CC
330
182
100
AcDbEntity
  8
AM_4
100
AcDbLine
 10
-1.40625
 20
2.564617942725535
 30
0.0
 11
-1.5
 21
2.564617942725535
 31
0.0
  0
LINE
  5
1CD
330
182
100
AcDbEntity
  8
AM_4
100
AcDbLine
 10
-1.40625
 20
-2.56461794272553
 30
0.0
 11
-1.40625
 21
2.564617942725535
 31
0.0
  0
LINE
  5
1CE
330
182
100
AcDbEntity
  8
AM_4
100
AcDbLine
 10
-1.5
 20
-2.56461794272553
 30
0.0
 11
-1.40625
 21
-2.56461794272553
 31
0.0
  0
LINE
  5
1CF
330
182
100
AcDbEntity
  8
AM_4
100
AcDbLine
 10
0.0000000000000002
 20
-3.4375
 30
0.0
 11
0.0000000000000002
 21
-1.219350796652066
 31
0.0
  0
LINE
  5
1D0
330
182
100
AcDbEntity
  8
AM_4
100
AcDbLine
 10
-1.5
 20
-2.687499999999999
 30
0.0
 11
0.0000000000000002
 21
-2.687499999999999
 31
0.0
  0
LINE
  5
1D1
330
182
100
AcDbEntity
  8
AM_4
100
AcDbLine
 10
-1.5
 20
-3.4375
 30
0.0
 11
-1.5
 21
-1.024395950278641
 31
0.0
  0
LINE
  5
1D2
330
182
100
AcDbEntity
  8
AM_4
100
AcDbLine
 10
-1.5
 20
-3.4375
 30
0.0
 11
0.0000000000000002
 21
-3.4375
 31
0.0
  0
ENDBLK
  5
185
330
182
100
AcDbEntity
  8
0
100
AcDbBlockEnd
  0
ENDSEC
  0
SECTION
  2
ENTITIES
  0
INSERT
  5
6F
330
1F
100
AcDbEntity
  8
0
100
AcDbBlockReference
  2
1_023107_2
 10
0.0
 20
0.0
 30
0.0
  0
POINT
  5
1D4
330
1F
100
AcDbEntity
  8
ConnectionPoints
100
AcDbPoint
 10
-4.1875
 20
0.0
 30
0.0000000000000003
  0
POINT
  5
1D5
330
1F
100
AcDbEntity
  8
ConnectionPoints
100
AcDbPoint
 10
-4.1875
 20
0.0
 30
0.0000000000000003
  0
POINT
  5
1D6
330
1F
100
AcDbEntity
  8
ConnectionPoints
100
AcDbPoint
 10
-0.1875
 20
0.0
 30
0.0
  0
POINT
  5
1D7
330
1F
100
AcDbEntity
  8
ConnectionPoints
100
AcDbPoint
 10
-2.1875
 20
0.0
 30
0.0000000000000001
  0
POINT
  5
1D8
330
1F
100
AcDbEntity
  8
ConnectionPoints
100
AcDbPoint
 10
-2.1875
 20
2.75625
 30
0.0000000000000001
  0
POINT
  5
1D9
330
1F
100
AcDbEntity
  8
ConnectionPoints
100
AcDbPoint
 10
-2.1875
 20
2.75625
 30
0.0000000000000001
  0
POINT
  5
1DA
330
1F
100
AcDbEntity
  8
ConnectionPoints
100
AcDbPoint
 10
-2.1875
 20
0.0
 30
0.0000000000000001
  0
ENDSEC
  0
SECTION
  2
OBJECTS
  0
DICTIONARY
  5
C
330
0
100
AcDbDictionary
281
     1
  3
ACAD_DETAILVIEWSTYLE
350
1E2
  3
ACAD_GROUP
350
D
  3
ACAD_LAYOUT
350
1A
  3
ACAD_MATERIAL
350
43
  3
ACAD_MLEADERSTYLE
350
6B
  3
ACAD_MLINESTYLE
350
17
  3
ACAD_PLOTSETTINGS
350
19
  3
ACAD_PLOTSTYLENAME
350
E
  3
ACAD_SCALELIST
350
47
  3
ACAD_SECTIONVIEWSTYLE
350
1E3
  3
ACAD_TABLESTYLE
350
69
  3
ACAD_VISUALSTYLE
350
2A
  3
ACDB_RECOMPOSE_DATA
350
1DF
  3
AcDbVariableDictionary
350
1DB
  0
SUN
  5
6D
330
29
100
AcDbSun
 90
        1
290
     0
 63
     7
421
 16777215
 40
1.0
291
     1
 91
  2455826
 92
 54000000
292
     0
 70
     2
 71
   256
280
     1
  0
DICTIONARY
  5
1E2
102
{ACAD_REACTORS
330
C
102
}
330
C
100
AcDbDictionary
281
     1
  0
DICTIONARY
  5
D
102
{ACAD_REACTORS
330
C
102
}
330
C
100
AcDbDictionary
281
     1
  0
DICTIONARY
  5
1A
102
{ACAD_REACTORS
330
C
102
}
330
C
100
AcDbDictionary
281
     1
  3
Layout1
350
1E
  3
Layout2
350
26
  3
Model
350
22
  0
DICTIONARY
  5
43
102
{ACAD_REACTORS
330
C
102
}
330
C
100
AcDbDictionary
281
     1
  3
ByBlock
350
45
  3
ByLayer
350
44
  3
Global
350
46
  0
DICTIONARY
  5
6B
102
{ACAD_REACTORS
330
C
102
}
330
C
100
AcDbDictionary
281
     1
  3
Standard
350
6C
  0
DICTIONARY
  5
17
102
{ACAD_REACTORS
330
C
102
}
330
C
100
AcDbDictionary
281
     1
  3
Standard
350
18
  0
DICTIONARY
  5
19
102
{ACAD_REACTORS
330
C
102
}
330
C
100
AcDbDictionary
281
     1
  0
ACDBDICTIONARYWDFLT
  5
E
102
{ACAD_REACTORS
330
C
102
}
330
C
100
AcDbDictionary
281
     1
  3
Normal
350
F
100
AcDbDictionaryWithDefault
340
F
  0
DICTIONARY
  5
47
102
{ACAD_REACTORS
330
C
102
}
330
C
100
AcDbDictionary
281
     1
  3
A0
350
48
  3
A1
350
49
  3
A2
350
4A
  3
A3
350
4B
  3
A4
350
4C
  3
A5
350
4D
  3
A6
350
4E
  3
A7
350
4F
  3
A8
350
50
  3
A9
350
51
  3
B0
350
52
  3
B1
350
53
  3
B2
350
54
  3
B3
350
55
  3
B4
350
56
  3
B5
350
57
  3
B6
350
58
  3
B7
350
59
  3
B8
350
5A
  3
B9
350
5B
  3
C0
350
5C
  3
C1
350
5D
  3
C2
350
5E
  3
C3
350
5F
  3
C4
350
60
  3
C5
350
61
  3
C6
350
62
  3
C7
350
63
  3
C8
350
64
  3
C9
350
65
  3
D0
350
66
  3
D1
350
67
  3
D2
350
68
  0
DICTIONARY
  5
1E3
102
{ACAD_REACTORS
330
C
102
}
330
C
100
AcDbDictionary
281
     1
  0
DICTIONARY
  5
69
102
{ACAD_REACTORS
330
C
102
}
330
C
100
AcDbDictionary
281
     1
  3
Standard
350
6A
  0
DICTIONARY
  5
2A
102
{ACAD_REACTORS
330
C
102
}
330
C
100
AcDbDictionary
281
     1
  3
2dWireframe
350
2F
  3
Basic
350
32
  3
Brighten
350
36
  3
ColorChange
350
3A
  3
Conceptual
350
34
  3
Dim
350
35
  3
EdgeColorOff
350
3D
  3
Facepattern
350
39
  3
Flat
350
2B
  3
FlatWithEdges
350
2C
  3
Gouraud
350
2D
  3
GouraudWithEdges
350
2E
  3
Hidden
350
31
  3
JitterOff
350
3B
  3
Linepattern
350
38
  3
OverhangOff
350
3C
  3
Realistic
350
33
  3
Shaded
350
42
  3
Shaded with edges
350
41
  3
Shades of Gray
350
3E
  3
Sketchy
350
3F
  3
Thicken
350
37
  3
Wireframe
350
30
  3
X-Ray
350
40
  0
XRECORD
  5
1DF
102
{ACAD_REACTORS
330
C
102
}
330
C
100
AcDbXrecord
280
     1
 90
        1
330
6A
  0
DICTIONARY
  5
1DB
102
{ACAD_REACTORS
330
C
102
}
330
C
100
AcDbDictionary
281
     1
  3
CANNOSCALE
350
1DC
  3
CMLEADERSTYLE
350
1E1
  3
CTABLESTYLE
350
1E0
  0
LAYOUT
  5
1E
102
{ACAD_REACTORS
330
1A
102
}
330
1A
100
AcDbPlotSettings
  1

  2
none_device
  4

  6

 40
0.0
 41
0.0
 42
0.0
 43
0.0
 44
0.0
 45
0.0
 46
0.0
 47
0.0
 48
0.0
 49
0.0
140
0.0
141
0.0
142
1.0
143
1.0
 70
   688
 72
     0
 73
     0
 74
     5
  7

 75
    16
 76
     0
 77
     2
 78
   300
147
1.0
148
0.0
149
0.0
100
AcDbLayout
  1
Layout1
 70
     1
 71
     1
 10
0.0
 20
0.0
 11
12.0
 21
9.0
 12
0.0
 22
0.0
 32
0.0
 14
1.000000000000000E+20
 24
1.000000000000000E+20
 34
1.000000000000000E+20
 15
-1.000000000000000E+20
 25
-1.000000000000000E+20
 35
-1.000000000000000E+20
146
0.0
 13
0.0
 23
0.0
 33
0.0
 16
1.0
 26
0.0
 36
0.0
 17
0.0
 27
1.0
 37
0.0
 76
     0
330
1B
  0
LAYOUT
  5
26
102
{ACAD_REACTORS
330
1A
102
}
330
1A
100
AcDbPlotSettings
  1

  2
none_device
  4

  6

 40
0.0
 41
0.0
 42
0.0
 43
0.0
 44
0.0
 45
0.0
 46
0.0
 47
0.0
 48
0.0
 49
0.0
140
0.0
141
0.0
142
1.0
143
1.0
 70
   688
 72
     0
 73
     0
 74
     5
  7

 75
    16
 76
     0
 77
     2
 78
   300
147
1.0
148
0.0
149
0.0
100
AcDbLayout
  1
Layout2
 70
     1
 71
     2
 10
0.0
 20
0.0
 11
0.0
 21
0.0
 12
0.0
 22
0.0
 32
0.0
 14
0.0
 24
0.0
 34
0.0
 15
0.0
 25
0.0
 35
0.0
146
0.0
 13
0.0
 23
0.0
 33
0.0
 16
1.0
 26
0.0
 36
0.0
 17
0.0
 27
1.0
 37
0.0
 76
     0
330
23
  0
LAYOUT
  5
22
102
{ACAD_REACTORS
330
1A
102
}
330
1A
100
AcDbPlotSettings
  1

  2
none_device
  4
Letter_(8.50_x_11.00_Inches)
  6

 40
6.35
 41
6.35
 42
6.35000508
 43
6.35000508
 44
215.9
 45
279.4
 46
0.0
 47
0.0
 48
0.0
 49
0.0
140
0.0
141
0.0
142
1.0
143
1.0
 70
  1712
 72
     0
 73
     0
 74
     0
  7

 75
     0
 76
     0
 77
     2
 78
   300
147
1.0
148
0.0
149
0.0
100
AcDbLayout
  1
Model
 70
     1
 71
     0
 10
0.0
 20
0.0
 11
12.0
 21
9.0
 12
0.0
 22
0.0
 32
0.0
 14
1.000000000000000E+20
 24
1.000000000000000E+20
 34
1.000000000000000E+20
 15
-1.000000000000000E+20
 25
-1.000000000000000E+20
 35
-1.000000000000000E+20
146
0.0
 13
0.0
 23
0.0
 33
0.0
 16
1.0
 26
0.0
 36
0.0
 17
0.0
 27
1.0
 37
0.0
 76
     0
330
1F
331
29
  0
MATERIAL
  5
45
102
{ACAD_REACTORS
330
43
102
}
330
43
100
AcDbMaterial
  1
ByBlock
 72
     1
 94
      127
  0
MATERIAL
  5
44
102
{ACAD_REACTORS
330
43
102
}
330
43
100
AcDbMaterial
  1
ByLayer
 72
     1
 94
      127
  0
MATERIAL
  5
46
102
{ACAD_REACTORS
330
43
102
}
330
43
100
AcDbMaterial
  1
Global
 72
     1
 94
      127
  0
MLEADERSTYLE
  5
6C
102
{ACAD_REACTORS
330
6B
102
}
330
6B
100
AcDbMLeaderStyle
179
     2
170
     2
171
     1
172
     0
 90
        2
 40
0.0
 41
0.0
173
     1
 91
-1056964608
340
14
 92
       -2
290
     1
 42
0.09
291
     1
 43
0.36
  3
Standard
341
0
 44
0.18
300

342
11
174
     1
178
     6
175
     1
176
     0
 93
-1056964608
 45
0.18
292
     0
297
     0
 46
0.18
343
0
 94
-1056964608
 47
1.0
 49
1.0
140
1.0
293
     1
141
0.0
294
     1
177
     0
142
1.0
295
     0
296
     0
143
0.125
271
     0
272
     9
273
     9
298
     0
  0
MLINESTYLE
  5
18
102
{ACAD_REACTORS
330
17
102
}
330
17
100
AcDbMlineStyle
  2
Standard
 70
     0
  3

 62
   256
 51
90.0
 52
90.0
 71
     2
 49
0.5
 62
   256
  6
BYLAYER
 49
-0.5
 62
   256
  6
BYLAYER
  0
ACDBPLACEHOLDER
  5
F
102
{ACAD_REACTORS
330
E
102
}
330
E
  0
SCALE
  5
48
102
{ACAD_REACTORS
330
47
102
}
330
47
100
AcDbScale
 70
     0
300
1:1
140
1.0
141
1.0
290
     1
  0
SCALE
  5
49
102
{ACAD_REACTORS
330
47
102
}
330
47
100
AcDbScale
 70
     0
300
1:2
140
1.0
141
2.0
290
     0
  0
SCALE
  5
4A
102
{ACAD_REACTORS
330
47
102
}
330
47
100
AcDbScale
 70
     0
300
1:4
140
1.0
141
4.0
290
     0
  0
SCALE
  5
4B
102
{ACAD_REACTORS
330
47
102
}
330
47
100
AcDbScale
 70
     0
300
1:5
140
1.0
141
5.0
290
     0
  0
SCALE
  5
4C
102
{ACAD_REACTORS
330
47
102
}
330
47
100
AcDbScale
 70
     0
300
1:8
140
1.0
141
8.0
290
     0
  0
SCALE
  5
4D
102
{ACAD_REACTORS
330
47
102
}
330
47
100
AcDbScale
 70
     0
300
1:10
140
1.0
141
10.0
290
     0
  0
SCALE
  5
4E
102
{ACAD_REACTORS
330
47
102
}
330
47
100
AcDbScale
 70
     0
300
1:16
140
1.0
141
16.0
290
     0
  0
SCALE
  5
4F
102
{ACAD_REACTORS
330
47
102
}
330
47
100
AcDbScale
 70
     0
300
1:20
140
1.0
141
20.0
290
     0
  0
SCALE
  5
50
102
{ACAD_REACTORS
330
47
102
}
330
47
100
AcDbScale
 70
     0
300
1:30
140
1.0
141
30.0
290
     0
  0
SCALE
  5
51
102
{ACAD_REACTORS
330
47
102
}
330
47
100
AcDbScale
 70
     0
300
1:40
140
1.0
141
40.0
290
     0
  0
SCALE
  5
52
102
{ACAD_REACTORS
330
47
102
}
330
47
100
AcDbScale
 70
     0
300
1:50
140
1.0
141
50.0
290
     0
  0
SCALE
  5
53
102
{ACAD_REACTORS
330
47
102
}
330
47
100
AcDbScale
 70
     0
300
1:100
140
1.0
141
100.0
290
     0
  0
SCALE
  5
54
102
{ACAD_REACTORS
330
47
102
}
330
47
100
AcDbScale
 70
     0
300
2:1
140
2.0
141
1.0
290
     0
  0
SCALE
  5
55
102
{ACAD_REACTORS
330
47
102
}
330
47
100
AcDbScale
 70
     0
300
4:1
140
4.0
141
1.0
290
     0
  0
SCALE
  5
56
102
{ACAD_REACTORS
330
47
102
}
330
47
100
AcDbScale
 70
     0
300
8:1
140
8.0
141
1.0
290
     0
  0
SCALE
  5
57
102
{ACAD_REACTORS
330
47
102
}
330
47
100
AcDbScale
 70
     0
300
10:1
140
10.0
141
1.0
290
     0
  0
SCALE
  5
58
102
{ACAD_REACTORS
330
47
102
}
330
47
100
AcDbScale
 70
     0
300
100:1
140
100.0
141
1.0
290
     0
  0
SCALE
  5
59
102
{ACAD_REACTORS
330
47
102
}
330
47
100
AcDbScale
 70
     0
300
1/128" = 1'-0"
140
0.0078125
141
12.0
290
     0
  0
SCALE
  5
5A
102
{ACAD_REACTORS
330
47
102
}
330
47
100
AcDbScale
 70
     0
300
1/64" = 1'-0"
140
0.015625
141
12.0
290
     0
  0
SCALE
  5
5B
102
{ACAD_REACTORS
330
47
102
}
330
47
100
AcDbScale
 70
     0
300
1/32" = 1'-0"
140
0.03125
141
12.0
290
     0
  0
SCALE
  5
5C
102
{ACAD_REACTORS
330
47
102
}
330
47
100
AcDbScale
 70
     0
300
1/16" = 1'-0"
140
0.0625
141
12.0
290
     0
  0
SCALE
  5
5D
102
{ACAD_REACTORS
330
47
102
}
330
47
100
AcDbScale
 70
     0
300
3/32" = 1'-0"
140
0.09375
141
12.0
290
     0
  0
SCALE
  5
5E
102
{ACAD_REACTORS
330
47
102
}
330
47
100
AcDbScale
 70
     0
300
1/8" = 1'-0"
140
0.125
141
12.0
290
     0
  0
SCALE
  5
5F
102
{ACAD_REACTORS
330
47
102
}
330
47
100
AcDbScale
 70
     0
300
3/16" = 1'-0"
140
0.1875
141
12.0
290
     0
  0
SCALE
  5
60
102
{ACAD_REACTORS
330
47
102
}
330
47
100
AcDbScale
 70
     0
300
1/4" = 1'-0"
140
0.25
141
12.0
290
     0
  0
SCALE
  5
61
102
{ACAD_REACTORS
330
47
102
}
330
47
100
AcDbScale
 70
     0
300
3/8" = 1'-0"
140
0.375
141
12.0
290
     0
  0
SCALE
  5
62
102
{ACAD_REACTORS
330
47
102
}
330
47
100
AcDbScale
 70
     0
300
1/2" = 1'-0"
140
0.5
141
12.0
290
     0
  0
SCALE
  5
63
102
{ACAD_REACTORS
330
47
102
}
330
47
100
AcDbScale
 70
     0
300
3/4" = 1'-0"
140
0.75
141
12.0
290
     0
  0
SCALE
  5
64
102
{ACAD_REACTORS
330
47
102
}
330
47
100
AcDbScale
 70
     0
300
1" = 1'-0"
140
1.0
141
12.0
290
     0
  0
SCALE
  5
65
102
{ACAD_REACTORS
330
47
102
}
330
47
100
AcDbScale
 70
     0
300
1-1/2" = 1'-0"
140
1.5
141
12.0
290
     0
  0
SCALE
  5
66
102
{ACAD_REACTORS
330
47
102
}
330
47
100
AcDbScale
 70
     0
300
3" = 1'-0"
140
3.0
141
12.0
290
     0
  0
SCALE
  5
67
102
{ACAD_REACTORS
330
47
102
}
330
47
100
AcDbScale
 70
     0
300
6" = 1'-0"
140
6.0
141
12.0
290
     0
  0
SCALE
  5
68
102
{ACAD_REACTORS
330
47
102
}
330
47
100
AcDbScale
 70
     0
300
1'-0" = 1'-0"
140
12.0
141
12.0
290
     0
  0
TABLESTYLE
  5
6A
102
{ACAD_REACTORS
330
69
102
}
102
{ACAD_XDICTIONARY
360
1DD
102
}
330
69
100
AcDbTableStyle
  3
Standard
 70
     0
 71
     0
 40
0.06
 41
0.06
280
     0
281
     0
  7
Standard
140
0.18
170
     2
 62
     0
 63
   257
283
     0
 90
        4
 91
        0
  1

274
    -2
284
     1
 64
     0
275
    -2
285
     1
 65
     0
276
    -2
286
     1
 66
     0
277
    -2
287
     1
 67
     0
278
    -2
288
     1
 68
     0
279
    -2
289
     1
 69
     0
  7
Standard
140
0.25
170
     5
 62
     0
 63
   257
283
     0
 90
        4
 91
        0
  1

274
    -2
284
     1
 64
     0
275
    -2
285
     1
 65
     0
276
    -2
286
     1
 66
     0
277
    -2
287
     1
 67
     0
278
    -2
288
     1
 68
     0
279
    -2
289
     1
 69
     0
  7
Standard
140
0.18
170
     5
 62
     0
 63
   257
283
     0
 90
        4
 91
        0
  1

274
    -2
284
     1
 64
     0
275
    -2
285
     1
 65
     0
276
    -2
286
     1
 66
     0
277
    -2
287
     1
 67
     0
278
    -2
288
     1
 68
     0
279
    -2
289
     1
 69
     0
  0
VISUALSTYLE
  5
2F
102
{ACAD_REACTORS
330
2A
102
}
330
2A
100
AcDbVisualStyle
  2
2dWireframe
 70
     4
177
     3
291
     0
 70
    58
 90
        0
176
     1
 90
        2
176
     1
 90
        0
176
     1
 90
        0
176
     1
 40
0.6
176
     1
 40
30.0
176
     1
 62
     7
420
 16777215
176
     1
 90
        1
176
     1
 90
        4
176
     1
 62
     7
176
     1
 62
   257
176
     1
 90
        1
176
     1
 90
        1
176
     1
 40
1.0
176
     1
 90
        0
176
     1
 62
   257
176
     1
 40
1.0
176
     1
 90
        1
176
     1
 90
        6
176
     1
 90
        2
176
     1
 62
     7
176
     1
 90
        5
176
     1
 90
        0
176
     1
 90
        0
176
     1
290
     0
176
     1
 90
        1
176
     1
 40
0.0
176
     1
 90
        0
176
     1
290
     1
176
     1
290
     1
176
     1
290
     0
176
     1
290
     0
176
     1
290
     0
176
     1
290
     0
176
     1
290
     0
176
     1
290
     0
176
     1
290
     0
176
     1
 90
       50
176
     1
 40
0.0
176
     1
 40
1.0
176
     1
 90
        0
176
     1
 62
    18
420
        0
176
     1
 90
       50
176
     1
 90
        3
176
     1
 62
     5
420
      255
176
     1
290
     0
176
     1
 90
       50
176
     1
 90
       50
176
     1
 90
       50
176
     1
290
     0
176
     1
 90
       50
176
     1
 62
   256
176
     0
 40
1.0
176
     0
 90
        2
176
     1
  1
strokes_ogs.tif
176
     1
290
     0
176
     1
 40
1.0
176
     1
 40
1.0
176
     1
  0
VISUALSTYLE
  5
32
102
{ACAD_REACTORS
330
2A
102
}
330
2A
100
AcDbVisualStyle
  2
Basic
 70
     7
177
     3
291
     1
 70
    58
 90
        1
176
     1
 90
        0
176
     1
 90
        1
176
     1
 90
        0
176
     1
 40
0.6
176
     1
 40
30.0
176
     1
 62
     7
420
 16777215
176
     1
 90
        0
176
     1
 90
        4
176
     1
 62
     7
176
     1
 62
   257
176
     1
 90
        1
176
     1
 90
        1
176
     1
 40
1.0
176
     1
 90
        8
176
     1
 62
     7
176
     1
 40
1.0
176
     1
 90
        1
176
     1
 90
        6
176
     1
 90
        2
176
     1
 62
     7
176
     1
 90
        5
176
     1
 90
        0
176
     1
 90
        0
176
     1
290
     0
176
     1
 90
        1
176
     1
 40
0.0
176
     1
 90
        0
176
     1
290
     0
176
     1
290
     1
176
     1
290
     1
176
     1
290
     0
176
     1
290
     0
176
     1
290
     0
176
     1
290
     0
176
     1
290
     0
176
     1
290
     0
176
     1
 90
       50
176
     1
 40
0.0
176
     1
 40
1.0
176
     1
 90
        0
176
     1
 62
    18
420
        0
176
     1
 90
       50
176
     1
 90
        3
176
     1
 62
     5
420
      255
176
     1
290
     0
176
     1
 90
       50
176
     1
 90
       50
176
     1
 90
       50
176
     1
290
     0
176
     1
 90
       50
176
     1
 62
   256
176
     0
 40
1.0
176
     0
 90
        2
176
     1
  1
strokes_ogs.tif
176
     1
290
     0
176
     1
 40
1.0
176
     1
 40
1.0
176
     1
  0
VISUALSTYLE
  5
36
102
{ACAD_REACTORS
330
2A
102
}
330
2A
100
AcDbVisualStyle
  2
Brighten
 70
    12
177
     3
291
     1
 70
    58
 90
        2
176
     1
 90
        2
176
     1
 90
        0
176
     1
 90
        0
176
     1
 40
0.6
176
     1
 40
30.0
176
     1
 62
     7
420
 16777215
176
     1
 90
        1
176
     1
 90
        4
176
     1
 62
     7
176
     1
 62
   257
176
     1
 90
        1
176
     1
 90
        1
176
     1
 40
1.0
176
     1
 90
        8
176
     1
 62
     7
176
     1
 40
1.0
176
     1
 90
        1
176
     1
 90
        6
176
     1
 90
        2
176
     1
 62
     7
176
     1
 90
        5
176
     1
 90
        0
176
     1
 90
        0
176
     1
290
     0
176
     1
 90
        1
176
     1
 40
50.0
176
     1
 90
        0
176
     1
290
     0
176
     1
290
     1
176
     1
290
     1
176
     1
290
     0
176
     1
290
     0
176
     1
290
     0
176
     1
290
     0
176
     1
290
     0
176
     1
290
     0
176
     1
 90
       50
176
     1
 40
0.0
176
     1
 40
1.0
176
     1
 90
        0
176
     1
 62
    18
420
        0
176
     1
 90
       50
176
     1
 90
        3
176
     1
 62
     5
420
      255
176
     1
290
     0
176
     1
 90
       50
176
     1
 90
       50
176
     1
 90
       50
176
     1
290
     0
176
     1
 90
       50
176
     1
 62
   256
176
     0
 40
1.0
176
     0
 90
        2
176
     1
  1
strokes_ogs.tif
176
     1
290
     0
176
     1
 40
1.0
176
     1
 40
1.0
176
     1
  0
VISUALSTYLE
  5
3A
102
{ACAD_REACTORS
330
2A
102
}
330
2A
100
AcDbVisualStyle
  2
ColorChange
 70
    16
177
     3
291
     1
 70
    58
 90
        2
176
     1
 90
        2
176
     1
 90
        3
176
     1
 90
        0
176
     1
 40
0.6
176
     1
 40
30.0
176
     1
 62
     8
420
  8421504
176
     1
 90
        1
176
     1
 90
        4
176
     1
 62
     7
176
     1
 62
   257
176
     1
 90
        1
176
     1
 90
        1
176
     1
 40
1.0
176
     1
 90
        8
176
     1
 62
     8
420
  8421504
176
     1
 40
1.0
176
     1
 90
        1
176
     1
 90
        6
176
     1
 90
        2
176
     1
 62
     7
176
     1
 90
        5
176
     1
 90
        0
176
     1
 90
        0
176
     1
290
     0
176
     1
 90
        1
176
     1
 40
0.0
176
     1
 90
        0
176
     1
290
     0
176
     1
290
     1
176
     1
290
     1
176
     1
290
     0
176
     1
290
     0
176
     1
290
     0
176
     1
290
     0
176
     1
290
     0
176
     1
290
     0
176
     1
 90
       50
176
     1
 40
0.0
176
     1
 40
1.0
176
     1
 90
        0
176
     1
 62
    18
420
        0
176
     1
 90
       50
176
     1
 90
        3
176
     1
 62
     5
420
      255
176
     1
290
     0
176
     1
 90
       50
176
     1
 90
       50
176
     1
 90
       50
176
     1
290
     0
176
     1
 90
       50
176
     1
 62
   256
176
     0
 40
1.0
176
     0
 90
        2
176
     1
  1
strokes_ogs.tif
176
     1
290
     0
176
     1
 40
1.0
176
     1
 40
1.0
176
     1
  0
VISUALSTYLE
  5
34
102
{ACAD_REACTORS
330
2A
102
}
330
2A
100
AcDbVisualStyle
  2
Conceptual
 70
     9
177
     3
291
     0
 70
    58
 90
        3
176
     1
 90
        2
176
     1
 90
        0
176
     1
 90
        0
176
     1
 40
0.6
176
     1
 40
30.0
176
     1
 62
     7
420
 16777215
176
     1
 90
        2
176
     1
 90
        2
176
     1
 62
     7
176
     1
 62
   257
176
     1
 90
        1
176
     1
 90
        1
176
     1
 40
179.0
176
     1
 90
        8
176
     1
 62
     7
176
     1
 40
1.0
176
     1
 90
        1
176
     1
 90
        6
176
     1
 90
        2
176
     1
 62
     7
176
     1
 90
        3
176
     1
 90
        0
176
     1
 90
        0
176
     1
290
     0
176
     1
 90
        1
176
     1
 40
0.0
176
     1
 90
        0
176
     1
290
     0
176
     1
290
     1
176
     1
290
     1
176
     1
290
     0
176
     1
290
     0
176
     1
290
     0
176
     1
290
     0
176
     1
290
     0
176
     1
290
     0
176
     1
 90
       50
176
     1
 40
0.0
176
     1
 40
1.0
176
     1
 90
        0
176
     1
 62
    18
420
        0
176
     1
 90
       50
176
     1
 90
        3
176
     1
 62
     5
420
      255
176
     1
290
     0
176
     1
 90
       50
176
     1
 90
       50
176
     1
 90
       50
176
     1
290
     0
176
     1
 90
       50
176
     1
 62
   256
176
     0
 40
1.0
176
     0
 90
        2
176
     1
  1
strokes_ogs.tif
176
     1
290
     0
176
     1
 40
1.0
176
     1
 40
1.0
176
     1
  0
VISUALSTYLE
  5
35
102
{ACAD_REACTORS
330
2A
102
}
330
2A
100
AcDbVisualStyle
  2
Dim
 70
    11
177
     3
291
     1
 70
    58
 90
        2
176
     1
 90
        2
176
     1
 90
        0
176
     1
 90
        0
176
     1
 40
0.6
176
     1
 40
30.0
176
     1
 62
     7
420
 16777215
176
     1
 90
        1
176
     1
 90
        4
176
     1
 62
     7
176
     1
 62
   257
176
     1
 90
        1
176
     1
 90
        1
176
     1
 40
1.0
176
     1
 90
        8
176
     1
 62
     7
176
     1
 40
1.0
176
     1
 90
        1
176
     1
 90
        6
176
     1
 90
        2
176
     1
 62
     7
176
     1
 90
        5
176
     1
 90
        0
176
     1
 90
        0
176
     1
290
     0
176
     1
 90
        1
176
     1
 40
-50.0
176
     1
 90
        0
176
     1
290
     0
176
     1
290
     1
176
     1
290
     1
176
     1
290
     0
176
     1
290
     0
176
     1
290
     0
176
     1
290
     0
176
     1
290
     0
176
     1
290
     0
176
     1
 90
       50
176
     1
 40
0.0
176
     1
 40
1.0
176
     1
 90
        0
176
     1
 62
    18
420
        0
176
     1
 90
       50
176
     1
 90
        3
176
     1
 62
     5
420
      255
176
     1
290
     0
176
     1
 90
       50
176
     1
 90
       50
176
     1
 90
       50
176
     1
290
     0
176
     1
 90
       50
176
     1
 62
   256
176
     0
 40
1.0
176
     0
 90
        2
176
     1
  1
strokes_ogs.tif
176
     1
290
     0
176
     1
 40
1.0
176
     1
 40
1.0
176
     1
  0
VISUALSTYLE
  5
3D
102
{ACAD_REACTORS
330
2A
102
}
330
2A
100
AcDbVisualStyle
  2
EdgeColorOff
 70
    22
177
     3
291
     1
 70
    58
 90
        2
176
     0
 90
        2
176
     0
 90
        0
176
     0
 90
        0
176
     0
 40
0.6
176
     0
 40
30.0
176
     0
 62
     7
420
 16777215
176
     0
 90
        1
176
     0
 90
        4
176
     0
 62
     7
176
     0
 62
   257
176
     0
 90
        1
176
     0
 90
        1
176
     0
 40
1.0
176
     0
 90
        8
176
     2
 62
     7
176
     0
 40
1.0
176
     0
 90
        1
176
     0
 90
        6
176
     0
 90
        2
176
     0
 62
     7
176
     0
 90
        5
176
     0
 90
        0
176
     0
 90
        0
176
     0
290
     0
176
     0
 90
        1
176
     0
 40
0.0
176
     0
 90
        0
176
     0
290
     0
176
     0
290
     1
176
     0
290
     1
176
     0
290
     0
176
     0
290
     0
176
     0
290
     0
176
     0
290
     0
176
     0
290
     0
176
     0
290
     0
176
     0
 90
       50
176
     0
 40
0.0
176
     0
 40
1.0
176
     0
 90
        0
176
     0
 62
    18
420
        0
176
     0
 90
       50
176
     0
 90
        3
176
     0
 62
     5
420
      255
176
     0
290
     0
176
     0
 90
       50
176
     0
 90
       50
176
     0
 90
       50
176
     0
290
     0
176
     0
 90
       50
176
     0
 62
   256
176
     0
 40
1.0
176
     0
 90
        2
176
     0
  1
strokes_ogs.tif
176
     0
290
     0
176
     0
 40
1.0
176
     0
 40
1.0
176
     0
  0
VISUALSTYLE
  5
39
102
{ACAD_REACTORS
330
2A
102
}
330
2A
100
AcDbVisualStyle
  2
Facepattern
 70
    15
177
     3
291
     1
 70
    58
 90
        2
176
     1
 90
        2
176
     1
 90
        0
176
     1
 90
        0
176
     1
 40
0.6
176
     1
 40
30.0
176
     1
 62
     7
420
 16777215
176
     1
 90
        1
176
     1
 90
        4
176
     1
 62
     7
176
     1
 62
   257
176
     1
 90
        1
176
     1
 90
        1
176
     1
 40
1.0
176
     1
 90
        8
176
     1
 62
     7
176
     1
 40
1.0
176
     1
 90
        1
176
     1
 90
        6
176
     1
 90
        2
176
     1
 62
     7
176
     1
 90
        5
176
     1
 90
        0
176
     1
 90
        0
176
     1
290
     0
176
     1
 90
        1
176
     1
 40
0.0
176
     1
 90
        0
176
     1
290
     0
176
     1
290
     1
176
     1
290
     1
176
     1
290
     0
176
     1
290
     0
176
     1
290
     0
176
     1
290
     0
176
     1
290
     0
176
     1
290
     0
176
     1
 90
       50
176
     1
 40
0.0
176
     1
 40
1.0
176
     1
 90
        0
176
     1
 62
    18
420
        0
176
     1
 90
       50
176
     1
 90
        3
176
     1
 62
     5
420
      255
176
     1
290
     0
176
     1
 90
       50
176
     1
 90
       50
176
     1
 90
       50
176
     1
290
     0
176
     1
 90
       50
176
     1
 62
   256
176
     0
 40
1.0
176
     0
 90
        2
176
     1
  1
strokes_ogs.tif
176
     1
290
     0
176
     1
 40
1.0
176
     1
 40
1.0
176
     1
  0
VISUALSTYLE
  5
2B
102
{ACAD_REACTORS
330
2A
102
}
330
2A
100
AcDbVisualStyle
  2
Flat
 70
     0
177
     3
291
     1
 70
    58
 90
        2
176
     1
 90
        1
176
     1
 90
        1
176
     1
 90
        2
176
     1
 40
0.6
176
     1
 40
30.0
176
     1
 62
     7
420
 16777215
176
     1
 90
        0
176
     1
 90
        0
176
     1
 62
     7
176
     1
 62
   257
176
     1
 90
        1
176
     1
 90
        1
176
     1
 40
1.0
176
     1
 90
        8
176
     1
 62
     7
176
     1
 40
1.0
176
     1
 90
        1
176
     1
 90
        6
176
     1
 90
        2
176
     1
 62
     7
176
     1
 90
        5
176
     1
 90
        0
176
     1
 90
        0
176
     1
290
     0
176
     1
 90
       13
176
     1
 40
0.0
176
     1
 90
        0
176
     1
290
     0
176
     1
290
     1
176
     1
290
     1
176
     1
290
     0
176
     1
290
     0
176
     1
290
     0
176
     1
290
     0
176
     1
290
     0
176
     1
290
     0
176
     1
 90
       50
176
     1
 40
0.0
176
     1
 40
1.0
176
     1
 90
        0
176
     1
 62
    18
420
        0
176
     1
 90
       50
176
     1
 90
        3
176
     1
 62
     5
420
      255
176
     1
290
     0
176
     1
 90
       50
176
     1
 90
       50
176
     1
 90
       50
176
     1
290
     0
176
     1
 90
       50
176
     1
 62
   256
176
     0
 40
1.0
176
     0
 90
        2
176
     1
  1
strokes_ogs.tif
176
     1
290
     0
176
     1
 40
1.0
176
     1
 40
1.0
176
     1
  0
VISUALSTYLE
  5
2C
102
{ACAD_REACTORS
330
2A
102
}
330
2A
100
AcDbVisualStyle
  2
FlatWithEdges
 70
     1
177
     3
291
     1
 70
    58
 90
        2
176
     1
 90
        1
176
     1
 90
        1
176
     1
 90
        2
176
     1
 40
0.6
176
     1
 40
30.0
176
     1
 62
     7
420
 16777215
176
     1
 90
        1
176
     1
 90
        0
176
     1
 62
     7
176
     1
 62
   257
176
     1
 90
        1
176
     1
 90
        1
176
     1
 40
1.0
176
     1
 90
        0
176
     1
 62
   257
176
     1
 40
1.0
176
     1
 90
        1
176
     1
 90
        6
176
     1
 90
        2
176
     1
 62
     7
176
     1
 90
        5
176
     1
 90
        0
176
     1
 90
        0
176
     1
290
     0
176
     1
 90
       13
176
     1
 40
0.0
176
     1
 90
        0
176
     1
290
     0
176
     1
290
     1
176
     1
290
     1
176
     1
290
     0
176
     1
290
     0
176
     1
290
     0
176
     1
290
     0
176
     1
290
     0
176
     1
290
     0
176
     1
 90
       50
176
     1
 40
0.0
176
     1
 40
1.0
176
     1
 90
        0
176
     1
 62
    18
420
        0
176
     1
 90
       50
176
     1
 90
        3
176
     1
 62
     5
420
      255
176
     1
290
     0
176
     1
 90
       50
176
     1
 90
       50
176
     1
 90
       50
176
     1
290
     0
176
     1
 90
       50
176
     1
 62
   256
176
     0
 40
1.0
176
     0
 90
        2
176
     1
  1
strokes_ogs.tif
176
     1
290
     0
176
     1
 40
1.0
176
     1
 40
1.0
176
     1
  0
VISUALSTYLE
  5
2D
102
{ACAD_REACTORS
330
2A
102
}
330
2A
100
AcDbVisualStyle
  2
Gouraud
 70
     2
177
     3
291
     1
 70
    58
 90
        2
176
     1
 90
        2
176
     1
 90
        1
176
     1
 90
        2
176
     1
 40
0.6
176
     1
 40
30.0
176
     1
 62
     7
420
 16777215
176
     1
 90
        0
176
     1
 90
        0
176
     1
 62
     7
176
     1
 62
   257
176
     1
 90
        1
176
     1
 90
        1
176
     1
 40
1.0
176
     1
 90
        0
176
     1
 62
     7
176
     1
 40
1.0
176
     1
 90
        1
176
     1
 90
        6
176
     1
 90
        2
176
     1
 62
     7
176
     1
 90
        5
176
     1
 90
        0
176
     1
 90
        0
176
     1
290
     0
176
     1
 90
       13
176
     1
 40
0.0
176
     1
 90
        0
176
     1
290
     0
176
     1
290
     1
176
     1
290
     1
176
     1
290
     0
176
     1
290
     0
176
     1
290
     0
176
     1
290
     0
176
     1
290
     0
176
     1
290
     0
176
     1
 90
       50
176
     1
 40
0.0
176
     1
 40
1.0
176
     1
 90
        0
176
     1
 62
    18
420
        0
176
     1
 90
       50
176
     1
 90
        3
176
     1
 62
     5
420
      255
176
     1
290
     0
176
     1
 90
       50
176
     1
 90
       50
176
     1
 90
       50
176
     1
290
     0
176
     1
 90
       50
176
     1
 62
   256
176
     0
 40
1.0
176
     0
 90
        2
176
     1
  1
strokes_ogs.tif
176
     1
290
     0
176
     1
 40
1.0
176
     1
 40
1.0
176
     1
  0
VISUALSTYLE
  5
2E
102
{ACAD_REACTORS
330
2A
102
}
330
2A
100
AcDbVisualStyle
  2
GouraudWithEdges
 70
     3
177
     3
291
     1
 70
    58
 90
        2
176
     1
 90
        2
176
     1
 90
        1
176
     1
 90
        2
176
     1
 40
0.6
176
     1
 40
30.0
176
     1
 62
     7
420
 16777215
176
     1
 90
        1
176
     1
 90
        0
176
     1
 62
     7
176
     1
 62
   257
176
     1
 90
        1
176
     1
 90
        1
176
     1
 40
1.0
176
     1
 90
        0
176
     1
 62
   257
176
     1
 40
1.0
176
     1
 90
        1
176
     1
 90
        6
176
     1
 90
        2
176
     1
 62
     7
176
     1
 90
        5
176
     1
 90
        0
176
     1
 90
        0
176
     1
290
     0
176
     1
 90
       13
176
     1
 40
0.0
176
     1
 90
        0
176
     1
290
     0
176
     1
290
     1
176
     1
290
     1
176
     1
290
     0
176
     1
290
     0
176
     1
290
     0
176
     1
290
     0
176
     1
290
     0
176
     1
290
     0
176
     1
 90
       50
176
     1
 40
0.0
176
     1
 40
1.0
176
     1
 90
        0
176
     1
 62
    18
420
        0
176
     1
 90
       50
176
     1
 90
        3
176
     1
 62
     5
420
      255
176
     1
290
     0
176
     1
 90
       50
176
     1
 90
       50
176
     1
 90
       50
176
     1
290
     0
176
     1
 90
       50
176
     1
 62
   256
176
     0
 40
1.0
176
     0
 90
        2
176
     1
  1
strokes_ogs.tif
176
     1
290
     0
176
     1
 40
1.0
176
     1
 40
1.0
176
     1
  0
VISUALSTYLE
  5
31
102
{ACAD_REACTORS
330
2A
102
}
330
2A
100
AcDbVisualStyle
  2
Hidden
 70
     6
177
     3
291
     0
 70
    58
 90
        1
176
     1
 90
        2
176
     1
 90
        2
176
     1
 90
        0
176
     1
 40
0.6
176
     1
 40
30.0
176
     1
 62
     7
420
 16777215
176
     1
 90
        2
176
     1
 90
        2
176
     1
 62
     7
176
     1
 62
   257
176
     1
 90
        2
176
     1
 90
        1
176
     1
 40
40.0
176
     1
 90
        0
176
     1
 62
   257
176
     1
 40
1.0
176
     1
 90
        1
176
     1
 90
        6
176
     1
 90
        2
176
     1
 62
     7
176
     1
 90
        3
176
     1
 90
        0
176
     1
 90
        0
176
     1
290
     0
176
     1
 90
        1
176
     1
 40
0.0
176
     1
 90
        0
176
     1
290
     0
176
     1
290
     1
176
     1
290
     1
176
     1
290
     0
176
     1
290
     0
176
     1
290
     0
176
     1
290
     0
176
     1
290
     0
176
     1
290
     0
176
     1
 90
       50
176
     1
 40
0.0
176
     1
 40
1.0
176
     1
 90
        0
176
     1
 62
    18
420
        0
176
     1
 90
       50
176
     1
 90
        3
176
     1
 62
     5
420
      255
176
     1
290
     0
176
     1
 90
       50
176
     1
 90
       50
176
     1
 90
       50
176
     1
290
     0
176
     1
 90
       50
176
     1
 62
   256
176
     0
 40
1.0
176
     0
 90
        2
176
     1
  1
strokes_ogs.tif
176
     1
290
     0
176
     1
 40
1.0
176
     1
 40
1.0
176
     1
  0
VISUALSTYLE
  5
3B
102
{ACAD_REACTORS
330
2A
102
}
330
2A
100
AcDbVisualStyle
  2
JitterOff
 70
    20
177
     3
291
     1
 70
    58
 90
        2
176
     0
 90
        2
176
     0
 90
        0
176
     0
 90
        0
176
     0
 40
0.6
176
     0
 40
30.0
176
     0
 62
     7
420
 16777215
176
     0
 90
        1
176
     0
 90
        4
176
     0
 62
     7
176
     0
 62
   257
176
     0
 90
        1
176
     0
 90
        1
176
     0
 40
1.0
176
     0
 90
       10
176
     2
 62
     7
176
     0
 40
1.0
176
     0
 90
        1
176
     0
 90
        6
176
     0
 90
        2
176
     0
 62
     7
176
     0
 90
        5
176
     0
 90
        0
176
     0
 90
        0
176
     0
290
     0
176
     0
 90
        1
176
     0
 40
0.0
176
     0
 90
        0
176
     0
290
     0
176
     0
290
     1
176
     0
290
     1
176
     0
290
     0
176
     0
290
     0
176
     0
290
     0
176
     0
290
     0
176
     0
290
     0
176
     0
290
     0
176
     0
 90
       50
176
     0
 40
0.0
176
     0
 40
1.0
176
     0
 90
        0
176
     0
 62
    18
420
        0
176
     0
 90
       50
176
     0
 90
        3
176
     0
 62
     5
420
      255
176
     0
290
     0
176
     0
 90
       50
176
     0
 90
       50
176
     0
 90
       50
176
     0
290
     0
176
     0
 90
       50
176
     0
 62
   256
176
     0
 40
1.0
176
     0
 90
        2
176
     0
  1
strokes_ogs.tif
176
     0
290
     0
176
     0
 40
1.0
176
     0
 40
1.0
176
     0
  0
VISUALSTYLE
  5
38
102
{ACAD_REACTORS
330
2A
102
}
330
2A
100
AcDbVisualStyle
  2
Linepattern
 70
    14
177
     3
291
     1
 70
    58
 90
        2
176
     1
 90
        2
176
     1
 90
        0
176
     1
 90
        0
176
     1
 40
0.6
176
     1
 40
30.0
176
     1
 62
     7
420
 16777215
176
     1
 90
        1
176
     1
 90
        4
176
     1
 62
     7
176
     1
 62
   257
176
     1
 90
        7
176
     1
 90
        7
176
     1
 40
1.0
176
     1
 90
        8
176
     1
 62
     7
176
     1
 40
1.0
176
     1
 90
        1
176
     1
 90
        6
176
     1
 90
        2
176
     1
 62
     7
176
     1
 90
        5
176
     1
 90
        0
176
     1
 90
        0
176
     1
290
     0
176
     1
 90
        1
176
     1
 40
0.0
176
     1
 90
        0
176
     1
290
     0
176
     1
290
     1
176
     1
290
     1
176
     1
290
     0
176
     1
290
     0
176
     1
290
     0
176
     1
290
     0
176
     1
290
     0
176
     1
290
     0
176
     1
 90
       50
176
     1
 40
0.0
176
     1
 40
1.0
176
     1
 90
        0
176
     1
 62
    18
420
        0
176
     1
 90
       50
176
     1
 90
        3
176
     1
 62
     5
420
      255
176
     1
290
     0
176
     1
 90
       50
176
     1
 90
       50
176
     1
 90
       50
176
     1
290
     0
176
     1
 90
       50
176
     1
 62
   256
176
     0
 40
1.0
176
     0
 90
        2
176
     1
  1
strokes_ogs.tif
176
     1
290
     0
176
     1
 40
1.0
176
     1
 40
1.0
176
     1
  0
VISUALSTYLE
  5
3C
102
{ACAD_REACTORS
330
2A
102
}
330
2A
100
AcDbVisualStyle
  2
OverhangOff
 70
    21
177
     3
291
     1
 70
    58
 90
        2
176
     0
 90
        2
176
     0
 90
        0
176
     0
 90
        0
176
     0
 40
0.6
176
     0
 40
30.0
176
     0
 62
     7
420
 16777215
176
     0
 90
        1
176
     0
 90
        4
176
     0
 62
     7
176
     0
 62
   257
176
     0
 90
        1
176
     0
 90
        1
176
     0
 40
1.0
176
     0
 90
        9
176
     2
 62
     7
176
     0
 40
1.0
176
     0
 90
        1
176
     0
 90
        6
176
     0
 90
        2
176
     0
 62
     7
176
     0
 90
        5
176
     0
 90
        0
176
     0
 90
        0
176
     0
290
     0
176
     0
 90
        1
176
     0
 40
0.0
176
     0
 90
        0
176
     0
290
     0
176
     0
290
     1
176
     0
290
     1
176
     0
290
     0
176
     0
290
     0
176
     0
290
     0
176
     0
290
     0
176
     0
290
     0
176
     0
290
     0
176
     0
 90
       50
176
     0
 40
0.0
176
     0
 40
1.0
176
     0
 90
        0
176
     0
 62
    18
420
        0
176
     0
 90
       50
176
     0
 90
        3
176
     0
 62
     5
420
      255
176
     0
290
     0
176
     0
 90
       50
176
     0
 90
       50
176
     0
 90
       50
176
     0
290
     0
176
     0
 90
       50
176
     0
 62
   256
176
     0
 40
1.0
176
     0
 90
        2
176
     0
  1
strokes_ogs.tif
176
     0
290
     0
176
     0
 40
1.0
176
     0
 40
1.0
176
     0
  0
VISUALSTYLE
  5
33
102
{ACAD_REACTORS
330
2A
102
}
330
2A
100
AcDbVisualStyle
  2
Realistic
 70
     8
177
     3
291
     0
 70
    58
 90
        2
176
     1
 90
        3
176
     1
 90
        0
176
     1
 90
        2
176
     1
 40
0.6
176
     1
 40
30.0
176
     1
 62
     7
420
 16777215
176
     1
 90
        0
176
     1
 90
        0
176
     1
 62
     7
176
     1
 62
   257
176
     1
 90
        1
176
     1
 90
        1
176
     1
 40
1.0
176
     1
 90
        8
176
     1
 62
   257
176
     1
 40
1.0
176
     1
 90
        1
176
     1
 90
        6
176
     1
 90
        2
176
     1
 62
     7
176
     1
 90
        3
176
     1
 90
        0
176
     1
 90
        0
176
     1
290
     0
176
     1
 90
       13
176
     1
 40
0.0
176
     1
 90
        0
176
     1
290
     0
176
     1
290
     1
176
     1
290
     1
176
     1
290
     0
176
     1
290
     0
176
     1
290
     0
176
     1
290
     0
176
     1
290
     0
176
     1
290
     0
176
     1
 90
       50
176
     1
 40
0.0
176
     1
 40
1.0
176
     1
 90
        0
176
     1
 62
    18
420
        0
176
     1
 90
       50
176
     1
 90
        3
176
     1
 62
     5
420
      255
176
     1
290
     0
176
     1
 90
       50
176
     1
 90
       50
176
     1
 90
       50
176
     1
290
     0
176
     1
 90
       50
176
     1
 62
   256
176
     0
 40
1.0
176
     0
 90
        2
176
     1
  1
strokes_ogs.tif
176
     1
290
     0
176
     1
 40
1.0
176
     1
 40
1.0
176
     1
  0
VISUALSTYLE
  5
42
102
{ACAD_REACTORS
330
2A
102
}
330
2A
100
AcDbVisualStyle
  2
Shaded
 70
    27
177
     3
291
     0
 70
    58
 90
        2
176
     1
 90
        2
176
     1
 90
        1
176
     1
 90
        2
176
     1
 40
0.6
176
     1
 40
30.0
176
     1
 62
     7
420
 16777215
176
     1
 90
        0
176
     1
 90
        4
176
     1
 62
     7
176
     1
 62
   257
176
     1
 90
        1
176
     1
 90
        1
176
     1
 40
1.0
176
     1
 90
        8
176
     1
 62
   257
176
     1
 40
1.0
176
     1
 90
        1
176
     1
 90
        6
176
     1
 90
        2
176
     1
 62
     8
420
  7895160
176
     1
 90
        3
176
     1
 90
        0
176
     1
 90
        0
176
     1
290
     0
176
     1
 90
        5
176
     1
 40
0.0
176
     1
 90
        0
176
     1
290
     0
176
     1
290
     1
176
     1
290
     1
176
     1
290
     0
176
     1
290
     0
176
     1
290
     0
176
     1
290
     0
176
     1
290
     0
176
     1
290
     0
176
     1
 90
       50
176
     1
 40
0.0
176
     1
 40
1.0
176
     1
 90
        0
176
     1
 62
    18
420
        0
176
     1
 90
       50
176
     1
 90
        3
176
     1
 62
     5
420
      255
176
     1
290
     0
176
     1
 90
       50
176
     1
 90
       50
176
     1
 90
       50
176
     1
290
     0
176
     1
 90
       50
176
     1
 62
   256
176
     0
 40
1.0
176
     0
 90
        2
176
     1
  1
strokes_ogs.tif
176
     1
290
     0
176
     1
 40
1.0
176
     1
 40
1.0
176
     1
  0
VISUALSTYLE
  5
41
102
{ACAD_REACTORS
330
2A
102
}
330
2A
100
AcDbVisualStyle
  2
Shaded with edges
 70
    26
177
     3
291
     0
 70
    58
 90
        2
176
     1
 90
        2
176
     1
 90
        1
176
     1
 90
        2
176
     1
 40
0.6
176
     1
 40
30.0
176
     1
 62
     7
420
 16777215
176
     1
 90
        1
176
     1
 90
       10
176
     1
 62
     7
176
     1
 62
   257
176
     1
 90
        2
176
     1
 90
        1
176
     1
 40
1.0
176
     1
 90
        8
176
     1
 62
   257
176
     1
 40
1.0
176
     1
 90
        1
176
     1
 90
        6
176
     1
 90
        2
176
     1
 62
     7
176
     1
 90
        3
176
     1
 90
        0
176
     1
 90
        0
176
     1
290
     0
176
     1
 90
        5
176
     1
 40
0.0
176
     1
 90
        0
176
     1
290
     0
176
     1
290
     1
176
     1
290
     1
176
     1
290
     0
176
     1
290
     0
176
     1
290
     0
176
     1
290
     0
176
     1
290
     0
176
     1
290
     0
176
     1
 90
       50
176
     1
 40
0.0
176
     1
 40
1.0
176
     1
 90
        0
176
     1
 62
    18
420
        0
176
     1
 90
       50
176
     1
 90
        3
176
     1
 62
     5
420
      255
176
     1
290
     0
176
     1
 90
       50
176
     1
 90
       50
176
     1
 90
       50
176
     1
290
     0
176
     1
 90
       50
176
     1
 62
   256
176
     0
 40
1.0
176
     0
 90
        2
176
     1
  1
strokes_ogs.tif
176
     1
290
     0
176
     1
 40
1.0
176
     1
 40
1.0
176
     1
  0
VISUALSTYLE
  5
3E
102
{ACAD_REACTORS
330
2A
102
}
330
2A
100
AcDbVisualStyle
  2
Shades of Gray
 70
    23
177
     3
291
     0
 70
    58
 90
        2
176
     1
 90
        2
176
     1
 90
        3
176
     1
 90
        0
176
     1
 40
0.6
176
     1
 40
30.0
176
     1
 62
     7
420
 16777215
176
     1
 90
        2
176
     1
 90
        2
176
     1
 62
     7
176
     1
 62
     7
176
     1
 90
        1
176
     1
 90
        1
176
     1
 40
40.0
176
     1
 90
        8
176
     1
 62
     7
176
     1
 40
1.0
176
     1
 90
        1
176
     1
 90
        6
176
     1
 90
        2
176
     1
 62
     7
176
     1
 90
        3
176
     1
 90
        0
176
     1
 90
        0
176
     1
290
     0
176
     1
 90
        1
176
     1
 40
0.0
176
     1
 90
        0
176
     1
290
     0
176
     1
290
     1
176
     1
290
     1
176
     1
290
     0
176
     1
290
     0
176
     1
290
     0
176
     1
290
     0
176
     1
290
     0
176
     1
290
     0
176
     1
 90
       50
176
     1
 40
0.0
176
     1
 40
1.0
176
     1
 90
        0
176
     1
 62
    18
420
        0
176
     1
 90
       50
176
     1
 90
        3
176
     1
 62
     5
420
      255
176
     1
290
     0
176
     1
 90
       50
176
     1
 90
       50
176
     1
 90
       50
176
     1
290
     0
176
     1
 90
       50
176
     1
 62
   256
176
     0
 40
1.0
176
     0
 90
        2
176
     1
  1
strokes_ogs.tif
176
     1
290
     0
176
     1
 40
1.0
176
     1
 40
1.0
176
     1
  0
VISUALSTYLE
  5
3F
102
{ACAD_REACTORS
330
2A
102
}
330
2A
100
AcDbVisualStyle
  2
Sketchy
 70
    24
177
     3
291
     0
 70
    58
 90
        1
176
     1
 90
        2
176
     1
 90
        2
176
     1
 90
        0
176
     1
 40
0.6
176
     1
 40
30.0
176
     1
 62
     7
420
 16777215
176
     1
 90
        2
176
     1
 90
        2
176
     1
 62
     7
176
     1
 62
     7
176
     1
 90
        1
176
     1
 90
        1
176
     1
 40
40.0
176
     1
 90
       11
176
     1
 62
     7
176
     1
 40
1.0
176
     1
 90
        1
176
     1
 90
        6
176
     1
 90
        2
176
     1
 62
     7
176
     1
 90
        6
176
     1
 90
        0
176
     1
 90
        0
176
     1
290
     0
176
     1
 90
        1
176
     1
 40
0.0
176
     1
 90
        0
176
     1
290
     0
176
     1
290
     1
176
     1
290
     1
176
     1
290
     0
176
     1
290
     0
176
     1
290
     0
176
     1
290
     0
176
     1
290
     0
176
     1
290
     0
176
     1
 90
       50
176
     1
 40
0.0
176
     1
 40
1.0
176
     1
 90
        0
176
     1
 62
    18
420
        0
176
     1
 90
       50
176
     1
 90
        3
176
     1
 62
     5
420
      255
176
     1
290
     0
176
     1
 90
       50
176
     1
 90
       50
176
     1
 90
       50
176
     1
290
     0
176
     1
 90
       50
176
     1
 62
   256
176
     0
 40
1.0
176
     0
 90
        2
176
     1
  1
strokes_ogs.tif
176
     1
290
     0
176
     1
 40
1.0
176
     1
 40
1.0
176
     1
  0
VISUALSTYLE
  5
37
102
{ACAD_REACTORS
330
2A
102
}
330
2A
100
AcDbVisualStyle
  2
Thicken
 70
    13
177
     3
291
     1
 70
    58
 90
        2
176
     1
 90
        2
176
     1
 90
        0
176
     1
 90
        0
176
     1
 40
0.6
176
     1
 40
30.0
176
     1
 62
     7
420
 16777215
176
     1
 90
        1
176
     1
 90
        4
176
     1
 62
     7
176
     1
 62
   257
176
     1
 90
        1
176
     1
 90
        1
176
     1
 40
1.0
176
     1
 90
       12
176
     1
 62
     7
176
     1
 40
1.0
176
     1
 90
        1
176
     1
 90
        6
176
     1
 90
        2
176
     1
 62
     7
176
     1
 90
        5
176
     1
 90
        0
176
     1
 90
        0
176
     1
290
     0
176
     1
 90
        1
176
     1
 40
0.0
176
     1
 90
        0
176
     1
290
     0
176
     1
290
     1
176
     1
290
     1
176
     1
290
     0
176
     1
290
     0
176
     1
290
     0
176
     1
290
     0
176
     1
290
     0
176
     1
290
     0
176
     1
 90
       50
176
     1
 40
0.0
176
     1
 40
1.0
176
     1
 90
        0
176
     1
 62
    18
420
        0
176
     1
 90
       50
176
     1
 90
        3
176
     1
 62
     5
420
      255
176
     1
290
     0
176
     1
 90
       50
176
     1
 90
       50
176
     1
 90
       50
176
     1
290
     0
176
     1
 90
       50
176
     1
 62
   256
176
     0
 40
1.0
176
     0
 90
        2
176
     1
  1
strokes_ogs.tif
176
     1
290
     0
176
     1
 40
1.0
176
     1
 40
1.0
176
     1
  0
VISUALSTYLE
  5
30
102
{ACAD_REACTORS
330
2A
102
}
330
2A
100
AcDbVisualStyle
  2
Wireframe
 70
     5
177
     3
291
     0
 70
    58
 90
        0
176
     1
 90
        2
176
     1
 90
        0
176
     1
 90
        0
176
     1
 40
0.6
176
     1
 40
30.0
176
     1
 62
     7
420
 16777215
176
     1
 90
        1
176
     1
 90
        4
176
     1
 62
     7
176
     1
 62
   257
176
     1
 90
        1
176
     1
 90
        1
176
     1
 40
1.0
176
     1
 90
        0
176
     1
 62
   257
176
     1
 40
1.0
176
     1
 90
        1
176
     1
 90
        6
176
     1
 90
        2
176
     1
 62
     7
176
     1
 90
        3
176
     1
 90
        0
176
     1
 90
        0
176
     1
290
     0
176
     1
 90
        1
176
     1
 40
0.0
176
     1
 90
        0
176
     1
290
     0
176
     1
290
     1
176
     1
290
     1
176
     1
290
     0
176
     1
290
     0
176
     1
290
     0
176
     1
290
     0
176
     1
290
     0
176
     1
290
     0
176
     1
 90
       50
176
     1
 40
0.0
176
     1
 40
1.0
176
     1
 90
        0
176
     1
 62
    18
420
        0
176
     1
 90
       50
176
     1
 90
        3
176
     1
 62
     5
420
      255
176
     1
290
     0
176
     1
 90
       50
176
     1
 90
       50
176
     1
 90
       50
176
     1
290
     0
176
     1
 90
       50
176
     1
 62
   256
176
     0
 40
1.0
176
     0
 90
        2
176
     1
  1
strokes_ogs.tif
176
     1
290
     0
176
     1
 40
1.0
176
     1
 40
1.0
176
     1
  0
VISUALSTYLE
  5
40
102
{ACAD_REACTORS
330
2A
102
}
330
2A
100
AcDbVisualStyle
  2
X-Ray
 70
    25
177
     3
291
     0
 70
    58
 90
        2
176
     1
 90
        2
176
     1
 90
        1
176
     1
 90
        1
176
     1
 40
0.5
176
     1
 40
30.0
176
     1
 62
     7
420
 16777215
176
     1
 90
        1
176
     1
 90
        0
176
     1
 62
     7
176
     1
 62
   257
176
     1
 90
        1
176
     1
 90
        1
176
     1
 40
1.0
176
     1
 90
        8
176
     1
 62
     7
176
     1
 40
1.0
176
     1
 90
        1
176
     1
 90
        6
176
     1
 90
        2
176
     1
 62
     7
176
     1
 90
        3
176
     1
 90
        0
176
     1
 90
        0
176
     1
290
     0
176
     1
 90
       13
176
     1
 40
0.0
176
     1
 90
        0
176
     1
290
     0
176
     1
290
     1
176
     1
290
     1
176
     1
290
     0
176
     1
290
     0
176
     1
290
     0
176
     1
290
     0
176
     1
290
     0
176
     1
290
     0
176
     1
 90
       50
176
     1
 40
0.0
176
     1
 40
1.0
176
     1
 90
        0
176
     1
 62
    18
420
        0
176
     1
 90
       50
176
     1
 90
        3
176
     1
 62
     5
420
      255
176
     1
290
     0
176
     1
 90
       50
176
     1
 90
       50
176
     1
 90
       50
176
     1
290
     0
176
     1
 90
       50
176
     1
 62
   256
176
     0
 40
1.0
176
     0
 90
        2
176
     1
  1
strokes_ogs.tif
176
     1
290
     0
176
     1
 40
1.0
176
     1
 40
1.0
176
     1
  0
DICTIONARYVAR
  5
1DC
102
{ACAD_REACTORS
330
1DB
102
}
330
1DB
100
DictionaryVariables
280
     0
  1
1:1
  0
DICTIONARYVAR
  5
1E1
102
{ACAD_REACTORS
330
1DB
102
}
330
1DB
100
DictionaryVariables
280
     0
  1
Standard
  0
DICTIONARYVAR
  5
1E0
102
{ACAD_REACTORS
330
1DB
102
}
330
1DB
100
DictionaryVariables
280
     0
  1
Standard
  0
DICTIONARY
  5
1DD
330
6A
100
AcDbDictionary
280
     1
281
     1
  3
ACAD_ROUNDTRIP_2008_TABLESTYLE_CELLSTYLEMAP
360
1DE
  0
CELLSTYLEMAP
  5
1DE
102
{ACAD_REACTORS
330
1DD
102
}
330
1DD
100
AcDbCellStyleMap
 90
        3
300
CELLSTYLE
  1
TABLEFORMAT_BEGIN
 90
        5
170
     1
 91
        0
 92
    32768
 62
   257
 93
        1
300
CONTENTFORMAT
  1
CONTENTFORMAT_BEGIN
 90
        0
 91
        0
 92
        4
 93
        0
300

 40
0.0
140
1.0
 94
        5
 62
     0
340
11
144
0.25
309
CONTENTFORMAT_END
171
     1
301
MARGIN
  1
CELLMARGIN_BEGIN
 40
0.06
 40
0.06
 40
0.06
 40
0.06
 40
0.06
 40
0.06
309
CELLMARGIN_END
 94
        6
 95
        1
302
GRIDFORMAT
  1
GRIDFORMAT_BEGIN
 90
        0
 91
        1
 62
     0
 92
       -2
340
14
 93
        0
 40
0.045
309
GRIDFORMAT_END
 95
        2
302
GRIDFORMAT
  1
GRIDFORMAT_BEGIN
 90
        0
 91
        1
 62
     0
 92
       -2
340
14
 93
        0
 40
0.045
309
GRIDFORMAT_END
 95
        4
302
GRIDFORMAT
  1
GRIDFORMAT_BEGIN
 90
        0
 91
        1
 62
     0
 92
       -2
340
14
 93
        0
 40
0.045
309
GRIDFORMAT_END
 95
        8
302
GRIDFORMAT
  1
GRIDFORMAT_BEGIN
 90
        0
 91
        1
 62
     0
 92
       -2
340
14
 93
        0
 40
0.045
309
GRIDFORMAT_END
 95
       16
302
GRIDFORMAT
  1
GRIDFORMAT_BEGIN
 90
        0
 91
        1
 62
     0
 92
       -2
340
14
 93
        0
 40
0.045
309
GRIDFORMAT_END
 95
       32
302
GRIDFORMAT
  1
GRIDFORMAT_BEGIN
 90
        0
 91
        1
 62
     0
 92
       -2
340
14
 93
        0
 40
0.045
309
GRIDFORMAT_END
309
TABLEFORMAT_END
  1
CELLSTYLE_BEGIN
 90
        1
 91
        1
300
_TITLE
309
CELLSTYLE_END
300
CELLSTYLE
  1
TABLEFORMAT_BEGIN
 90
        5
170
     1
 91
        0
 92
        0
 62
   257
 93
        1
300
CONTENTFORMAT
  1
CONTENTFORMAT_BEGIN
 90
        0
 91
        0
 92
        4
 93
        0
300

 40
0.0
140
1.0
 94
        5
 62
     0
340
11
144
0.18
309
CONTENTFORMAT_END
171
     1
301
MARGIN
  1
CELLMARGIN_BEGIN
 40
0.06
 40
0.06
 40
0.06
 40
0.06
 40
0.06
 40
0.06
309
CELLMARGIN_END
 94
        6
 95
        1
302
GRIDFORMAT
  1
GRIDFORMAT_BEGIN
 90
        0
 91
        1
 62
     0
 92
       -2
340
14
 93
        0
 40
0.045
309
GRIDFORMAT_END
 95
        2
302
GRIDFORMAT
  1
GRIDFORMAT_BEGIN
 90
        0
 91
        1
 62
     0
 92
       -2
340
14
 93
        0
 40
0.045
309
GRIDFORMAT_END
 95
        4
302
GRIDFORMAT
  1
GRIDFORMAT_BEGIN
 90
        0
 91
        1
 62
     0
 92
       -2
340
14
 93
        0
 40
0.045
309
GRIDFORMAT_END
 95
        8
302
GRIDFORMAT
  1
GRIDFORMAT_BEGIN
 90
        0
 91
        1
 62
     0
 92
       -2
340
14
 93
        0
 40
0.045
309
GRIDFORMAT_END
 95
       16
302
GRIDFORMAT
  1
GRIDFORMAT_BEGIN
 90
        0
 91
        1
 62
     0
 92
       -2
340
14
 93
        0
 40
0.045
309
GRIDFORMAT_END
 95
       32
302
GRIDFORMAT
  1
GRIDFORMAT_BEGIN
 90
        0
 91
        1
 62
     0
 92
       -2
340
14
 93
        0
 40
0.045
309
GRIDFORMAT_END
309
TABLEFORMAT_END
  1
CELLSTYLE_BEGIN
 90
        2
 91
        1
300
_HEADER
309
CELLSTYLE_END
300
CELLSTYLE
  1
TABLEFORMAT_BEGIN
 90
        5
170
     1
 91
        0
 92
        0
 62
   257
 93
        1
300
CONTENTFORMAT
  1
CONTENTFORMAT_BEGIN
 90
        0
 91
        0
 92
        4
 93
        0
300

 40
0.0
140
1.0
 94
        2
 62
     0
340
11
144
0.18
309
CONTENTFORMAT_END
171
     1
301
MARGIN
  1
CELLMARGIN_BEGIN
 40
0.06
 40
0.06
 40
0.06
 40
0.06
 40
0.06
 40
0.06
309
CELLMARGIN_END
 94
        6
 95
        1
302
GRIDFORMAT
  1
GRIDFORMAT_BEGIN
 90
        0
 91
        1
 62
     0
 92
       -2
340
14
 93
        0
 40
0.045
309
GRIDFORMAT_END
 95
        2
302
GRIDFORMAT
  1
GRIDFORMAT_BEGIN
 90
        0
 91
        1
 62
     0
 92
       -2
340
14
 93
        0
 40
0.045
309
GRIDFORMAT_END
 95
        4
302
GRIDFORMAT
  1
GRIDFORMAT_BEGIN
 90
        0
 91
        1
 62
     0
 92
       -2
340
14
 93
        0
 40
0.045
309
GRIDFORMAT_END
 95
        8
302
GRIDFORMAT
  1
GRIDFORMAT_BEGIN
 90
        0
 91
        1
 62
     0
 92
       -2
340
14
 93
        0
 40
0.045
309
GRIDFORMAT_END
 95
       16
302
GRIDFORMAT
  1
GRIDFORMAT_BEGIN
 90
        0
 91
        1
 62
     0
 92
       -2
340
14
 93
        0
 40
0.045
309
GRIDFORMAT_END
 95
       32
302
GRIDFORMAT
  1
GRIDFORMAT_BEGIN
 90
        0
 91
        1
 62
     0
 92
       -2
340
14
 93
        0
 40
0.045
309
GRIDFORMAT_END
309
TABLEFORMAT_END
  1
CELLSTYLE_BEGIN
 90
        3
 91
        2
300
_DATA
309
CELLSTYLE_END
  0
ENDSEC
  0
EOF