0
SECTION
  2
HEADER
  9
$ACADVER
  1
AC1027
  9
$ACADMAINTVER
 70
     8
  9
$DWGCODEPAGE
  3
ANSI_1252
  9
$REQUIREDVERSIONS
160
                 0
  9
$COMMENTS
  1
File was created by Cadenas
  9
$CUSTOMPROPERTYTAG
  1
NN
  9
$CUSTOMPROPERTY
  1
Four-Bolt Flange Expansion
  9
$CUSTOMPROPERTYTAG
  1
NT
  9
$CUSTOMPROPERTY
  1
Type E 4-Bolt Flange Bearing -Inch
  9
$CUSTOMPROPERTYTAG
  1
NB
  9
$CUSTOMPROPERTY
  1
023104
  9
$CUSTOMPROPERTYTAG
  1
NBSYN
  9
$CUSTOMPROPERTY
  1
$PN.
  9
$CUSTOMPROPERTYTAG
  1
LINA
  9
$CUSTOMPROPERTY
  1
023104
  9
$CUSTOMPROPERTYTAG
  1
SS
  9
$CUSTOMPROPERTY
  1
2-3/16
  9
$CUSTOMPROPERTYTAG
  1
PN
  9
$CUSTOMPROPERTY
  1
023104
  9
$CUSTOMPROPERTYTAG
  1
DESCRIPTION
  9
$CUSTOMPROPERTY
  1
F4B-E-203R
  9
$CUSTOMPROPERTYTAG
  1
A
  9
$CUSTOMPROPERTY
  1
3-7/8
  9
$CUSTOMPROPERTYTAG
  1
B
  9
$CUSTOMPROPERTY
  1
6-1/4
  9
$CUSTOMPROPERTYTAG
  1
C
  9
$CUSTOMPROPERTY
  1
3-9/32
  9
$CUSTOMPROPERTYTAG
  1
D
  9
$CUSTOMPROPERTY
  1
4-7/8
  9
$CUSTOMPROPERTYTAG
  1
E
  9
$CUSTOMPROPERTY
  1
1/8
  9
$CUSTOMPROPERTYTAG
  1
F
  9
$CUSTOMPROPERTY
  1
5/8
  9
$CUSTOMPROPERTYTAG
  1
H
  9
$CUSTOMPROPERTY
  1
1-3/8
  9
$CUSTOMPROPERTYTAG
  1
J
  9
$CUSTOMPROPERTY
  1
4-7/8
  9
$CUSTOMPROPERTYTAG
  1
L
  9
$CUSTOMPROPERTY
  1
3-3/4
  9
$CUSTOMPROPERTYTAG
  1
COMPANY
  9
$CUSTOMPROPERTY
  1
baldor
  9
$INSBASE
 10
0.0
 20
0.0
 30
0.0
  9
$EXTMIN
 10
1.000000000000000E+20
 20
1.000000000000000E+20
 30
1.000000000000000E+20
  9
$EXTMAX
 10
-1.000000000000000E+20
 20
-1.000000000000000E+20
 30
-1.000000000000000E+20
  9
$LIMMIN
 10
0.0
 20
0.0
  9
$LIMMAX
 10
12.0
 20
9.0
  9
$ORTHOMODE
 70
     0
  9
$REGENMODE
 70
     1
  9
$FILLMODE
 70
     1
  9
$QTEXTMODE
 70
     0
  9
$MIRRTEXT
 70
     1
  9
$LTSCALE
 40
1.0
  9
$ATTMODE
 70
     1
  9
$TEXTSIZE
 40
0.2
  9
$TRACEWID
 40
0.05
  9
$TEXTSTYLE
  7
Standard
  9
$CLAYER
  8
0
  9
$CELTYPE
  6
ByLayer
  9
$CECOLOR
 62
   256
  9
$CELTSCALE
 40
1.0
  9
$DISPSILH
 70
     0
  9
$DIMSCALE
 40
1.0
  9
$DIMASZ
 40
0.18
  9
$DIMEXO
 40
0.0625
  9
$DIMDLI
 40
0.38
  9
$DIMRND
 40
0.0
  9
$DIMDLE
 40
0.0
  9
$DIMEXE
 40
0.18
  9
$DIMTP
 40
0.0
  9
$DIMTM
 40
0.0
  9
$DIMTXT
 40
0.18
  9
$DIMCEN
 40
0.09
  9
$DIMTSZ
 40
0.0
  9
$DIMTOL
 70
     0
  9
$DIMLIM
 70
     0
  9
$DIMTIH
 70
     1
  9
$DIMTOH
 70
     1
  9
$DIMSE1
 70
     0
  9
$DIMSE2
 70
     0
  9
$DIMTAD
 70
     0
  9
$DIMZIN
 70
     0
  9
$DIMBLK
  1

  9
$DIMASO
 70
     1
  9
$DIMSHO
 70
     1
  9
$DIMPOST
  1

  9
$DIMAPOST
  1

  9
$DIMALT
 70
     0
  9
$DIMALTD
 70
     2
  9
$DIMALTF
 40
25.4
  9
$DIMLFAC
 40
1.0
  9
$DIMTOFL
 70
     0
  9
$DIMTVP
 40
0.0
  9
$DIMTIX
 70
     0
  9
$DIMSOXD
 70
     0
  9
$DIMSAH
 70
     0
  9
$DIMBLK1
  1

  9
$DIMBLK2
  1

  9
$DIMSTYLE
  2
Standard
  9
$DIMCLRD
 70
     0
  9
$DIMCLRE
 70
     0
  9
$DIMCLRT
 70
     0
  9
$DIMTFAC
 40
1.0
  9
$DIMGAP
 40
0.09
  9
$DIMJUST
 70
     0
  9
$DIMSD1
 70
     0
  9
$DIMSD2
 70
     0
  9
$DIMTOLJ
 70
     1
  9
$DIMTZIN
 70
     0
  9
$DIMALTZ
 70
     0
  9
$DIMALTTZ
 70
     0
  9
$DIMUPT
 70
     0
  9
$DIMDEC
 70
     4
  9
$DIMTDEC
 70
     4
  9
$DIMALTU
 70
     2
  9
$DIMALTTD
 70
     2
  9
$DIMTXSTY
  7
Standard
  9
$DIMAUNIT
 70
     0
  9
$DIMADEC
 70
     0
  9
$DIMALTRND
 40
0.0
  9
$DIMAZIN
 70
     0
  9
$DIMDSEP
 70
    46
  9
$DIMATFIT
 70
     3
  9
$DIMFRAC
 70
     0
  9
$DIMLDRBLK
  1

  9
$DIMLUNIT
 70
     2
  9
$DIMLWD
 70
    -2
  9
$DIMLWE
 70
    -2
  9
$DIMTMOVE
 70
     0
  9
$DIMFXL
 40
1.0
  9
$DIMFXLON
 70
     0
  9
$DIMJOGANG
 40
0.7853981633974483
  9
$DIMTFILL
 70
     0
  9
$DIMTFILLCLR
 70
     0
  9
$DIMARCSYM
 70
     0
  9
$DIMLTYPE
  6

  9
$DIMLTEX1
  6

  9
$DIMLTEX2
  6

  9
$DIMTXTDIRECTION
 70
     0
  9
$LUNITS
 70
     2
  9
$LUPREC
 70
     4
  9
$SKETCHINC
 40
0.1
  9
$FILLETRAD
 40
0.5
  9
$AUNITS
 70
     0
  9
$AUPREC
 70
     0
  9
$MENU
  1
.
  9
$ELEVATION
 40
0.0
  9
$PELEVATION
 40
0.0
  9
$THICKNESS
 40
0.0
  9
$LIMCHECK
 70
     0
  9
$CHAMFERA
 40
0.0
  9
$CHAMFERB
 40
0.0
  9
$CHAMFERC
 40
0.0
  9
$CHAMFERD
 40
0.0
  9
$SKPOLY
 70
     0
  9
$TDCREATE
 40
2458168.957115868
  9
$TDUCREATE
 40
2458168.915449202
  9
$TDUPDATE
 40
2458168.957116042
  9
$TDUUPDATE
 40
2458168.915449375
  9
$TDINDWG
 40
0.0000000116
  9
$TDUSRTIMER
 40
0.0000000116
  9
$USRTIMER
 70
     1
  9
$ANGBASE
 50
0.0
  9
$ANGDIR
 70
     0
  9
$PDMODE
 70
     0
  9
$PDSIZE
 40
0.0
  9
$PLINEWID
 40
0.0
  9
$SPLFRAME
 70
     0
  9
$SPLINETYPE
 70
     6
  9
$SPLINESEGS
 70
     8
  9
$HANDSEED
  5
1A5
  9
$SURFTAB1
 70
     6
  9
$SURFTAB2
 70
     6
  9
$SURFTYPE
 70
     6
  9
$SURFU
 70
     6
  9
$SURFV
 70
     6
  9
$UCSBASE
  2

  9
$UCSNAME
  2

  9
$UCSORG
 10
0.0
 20
0.0
 30
0.0
  9
$UCSXDIR
 10
1.0
 20
0.0
 30
0.0
  9
$UCSYDIR
 10
0.0
 20
1.0
 30
0.0
  9
$UCSORTHOREF
  2

  9
$UCSORTHOVIEW
 70
     0
  9
$UCSORGTOP
 10
0.0
 20
0.0
 30
0.0
  9
$UCSORGBOTTOM
 10
0.0
 20
0.0
 30
0.0
  9
$UCSORGLEFT
 10
0.0
 20
0.0
 30
0.0
  9
$UCSORGRIGHT
 10
0.0
 20
0.0
 30
0.0
  9
$UCSORGFRONT
 10
0.0
 20
0.0
 30
0.0
  9
$UCSORGBACK
 10
0.0
 20
0.0
 30
0.0
  9
$PUCSBASE
  2

  9
$PUCSNAME
  2

  9
$PUCSORG
 10
0.0
 20
0.0
 30
0.0
  9
$PUCSXDIR
 10
1.0
 20
0.0
 30
0.0
  9
$PUCSYDIR
 10
0.0
 20
1.0
 30
0.0
  9
$PUCSORTHOREF
  2

  9
$PUCSORTHOVIEW
 70
     0
  9
$PUCSORGTOP
 10
0.0
 20
0.0
 30
0.0
  9
$PUCSORGBOTTOM
 10
0.0
 20
0.0
 30
0.0
  9
$PUCSORGLEFT
 10
0.0
 20
0.0
 30
0.0
  9
$PUCSORGRIGHT
 10
0.0
 20
0.0
 30
0.0
  9
$PUCSORGFRONT
 10
0.0
 20
0.0
 30
0.0
  9
$PUCSORGBACK
 10
0.0
 20
0.0
 30
0.0
  9
$USERI1
 70
     0
  9
$USERI2
 70
     0
  9
$USERI3
 70
     0
  9
$USERI4
 70
     0
  9
$USERI5
 70
     0
  9
$USERR1
 40
0.0
  9
$USERR2
 40
0.0
  9
$USERR3
 40
0.0
  9
$USERR4
 40
0.0
  9
$USERR5
 40
0.0
  9
$WORLDVIEW
 70
     1
  9
$SHADEDGE
 70
     3
  9
$SHADEDIF
 70
    70
  9
$TILEMODE
 70
     1
  9
$MAXACTVP
 70
    64
  9
$PINSBASE
 10
0.0
 20
0.0
 30
0.0
  9
$PLIMCHECK
 70
     0
  9
$PEXTMIN
 10
1.000000000000000E+20
 20
1.000000000000000E+20
 30
1.000000000000000E+20
  9
$PEXTMAX
 10
-1.000000000000000E+20
 20
-1.000000000000000E+20
 30
-1.000000000000000E+20
  9
$PLIMMIN
 10
0.0
 20
0.0
  9
$PLIMMAX
 10
12.0
 20
9.0
  9
$UNITMODE
 70
     0
  9
$VISRETAIN
 70
     1
  9
$PLINEGEN
 70
     0
  9
$PSLTSCALE
 70
     1
  9
$TREEDEPTH
 70
  3020
  9
$CMLSTYLE
  2
Standard
  9
$CMLJUST
 70
     0
  9
$CMLSCALE
 40
1.0
  9
$PROXYGRAPHICS
 70
     1
  9
$MEASUREMENT
 70
     0
  9
$CELWEIGHT
370
    -1
  9
$ENDCAPS
280
     0
  9
$JOINSTYLE
280
     0
  9
$LWDISPLAY
290
     0
  9
$INSUNITS
 70
     1
  9
$HYPERLINKBASE
  1

  9
$STYLESHEET
  1

  9
$XEDIT
290
     1
  9
$CEPSNTYPE
380
     0
  9
$PSTYLEMODE
290
     1
  9
$FINGERPRINTGUID
  2
{6FE639B1-9B42-4B7C-ACE2-AA85164518AD}
  9
$VERSIONGUID
  2
{FAEB1C32-E019-11D5-929B-00C0DF256EC4}
  9
$EXTNAMES
290
     1
  9
$PSVPSCALE
 40
0.0
  9
$OLESTARTUP
290
     0
  9
$SORTENTS
280
   127
  9
$INDEXCTL
280
     0
  9
$HIDETEXT
280
     1
  9
$XCLIPFRAME
280
     2
  9
$HALOGAP
280
     0
  9
$OBSCOLOR
 70
   257
  9
$OBSLTYPE
280
     0
  9
$INTERSECTIONDISPLAY
280
     0
  9
$INTERSECTIONCOLOR
 70
   257
  9
$DIMASSOC
280
     2
  9
$PROJECTNAME
  1

  9
$CAMERADISPLAY
290
     0
  9
$LENSLENGTH
 40
50.0
  9
$CAMERAHEIGHT
 40
0.0
  9
$STEPSPERSEC
 40
2.0
  9
$STEPSIZE
 40
6.0
  9
$3DDWFPREC
 40
2.0
  9
$PSOLWIDTH
 40
0.25
  9
$PSOLHEIGHT
 40
4.0
  9
$LOFTANG1
 40
1.570796326794897
  9
$LOFTANG2
 40
1.570796326794897
  9
$LOFTMAG1
 40
0.0
  9
$LOFTMAG2
 40
0.0
  9
$LOFTPARAM
 70
     7
  9
$LOFTNORMALS
280
     1
  9
$LATITUDE
 40
37.795
  9
$LONGITUDE
 40
-122.394
  9
$NORTHDIRECTION
 40
0.0
  9
$TIMEZONE
 70
 -8000
  9
$LIGHTGLYPHDISPLAY
280
     1
  9
$TILEMODELIGHTSYNCH
280
     1
  9
$CMATERIAL
347
44
  9
$SOLIDHIST
280
     0
  9
$SHOWHIST
280
     1
  9
$DWFFRAME
280
     2
  9
$DGNFRAME
280
     2
  9
$REALWORLDSCALE
290
     1
  9
$INTERFERECOLOR
 62
   256
  9
$CSHADOW
280
     0
  9
$SHADOWPLANELOCATION
 40
0.0
  0
ENDSEC
  0
SECTION
  2
CLASSES
  0
CLASS
  1
ACDBDICTIONARYWDFLT
  2
AcDbDictionaryWithDefault
  3
ObjectDBX Classes
 90
        0
 91
        4
280
     0
281
     0
  0
CLASS
  1
VISUALSTYLE
  2
AcDbVisualStyle
  3
ObjectDBX Classes
 90
     4095
 91
        4
280
     0
281
     0
  0
CLASS
  1
MATERIAL
  2
AcDbMaterial
  3
ObjectDBX Classes
 90
     1153
 91
        4
280
     0
281
     0
  0
CLASS
  1
SCALE
  2
AcDbScale
  3
ObjectDBX Classes
 90
     1153
 91
        4
280
     0
281
     0
  0
CLASS
  1
TABLESTYLE
  2
AcDbTableStyle
  3
ObjectDBX Classes
 90
     4095
 91
        4
280
     0
281
     0
  0
CLASS
  1
MLEADERSTYLE
  2
AcDbMLeaderStyle
  3
ACDB_MLEADERSTYLE_CLASS
 90
     4095
 91
        4
280
     0
281
     0
  0
CLASS
  1
SUN
  2
AcDbSun
  3
SCENEOE
 90
     1153
 91
        4
280
     0
281
     0
  0
CLASS
  1
DICTIONARYVAR
  2
AcDbDictionaryVar
  3
ObjectDBX Classes
 90
        0
 91
        4
280
     0
281
     0
  0
CLASS
  1
CELLSTYLEMAP
  2
AcDbCellStyleMap
  3
ObjectDBX Classes
 90
     1152
 91
        4
280
     0
281
     0
  0
ENDSEC
  0
SECTION
  2
TABLES
  0
TABLE
  2
VPORT
  5
8
330
0
100
AcDbSymbolTable
 70
     1
  0
VPORT
  5
29
330
8
100
AcDbSymbolTableRecord
100
AcDbViewportTableRecord
  2
*Active
 70
     0
 10
0.0
 20
0.0
 11
1.0
 21
1.0
 12
0.0
 22
-1.968749999999999
 13
0.0
 23
0.0
 14
0.5
 24
0.5
 15
0.5
 25
0.5
 16
0.0
 26
0.0
 36
1.0
 17
0.0
 27
0.0
 37
0.0
 40
4.417874999999999
 41
1.443001443001444
 42
50.0
 43
0.0
 44
0.0
 50
0.0
 51
0.0
 71
     0
 72
   100
 73
     1
 74
     3
 75
     0
 76
     0
 77
     0
 78
     0
281
     0
 65
     1
110
0.0
120
0.0
130
0.0
111
1.0
121
0.0
131
0.0
112
0.0
122
1.0
132
0.0
 79
     0
146
0.0
348
2F
 60
     3
 61
     5
292
     1
282
     1
141
0.0
142
0.0
 63
   250
361
6D
  0
ENDTAB
  0
TABLE
  2
LTYPE
  5
5
330
0
100
AcDbSymbolTable
 70
     3
  0
LTYPE
  5
14
330
5
100
AcDbSymbolTableRecord
100
AcDbLinetypeTableRecord
  2
ByBlock
 70
     0
  3

 72
    65
 73
     0
 40
0.0
  0
LTYPE
  5
15
330
5
100
AcDbSymbolTableRecord
100
AcDbLinetypeTableRecord
  2
ByLayer
 70
     0
  3

 72
    65
 73
     0
 40
0.0
  0
LTYPE
  5
16
330
5
100
AcDbSymbolTableRecord
100
AcDbLinetypeTableRecord
  2
Continuous
 70
     0
  3
Solid line
 72
    65
 73
     0
 40
0.0
  0
LTYPE
  5
9A
330
5
100
AcDbSymbolTableRecord
100
AcDbLinetypeTableRecord
  2
Dashed
 70
     0
  3

 72
    65
 73
     2
 40
2.0
 49
1.0
 74
     0
 49
-1.0
 74
     0
  0
LTYPE
  5
B9
330
5
100
AcDbSymbolTableRecord
100
AcDbLinetypeTableRecord
  2
Center
 70
     0
  3

 72
    65
 73
     4
 40
1.5
 49
0.45
 74
     0
 49
-0.5
 74
     0
 49
0.05
 74
     0
 49
-0.5
 74
     0
  0
ENDTAB
  0
TABLE
  2
LAYER
  5
2
330
0
100
AcDbSymbolTable
 70
     7
  0
LAYER
  5
10
330
2
100
AcDbSymbolTableRecord
100
AcDbLayerTableRecord
  2
0
 70
     0
 62
     7
  6
Continuous
370
    -3
390
F
347
46
348
0
  0
LAYER
  5
72
330
2
100
AcDbSymbolTableRecord
100
AcDbLayerTableRecord
  2
AM_6
 70
     0
 62
    -2
  6
Continuous
370
    35
390
F
347
46
348
0
  0
LAYER
  5
9B
330
2
100
AcDbSymbolTableRecord
100
AcDbLayerTableRecord
  2
AM_9
 70
     0
 62
     6
  6
Dashed
370
    25
390
F
347
46
348
0
  0
LAYER
  5
BA
330
2
100
AcDbSymbolTableRecord
100
AcDbLayerTableRecord
  2
AM_7
 70
     0
 62
     7
  6
Center
370
    25
390
F
347
46
348
0
  0
LAYER
  5
BC
330
2
100
AcDbSymbolTableRecord
100
AcDbLayerTableRecord
  2
AM_4
 70
     0
 62
     7
  6
Continuous
370
    50
390
F
347
46
348
0
  0
LAYER
  5
C2
330
2
100
AcDbSymbolTableRecord
100
AcDbLayerTableRecord
  2
AM_5
 70
     0
 62
     3
  6
Continuous
370
    25
390
F
347
46
348
0
  0
LAYER
  5
194
330
2
100
AcDbSymbolTableRecord
100
AcDbLayerTableRecord
  2
ConnectionPoints
 70
     0
 62
     7
  6
Continuous
370
    50
390
F
347
46
348
0
  0
ENDTAB
  0
TABLE
  2
STYLE
  5
3
330
0
100
AcDbSymbolTable
 70
     1
  0
STYLE
  5
11
330
3
100
AcDbSymbolTableRecord
100
AcDbTextStyleTableRecord
  2
Standard
 70
     0
 40
0.0
 41
1.0
 50
0.0
 71
     0
 42
0.2
  3
txt
  4

  0
ENDTAB
  0
TABLE
  2
VIEW
  5
6
330
0
100
AcDbSymbolTable
 70
     0
  0
ENDTAB
  0
TABLE
  2
UCS
  5
7
330
0
100
AcDbSymbolTable
 70
     0
  0
ENDTAB
  0
TABLE
  2
APPID
  5
9
330
0
100
AcDbSymbolTable
 70
     1
  0
APPID
  5
12
330
9
100
AcDbSymbolTableRecord
100
AcDbRegAppTableRecord
  2
ACAD
 70
     0
  0
ENDTAB
  0
TABLE
  2
DIMSTYLE
  5
A
330
0
100
AcDbSymbolTable
 70
     1
100
AcDbDimStyleTable
  0
DIMSTYLE
105
27
330
A
100
AcDbSymbolTableRecord
100
AcDbDimStyleTableRecord
  2
Standard
 70
     0
178
     0
340
11
  0
ENDTAB
  0
TABLE
  2
BLOCK_RECORD
  5
1
330
0
100
AcDbSymbolTable
 70
     7
  0
BLOCK_RECORD
  5
1F
330
1
100
AcDbSymbolTableRecord
100
AcDbBlockTableRecord
  2
*Model_Space
340
22
 70
     0
280
     1
281
     0
  0
BLOCK_RECORD
  5
1B
330
1
100
AcDbSymbolTableRecord
100
AcDbBlockTableRecord
  2
*Paper_Space
340
1E
 70
     0
280
     1
281
     0
  0
BLOCK_RECORD
  5
23
330
1
100
AcDbSymbolTableRecord
100
AcDbBlockTableRecord
  2
*Paper_Space0
340
26
 70
     0
280
     1
281
     0
  0
BLOCK_RECORD
  5
6E
330
1
100
AcDbSymbolTableRecord
100
AcDbBlockTableRecord
  2
1_023104_4
340
0
102
{BLKREFS
331
6F
102
}
 70
     0
280
     1
281
     0
  0
BLOCK_RECORD
  5
85
330
1
100
AcDbSymbolTableRecord
100
AcDbBlockTableRecord
  2
2_2_3_16C_1_0_in_023104_4
340
0
102
{BLKREFS
331
86
102
}
 70
     0
280
     1
281
     0
  0
BLOCK_RECORD
  5
C5
330
1
100
AcDbSymbolTableRecord
100
AcDbBlockTableRecord
  2
3_2_3_16C_2_0_in_023104_4
340
0
102
{BLKREFS
331
C6
102
}
 70
     0
280
     1
281
     0
  0
BLOCK_RECORD
  5
FB
330
1
100
AcDbSymbolTableRecord
100
AcDbBlockTableRecord
  2
4_2_3_16I_0_in_023104_4
340
0
102
{BLKREFS
331
FC
102
}
 70
     0
280
     1
281
     0
  0
BLOCK_RECORD
  5
12A
330
1
100
AcDbSymbolTableRecord
100
AcDbBlockTableRecord
  2
5_405015E_Inch_0_in_023104_4
340
0
102
{BLKREFS
331
12B
102
}
 70
     0
280
     1
281
     0
  0
BLOCK_RECORD
  5
148
330
1
100
AcDbSymbolTableRecord
100
AcDbBlockTableRecord
  2
6_023104H_0_in_023104_4
340
0
102
{BLKREFS
331
149
102
}
 70
     0
280
     1
281
     0
  0
ENDTAB
  0
ENDSEC
  0
SECTION
  2
BLOCKS
  0
BLOCK
  5
20
330
1F
100
AcDbEntity
  8
0
100
AcDbBlockBegin
  2
*Model_Space
 70
     0
 10
0.0
 20
0.0
 30
0.0
  3
*Model_Space
  1

  0
ENDBLK
  5
21
330
1F
100
AcDbEntity
  8
0
100
AcDbBlockEnd
  0
BLOCK
  5
1C
330
1B
100
AcDbEntity
 67
     1
  8
0
100
AcDbBlockBegin
  2
*Paper_Space
 70
     0
 10
0.0
 20
0.0
 30
0.0
  3
*Paper_Space
  1

  0
ENDBLK
  5
1D
330
1B
100
AcDbEntity
 67
     1
  8
0
100
AcDbBlockEnd
  0
BLOCK
  5
24
330
23
100
AcDbEntity
  8
0
100
AcDbBlockBegin
  2
*Paper_Space0
 70
     0
 10
0.0
 20
0.0
 30
0.0
  3
*Paper_Space0
  1

  0
ENDBLK
  5
25
330
23
100
AcDbEntity
  8
0
100
AcDbBlockEnd
  0
BLOCK
  5
70
330
6E
100
AcDbEntity
  8
0
100
AcDbBlockBegin
  2
1_023104_4
 70
     2
 10
0.0
 20
0.0
 30
0.0
  3
1_023104_4
  1

  0
ATTDEF
  5
73
330
6E
100
AcDbEntity
  8
AM_6
100
AcDbText
 10
8.125
 20
0.196875
 30
0.0
 40
0.5
  1
Four-Bolt Flange Expansion
100
AcDbAttributeDefinition
  3

  2
NN
 70
     8
280
     0
  0
ATTDEF
  5
74
330
6E
100
AcDbEntity
  8
AM_6
100
AcDbText
 10
8.125
 20
-0.303125
 30
0.0
 40
0.5
  1
Type E 4-Bolt Flange Bearing -Inch
100
AcDbAttributeDefinition
  3

  2
NT
 70
     8
280
     0
  0
ATTDEF
  5
75
330
6E
100
AcDbEntity
  8
AM_6
100
AcDbText
 10
8.125
 20
-0.803125
 30
0.0
 40
0.5
  1
023104
100
AcDbAttributeDefinition
  3

  2
NB
 70
     8
280
     0
  0
ATTDEF
  5
76
330
6E
100
AcDbEntity
  8
AM_6
100
AcDbText
 10
8.125
 20
-1.303125
 30
0.0
 40
0.5
  1
$PN.
100
AcDbAttributeDefinition
  3

  2
NBSYN
 70
     8
280
     0
  0
ATTDEF
  5
77
330
6E
100
AcDbEntity
  8
AM_6
100
AcDbText
 10
8.125
 20
-1.803125
 30
0.0
 40
0.5
  1
023104
100
AcDbAttributeDefinition
  3

  2
LINA
 70
     8
280
     0
  0
ATTDEF
  5
78
330
6E
100
AcDbEntity
  8
AM_6
100
AcDbText
 10
8.125
 20
-2.303125
 30
0.0
 40
0.5
  1
2-3/16
100
AcDbAttributeDefinition
  3

  2
SS
 70
     8
280
     0
  0
ATTDEF
  5
79
330
6E
100
AcDbEntity
  8
AM_6
100
AcDbText
 10
8.125
 20
-2.803125
 30
0.0
 40
0.5
  1
023104
100
AcDbAttributeDefinition
  3

  2
PN
 70
     8
280
     0
  0
ATTDEF
  5
7A
330
6E
100
AcDbEntity
  8
AM_6
100
AcDbText
 10
8.125
 20
-3.303125
 30
0.0
 40
0.5
  1
F4B-E-203R
100
AcDbAttributeDefinition
  3

  2
DESCRIPTION
 70
     8
280
     0
  0
ATTDEF
  5
7B
330
6E
100
AcDbEntity
  8
AM_6
100
AcDbText
 10
8.125
 20
-3.803125
 30
0.0
 40
0.5
  1
3-7/8
100
AcDbAttributeDefinition
  3

  2
A
 70
     8
280
     0
  0
ATTDEF
  5
7C
330
6E
100
AcDbEntity
  8
AM_6
100
AcDbText
 10
8.125
 20
-4.303125
 30
0.0
 40
0.5
  1
6-1/4
100
AcDbAttributeDefinition
  3

  2
B
 70
     8
280
     0
  0
ATTDEF
  5
7D
330
6E
100
AcDbEntity
  8
AM_6
100
AcDbText
 10
8.125
 20
-4.803125
 30
0.0
 40
0.5
  1
3-9/32
100
AcDbAttributeDefinition
  3

  2
C
 70
     8
280
     0
  0
ATTDEF
  5
7E
330
6E
100
AcDbEntity
  8
AM_6
100
AcDbText
 10
8.125
 20
-5.303125
 30
0.0
 40
0.5
  1
4-7/8
100
AcDbAttributeDefinition
  3

  2
D
 70
     8
280
     0
  0
ATTDEF
  5
7F
330
6E
100
AcDbEntity
  8
AM_6
100
AcDbText
 10
8.125
 20
-5.803125
 30
0.0
 40
0.5
  1
1/8
100
AcDbAttributeDefinition
  3

  2
E
 70
     8
280
     0
  0
ATTDEF
  5
80
330
6E
100
AcDbEntity
  8
AM_6
100
AcDbText
 10
8.125
 20
-6.303125
 30
0.0
 40
0.5
  1
5/8
100
AcDbAttributeDefinition
  3

  2
F
 70
     8
280
     0
  0
ATTDEF
  5
81
330
6E
100
AcDbEntity
  8
AM_6
100
AcDbText
 10
8.125
 20
-6.803125
 30
0.0
 40
0.5
  1
1-3/8
100
AcDbAttributeDefinition
  3

  2
H
 70
     8
280
     0
  0
ATTDEF
  5
82
330
6E
100
AcDbEntity
  8
AM_6
100
AcDbText
 10
8.125
 20
-7.303125
 30
0.0
 40
0.5
  1
4-7/8
100
AcDbAttributeDefinition
  3

  2
J
 70
     8
280
     0
  0
ATTDEF
  5
83
330
6E
100
AcDbEntity
  8
AM_6
100
AcDbText
 10
8.125
 20
-7.803125
 30
0.0
 40
0.5
  1
3-3/4
100
AcDbAttributeDefinition
  3

  2
L
 70
     8
280
     0
  0
ATTDEF
  5
84
330
6E
100
AcDbEntity
  8
AM_6
100
AcDbText
 10
8.125
 20
-8.303125
 30
0.0
 40
0.5
  1
baldor
100
AcDbAttributeDefinition
  3

  2
COMPANY
 70
     8
280
     0
  0
INSERT
  5
86
330
6E
100
AcDbEntity
  8
0
100
AcDbBlockReference
  2
2_2_3_16C_1_0_in_023104_4
 10
0.0
 20
0.0
 30
0.0
  0
INSERT
  5
C6
330
6E
100
AcDbEntity
  8
0
100
AcDbBlockReference
  2
3_2_3_16C_2_0_in_023104_4
 10
0.0
 20
0.0
 30
0.0
  0
INSERT
  5
FC
330
6E
100
AcDbEntity
  8
0
100
AcDbBlockReference
  2
4_2_3_16I_0_in_023104_4
 10
0.0
 20
0.0
 30
0.0
  0
INSERT
  5
12B
330
6E
100
AcDbEntity
  8
0
100
AcDbBlockReference
  2
5_405015E_Inch_0_in_023104_4
 10
0.0
 20
0.0
 30
0.0
  0
INSERT
  5
149
330
6E
100
AcDbEntity
  8
0
100
AcDbBlockReference
  2
6_023104H_0_in_023104_4
 10
0.0
 20
0.0
 30
0.0
  0
ENDBLK
  5
71
330
6E
100
AcDbEntity
  8
0
100
AcDbBlockEnd
  0
BLOCK
  5
87
330
85
100
AcDbEntity
  8
0
100
AcDbBlockBegin
  2
2_2_3_16C_1_0_in_023104_4
 70
     2
 10
0.0
 20
0.0
 30
0.0
  3
2_2_3_16C_1_0_in_023104_4
  1

  0
ATTDEF
  5
89
330
85
100
AcDbEntity
  8
AM_6
100
AcDbText
 10
6.875
 20
-0.125
 30
0.0
 40
0.5
  1
E-Type Collar -Inch
100
AcDbAttributeDefinition
  3

  2
NN
 70
     8
280
     0
  0
ATTDEF
  5
8A
330
85
100
AcDbEntity
  8
AM_6
100
AcDbText
 10
6.875
 20
-0.625
 30
0.0
 40
0.5
  1
E-Type Bearings
100
AcDbAttributeDefinition
  3

  2
NT
 70
     8
280
     0
  0
ATTDEF
  5
8B
330
85
100
AcDbEntity
  8
AM_6
100
AcDbText
 10
6.875
 20
-1.125
 30
0.0
 40
0.5
  1
2-3/16C
100
AcDbAttributeDefinition
  3

  2
NB
 70
     8
280
     0
  0
ATTDEF
  5
8C
330
85
100
AcDbEntity
  8
AM_6
100
AcDbText
 10
6.875
 20
-1.625
 30
0.0
 40
0.5
  1
$BORE.C
100
AcDbAttributeDefinition
  3

  2
NBSYN
 70
     8
280
     0
  0
ATTDEF
  5
8D
330
85
100
AcDbEntity
  8
AM_6
100
AcDbText
 10
6.875
 20
-2.125
 30
0.0
 40
0.5
  1
2-3/16C
100
AcDbAttributeDefinition
  3

  2
LINA
 70
     8
280
     0
  0
ATTDEF
  5
8E
330
85
100
AcDbEntity
  8
AM_6
100
AcDbText
 10
6.875
 20
-2.625
 30
0.0
 40
0.5
  1
2-3/16
100
AcDbAttributeDefinition
  3

  2
BORE
 70
     8
280
     0
  0
ATTDEF
  5
8F
330
85
100
AcDbEntity
  8
AM_6
100
AcDbText
 10
6.875
 20
-3.125
 30
0.0
 40
0.5
  1
3.75000
100
AcDbAttributeDefinition
  3

  2
L
 70
     8
280
     0
  0
ATTDEF
  5
90
330
85
100
AcDbEntity
  8
AM_6
100
AcDbText
 10
6.875
 20
-3.625
 30
0.0
 40
0.5
  1
3.75
100
AcDbAttributeDefinition
  3

  2
A
 70
     8
280
     0
  0
ATTDEF
  5
91
330
85
100
AcDbEntity
  8
AM_6
100
AcDbText
 10
6.875
 20
-4.125
 30
0.0
 40
0.5
  1
1.66
100
AcDbAttributeDefinition
  3

  2
B
 70
     8
280
     0
  0
ATTDEF
  5
92
330
85
100
AcDbEntity
  8
AM_6
100
AcDbText
 10
6.875
 20
-4.625
 30
0.0
 40
0.5
  1
2.62
100
AcDbAttributeDefinition
  3

  2
C
 70
     8
280
     0
  0
ATTDEF
  5
93
330
85
100
AcDbEntity
  8
AM_6
100
AcDbText
 10
6.875
 20
-5.125
 30
0.0
 40
0.5
  1
3.81
100
AcDbAttributeDefinition
  3

  2
D
 70
     8
280
     0
  0
ATTDEF
  5
94
330
85
100
AcDbEntity
  8
AM_6
100
AcDbText
 10
6.875
 20
-5.625
 30
0.0
 40
0.5
  1
0.41
100
AcDbAttributeDefinition
  3

  2
E
 70
     8
280
     0
  0
ATTDEF
  5
95
330
85
100
AcDbEntity
  8
AM_6
100
AcDbText
 10
6.875
 20
-6.125
 30
0.0
 40
0.5
  1
0.31
100
AcDbAttributeDefinition
  3

  2
F
 70
     8
280
     0
  0
ATTDEF
  5
96
330
85
100
AcDbEntity
  8
AM_6
100
AcDbText
 10
6.875
 20
-6.625
 30
0.0
 40
0.5
  1
3/8-16
100
AcDbAttributeDefinition
  3

  2
CS
 70
     8
280
     0
  0
ATTDEF
  5
97
330
85
100
AcDbEntity
  8
AM_6
100
AcDbText
 10
6.875
 20
-7.125
 30
0.0
 40
0.5
  1
0.3750
100
AcDbAttributeDefinition
  3

  2
NDM
 70
     8
280
     0
  0
ATTDEF
  5
98
330
85
100
AcDbEntity
  8
AM_6
100
AcDbText
 10
6.875
 20
-7.625
 30
0.0
 40
0.5
  1
0.3070
100
AcDbAttributeDefinition
  3

  2
KDM
 70
     8
280
     0
  0
ATTDEF
  5
99
330
85
100
AcDbEntity
  8
AM_6
100
AcDbText
 10
6.875
 20
-8.125
 30
0.0
 40
0.5
  1
baldor
100
AcDbAttributeDefinition
  3

  2
COMPANY
 70
     8
280
     0
  0
LINE
  5
9C
330
85
100
AcDbEntity
  8
AM_9
100
AcDbLine
 10
1.225563850703691
 20
-0.2990777354678202
 30
0.0
 11
1.217722606740984
 21
-0.2892974570579555
 31
0.0
  0
LINE
  5
9D
330
85
100
AcDbEntity
  8
AM_9
100
AcDbLine
 10
1.217734277565467
 20
-0.5806879860792229
 30
0.0
 11
1.225563850703691
 21
-0.5709222645321798
 31
0.0
  0
LWPOLYLINE
  5
9E
330
85
100
AcDbEntity
  8
AM_9
100
AcDbPolyline
 90
       25
 70
     0
 43
0.0
 10
1.217687804714119
 20
-0.2892540489574431
 10
1.207877870763465
 20
-0.279636134291709
 10
1.19623866234334
 20
-0.2737646785659817
 10
1.183623829456746
 20
-0.2726972210723089
 10
1.170104790904515
 20
-0.276723584051089
 10
1.156717416451474
 20
-0.2856455555393791
 10
1.143306555287959
 20
-0.2997921564729877
 10
1.131401629901307
 20
-0.3176875118215021
 10
1.120613434846697
 20
-0.3402395915838069
 10
1.112568946198593
 20
-0.3641151017839351
 10
1.106640021413357
 20
-0.3912727778530405
 10
1.103725548357197
 20
-0.4170175593612723
 10
1.103292338809683
 20
-0.4441655709201421
 10
1.105230433715257
 20
-0.468888351591962
 10
1.109444203126136
 20
-0.493347965273682
 10
1.11554122547897
 20
-0.5157640119660297
 10
1.123505797038885
 20
-0.5365983984512762
 10
1.133161661846474
 20
-0.5553426089233473
 10
1.144162993580442
 20
-0.5712839314210579
 10
1.156378813189168
 20
-0.5840641491346457
 10
1.169250807072594
 20
-0.592853511707089
 10
1.182304822413864
 20
-0.5971355537962306
 10
1.195220801754425
 20
-0.5965108368709453
 10
1.207162093031304
 20
-0.5908823115864539
 10
1.217687881541866
 20
-0.5807458552169135
  0
LWPOLYLINE
  5
9F
330
85
100
AcDbEntity
  8
AM_9
100
AcDbPolyline
 90
        3
 70
     0
 43
0.0
 10
1.223674819004524
 20
-0.5720958296331025
 10
1.226258762522377
 20
-0.5675329473041641
 10
1.233344748189527
 20
-0.551636540645448
  0
LWPOLYLINE
  5
A0
330
85
100
AcDbEntity
  8
AM_9
100
AcDbPolyline
 90
        3
 70
     0
 43
0.0
 10
1.217687881541866
 20
-0.5807458552169135
 10
1.218278257112233
 20
-0.5799988167156935
 10
1.223674819004524
 20
-0.5720958296331025
  0
LINE
  5
A1
330
85
100
AcDbEntity
  8
AM_9
100
AcDbLine
 10
1.195284024933286
 20
-0.5886499999999999
 30
0.0
 11
1.668648582102528
 21
-0.5886499999999999
 31
0.0
  0
LINE
  5
A2
330
85
100
AcDbEntity
  8
AM_9
100
AcDbLine
 10
1.668648582102528
 20
-0.2813499999999999
 30
0.0
 11
1.195284024933286
 21
-0.28135
 31
0.0
  0
LINE
  5
A3
330
85
100
AcDbEntity
  8
AM_9
100
AcDbLine
 10
1.638368756332123
 20
-0.5709222645321796
 30
0.0
 11
1.660832796837436
 21
-0.5989413609150179
 31
0.0
  0
LINE
  5
A4
330
85
100
AcDbEntity
  8
AM_9
100
AcDbLine
 10
1.660753890752567
 20
-0.2711570575861698
 30
0.0
 11
1.638368756332123
 21
-0.2990777354678202
 31
0.0
  0
LWPOLYLINE
  5
A5
330
85
100
AcDbEntity
  8
AM_9
100
AcDbPolyline
 90
       14
 70
     0
 43
0.0
 10
1.660958010581733
 20
-0.5990975382198545
 10
1.651804607961593
 20
-0.5860006054517272
 10
1.64136478603014
 20
-0.566176914294301
 10
1.632274189076574
 20
-0.542766289811968
 10
1.62482578782588
 20
-0.5159737592152029
 10
1.619463005613971
 20
-0.4866100629426279
 10
1.616470391825639
 20
-0.4550549994474369
 10
1.616136658119314
 20
-0.4229112867691738
 10
1.618585603860872
 20
-0.3901993754168721
 10
1.62363725525927
 20
-0.3594234115226034
 10
1.631387490400063
 20
-0.3299596361181096
 10
1.640929257126556
 20
-0.3047910373437091
 10
1.652580296250484
 20
-0.2827509013759928
 10
1.660954684422961
 20
-0.270906610976364
  0
LWPOLYLINE
  5
A6
330
85
100
AcDbEntity
  8
AM_9
100
AcDbPolyline
 90
       19
 70
     0
 43
0.0
 10
1.660954684422961
 20
-0.270906610976364
 10
1.664695755157812
 20
-0.2664977865628774
 10
1.677994932354468
 20
-0.2547085516115605
 10
1.690550729092112
 20
-0.2487398985383042
 10
1.703342716599514
 20
-0.2477679390485368
 10
1.714869744893144
 20
-0.2516901896248372
 10
1.725909333634859
 20
-0.2604692250107264
 10
1.735659205259854
 20
-0.2733933278406388
 10
1.744433146198401
 20
-0.2906989732084285
 10
1.751898349882844
 20
-0.3117538461126023
 10
1.758045876146041
 20
-0.3364835043793116
 10
1.762698668826865
 20
-0.3642148206238054
 10
1.765774547837873
 20
-0.3945692609428757
 10
1.767129048270766
 20
-0.426241647588975
 10
1.766697296003898
 20
-0.4590441648294058
 10
1.764458290555493
 20
-0.490736045361026
 10
1.760269563351932
 20
-0.5217301453093324
 10
1.755723939860103
 20
-0.543951627336978
 10
1.749928088352629
 20
-0.5645469257368406
  0
LWPOLYLINE
  5
A7
330
85
100
AcDbEntity
  8
AM_9
100
AcDbPolyline
 90
        3
 70
     0
 43
0.0
 10
1.223714487182209
 20
-0.2979700791526177
 10
1.218159926832876
 20
-0.2898497317729374
 10
1.217687804714119
 20
-0.2892540489574431
  0
LWPOLYLINE
  5
A8
330
85
100
AcDbEntity
  8
AM_9
100
AcDbPolyline
 90
       13
 70
     0
 43
0.0
 10
1.233344748189527
 20
-0.551636540645448
 10
1.239001520507405
 20
-0.5338298842288328
 10
1.243651108067772
 20
-0.5131980409075466
 10
1.247354259132998
 20
-0.4884136302434233
 10
1.249635188613986
 20
-0.4610028108095905
 10
1.250316238770782
 20
-0.4353886136677713
 10
1.249633833306408
 20
-0.4089715677284158
 10
1.24772328382789
 20
-0.3849025740524719
 10
1.2445029371163
 20
-0.3615604561750478
 10
1.240038616756095
 20
-0.340166717674293
 10
1.234221358627692
 20
-0.3207607577255258
 10
1.226906623985175
 20
-0.3037018040779894
 10
1.223714487182209
 20
-0.2979700791526177
  0
LWPOLYLINE
  5
A9
330
85
100
AcDbEntity
  8
AM_9
100
AcDbPolyline
 90
       38
 70
     0
 43
0.0
 10
-0.1169195681060018
 20
-0.5552602045996665
 10
-0.0968761104075344
 20
-0.5698978426044946
 10
-0.0749655123458165
 20
-0.5815903071429309
 10
-0.0470096646588856
 20
-0.591418229377821
 10
-0.0178181356389018
 20
-0.5966420840917925
 10
0.0128401243020614
 20
-0.5970389640408639
 10
0.0431413143684511
 20
-0.5924055755810831
 10
0.0724574129671808
 20
-0.5826697765546371
 10
0.0996715974876981
 20
-0.5681178221070146
 10
0.1234687285928007
 20
-0.5493885194528116
 10
0.1435739501865449
 20
-0.5267593993237856
 10
0.158432687953889
 20
-0.5022004868277191
 10
0.1686374801964282
 20
-0.4753594039249274
 10
0.173433016068798
 20
-0.4491931209404905
 10
0.1736119972021084
 20
-0.4225866877449846
 10
0.1694168156484193
 20
-0.3976414095973382
 10
0.1612044595616471
 20
-0.3737271355862828
 10
0.14907249734773
 20
-0.3512282180813726
 10
0.1335616698389397
 20
-0.3309195995534494
 10
0.113919991619223
 20
-0.3122717019767757
 10
0.0915968594640173
 20
-0.2969110336076957
 10
0.0654053246583159
 20
-0.28447510403814
 10
0.0375483564145734
 20
-0.2763444418270007
 10
0.0073778429857942
 20
-0.2726622760978181
 10
-0.0229942623477532
 20
-0.2739312346299309
 10
-0.0532283287335609
 20
-0.2803381081819576
 10
-0.0819380136854187
 20
-0.2917078824602918
 10
-0.1080073096082413
 20
-0.307704503181939
 10
-0.1308712515417479
 20
-0.327986872148174
 10
-0.1489625528085103
 20
-0.351075782582884
 10
-0.1626131106124983
 20
-0.3770451677014376
 10
-0.1706937874618683
 20
-0.4031015062360568
 10
-0.1740468477461517
 20
-0.4301854383196511
 10
-0.1726767003976566
 20
-0.4557159958891534
 10
-0.1670719717738604
 20
-0.4806545100437455
 10
-0.1575091023209958
 20
-0.5040792120377394
 10
-0.1443591062608469
 20
-0.5256824509673882
 10
-0.1169195681060018
 20
-0.5552602045996665
  0
LINE
  5
AA
330
85
100
AcDbEntity
  8
AM_9
100
AcDbLine
 10
-1.31
 20
-0.125
 30
0.0
 11
-1.31
 21
-0.745
 31
0.0
  0
LINE
  5
AB
330
85
100
AcDbEntity
  8
AM_9
100
AcDbLine
 10
1.31
 20
-0.745
 30
0.0
 11
1.31
 21
-0.125
 31
0.0
  0
LINE
  5
AC
330
85
100
AcDbEntity
  8
AM_9
100
AcDbLine
 10
-1.30298469910941
 20
-0.125
 30
0.0
 11
-1.771666666666667
 21
-0.125
 31
0.0
  0
LINE
  5
AD
330
85
100
AcDbEntity
  8
AM_9
100
AcDbLine
 10
1.771666666666667
 20
-0.125
 30
0.0
 11
1.302984699109409
 21
-0.125
 31
0.0
  0
ARC
  5
AE
330
85
100
AcDbEntity
  8
AM_9
100
AcDbCircle
 10
-1.771666666666666
 20
-0.2283333333333338
 30
0.0
 40
0.1033333333333337
100
AcDbArc
 50
90.0
 51
179.9999991462263
  0
ARC
  5
AF
330
85
100
AcDbEntity
  8
AM_9
100
AcDbCircle
 10
1.771666666666666
 20
-0.2283333333333338
 30
0.0
 40
0.1033333333333337
100
AcDbArc
 50
0.0000008537736463
 51
90.0
  0
LWPOLYLINE
  5
B0
330
85
100
AcDbEntity
  8
AM_9
100
AcDbPolyline
 90
       10
 70
     0
 43
0.0
 10
1.749928088352629
 20
-0.5645469257368406
 10
1.742815010880291
 20
-0.582998296862274
 10
1.734358026323753
 20
-0.5986673503101638
 10
1.723867337888963
 20
-0.6115761890222003
 10
1.711894938147273
 20
-0.6197943484741312
 10
1.699994639295626
 20
-0.6224926681808467
 10
1.687300427817654
 20
-0.6201846171124143
 10
1.675180171374268
 20
-0.6132777549518726
 10
1.663063617494761
 20
-0.6016415253968511
 10
1.660958010581733
 20
-0.5990975382198545
  0
LINE
  5
B1
330
85
100
AcDbEntity
  8
AM_9
100
AcDbLine
 10
-1.875
 20
-0.2283333333333334
 30
0.0
 11
-1.875
 21
-0.745
 31
0.0
  0
LINE
  5
B2
330
85
100
AcDbEntity
  8
AM_9
100
AcDbLine
 10
1.875
 20
-0.745
 30
0.0
 11
1.875
 21
-0.2283333333333334
 31
0.0
  0
LINE
  5
B3
330
85
100
AcDbEntity
  8
AM_9
100
AcDbLine
 10
-1.302984699109409
 20
-0.2283333333333333
 30
0.0
 11
-1.875
 21
-0.2283333333333334
 31
0.0
  0
LINE
  5
B4
330
85
100
AcDbEntity
  8
AM_9
100
AcDbLine
 10
1.875
 20
-0.2283333333333334
 30
0.0
 11
1.30298469910941
 21
-0.2283333333333333
 31
0.0
  0
LINE
  5
B5
330
85
100
AcDbEntity
  8
AM_9
100
AcDbLine
 10
-1.30298469910941
 20
-0.7449999999999999
 30
0.0
 11
-1.875
 21
-0.745
 31
0.0
  0
LINE
  5
B6
330
85
100
AcDbEntity
  8
AM_9
100
AcDbLine
 10
1.875
 20
-0.745
 30
0.0
 11
1.302984699109409
 21
-0.7449999999999999
 31
0.0
  0
ELLIPSE
  5
B7
330
85
100
AcDbEntity
  8
AM_9
100
AcDbEllipse
 10
1.195284024933286
 20
-0.4349999999999999
 30
0.0
 11
-2.822504710334861E-17
 21
-0.15365
 31
0.0
210
0.0
220
0.0
230
1.0
 40
0.4226182617407007
 41
0.0
 42
6.283185307179586
  0
ELLIPSE
  5
B8
330
85
100
AcDbEntity
  8
AM_9
100
AcDbEllipse
 10
1.668648582102528
 20
-0.4349999999999999
 30
0.0
 11
-2.822504710334864E-17
 21
-0.1536500000000001
 31
0.0
210
0.0
220
0.0
230
1.0
 40
0.422618261740696
 41
0.0
 42
6.283185307179586
  0
LINE
  5
BB
330
85
100
AcDbEntity
  8
AM_7
100
AcDbLine
 10
-0.1613325
 20
-0.4349999999999999
 30
0.0
 11
0.1613325
 21
-0.4349999999999999
 31
0.0
  0
CIRCLE
  5
BD
330
85
100
AcDbEntity
  8
AM_4
100
AcDbCircle
 10
0.0
 20
-0.4349999999999999
 30
0.0
 40
0.15365
  0
LINE
  5
BE
330
85
100
AcDbEntity
  8
AM_4
100
AcDbLine
 10
1.302984699109409
 20
-0.125
 30
0.0
 11
-1.30298469910941
 21
-0.125
 31
0.0
  0
LWPOLYLINE
  5
BF
330
85
100
AcDbEntity
  8
AM_4
100
AcDbPolyline
 90
       38
 70
     0
 43
0.0
 10
-0.1156843887599916
 20
-0.5779914989144901
 10
-0.1346589125079523
 20
-0.558397856698061
 10
-0.150574144984352
 20
-0.5362394437886354
 10
-0.1646397636859034
 20
-0.5083519479398245
 10
-0.1740390440893348
 20
-0.4785508203173027
 10
-0.1785848526147405
 20
-0.4465412708950595
 10
-0.1778369323417803
 20
-0.4142158583624184
 10
-0.171602642803588
 20
-0.3819666360754635
 10
-0.1600596799874765
 20
-0.3512300881387277
 10
-0.1435246153066146
 20
-0.3231233099716314
 10
-0.1224070509872166
 20
-0.2982929618975152
 10
-0.0979929743320148
 20
-0.2781853731267087
 10
-0.0704360582366101
 20
-0.2626617736215494
 10
-0.0419429928855058
 20
-0.2527557005463763
 10
-0.0121600948143394
 20
-0.2479342449754603
 10
0.0167822781577211
 20
-0.2483475703124763
 10
0.0452441952444727
 20
-0.253603259848536
 10
0.0721478707993889
 20
-0.2634602497081237
 10
0.0970940967213501
 20
-0.2775453857451397
 10
0.1199846173009233
 20
-0.2959753125229771
 10
0.139644154583158
 20
-0.3178244221072751
 10
0.1562341261018555
 20
-0.3436838999173539
 10
0.16847860684634
 20
-0.3718772652740329
 10
0.1762832359808416
 20
-0.40292915786969
 10
0.1789416994705605
 20
-0.4348449763070922
 10
0.1762111852890172
 20
-0.4674924713039543
 10
0.1680985280779586
 20
-0.4992240724341841
 10
0.1546997894620078
 20
-0.5291284688433803
 10
0.1364027543295934
 20
-0.5562937810948672
 10
0.1141474510396178
 20
-0.5793129916999168
 10
0.0882199185494772
 20
-0.5980923095235618
 10
0.0605981466879227
 20
-0.6113782320692389
 10
0.0310779767168818
 20
-0.6196452951200937
 10
0.0019545325623003
 20
-0.6224682775722667
 10
-0.0272261901737235
 20
-0.6203129601392161
 10
-0.0550022330373131
 20
-0.6133886635508353
 10
-0.0812667605089298
 20
-0.6020159545892404
 10
-0.1156843887760639
 20
-0.5779914989526596
  0
LINE
  5
C0
330
85
100
AcDbEntity
  8
AM_4
100
AcDbLine
 10
1.30298469910941
 20
-0.2283333333333333
 30
0.0
 11
-1.302984699109409
 21
-0.2283333333333333
 31
0.0
  0
LINE
  5
C1
330
85
100
AcDbEntity
  8
AM_4
100
AcDbLine
 10
1.302984699109409
 20
-0.7449999999999999
 30
0.0
 11
-1.30298469910941
 21
-0.7449999999999999
 31
0.0
  0
ARC
  5
C3
330
85
100
AcDbEntity
  8
AM_5
100
AcDbCircle
 10
0.0
 20
-0.4349999999999998
 30
0.0
 40
0.1875
100
AcDbArc
 50
63.85157066748189
 51
3.851570667481932
  0
ARC
  5
C4
330
85
100
AcDbEntity
  8
AM_5
100
AcDbCircle
 10
0.0000000000004471
 20
-0.4349999999999477
 30
0.0
 40
0.1874999999995504
100
AcDbArc
 50
3.851570667475304
 51
15.00000000002032
  0
ENDBLK
  5
88
330
85
100
AcDbEntity
  8
0
100
AcDbBlockEnd
  0
BLOCK
  5
C7
330
C5
100
AcDbEntity
  8
0
100
AcDbBlockBegin
  2
3_2_3_16C_2_0_in_023104_4
 70
     2
 10
0.0
 20
0.0
 30
0.0
  3
3_2_3_16C_2_0_in_023104_4
  1

  0
ATTDEF
  5
C9
330
C5
100
AcDbEntity
  8
AM_6
100
AcDbText
 10
6.875
 20
-3.255
 30
0.0
 40
0.5
  1
E-Type Collar -Inch
100
AcDbAttributeDefinition
  3

  2
NN
 70
     8
280
     0
  0
ATTDEF
  5
CA
330
C5
100
AcDbEntity
  8
AM_6
100
AcDbText
 10
6.875
 20
-3.755
 30
0.0
 40
0.5
  1
E-Type Bearings
100
AcDbAttributeDefinition
  3

  2
NT
 70
     8
280
     0
  0
ATTDEF
  5
CB
330
C5
100
AcDbEntity
  8
AM_6
100
AcDbText
 10
6.875
 20
-4.255
 30
0.0
 40
0.5
  1
2-3/16C
100
AcDbAttributeDefinition
  3

  2
NB
 70
     8
280
     0
  0
ATTDEF
  5
CC
330
C5
100
AcDbEntity
  8
AM_6
100
AcDbText
 10
6.875
 20
-4.755
 30
0.0
 40
0.5
  1
$BORE.C
100
AcDbAttributeDefinition
  3

  2
NBSYN
 70
     8
280
     0
  0
ATTDEF
  5
CD
330
C5
100
AcDbEntity
  8
AM_6
100
AcDbText
 10
6.875
 20
-5.255
 30
0.0
 40
0.5
  1
2-3/16C
100
AcDbAttributeDefinition
  3

  2
LINA
 70
     8
280
     0
  0
ATTDEF
  5
CE
330
C5
100
AcDbEntity
  8
AM_6
100
AcDbText
 10
6.875
 20
-5.755
 30
0.0
 40
0.5
  1
2-3/16
100
AcDbAttributeDefinition
  3

  2
BORE
 70
     8
280
     0
  0
ATTDEF
  5
CF
330
C5
100
AcDbEntity
  8
AM_6
100
AcDbText
 10
6.875
 20
-6.255
 30
0.0
 40
0.5
  1
3.75000
100
AcDbAttributeDefinition
  3

  2
L
 70
     8
280
     0
  0
ATTDEF
  5
D0
330
C5
100
AcDbEntity
  8
AM_6
100
AcDbText
 10
6.875
 20
-6.755
 30
0.0
 40
0.5
  1
3.75
100
AcDbAttributeDefinition
  3

  2
A
 70
     8
280
     0
  0
ATTDEF
  5
D1
330
C5
100
AcDbEntity
  8
AM_6
100
AcDbText
 10
6.875
 20
-7.255
 30
0.0
 40
0.5
  1
1.66
100
AcDbAttributeDefinition
  3

  2
B
 70
     8
280
     0
  0
ATTDEF
  5
D2
330
C5
100
AcDbEntity
  8
AM_6
100
AcDbText
 10
6.875
 20
-7.755
 30
0.0
 40
0.5
  1
2.62
100
AcDbAttributeDefinition
  3

  2
C
 70
     8
280
     0
  0
ATTDEF
  5
D3
330
C5
100
AcDbEntity
  8
AM_6
100
AcDbText
 10
6.875
 20
-8.254999999999999
 30
0.0
 40
0.5
  1
3.81
100
AcDbAttributeDefinition
  3

  2
D
 70
     8
280
     0
  0
ATTDEF
  5
D4
330
C5
100
AcDbEntity
  8
AM_6
100
AcDbText
 10
6.875
 20
-8.754999999999999
 30
0.0
 40
0.5
  1
0.41
100
AcDbAttributeDefinition
  3

  2
E
 70
     8
280
     0
  0
ATTDEF
  5
D5
330
C5
100
AcDbEntity
  8
AM_6
100
AcDbText
 10
6.875
 20
-9.254999999999999
 30
0.0
 40
0.5
  1
0.31
100
AcDbAttributeDefinition
  3

  2
F
 70
     8
280
     0
  0
ATTDEF
  5
D6
330
C5
100
AcDbEntity
  8
AM_6
100
AcDbText
 10
6.875
 20
-9.754999999999999
 30
0.0
 40
0.5
  1
3/8-16
100
AcDbAttributeDefinition
  3

  2
CS
 70
     8
280
     0
  0
ATTDEF
  5
D7
330
C5
100
AcDbEntity
  8
AM_6
100
AcDbText
 10
6.875
 20
-10.255
 30
0.0
 40
0.5
  1
0.3750
100
AcDbAttributeDefinition
  3

  2
NDM
 70
     8
280
     0
  0
ATTDEF
  5
D8
330
C5
100
AcDbEntity
  8
AM_6
100
AcDbText
 10
6.875
 20
-10.755
 30
0.0
 40
0.5
  1
0.3070
100
AcDbAttributeDefinition
  3

  2
KDM
 70
     8
280
     0
  0
ATTDEF
  5
D9
330
C5
100
AcDbEntity
  8
AM_6
100
AcDbText
 10
6.875
 20
-11.255
 30
0.0
 40
0.5
  1
baldor
100
AcDbAttributeDefinition
  3

  2
COMPANY
 70
     8
280
     0
  0
LINE
  5
DA
330
C5
100
AcDbEntity
  8
AM_9
100
AcDbLine
 10
1.225563850703691
 20
-3.42907773546782
 30
0.0
 11
1.217730804683093
 21
-3.419307682241178
 31
0.0
  0
LINE
  5
DB
330
C5
100
AcDbEntity
  8
AM_9
100
AcDbLine
 10
1.217816328964344
 20
-3.710585644470066
 30
0.0
 11
1.225563850703691
 21
-3.70092226453218
 31
0.0
  0
LWPOLYLINE
  5
DC
330
C5
100
AcDbEntity
  8
AM_9
100
AcDbPolyline
 90
       26
 70
     0
 43
0.0
 10
1.217684314164585
 20
-3.419249695645515
 10
1.216999396072268
 20
-3.418409692857069
 10
1.206362002735438
 20
-3.408581770622179
 10
1.194683641023379
 20
-3.403357915908207
 10
1.18177525377375
 20
-3.402961035959136
 10
1.168386903965579
 20
-3.407594424418916
 10
1.154820036961259
 20
-3.417330223445362
 10
1.141698668648096
 20
-3.431882177892986
 10
1.12979606196759
 20
-3.450611480547188
 10
1.119434091176485
 20
-3.473240600676214
 10
1.111592513900956
 20
-3.497799513172281
 10
1.106115373294207
 20
-3.524640596075072
 10
1.103518187254809
 20
-3.550806879059509
 10
1.103419024349801
 20
-3.577413312255015
 10
1.10569528589723
 20
-3.602358590402661
 10
1.110111606136304
 20
-3.626272864413717
 10
1.116550127683316
 20
-3.648771781918627
 10
1.124630728156065
 20
-3.66908040044655
 10
1.134619270852658
 20
-3.687728298023224
 10
1.145646884395766
 20
-3.703088966392304
 10
1.158137890744344
 20
-3.71552489596186
 10
1.170906775726575
 20
-3.723655558172999
 10
1.184122051604663
 20
-3.727337723902182
 10
1.196798082246531
 20
-3.726068765370069
 10
1.208773773828
 20
-3.719661891818042
 10
1.217685908410275
 20
-3.710748316149483
  0
LWPOLYLINE
  5
DD
330
C5
100
AcDbEntity
  8
AM_9
100
AcDbPolyline
 90
       12
 70
     0
 43
0.0
 10
1.221095968927605
 20
-3.706125695052371
 10
1.22886418038631
 20
-3.692295496818061
 10
1.236632271926409
 20
-3.672013127851826
 10
1.242516554667284
 20
-3.648924217417116
 10
1.246803816034648
 20
-3.622954832298562
 10
1.24928127022974
 20
-3.596898493763943
 10
1.250293238592868
 20
-3.569814561680349
 10
1.249881487022084
 20
-3.544284004110846
 10
1.248175629209625
 20
-3.519345489956254
 10
1.245216622848759
 20
-3.49592078796226
 10
1.241041179679522
 20
-3.474317549032611
 10
1.231937313881441
 20
-3.444739795400333
  0
LWPOLYLINE
  5
DE
330
C5
100
AcDbEntity
  8
AM_9
100
AcDbPolyline
 90
        3
 70
     0
 43
0.0
 10
1.217685908410275
 20
-3.710748316149483
 10
1.219566981798516
 20
-3.708292117539708
 10
1.221095968927605
 20
-3.706125695052371
  0
LINE
  5
DF
330
C5
100
AcDbEntity
  8
AM_9
100
AcDbLine
 10
1.195284024933286
 20
-3.71865
 30
0.0
 11
1.668648582102528
 21
-3.71865
 31
0.0
  0
LINE
  5
E0
330
C5
100
AcDbEntity
  8
AM_9
100
AcDbLine
 10
1.668648582102528
 20
-3.41135
 30
0.0
 11
1.195284024933286
 21
-3.41135
 31
0.0
  0
ELLIPSE
  5
E1
330
C5
100
AcDbEntity
  8
AM_9
100
AcDbEllipse
 10
1.668648582102528
 20
-3.565
 30
0.0
 11
-2.822504710334843E-17
 21
-0.153649999999999
 31
0.0
210
0.0
220
0.0
230
1.0
 40
0.4226182617406991
 41
3.468605006200031
 42
5.960899882899533
  0
LINE
  5
E2
330
C5
100
AcDbEntity
  8
AM_9
100
AcDbLine
 10
1.638368756332123
 20
-3.70092226453218
 30
0.0
 11
1.660744480741957
 21
-3.728831205433825
 31
0.0
  0
LINE
  5
E3
330
C5
100
AcDbEntity
  8
AM_9
100
AcDbLine
 10
1.660899131886883
 20
-3.400975900267644
 30
0.0
 11
1.638368756332123
 21
-3.42907773546782
 31
0.0
  0
LWPOLYLINE
  5
E4
330
C5
100
AcDbEntity
  8
AM_9
100
AcDbPolyline
 90
       39
 70
     0
 43
0.0
 10
-0.1210596296870892
 20
-3.448363459354551
 10
-0.1380706071265539
 20
-3.466170115771167
 10
-0.1525342706923638
 20
-3.486801959092453
 10
-0.1643967438447615
 20
-3.511586369756576
 10
-0.171867175943953
 20
-3.538997189190409
 10
-0.1741232344449839
 20
-3.564611386332228
 10
-0.1718626982362602
 20
-3.591028432271584
 10
-0.1655966254627798
 20
-3.615097425947528
 10
-0.1552349511698029
 20
-3.638439543824952
 10
-0.1412573633607876
 20
-3.659833282325707
 10
-0.1236562657339953
 20
-3.679239242274474
 10
-0.1024002684883921
 20
-3.69629819592201
 10
-0.0781056686083389
 20
-3.710150268227062
 10
-0.0508998687165537
 20
-3.720363865708291
 10
-0.0216203839008321
 20
-3.726235321434018
 10
0.0085516278986332
 20
-3.727302778927691
 10
0.0393336208691126
 20
-3.723276415948911
 10
0.0684408241020619
 20
-3.71435444446062
 10
0.096394422998897
 20
-3.700207843527012
 10
0.1203075545524238
 20
-3.682312488178497
 10
0.1413136064491963
 20
-3.659760408416193
 10
0.1565972625778274
 20
-3.635884898216065
 10
0.1676657698532887
 20
-3.608727222146959
 10
0.1730481175155239
 20
-3.582982440638728
 10
0.173844925862248
 20
-3.555834429079857
 10
0.1702736894798126
 20
-3.531111648408038
 10
0.1624509144122021
 20
-3.506652034726317
 10
0.1509866320571244
 20
-3.48423598803397
 10
0.1357406240249632
 20
-3.463401601548723
 10
0.1168222329298378
 20
-3.444657391076652
 10
0.0946425783032135
 20
-3.428716068578942
 10
0.0691608229352953
 20
-3.415935850865354
 10
0.0412292577860663
 20
-3.407146488292911
 10
0.0116219643831865
 20
-3.402864446203769
 10
-0.019128806946244
 20
-3.403489163129054
 10
-0.0490551602363769
 20
-3.409117688413546
 10
-0.0784268920163287
 20
-3.420001183284306
 10
-0.100560790524411
 20
-3.432467052695836
 10
-0.1210596296870892
 20
-3.448363459354552
  0
LINE
  5
E5
330
C5
100
AcDbEntity
  8
AM_9
100
AcDbLine
 10
1.221686323832769
 20
-3.424753874676746
 30
0.0
 11
1.217684314164585
 21
-3.419249695645515
 31
0.0
  0
LWPOLYLINE
  5
E6
330
C5
100
AcDbEntity
  8
AM_9
100
AcDbPolyline
 90
        3
 70
     0
 43
0.0
 10
1.231937313881441
 20
-3.444739795400333
 10
1.224952589298932
 20
-3.430102157395505
 10
1.221686323832769
 20
-3.424753874676746
  0
LINE
  5
E7
330
C5
100
AcDbEntity
  8
AM_9
100
AcDbLine
 10
1.31
 20
-3.875
 30
0.0
 11
1.31
 21
-3.255
 31
0.0
  0
LINE
  5
E8
330
C5
100
AcDbEntity
  8
AM_9
100
AcDbLine
 10
-1.31
 20
-3.255
 30
0.0
 11
-1.31
 21
-3.875
 31
0.0
  0
LINE
  5
E9
330
C5
100
AcDbEntity
  8
AM_9
100
AcDbLine
 10
-1.875
 20
-3.255
 30
0.0
 11
1.875
 21
-3.255
 31
0.0
  0
LINE
  5
EA
330
C5
100
AcDbEntity
  8
AM_9
100
AcDbLine
 10
1.875
 20
-3.28125
 30
0.0
 11
1.875
 21
-3.255
 31
0.0
  0
LINE
  5
EB
330
C5
100
AcDbEntity
  8
AM_9
100
AcDbLine
 10
-1.875
 20
-3.255
 30
0.0
 11
-1.875
 21
-3.28125
 31
0.0
  0
ELLIPSE
  5
EC
330
C5
100
AcDbEntity
  8
AM_9
100
AcDbEllipse
 10
1.195284024933287
 20
-3.564999999999999
 30
0.0
 11
-2.822504710334884E-17
 21
-0.1536500000000012
 31
0.0
210
0.0
220
0.0
230
1.0
 40
0.4226182617407002
 41
0.0
 42
6.283185307179586
  0
LINE
  5
ED
330
C5
100
AcDbEntity
  8
AM_7
100
AcDbLine
 10
-0.1613325
 20
-3.565
 30
0.0
 11
0.1613325
 21
-3.565
 31
0.0
  0
ELLIPSE
  5
EE
330
C5
100
AcDbEntity
  8
AM_4
100
AcDbEllipse
 10
1.668648582102528
 20
-3.565
 30
0.0
 11
-2.822504710334859E-17
 21
-0.1536499999999998
 31
0.0
210
0.0
220
0.0
230
1.0
 40
0.4226182617407009
 41
5.960899882899528
 42
9.751790313379626
  0
LWPOLYLINE
  5
EF
330
C5
100
AcDbEntity
  8
AM_4
100
AcDbPolyline
 90
       15
 70
     0
 43
0.0
 10
1.660949571171962
 20
-3.729087009717454
 10
1.656013432211886
 20
-3.72245461425486
 10
1.645135837566057
 20
-3.704024687477022
 10
1.635591458326526
 20
-3.682175577892725
 10
1.62739075315443
 20
-3.656316100082646
 10
1.621250905732262
 20
-3.628122734725967
 10
1.617300997987816
 20
-3.59707084213031
 10
1.615946677156673
 20
-3.565155023692907
 10
1.617337755497692
 20
-3.532507528696045
 10
1.621442576628387
 20
-3.500775927565816
 10
1.628154979557086
 20
-3.470871531156619
 10
1.637178173585232
 20
-3.443706218905132
 10
1.647933140952222
 20
-3.420687008300082
 10
1.660161757761957
 20
-3.401907690476438
 10
1.66095549394161
 20
-3.400905601108953
  0
LWPOLYLINE
  5
F0
330
C5
100
AcDbEntity
  8
AM_4
100
AcDbPolyline
 90
        8
 70
     0
 43
0.0
 10
1.66095549394161
 20
-3.400905601108953
 10
1.672826711458267
 20
-3.388621767930761
 10
1.685959537790104
 20
-3.380354704879906
 10
1.698497127113801
 20
-3.377531722427733
 10
1.710654225845617
 20
-3.379687039860783
 10
1.721838515061629
 20
-3.386611336449164
 10
1.732075029802824
 20
-3.397984045410759
 10
1.744979950332847
 20
-3.422008501053115
  0
LINE
  5
F1
330
C5
100
AcDbEntity
  8
AM_4
100
AcDbLine
 10
-1.771666666666667
 20
-3.875
 30
0.0
 11
1.771666666665424
 21
-3.875
 31
0.0
  0
ARC
  5
F2
330
C5
100
AcDbEntity
  8
AM_4
100
AcDbCircle
 10
1.771666666666666
 20
-3.771666666666665
 30
0.0
 40
0.1033333333333348
100
AcDbArc
 50
270.0
 51
0.0
  0
ARC
  5
F3
330
C5
100
AcDbEntity
  8
AM_4
100
AcDbCircle
 10
-1.771666666666666
 20
-3.771666666666665
 30
0.0
 40
0.1033333333333344
100
AcDbArc
 50
180.0
 51
270.0
  0
LINE
  5
F4
330
C5
100
AcDbEntity
  8
AM_4
100
AcDbLine
 10
-1.875
 20
-3.771666666666666
 30
0.0
 11
1.875
 21
-3.771666666666666
 31
0.0
  0
LWPOLYLINE
  5
F5
330
C5
100
AcDbEntity
  8
AM_4
100
AcDbPolyline
 90
       19
 70
     0
 43
0.0
 10
1.744979950332847
 20
-3.422008501053115
 10
1.751848170384818
 20
-3.441602143301939
 10
1.75747406641925
 20
-3.463760556211364
 10
1.76234403770874
 20
-3.491648052060175
 10
1.765542892242155
 20
-3.521449179682697
 10
1.767076607969313
 20
-3.55345872910494
 10
1.766823537209584
 20
-3.585784141637581
 10
1.764719099834994
 20
-3.618033363924536
 10
1.760768245554552
 20
-3.648769911861272
 10
1.754997532219964
 20
-3.676876690028368
 10
1.747433449116935
 20
-3.701707038102485
 10
1.738416536989464
 20
-3.721814626873291
 10
1.727895199495095
 20
-3.73733822637845
 10
1.716624730085891
 20
-3.747244299453623
 10
1.704430441428422
 20
-3.752065755024539
 10
1.692163687594777
 20
-3.751652429687523
 10
1.679711273305882
 20
-3.746396740151464
 10
1.667575720059342
 20
-3.736539750291876
 10
1.660949571171962
 20
-3.729087009717454
  0
LINE
  5
F6
330
C5
100
AcDbEntity
  8
AM_4
100
AcDbLine
 10
1.875
 20
-3.771666666666666
 30
0.0
 11
1.875
 21
-3.28125
 31
0.0
  0
LINE
  5
F7
330
C5
100
AcDbEntity
  8
AM_4
100
AcDbLine
 10
-1.875
 20
-3.28125
 30
0.0
 11
-1.875
 21
-3.771666666666666
 31
0.0
  0
LWPOLYLINE
  5
F8
330
C5
100
AcDbEntity
  8
AM_4
100
AcDbPolyline
 90
       39
 70
     0
 43
0.0
 10
-0.1293050585827832
 20
-3.435453074329847
 10
-0.1098017759087306
 20
-3.417001703137726
 10
-0.0872455290487922
 20
-3.401332649689836
 10
-0.060135731868372
 20
-3.3884238109778
 10
-0.0302617738501654
 20
-3.380205651525868
 10
-0.0015809602452458
 20
-3.377507331819153
 10
0.0280088780928772
 20
-3.379815382887585
 10
0.0553820978360594
 20
-3.386722245048127
 10
0.0819630911917446
 20
-3.398358474603149
 10
0.1060152845573636
 20
-3.413999394548273
 10
0.1277994857029504
 20
-3.433823085705699
 10
0.1463872705080327
 20
-3.457233710188031
 10
0.1613664833202883
 20
-3.484026240784797
 10
0.1720172416540141
 20
-3.513389937057372
 10
0.1779133095435913
 20
-3.544945000552563
 10
0.1785687618194634
 20
-3.577088713230826
 10
0.1737493839884968
 20
-3.609800624583128
 10
0.1637365010452134
 20
-3.640576588477396
 10
0.1481820942184263
 20
-3.67004036388189
 10
0.1286979380122211
 20
-3.695208962656291
 10
0.1043772444799574
 20
-3.717249098624007
 10
0.0784258614102362
 20
-3.733502213437122
 10
0.0490974509301583
 20
-3.745291448388439
 10
0.0205257258546889
 20
-3.751260101461695
 10
-0.0095539561107413
 20
-3.752232060951463
 10
-0.0375849481367854
 20
-3.748309810375162
 10
-0.0653412434902611
 20
-3.739530774989273
 10
-0.0906735640587233
 20
-3.726606672159361
 10
-0.1141942806941151
 20
-3.709301026791572
 10
-0.1347989128799701
 20
-3.688246153887397
 10
-0.1522116268381176
 20
-3.663516495620688
 10
-0.1656779979375553
 20
-3.635785179376194
 10
-0.1747244938678357
 20
-3.605430739057124
 10
-0.1787460662732055
 20
-3.573758352411025
 10
-0.1774616176375878
 20
-3.540955835170594
 10
-0.1708388048889145
 20
-3.509263954638973
 10
-0.1586155660893938
 20
-3.478269854690667
 10
-0.1455854351233077
 20
-3.456048372663022
 10
-0.1293050586579802
 20
-3.43545307428269
  0
CIRCLE
  5
F9
330
C5
100
AcDbEntity
  8
AM_4
100
AcDbCircle
 10
0.0
 20
-3.565
 30
0.0
 40
0.15365
  0
CIRCLE
  5
FA
330
C5
100
AcDbEntity
  8
AM_5
100
AcDbCircle
 10
0.0000000000000003
 20
-3.565
 30
0.0
 40
0.1874999999999998
  0
ENDBLK
  5
C8
330
C5
100
AcDbEntity
  8
0
100
AcDbBlockEnd
  0
BLOCK
  5
FD
330
FB
100
AcDbEntity
  8
0
100
AcDbBlockBegin
  2
4_2_3_16I_0_in_023104_4
 70
     2
 10
0.0
 20
0.0
 30
0.0
  3
4_2_3_16I_0_in_023104_4
  1

  0
ATTDEF
  5
FF
330
FB
100
AcDbEntity
  8
AM_6
100
AcDbText
 10
6.905
 20
-0.1249999999999999
 30
0.0
 40
0.5
  1
E-Type Insert -Inch
100
AcDbAttributeDefinition
  3

  2
NN
 70
     8
280
     0
  0
ATTDEF
  5
100
330
FB
100
AcDbEntity
  8
AM_6
100
AcDbText
 10
6.905
 20
-0.6249999999999999
 30
0.0
 40
0.5
  1
E-Type Bearings
100
AcDbAttributeDefinition
  3

  2
NT
 70
     8
280
     0
  0
ATTDEF
  5
101
330
FB
100
AcDbEntity
  8
AM_6
100
AcDbText
 10
6.905
 20
-1.125
 30
0.0
 40
0.5
  1
2-3/16I
100
AcDbAttributeDefinition
  3

  2
NB
 70
     8
280
     0
  0
ATTDEF
  5
102
330
FB
100
AcDbEntity
  8
AM_6
100
AcDbText
 10
6.905
 20
-1.625
 30
0.0
 40
0.5
  1
$BORE.I
100
AcDbAttributeDefinition
  3

  2
NBSYN
 70
     8
280
     0
  0
ATTDEF
  5
103
330
FB
100
AcDbEntity
  8
AM_6
100
AcDbText
 10
6.905
 20
-2.125
 30
0.0
 40
0.5
  1
2-3/16I
100
AcDbAttributeDefinition
  3

  2
LINA
 70
     8
280
     0
  0
ATTDEF
  5
104
330
FB
100
AcDbEntity
  8
AM_6
100
AcDbText
 10
6.905
 20
-2.625
 30
0.0
 40
0.5
  1
2-3/16
100
AcDbAttributeDefinition
  3

  2
BORE
 70
     8
280
     0
  0
ATTDEF
  5
105
330
FB
100
AcDbEntity
  8
AM_6
100
AcDbText
 10
6.905
 20
-3.125
 30
0.0
 40
0.5
  1
3.75
100
AcDbAttributeDefinition
  3

  2
A
 70
     8
280
     0
  0
ATTDEF
  5
106
330
FB
100
AcDbEntity
  8
AM_6
100
AcDbText
 10
6.905
 20
-3.625
 30
0.0
 40
0.5
  1
1.66
100
AcDbAttributeDefinition
  3

  2
B
 70
     8
280
     0
  0
ATTDEF
  5
107
330
FB
100
AcDbEntity
  8
AM_6
100
AcDbText
 10
6.905
 20
-4.125
 30
0.0
 40
0.5
  1
2.62
100
AcDbAttributeDefinition
  3

  2
C
 70
     8
280
     0
  0
ATTDEF
  5
108
330
FB
100
AcDbEntity
  8
AM_6
100
AcDbText
 10
6.905
 20
-4.625
 30
0.0
 40
0.5
  1
3.81
100
AcDbAttributeDefinition
  3

  2
D
 70
     8
280
     0
  0
ATTDEF
  5
109
330
FB
100
AcDbEntity
  8
AM_6
100
AcDbText
 10
6.905
 20
-5.125
 30
0.0
 40
0.5
  1
0.41
100
AcDbAttributeDefinition
  3

  2
E
 70
     8
280
     0
  0
ATTDEF
  5
10A
330
FB
100
AcDbEntity
  8
AM_6
100
AcDbText
 10
6.905
 20
-5.625
 30
0.0
 40
0.5
  1
0.31
100
AcDbAttributeDefinition
  3

  2
F
 70
     8
280
     0
  0
ATTDEF
  5
10B
330
FB
100
AcDbEntity
  8
AM_6
100
AcDbText
 10
6.905
 20
-6.125
 30
0.0
 40
0.5
  1
baldor
100
AcDbAttributeDefinition
  3

  2
COMPANY
 70
     8
280
     0
  0
LINE
  5
10C
330
FB
100
AcDbEntity
  8
AM_9
100
AcDbLine
 10
1.187166674542944
 20
-0.2300000000000003
 30
0.0
 11
0.991231512185421
 21
-0.2300000000000003
 31
0.0
  0
LINE
  5
10D
330
FB
100
AcDbEntity
  8
AM_9
100
AcDbLine
 10
0.9911565512960339
 20
-0.64
 30
0.0
 11
1.187243615302356
 21
-0.64
 31
0.0
  0
LWPOLYLINE
  5
10E
330
FB
100
AcDbEntity
  8
AM_9
100
AcDbPolyline
 90
       21
 70
     0
 43
0.0
 10
0.991267569884926
 20
-0.639999999410171
 10
1.000378736660757
 20
-0.6388140800077621
 10
1.013228701259785
 20
-0.6325102708517045
 10
1.024958243004676
 20
-0.6205466171425277
 10
1.034804574122129
 20
-0.6038179879495024
 10
1.043190286850594
 20
-0.5819181518624774
 10
1.049753595566585
 20
-0.5562149096165179
 10
1.054792550885977
 20
-0.5262559175344228
 10
1.058107386769583
 20
-0.4944869553561262
 10
1.059960699299208
 20
-0.4599997278353049
 10
1.060297495325592
 20
-0.4262875007429912
 10
1.059187428301864
 20
-0.3918430390868424
 10
1.056690696400891
 20
-0.3598409060624982
 10
1.052601406659576
 20
-0.3290644458149679
 10
1.046996762221767
 20
-0.3017141561651989
 10
1.039521428650871
 20
-0.2773698049441703
 10
1.030417516583134
 20
-0.2577870567163905
 10
1.019262715722774
 20
-0.2427624376329162
 10
1.006882140551875
 20
-0.233624003605447
 10
0.9927200430966966
 20
-0.2300287445339179
 10
0.9912811189736699
 20
-0.2300000006647512
  0
LWPOLYLINE
  5
10F
330
FB
100
AcDbEntity
  8
AM_9
100
AcDbPolyline
 90
       11
 70
     0
 43
0.0
 10
0.9912811189736699
 20
-0.2300000006647512
 10
0.978179635319253
 20
-0.2322212420144478
 10
0.9626591460804416
 20
-0.24015597984764
 10
0.9475826419054345
 20
-0.2531293538859444
 10
0.9326570553029073
 20
-0.2714973104181456
 10
0.9191122665415804
 20
-0.2941066726169409
 10
0.9070258742670754
 20
-0.3213762667459842
 10
0.8975611737000038
 20
-0.3513379202859586
 10
0.8907905588614028
 20
-0.3846646872763942
 10
0.8880226157456523
 20
-0.4094297315492127
 10
0.8870702708453244
 20
-0.4350000000000002
  0
LWPOLYLINE
  5
110
330
FB
100
AcDbEntity
  8
AM_9
100
AcDbPolyline
 90
       11
 70
     0
 43
0.0
 10
1.258544377429727
 20
-0.4675532880676763
 10
1.257909445104377
 20
-0.4793512161633581
 10
1.255009909735457
 20
-0.5119066151159591
 10
1.25047860519445
 20
-0.5423213990737893
 10
1.244206853618466
 20
-0.5699420532315232
 10
1.2362243568628
 20
-0.5938009693778805
 10
1.226426007962484
 20
-0.6133432339734084
 10
1.214984224131074
 20
-0.6278390826205537
 10
1.202089415021036
 20
-0.6367627622845455
 10
1.187994807188155
 20
-0.6399926698057764
 10
1.187267627554864
 20
-0.6399999997324191
  0
LWPOLYLINE
  5
111
330
FB
100
AcDbEntity
  8
AM_9
100
AcDbPolyline
 90
       10
 70
     0
 43
0.0
 10
1.187255988448757
 20
-0.2300000007103747
 10
1.196611501440097
 20
-0.2312424405520392
 10
1.2098504066168
 20
-0.237826015658281
 10
1.221754575886336
 20
-0.2498261027181242
 10
1.232136701328542
 20
-0.2670478668302009
 10
1.240862972675163
 20
-0.2889015133461503
 10
1.247935011410271
 20
-0.3151445627634994
 10
1.253279738979094
 20
-0.3447876688365391
 10
1.256912803697946
 20
-0.3770784593826647
 10
1.258717475969651
 20
-0.4065450843785485
  0
LWPOLYLINE
  5
112
330
FB
100
AcDbEntity
  8
AM_9
100
AcDbPolyline
 90
       10
 70
     0
 43
0.0
 10
1.187267627554864
 20
-0.6399999997324191
 10
1.173209392245749
 20
-0.6374052637773002
 10
1.158056630260816
 20
-0.6292254562242413
 10
1.143057977145476
 20
-0.6156335089690571
 10
1.128757632331982
 20
-0.5970856045848845
 10
1.115607700935603
 20
-0.5737755176169455
 10
1.10430601313953
 20
-0.5465713642563742
 10
1.095355868874587
 20
-0.5159880904781423
 10
1.089224033578982
 20
-0.4830729459322088
 10
1.085999105122733
 20
-0.4350000000000002
  0
LINE
  5
113
330
FB
100
AcDbEntity
  8
AM_9
100
AcDbLine
 10
1.187166674542944
 20
-3.36
 30
0.0
 11
0.991231512185421
 21
-3.36
 31
0.0
  0
LINE
  5
114
330
FB
100
AcDbEntity
  8
AM_9
100
AcDbLine
 10
0.9911565512960339
 20
-3.77
 30
0.0
 11
1.187243615302355
 21
-3.77
 31
0.0
  0
LWPOLYLINE
  5
115
330
FB
100
AcDbEntity
  8
AM_9
100
AcDbPolyline
 90
       21
 70
     0
 43
0.0
 10
0.991267569884926
 20
-3.76999999941017
 10
1.000378736660757
 20
-3.768814080007762
 10
1.013228701259785
 20
-3.762510270851704
 10
1.024958243004676
 20
-3.750546617142527
 10
1.034804574122129
 20
-3.733817987949502
 10
1.043190286850594
 20
-3.711918151862478
 10
1.049753595566585
 20
-3.686214909616518
 10
1.054792550885977
 20
-3.656255917534422
 10
1.058107386769583
 20
-3.624486955356126
 10
1.059960699299208
 20
-3.589999727835305
 10
1.060297495325592
 20
-3.55628750074299
 10
1.059187428301864
 20
-3.521843039086842
 10
1.056690696400891
 20
-3.489840906062498
 10
1.052601406659576
 20
-3.459064445814968
 10
1.046996762221767
 20
-3.431714156165198
 10
1.039521428650871
 20
-3.40736980494417
 10
1.030417516583134
 20
-3.38778705671639
 10
1.019262715722774
 20
-3.372762437632916
 10
1.006882140551875
 20
-3.363624003605446
 10
0.9927200430966966
 20
-3.360028744533917
 10
0.9912811189736699
 20
-3.360000000664751
  0
LWPOLYLINE
  5
116
330
FB
100
AcDbEntity
  8
AM_9
100
AcDbPolyline
 90
       11
 70
     0
 43
0.0
 10
0.9912811189736699
 20
-3.360000000664751
 10
0.978179635319253
 20
-3.362221242014447
 10
0.9626591460804416
 20
-3.370155979847639
 10
0.9475826419054345
 20
-3.383129353885944
 10
0.9326570553029073
 20
-3.401497310418145
 10
0.9191122665415804
 20
-3.424106672616941
 10
0.9070258742670754
 20
-3.451376266745984
 10
0.8975611737000038
 20
-3.481337920285958
 10
0.8907905588614028
 20
-3.514664687276394
 10
0.8880226157456523
 20
-3.539429731549212
 10
0.8870702708453244
 20
-3.565
  0
LWPOLYLINE
  5
117
330
FB
100
AcDbEntity
  8
AM_9
100
AcDbPolyline
 90
       11
 70
     0
 43
0.0
 10
1.258778259599737
 20
-3.591862766029148
 10
1.257909445104377
 20
-3.609351216163358
 10
1.255009909735457
 20
-3.641906615115959
 10
1.25047860519445
 20
-3.672321399073789
 10
1.244206853618466
 20
-3.699942053231523
 10
1.2362243568628
 20
-3.72380096937788
 10
1.226426007962484
 20
-3.743343233973408
 10
1.214984224131074
 20
-3.757839082620553
 10
1.202089415021036
 20
-3.766762762284546
 10
1.187994807188154
 20
-3.769992669805776
 10
1.187267627554863
 20
-3.769999999732419
  0
LWPOLYLINE
  5
118
330
FB
100
AcDbEntity
  8
AM_9
100
AcDbPolyline
 90
       11
 70
     0
 43
0.0
 10
1.187255988448757
 20
-3.360000000710375
 10
1.196611501440096
 20
-3.361242440552039
 10
1.2098504066168
 20
-3.36782601565828
 10
1.221754575886336
 20
-3.379826102718124
 10
1.232136701328542
 20
-3.3970478668302
 10
1.240862972675163
 20
-3.41890151334615
 10
1.247935011410271
 20
-3.445144562763499
 10
1.253279738979094
 20
-3.474787668836539
 10
1.256912803697946
 20
-3.507078459382664
 10
1.258879900665488
 20
-3.541041428781275
 10
1.258941421266486
 20
-3.542989023378969
  0
LWPOLYLINE
  5
119
330
FB
100
AcDbEntity
  8
AM_9
100
AcDbPolyline
 90
       10
 70
     0
 43
0.0
 10
1.187267627554863
 20
-3.769999999732419
 10
1.173209392245749
 20
-3.7674052637773
 10
1.158056630260816
 20
-3.759225456224241
 10
1.143057977145476
 20
-3.745633508969056
 10
1.128757632331982
 20
-3.727085604584884
 10
1.115607700935603
 20
-3.703775517616945
 10
1.104306013139529
 20
-3.676571364256373
 10
1.095355868874587
 20
-3.645988090478142
 10
1.089224033578981
 20
-3.613072945932208
 10
1.085999105122733
 20
-3.565
  0
LWPOLYLINE
  5
11A
330
FB
100
AcDbEntity
  8
AM_9
100
AcDbPolyline
 90
       11
 70
     0
 43
0.0
 10
0.8870702708453244
 20
-0.4350000000000002
 10
0.8887168599594041
 20
-0.4685888110146341
 10
0.893755661541187
 20
-0.502177622029268
 10
0.9016323475742489
 20
-0.5329321572006932
 10
0.9123771277514607
 20
-0.5617710953664071
 10
0.9250374797015194
 20
-0.5866058067792814
 10
0.9396230065102144
 20
-0.6078185190832832
 10
0.9548157017610724
 20
-0.6237512111223337
 10
0.9707545547236863
 20
-0.6346709198154936
 10
0.9857553711735149
 20
-0.639594003458411
 10
0.991267569884926
 20
-0.639999999410171
  0
LWPOLYLINE
  5
11B
330
FB
100
AcDbEntity
  8
AM_9
100
AcDbPolyline
 90
       11
 70
     0
 43
0.0
 10
0.8870702708453244
 20
-3.565
 10
0.8887168599594041
 20
-3.598588811014634
 10
0.893755661541187
 20
-3.632177622029268
 10
0.9016323475742489
 20
-3.662932157200693
 10
0.9123771277514607
 20
-3.691771095366406
 10
0.9250374797015194
 20
-3.716605806779282
 10
0.9396230065102144
 20
-3.737818519083283
 10
0.9548157017610724
 20
-3.753751211122333
 10
0.9707545547236863
 20
-3.764670919815493
 10
0.9857553711735149
 20
-3.769594003458411
 10
0.991267569884926
 20
-3.76999999941017
  0
LINE
  5
11C
330
FB
100
AcDbEntity
  8
AM_9
100
AcDbLine
 10
1.09375
 20
-3.875
 30
0.0
 11
1.09375
 21
-0.1249999999999999
 31
0.0
  0
LINE
  5
11D
330
FB
100
AcDbEntity
  8
AM_9
100
AcDbLine
 10
-1.09375
 20
-0.1249999999999999
 30
0.0
 11
-1.09375
 21
-3.875
 31
0.0
  0
LWPOLYLINE
  5
11E
330
FB
100
AcDbEntity
  8
AM_9
100
AcDbPolyline
 90
       38
 70
     0
 43
0.0
 10
-0.205
 20
-3.565
 10
-0.2022123957651323
 20
-3.531308057358984
 10
-0.1936089150950905
 20
-3.497616114717968
 10
-0.1799288980105058
 20
-3.466762575050416
 10
-0.1607928014479619
 20
-3.437836031036632
 10
-0.1375900678653783
 20
-3.413032986392439
 10
-0.1097797495292407
 20
-3.391871704816061
 10
-0.079503755607658
 20
-3.376044574451333
 10
-0.0460013251138731
 20
-3.365227934666111
 10
-0.012406790182845
 20
-3.360375779641414
 10
0.0225356821021837
 20
-3.361242440552039
 10
0.0555671354045748
 20
-3.367674650734048
 10
0.0879524176213551
 20
-3.379826102718124
 10
0.1171300288064869
 20
-3.396757447856401
 10
0.1438062314277612
 20
-3.41890151334615
 10
0.1660134283604553
 20
-3.444731377308925
 10
0.1840835009066646
 20
-3.474787668836539
 10
0.1965010689564302
 20
-3.506584848720728
 10
0.2035951543263181
 20
-3.541041428781275
 10
0.2047633457483493
 20
-3.574847448295978
 10
0.2001448715926319
 20
-3.609351216163358
 10
0.1902039849299883
 20
-3.641468582547036
 10
0.1746628675501594
 20
-3.672321399073789
 10
0.1546295751160205
 20
-3.699590841068176
 10
0.1296427866278933
 20
-3.72380096937788
 10
0.1014919388188295
 20
-3.743113408688945
 10
0.0695563671712618
 20
-3.757839082620553
 10
0.0366688362279887
 20
-3.766693818570835
 10
0.0017335875807117
 20
-3.769992669805776
 10
-0.0319009665459804
 20
-3.76750266253418
 10
-0.0655856093551428
 20
-3.759225456224241
 10
-0.0964814979249858
 20
-3.745876534017409
 10
-0.1255119786568299
 20
-3.727085604584884
 10
-0.1505419316099099
 20
-3.704147859585252
 10
-0.1719791576847947
 20
-3.676571364256374
 10
-0.1881198969557809
 20
-3.646461060448206
 10
-0.1992836969483429
 20
-3.613072945932208
 10
-0.205
 20
-3.565
  0
LWPOLYLINE
  5
11F
330
FB
100
AcDbEntity
  8
AM_9
100
AcDbPolyline
 90
       11
 70
     0
 43
0.0
 10
1.085999105122733
 20
-3.565
 10
1.08763514168906
 20
-3.530823508598725
 10
1.092402376900371
 20
-3.497616114717968
 10
1.100107002634787
 20
-3.466348644132232
 10
1.110331783159498
 20
-3.437836031036632
 10
1.122741359155195
 20
-3.412719823026687
 10
1.136692053960057
 20
-3.391871704816061
 10
1.151697256759834
 20
-3.375868237869494
 10
1.167089968380655
 20
-3.365227934666111
 10
1.182177837956293
 20
-3.360367279712249
 10
1.187255988448757
 20
-3.360000000710375
  0
LINE
  5
120
330
FB
100
AcDbEntity
  8
AM_9
100
AcDbLine
 10
1.31
 20
-3.875
 30
0.0
 11
1.31
 21
-2.83
 31
0.0
  0
LINE
  5
121
330
FB
100
AcDbEntity
  8
AM_9
100
AcDbLine
 10
-1.31
 20
-2.83
 30
0.0
 11
-1.31
 21
-3.875
 31
0.0
  0
LWPOLYLINE
  5
122
330
FB
100
AcDbEntity
  8
AM_9
100
AcDbPolyline
 90
       38
 70
     0
 43
0.0
 10
-0.205
 20
-0.4350000000000002
 10
-0.2022123957651323
 20
-0.4013080573589843
 10
-0.1936089150950905
 20
-0.3676161147179682
 10
-0.1799288980105058
 20
-0.3367625750504168
 10
-0.1607928014479619
 20
-0.3078360310366325
 10
-0.1375900678653783
 20
-0.2830329863924391
 10
-0.1097797495292407
 20
-0.2618717048160611
 10
-0.079503755607658
 20
-0.2460445744513334
 10
-0.0460013251138731
 20
-0.2352279346661108
 10
-0.012406790182845
 20
-0.230375779641415
 10
0.0225356821021837
 20
-0.2312424405520392
 10
0.0555671354045748
 20
-0.237674650734049
 10
0.0879524176213551
 20
-0.2498261027181242
 10
0.1171300288064869
 20
-0.2667574478564013
 10
0.1438062314277612
 20
-0.2889015133461501
 10
0.1660134283604554
 20
-0.3147313773089262
 10
0.1840835009066647
 20
-0.3447876688365391
 10
0.1965010689564303
 20
-0.3765848487207282
 10
0.2035951543263181
 20
-0.4110414287812753
 10
0.2047633457483493
 20
-0.4448474482959789
 10
0.2001448715926319
 20
-0.4793512161633581
 10
0.1902039849299882
 20
-0.5114685825470359
 10
0.1746628675501592
 20
-0.5423213990737893
 10
0.1546295751160205
 20
-0.569590841068176
 10
0.1296427866278933
 20
-0.5938009693778805
 10
0.1014919388188295
 20
-0.6131134086889446
 10
0.0695563671712618
 20
-0.6278390826205537
 10
0.0366688362279886
 20
-0.6366938185708353
 10
0.0017335875807116
 20
-0.6399926698057764
 10
-0.0319009665459804
 20
-0.6375026625341806
 10
-0.0655856093551428
 20
-0.6292254562242413
 10
-0.0964814979249858
 20
-0.6158765340174094
 10
-0.1255119786568299
 20
-0.5970856045848845
 10
-0.15054193160991
 20
-0.5741478595852527
 10
-0.1719791576847947
 20
-0.5465713642563742
 10
-0.1881198969557809
 20
-0.5164610604482068
 10
-0.1992836969483429
 20
-0.4830729459322088
 10
-0.205
 20
-0.4350000000000002
  0
LWPOLYLINE
  5
123
330
FB
100
AcDbEntity
  8
AM_9
100
AcDbPolyline
 90
       11
 70
     0
 43
0.0
 10
1.085999105122733
 20
-0.4350000000000002
 10
1.08763514168906
 20
-0.4008235085987253
 10
1.092402376900371
 20
-0.3676161147179682
 10
1.100107002634787
 20
-0.3363486441322321
 10
1.110331783159498
 20
-0.3078360310366325
 10
1.122741359155195
 20
-0.2827198230266882
 10
1.136692053960057
 20
-0.2618717048160608
 10
1.151697256759834
 20
-0.2458682378694939
 10
1.167089968380655
 20
-0.2352279346661108
 10
1.182177837956293
 20
-0.2303672797122492
 10
1.187255988448757
 20
-0.2300000007103747
  0
LINE
  5
124
330
FB
100
AcDbEntity
  8
AM_9
100
AcDbLine
 10
1.31
 20
-1.17
 30
0.0
 11
1.31
 21
-0.1249999999999999
 31
0.0
  0
LINE
  5
125
330
FB
100
AcDbEntity
  8
AM_9
100
AcDbLine
 10
-1.31
 20
-0.1249999999999999
 30
0.0
 11
-1.31
 21
-1.17
 31
0.0
  0
LINE
  5
126
330
FB
100
AcDbEntity
  8
AM_9
100
AcDbLine
 10
-1.905
 20
-1.17
 30
0.0
 11
1.905
 21
-1.17
 31
0.0
  0
LINE
  5
127
330
FB
100
AcDbEntity
  8
AM_9
100
AcDbLine
 10
-1.905
 20
-2.83
 30
0.0
 11
1.905
 21
-2.83
 31
0.0
  0
LINE
  5
128
330
FB
100
AcDbEntity
  8
AM_9
100
AcDbLine
 10
1.905
 20
-2.83
 30
0.0
 11
1.905
 21
-1.17
 31
0.0
  0
LINE
  5
129
330
FB
100
AcDbEntity
  8
AM_9
100
AcDbLine
 10
-1.905
 20
-1.17
 30
0.0
 11
-1.905
 21
-2.83
 31
0.0
  0
ENDBLK
  5
FE
330
FB
100
AcDbEntity
  8
0
100
AcDbBlockEnd
  0
BLOCK
  5
12C
330
12A
100
AcDbEntity
  8
0
100
AcDbBlockBegin
  2
5_405015E_Inch_0_in_023104_4
 70
     2
 10
0.0
 20
0.0
 30
0.0
  3
5_405015E_Inch_0_in_023104_4
  1

  0
ATTDEF
  5
12E
330
12A
100
AcDbEntity
  8
AM_6
100
AcDbText
 10
5.252590742770462
 20
-1.78125
 30
0.0
 40
0.5
  1
405015E -Inch
100
AcDbAttributeDefinition
  3

  2
NN
 70
     8
280
     0
  0
ATTDEF
  5
12F
330
12A
100
AcDbEntity
  8
AM_6
100
AcDbText
 10
5.252590742770462
 20
-2.28125
 30
0.0
 40
0.5
  1
Grease Fitting
100
AcDbAttributeDefinition
  3

  2
NT
 70
     8
280
     0
  0
ATTDEF
  5
130
330
12A
100
AcDbEntity
  8
AM_6
100
AcDbText
 10
5.252590742770462
 20
-2.78125
 30
0.0
 40
0.5
  1
405015E-Inch
100
AcDbAttributeDefinition
  3

  2
NB
 70
     8
280
     0
  0
ATTDEF
  5
131
330
12A
100
AcDbEntity
  8
AM_6
100
AcDbText
 10
5.252590742770462
 20
-3.28125
 30
0.0
 40
0.5
  1
$MN.-Inch
100
AcDbAttributeDefinition
  3

  2
NBSYN
 70
     8
280
     0
  0
ATTDEF
  5
132
330
12A
100
AcDbEntity
  8
AM_6
100
AcDbText
 10
5.252590742770462
 20
-3.78125
 30
0.0
 40
0.5
  1
405015E
100
AcDbAttributeDefinition
  3

  2
LINA
 70
     8
280
     0
  0
ATTDEF
  5
133
330
12A
100
AcDbEntity
  8
AM_6
100
AcDbText
 10
5.252590742770462
 20
-4.28125
 30
0.0
 40
0.5
  1
405015E
100
AcDbAttributeDefinition
  3

  2
MN
 70
     8
280
     0
  0
ATTDEF
  5
134
330
12A
100
AcDbEntity
  8
AM_6
100
AcDbText
 10
5.252590742770462
 20
-4.78125
 30
0.0
 40
0.5
  1
1/8 x 27PTF
100
AcDbAttributeDefinition
  3

  2
T
 70
     8
280
     0
  0
ATTDEF
  5
135
330
12A
100
AcDbEntity
  8
AM_6
100
AcDbText
 10
5.252590742770462
 20
-5.28125
 30
0.0
 40
0.5
  1
baldor
100
AcDbAttributeDefinition
  3

  2
COMPANY
 70
     8
280
     0
  0
CIRCLE
  5
136
330
12A
100
AcDbEntity
  8
AM_9
100
AcDbCircle
 10
0.0
 20
-2.0
 30
0.0
 40
0.161902872472269
  0
CIRCLE
  5
137
330
12A
100
AcDbEntity
  8
AM_9
100
AcDbCircle
 10
0.0
 20
-2.0
 30
0.0
 40
0.1986176267812154
  0
CIRCLE
  5
138
330
12A
100
AcDbEntity
  8
AM_9
100
AcDbCircle
 10
0.0
 20
-2.0
 30
0.0
 40
0.2057518972230696
  0
CIRCLE
  5
139
330
12A
100
AcDbEntity
  8
AM_9
100
AcDbCircle
 10
0.0
 20
-2.0
 30
0.0
 40
0.1188200907348975
  0
CIRCLE
  5
13A
330
12A
100
AcDbEntity
  8
AM_9
100
AcDbCircle
 10
0.0
 20
-2.0
 30
0.0
 40
0.105
  0
LINE
  5
13B
330
12A
100
AcDbEntity
  8
AM_4
100
AcDbLine
 10
-0.2525907427704613
 20
-2.0
 30
0.0
 11
-0.1262953713852306
 21
-2.21875
 31
0.0
  0
LINE
  5
13C
330
12A
100
AcDbEntity
  8
AM_4
100
AcDbLine
 10
-0.1262953713852306
 20
-1.78125
 30
0.0
 11
-0.2525907427704613
 21
-2.0
 31
0.0
  0
LINE
  5
13D
330
12A
100
AcDbEntity
  8
AM_4
100
AcDbLine
 10
0.2525907427704613
 20
-2.0
 30
0.0
 11
0.1262953713852306
 21
-1.78125
 31
0.0
  0
LINE
  5
13E
330
12A
100
AcDbEntity
  8
AM_4
100
AcDbLine
 10
0.1262953713852306
 20
-1.78125
 30
0.0
 11
-0.1262953713852306
 21
-1.78125
 31
0.0
  0
LINE
  5
13F
330
12A
100
AcDbEntity
  8
AM_4
100
AcDbLine
 10
-0.1262953713852306
 20
-2.21875
 30
0.0
 11
0.1262953713852306
 21
-2.21875
 31
0.0
  0
LINE
  5
140
330
12A
100
AcDbEntity
  8
AM_4
100
AcDbLine
 10
0.1262953713852306
 20
-2.21875
 30
0.0
 11
0.2525907427704613
 21
-2.0
 31
0.0
  0
CIRCLE
  5
141
330
12A
100
AcDbEntity
  8
AM_4
100
AcDbCircle
 10
0.0
 20
-2.0
 30
0.0
 40
0.21375
  0
CIRCLE
  5
142
330
12A
100
AcDbEntity
  8
AM_4
100
AcDbCircle
 10
0.0
 20
-2.0
 30
0.0
 40
0.1725340532830154
  0
CIRCLE
  5
143
330
12A
100
AcDbEntity
  8
AM_4
100
AcDbCircle
 10
0.0
 20
-2.0
 30
0.0
 40
0.1026779019331875
  0
CIRCLE
  5
144
330
12A
100
AcDbEntity
  8
AM_4
100
AcDbCircle
 10
0.0
 20
-2.0
 30
0.0
 40
0.135
  0
ARC
  5
145
330
12A
100
AcDbEntity
  8
AM_5
100
AcDbCircle
 10
0.0000000000000001
 20
-2.0
 30
0.0
 40
0.2025000050000001
100
AcDbArc
 50
74.99999999999996
 51
105.0
  0
ARC
  5
146
330
12A
100
AcDbEntity
  8
AM_5
100
AcDbCircle
 10
0.0000000000000002
 20
-2.0
 30
0.0
 40
0.2025000050000001
100
AcDbArc
 50
105.0000000000001
 51
45.00000000000008
  0
CIRCLE
  5
147
330
12A
100
AcDbEntity
  8
AM_4
100
AcDbCircle
 10
0.000000000000001
 20
-2.000000000000001
 30
0.0
 40
0.2187499999999982
  0
ENDBLK
  5
12D
330
12A
100
AcDbEntity
  8
0
100
AcDbBlockEnd
  0
BLOCK
  5
14A
330
148
100
AcDbEntity
  8
0
100
AcDbBlockBegin
  2
6_023104H_0_in_023104_4
 70
     2
 10
0.0
 20
0.0
 30
0.0
  3
6_023104H_0_in_023104_4
  1

  0
ATTDEF
  5
14C
330
148
100
AcDbEntity
  8
AM_6
100
AcDbText
 10
8.125
 20
0.196875
 30
0.0
 40
0.5
  1
F4B-E-Housing
100
AcDbAttributeDefinition
  3

  2
NN
 70
     8
280
     0
  0
ATTDEF
  5
14D
330
148
100
AcDbEntity
  8
AM_6
100
AcDbText
 10
8.125
 20
-0.303125
 30
0.0
 40
0.5
  1
Type E Flange Bearing -Inch (4-Bolt Flange)
100
AcDbAttributeDefinition
  3

  2
NT
 70
     8
280
     0
  0
ATTDEF
  5
14E
330
148
100
AcDbEntity
  8
AM_6
100
AcDbText
 10
8.125
 20
-0.803125
 30
0.0
 40
0.5
  1
023104H
100
AcDbAttributeDefinition
  3

  2
NB
 70
     8
280
     0
  0
ATTDEF
  5
14F
330
148
100
AcDbEntity
  8
AM_6
100
AcDbText
 10
8.125
 20
-1.303125
 30
0.0
 40
0.5
  1
$PN.H
100
AcDbAttributeDefinition
  3

  2
NBSYN
 70
     8
280
     0
  0
ATTDEF
  5
150
330
148
100
AcDbEntity
  8
AM_6
100
AcDbText
 10
8.125
 20
-1.803125
 30
0.0
 40
0.5
  1
023104
100
AcDbAttributeDefinition
  3

  2
LINA
 70
     8
280
     0
  0
ATTDEF
  5
151
330
148
100
AcDbEntity
  8
AM_6
100
AcDbText
 10
8.125
 20
-2.303125
 30
0.0
 40
0.5
  1
2-3/16
100
AcDbAttributeDefinition
  3

  2
SS
 70
     8
280
     0
  0
ATTDEF
  5
152
330
148
100
AcDbEntity
  8
AM_6
100
AcDbText
 10
8.125
 20
-2.803125
 30
0.0
 40
0.5
  1
023104
100
AcDbAttributeDefinition
  3

  2
PN
 70
     8
280
     0
  0
ATTDEF
  5
153
330
148
100
AcDbEntity
  8
AM_6
100
AcDbText
 10
8.125
 20
-3.303125
 30
0.0
 40
0.5
  1
F4B-E-203R
100
AcDbAttributeDefinition
  3

  2
DESCRIPTION
 70
     8
280
     0
  0
ATTDEF
  5
154
330
148
100
AcDbEntity
  8
AM_6
100
AcDbText
 10
8.125
 20
-3.803125
 30
0.0
 40
0.5
  1
3-7/8
100
AcDbAttributeDefinition
  3

  2
A
 70
     8
280
     0
  0
ATTDEF
  5
155
330
148
100
AcDbEntity
  8
AM_6
100
AcDbText
 10
8.125
 20
-4.303125
 30
0.0
 40
0.5
  1
6-1/4
100
AcDbAttributeDefinition
  3

  2
B
 70
     8
280
     0
  0
ATTDEF
  5
156
330
148
100
AcDbEntity
  8
AM_6
100
AcDbText
 10
8.125
 20
-4.803125
 30
0.0
 40
0.5
  1
3-9/32
100
AcDbAttributeDefinition
  3

  2
C
 70
     8
280
     0
  0
ATTDEF
  5
157
330
148
100
AcDbEntity
  8
AM_6
100
AcDbText
 10
8.125
 20
-5.303125
 30
0.0
 40
0.5
  1
1/8
100
AcDbAttributeDefinition
  3

  2
E
 70
     8
280
     0
  0
ATTDEF
  5
158
330
148
100
AcDbEntity
  8
AM_6
100
AcDbText
 10
8.125
 20
-5.803125
 30
0.0
 40
0.5
  1
0.125000
100
AcDbAttributeDefinition
  3

  2
E1
 70
     8
280
     0
  0
ATTDEF
  5
159
330
148
100
AcDbEntity
  8
AM_6
100
AcDbText
 10
8.125
 20
-6.303125
 30
0.0
 40
0.5
  1
5/8
100
AcDbAttributeDefinition
  3

  2
F
 70
     8
280
     0
  0
ATTDEF
  5
15A
330
148
100
AcDbEntity
  8
AM_6
100
AcDbText
 10
8.125
 20
-6.803125
 30
0.0
 40
0.5
  1
0.625000
100
AcDbAttributeDefinition
  3

  2
F1
 70
     8
280
     0
  0
ATTDEF
  5
15B
330
148
100
AcDbEntity
  8
AM_6
100
AcDbText
 10
8.125
 20
-7.303125
 30
0.0
 40
0.5
  1
1-3/8
100
AcDbAttributeDefinition
  3

  2
H
 70
     8
280
     0
  0
ATTDEF
  5
15C
330
148
100
AcDbEntity
  8
AM_6
100
AcDbText
 10
8.125
 20
-7.803125
 30
0.0
 40
0.5
  1
4-7/8
100
AcDbAttributeDefinition
  3

  2
J
 70
     8
280
     0
  0
ATTDEF
  5
15D
330
148
100
AcDbEntity
  8
AM_6
100
AcDbText
 10
8.125
 20
-8.303125
 30
0.0
 40
0.5
  1
4.8750000
100
AcDbAttributeDefinition
  3

  2
J1
 70
     8
280
     0
  0
ATTDEF
  5
15E
330
148
100
AcDbEntity
  8
AM_6
100
AcDbText
 10
8.125
 20
-8.803125
 30
0.0
 40
0.5
  1
3-3/4
100
AcDbAttributeDefinition
  3

  2
L
 70
     8
280
     0
  0
ATTDEF
  5
15F
330
148
100
AcDbEntity
  8
AM_6
100
AcDbText
 10
8.125
 20
-9.303125
 30
0.0
 40
0.5
  1
3.75
100
AcDbAttributeDefinition
  3

  2
AINS
 70
     8
280
     0
  0
ATTDEF
  5
160
330
148
100
AcDbEntity
  8
AM_6
100
AcDbText
 10
8.125
 20
-9.803125
 30
0.0
 40
0.5
  1
3.81
100
AcDbAttributeDefinition
  3

  2
BORE
 70
     8
280
     0
  0
ATTDEF
  5
161
330
148
100
AcDbEntity
  8
AM_6
100
AcDbText
 10
8.125
 20
-10.303125
 30
0.0
 40
0.5
  1
baldor
100
AcDbAttributeDefinition
  3

  2
COMPANY
 70
     8
280
     0
  0
LINE
  5
162
330
148
100
AcDbEntity
  8
AM_9
100
AcDbLine
 10
1.816629411852811
 20
-0.825
 30
0.0
 11
3.125
 21
-0.8249999999999998
 31
0.0
  0
LINE
  5
163
330
148
100
AcDbEntity
  8
AM_9
100
AcDbLine
 10
2.014344366111064
 20
-0.8249999999999998
 30
0.0
 11
2.014344366111064
 21
0.0000000000000001
 31
0.0
  0
LINE
  5
164
330
148
100
AcDbEntity
  8
AM_9
100
AcDbLine
 10
-3.125
 20
-0.8249999999999998
 30
0.0
 11
-1.816629411852813
 21
-0.825
 31
0.0
  0
LINE
  5
165
330
148
100
AcDbEntity
  8
AM_9
100
AcDbLine
 10
-2.01434439178515
 20
-0.8249999999999998
 30
0.0
 11
-2.01434439178515
 21
0.0000000000000001
 31
0.0
  0
LINE
  5
166
330
148
100
AcDbEntity
  8
AM_9
100
AcDbLine
 10
1.905
 20
-3.28125
 30
0.0
 11
1.905
 21
-0.8250000000000001
 31
0.0
  0
LINE
  5
167
330
148
100
AcDbEntity
  8
AM_9
100
AcDbLine
 10
-1.905
 20
-0.8250000000000001
 30
0.0
 11
-1.905
 21
-3.28125
 31
0.0
  0
LINE
  5
168
330
148
100
AcDbEntity
  8
AM_9
100
AcDbLine
 10
3.008858550891573
 20
-1.28125
 30
0.0
 11
3.008858550891573
 21
-1.375
 31
0.0
  0
LINE
  5
169
330
148
100
AcDbEntity
  8
AM_9
100
AcDbLine
 10
2.319813977040584
 20
-1.28125
 30
0.0
 11
3.125
 21
-1.28125
 31
0.0
  0
LINE
  5
16A
330
148
100
AcDbEntity
  8
AM_9
100
AcDbLine
 10
-3.008858550891572
 20
-1.28125
 30
0.0
 11
-3.008858550891572
 21
-1.375
 31
0.0
  0
LINE
  5
16B
330
148
100
AcDbEntity
  8
AM_9
100
AcDbLine
 10
-3.125
 20
-1.28125
 30
0.0
 11
-2.31981397704058
 21
-1.28125
 31
0.0
  0
LINE
  5
16C
330
148
100
AcDbEntity
  8
AM_9
100
AcDbLine
 10
-2.245759767598559
 20
-1.28125
 30
0.0
 11
-2.245759767598559
 21
-1.375
 31
0.0
  0
LINE
  5
16D
330
148
100
AcDbEntity
  8
AM_9
100
AcDbLine
 10
2.245759767598559
 20
-1.375
 30
0.0
 11
2.245759767598559
 21
-1.28125
 31
0.0
  0
LINE
  5
16E
330
148
100
AcDbEntity
  8
AM_9
100
AcDbLine
 10
-2.125
 20
-1.375
 30
0.0
 11
-2.125
 21
0.0000000000000001
 31
0.0
  0
LINE
  5
16F
330
148
100
AcDbEntity
  8
AM_9
100
AcDbLine
 10
-2.75
 20
0.0000000000000001
 30
0.0
 11
-2.75
 21
-1.375
 31
0.0
  0
LINE
  5
170
330
148
100
AcDbEntity
  8
AM_9
100
AcDbLine
 10
2.75
 20
-1.375
 30
0.0
 11
2.75
 21
0.0000000000000001
 31
0.0
  0
LINE
  5
171
330
148
100
AcDbEntity
  8
AM_9
100
AcDbLine
 10
2.125
 20
0.0000000000000001
 30
0.0
 11
2.125
 21
-1.375
 31
0.0
  0
LINE
  5
172
330
148
100
AcDbEntity
  8
AM_9
100
AcDbLine
 10
-1.547261022350048
 20
-0.8249999999999998
 30
0.0
 11
-1.547261022350048
 21
0.0000000000000001
 31
0.0
  0
LINE
  5
173
330
148
100
AcDbEntity
  8
AM_9
100
AcDbLine
 10
1.547261022350048
 20
-0.8249999999999998
 30
0.0
 11
1.547261022350048
 21
0.0000000000000001
 31
0.0
  0
LINE
  5
174
330
148
100
AcDbEntity
  8
AM_7
100
AcDbLine
 10
2.4375
 20
0.0687499999999999
 30
0.0
 11
2.4375
 21
-1.44375
 31
0.0
  0
LINE
  5
175
330
148
100
AcDbEntity
  8
AM_7
100
AcDbLine
 10
-2.4375
 20
0.0687499999999999
 30
0.0
 11
-2.4375
 21
-1.44375
 31
0.0
  0
LINE
  5
176
330
148
100
AcDbEntity
  8
AM_7
100
AcDbLine
 10
0.0
 20
0.196875
 30
0.0
 11
0.0
 21
-4.134374999999999
 31
0.0
  0
LINE
  5
177
330
148
100
AcDbEntity
  8
AM_7
100
AcDbLine
 10
-0.5250000000000001
 20
-2.0
 30
0.0
 11
0.5250000000000008
 21
-2.0
 31
0.0
  0
LINE
  5
178
330
148
100
AcDbEntity
  8
AM_4
100
AcDbLine
 10
2.4375
 20
-3.109375
 30
0.0
 11
2.4375
 21
-1.375
 31
0.0
  0
LINE
  5
179
330
148
100
AcDbEntity
  8
AM_4
100
AcDbLine
 10
-2.4375
 20
-1.375
 30
0.0
 11
-2.4375
 21
-3.109375
 31
0.0
  0
LINE
  5
17A
330
148
100
AcDbEntity
  8
AM_4
100
AcDbLine
 10
-2.265625
 20
-3.28125
 30
0.0
 11
2.265624999999557
 21
-3.28125
 31
0.0
  0
LINE
  5
17B
330
148
100
AcDbEntity
  8
AM_4
100
AcDbLine
 10
-2.4375
 20
-3.109375
 30
0.0
 11
2.4375
 21
-3.109375
 31
0.0
  0
ARC
  5
17C
330
148
100
AcDbEntity
  8
AM_4
100
AcDbCircle
 10
2.265625000000001
 20
-3.109375000000001
 30
0.0
 40
0.1718749999999991
100
AcDbArc
 50
270.0
 51
0.0
  0
ARC
  5
17D
330
148
100
AcDbEntity
  8
AM_4
100
AcDbCircle
 10
-2.265625000000001
 20
-3.109375000000001
 30
0.0
 40
0.1718749999999991
100
AcDbArc
 50
180.0
 51
270.0
  0
CIRCLE
  5
17E
330
148
100
AcDbEntity
  8
AM_4
100
AcDbCircle
 10
0.0
 20
-2.0
 30
0.0
 40
0.4000000000000006
  0
LINE
  5
17F
330
148
100
AcDbEntity
  8
AM_4
100
AcDbLine
 10
-0.9476124293378942
 20
-1.375
 30
0.0
 11
-0.9476124293378942
 21
-1.28125
 31
0.0
  0
LINE
  5
180
330
148
100
AcDbEntity
  8
AM_4
100
AcDbLine
 10
0.9476124293378946
 20
-1.28125
 30
0.0
 11
0.9476124293378949
 21
-1.375
 31
0.0
  0
LINE
  5
181
330
148
100
AcDbEntity
  8
AM_4
100
AcDbLine
 10
3.125
 20
-1.375
 30
0.0
 11
0.9476124293378949
 21
-1.375
 31
0.0
  0
LINE
  5
182
330
148
100
AcDbEntity
  8
AM_4
100
AcDbLine
 10
3.125
 20
-1.375
 30
0.0
 11
3.125
 21
0.0000000000000001
 31
0.0
  0
LINE
  5
183
330
148
100
AcDbEntity
  8
AM_4
100
AcDbLine
 10
-1.30298469910941
 20
-0.8249999999999998
 30
0.0
 11
-1.30298469910941
 21
0.0000000000000002
 31
0.0
  0
LINE
  5
184
330
148
100
AcDbEntity
  8
AM_4
100
AcDbLine
 10
-2.037430435645145
 20
-1.28125
 30
0.0
 11
-2.037430435645145
 21
-1.375
 31
0.0
  0
LINE
  5
185
330
148
100
AcDbEntity
  8
AM_4
100
AcDbLine
 10
1.30298469910941
 20
0.0000000000000002
 30
0.0
 11
1.30298469910941
 21
-0.8249999999999998
 31
0.0
  0
LINE
  5
186
330
148
100
AcDbEntity
  8
AM_4
100
AcDbLine
 10
1.30298469910941
 20
0.0000000000000002
 30
0.0
 11
3.125
 21
0.0000000000000001
 31
0.0
  0
LINE
  5
187
330
148
100
AcDbEntity
  8
AM_4
100
AcDbLine
 10
-1.30298469910941
 20
0.0000000000000002
 30
0.0
 11
-3.125
 21
0.0000000000000001
 31
0.0
  0
LINE
  5
188
330
148
100
AcDbEntity
  8
AM_4
100
AcDbLine
 10
-3.125
 20
-1.375
 30
0.0
 11
-3.125
 21
0.0000000000000001
 31
0.0
  0
LINE
  5
189
330
148
100
AcDbEntity
  8
AM_4
100
AcDbLine
 10
-0.9476124293378942
 20
-1.375
 30
0.0
 11
-3.125
 21
-1.375
 31
0.0
  0
LINE
  5
18A
330
148
100
AcDbEntity
  8
AM_4
100
AcDbLine
 10
2.319813977040584
 20
-1.28125
 30
0.0
 11
-2.31981397704058
 21
-1.28125
 31
0.0
  0
LINE
  5
18B
330
148
100
AcDbEntity
  8
AM_4
100
AcDbLine
 10
1.816629411852811
 20
-0.8249999999999998
 30
0.0
 11
-1.816629411852813
 21
-0.8249999999999998
 31
0.0
  0
LINE
  5
18C
330
148
100
AcDbEntity
  8
AM_4
100
AcDbLine
 10
-1.816629411852813
 20
-0.8249999999999998
 30
0.0
 11
-1.816629411852813
 21
0.0000000000000002
 31
0.0
  0
LINE
  5
18D
330
148
100
AcDbEntity
  8
AM_4
100
AcDbLine
 10
-2.4375
 20
-1.375
 30
0.0
 11
-2.4375
 21
0.0000000000000002
 31
0.0
  0
LINE
  5
18E
330
148
100
AcDbEntity
  8
AM_4
100
AcDbLine
 10
-2.31981397704058
 20
-1.28125
 30
0.0
 11
-2.31981397704058
 21
-1.375
 31
0.0
  0
LINE
  5
18F
330
148
100
AcDbEntity
  8
AM_4
100
AcDbLine
 10
2.437499999999999
 20
-1.375
 30
0.0
 11
2.437499999999999
 21
0.0000000000000002
 31
0.0
  0
LINE
  5
190
330
148
100
AcDbEntity
  8
AM_4
100
AcDbLine
 10
1.816629411852811
 20
0.0000000000000002
 30
0.0
 11
1.816629411852811
 21
-0.8249999999999998
 31
0.0
  0
LINE
  5
191
330
148
100
AcDbEntity
  8
AM_4
100
AcDbLine
 10
2.319813977040584
 20
-1.375
 30
0.0
 11
2.319813977040584
 21
-1.28125
 31
0.0
  0
LINE
  5
192
330
148
100
AcDbEntity
  8
AM_4
100
AcDbLine
 10
2.037430435645146
 20
-1.28125
 30
0.0
 11
2.037430435645146
 21
-1.375
 31
0.0
  0
CIRCLE
  5
193
330
148
100
AcDbEntity
  8
AM_4
100
AcDbCircle
 10
0.0000000000000003
 20
-2.0
 30
0.0
 40
0.5000000000000004
  0
ENDBLK
  5
14B
330
148
100
AcDbEntity
  8
0
100
AcDbBlockEnd
  0
ENDSEC
  0
SECTION
  2
ENTITIES
  0
INSERT
  5
6F
330
1F
100
AcDbEntity
  8
0
100
AcDbBlockReference
  2
1_023104_4
 10
0.0
 20
0.0
 30
0.0
  0
POINT
  5
195
330
1F
100
AcDbEntity
  8
ConnectionPoints
100
AcDbPoint
 10
0.0
 20
-3.875
 30
0.0000000000000003
  0
POINT
  5
196
330
1F
100
AcDbEntity
  8
ConnectionPoints
100
AcDbPoint
 10
0.0
 20
-3.875
 30
0.0000000000000002
  0
POINT
  5
197
330
1F
100
AcDbEntity
  8
ConnectionPoints
100
AcDbPoint
 10
0.0
 20
-0.125
 30
0.0
  0
POINT
  5
198
330
1F
100
AcDbEntity
  8
ConnectionPoints
100
AcDbPoint
 10
0.0
 20
-2.0
 30
0.0000000000000001
  0
POINT
  5
199
330
1F
100
AcDbEntity
  8
ConnectionPoints
100
AcDbPoint
 10
0.0
 20
-2.0
 30
2.5375
  0
POINT
  5
19A
330
1F
100
AcDbEntity
  8
ConnectionPoints
100
AcDbPoint
 10
0.0
 20
-2.0
 30
2.5375
  0
POINT
  5
19B
330
1F
100
AcDbEntity
  8
ConnectionPoints
100
AcDbPoint
 10
0.0
 20
-2.0
 30
0.0000000000000001
  0
ENDSEC
  0
SECTION
  2
OBJECTS
  0
DICTIONARY
  5
C
330
0
100
AcDbDictionary
281
     1
  3
ACAD_DETAILVIEWSTYLE
350
1A3
  3
ACAD_GROUP
350
D
  3
ACAD_LAYOUT
350
1A
  3
ACAD_MATERIAL
350
43
  3
ACAD_MLEADERSTYLE
350
6B
  3
ACAD_MLINESTYLE
350
17
  3
ACAD_PLOTSETTINGS
350
19
  3
ACAD_PLOTSTYLENAME
350
E
  3
ACAD_SCALELIST
350
47
  3
ACAD_SECTIONVIEWSTYLE
350
1A4
  3
ACAD_TABLESTYLE
350
69
  3
ACAD_VISUALSTYLE
350
2A
  3
ACDB_RECOMPOSE_DATA
350
1A0
  3
AcDbVariableDictionary
350
19C
  0
SUN
  5
6D
330
29
100
AcDbSun
 90
        1
290
     0
 63
     7
421
 16777215
 40
1.0
291
     1
 91
  2455826
 92
 54000000
292
     0
 70
     2
 71
   256
280
     1
  0
DICTIONARY
  5
1A3
102
{ACAD_REACTORS
330
C
102
}
330
C
100
AcDbDictionary
281
     1
  0
DICTIONARY
  5
D
102
{ACAD_REACTORS
330
C
102
}
330
C
100
AcDbDictionary
281
     1
  0
DICTIONARY
  5
1A
102
{ACAD_REACTORS
330
C
102
}
330
C
100
AcDbDictionary
281
     1
  3
Layout1
350
1E
  3
Layout2
350
26
  3
Model
350
22
  0
DICTIONARY
  5
43
102
{ACAD_REACTORS
330
C
102
}
330
C
100
AcDbDictionary
281
     1
  3
ByBlock
350
45
  3
ByLayer
350
44
  3
Global
350
46
  0
DICTIONARY
  5
6B
102
{ACAD_REACTORS
330
C
102
}
330
C
100
AcDbDictionary
281
     1
  3
Standard
350
6C
  0
DICTIONARY
  5
17
102
{ACAD_REACTORS
330
C
102
}
330
C
100
AcDbDictionary
281
     1
  3
Standard
350
18
  0
DICTIONARY
  5
19
102
{ACAD_REACTORS
330
C
102
}
330
C
100
AcDbDictionary
281
     1
  0
ACDBDICTIONARYWDFLT
  5
E
102
{ACAD_REACTORS
330
C
102
}
330
C
100
AcDbDictionary
281
     1
  3
Normal
350
F
100
AcDbDictionaryWithDefault
340
F
  0
DICTIONARY
  5
47
102
{ACAD_REACTORS
330
C
102
}
330
C
100
AcDbDictionary
281
     1
  3
A0
350
48
  3
A1
350
49
  3
A2
350
4A
  3
A3
350
4B
  3
A4
350
4C
  3
A5
350
4D
  3
A6
350
4E
  3
A7
350
4F
  3
A8
350
50
  3
A9
350
51
  3
B0
350
52
  3
B1
350
53
  3
B2
350
54
  3
B3
350
55
  3
B4
350
56
  3
B5
350
57
  3
B6
350
58
  3
B7
350
59
  3
B8
350
5A
  3
B9
350
5B
  3
C0
350
5C
  3
C1
350
5D
  3
C2
350
5E
  3
C3
350
5F
  3
C4
350
60
  3
C5
350
61
  3
C6
350
62
  3
C7
350
63
  3
C8
350
64
  3
C9
350
65
  3
D0
350
66
  3
D1
350
67
  3
D2
350
68
  0
DICTIONARY
  5
1A4
102
{ACAD_REACTORS
330
C
102
}
330
C
100
AcDbDictionary
281
     1
  0
DICTIONARY
  5
69
102
{ACAD_REACTORS
330
C
102
}
330
C
100
AcDbDictionary
281
     1
  3
Standard
350
6A
  0
DICTIONARY
  5
2A
102
{ACAD_REACTORS
330
C
102
}
330
C
100
AcDbDictionary
281
     1
  3
2dWireframe
350
2F
  3
Basic
350
32
  3
Brighten
350
36
  3
ColorChange
350
3A
  3
Conceptual
350
34
  3
Dim
350
35
  3
EdgeColorOff
350
3D
  3
Facepattern
350
39
  3
Flat
350
2B
  3
FlatWithEdges
350
2C
  3
Gouraud
350
2D
  3
GouraudWithEdges
350
2E
  3
Hidden
350
31
  3
JitterOff
350
3B
  3
Linepattern
350
38
  3
OverhangOff
350
3C
  3
Realistic
350
33
  3
Shaded
350
42
  3
Shaded with edges
350
41
  3
Shades of Gray
350
3E
  3
Sketchy
350
3F
  3
Thicken
350
37
  3
Wireframe
350
30
  3
X-Ray
350
40
  0
XRECORD
  5
1A0
102
{ACAD_REACTORS
330
C
102
}
330
C
100
AcDbXrecord
280
     1
 90
        1
330
6A
  0
DICTIONARY
  5
19C
102
{ACAD_REACTORS
330
C
102
}
330
C
100
AcDbDictionary
281
     1
  3
CANNOSCALE
350
19D
  3
CMLEADERSTYLE
350
1A2
  3
CTABLESTYLE
350
1A1
  0
LAYOUT
  5
1E
102
{ACAD_REACTORS
330
1A
102
}
330
1A
100
AcDbPlotSettings
  1

  2
none_device
  4

  6

 40
0.0
 41
0.0
 42
0.0
 43
0.0
 44
0.0
 45
0.0
 46
0.0
 47
0.0
 48
0.0
 49
0.0
140
0.0
141
0.0
142
1.0
143
1.0
 70
   688
 72
     0
 73
     0
 74
     5
  7

 75
    16
 76
     0
 77
     2
 78
   300
147
1.0
148
0.0
149
0.0
100
AcDbLayout
  1
Layout1
 70
     1
 71
     1
 10
0.0
 20
0.0
 11
12.0
 21
9.0
 12
0.0
 22
0.0
 32
0.0
 14
1.000000000000000E+20
 24
1.000000000000000E+20
 34
1.000000000000000E+20
 15
-1.000000000000000E+20
 25
-1.000000000000000E+20
 35
-1.000000000000000E+20
146
0.0
 13
0.0
 23
0.0
 33
0.0
 16
1.0
 26
0.0
 36
0.0
 17
0.0
 27
1.0
 37
0.0
 76
     0
330
1B
  0
LAYOUT
  5
26
102
{ACAD_REACTORS
330
1A
102
}
330
1A
100
AcDbPlotSettings
  1

  2
none_device
  4

  6

 40
0.0
 41
0.0
 42
0.0
 43
0.0
 44
0.0
 45
0.0
 46
0.0
 47
0.0
 48
0.0
 49
0.0
140
0.0
141
0.0
142
1.0
143
1.0
 70
   688
 72
     0
 73
     0
 74
     5
  7

 75
    16
 76
     0
 77
     2
 78
   300
147
1.0
148
0.0
149
0.0
100
AcDbLayout
  1
Layout2
 70
     1
 71
     2
 10
0.0
 20
0.0
 11
0.0
 21
0.0
 12
0.0
 22
0.0
 32
0.0
 14
0.0
 24
0.0
 34
0.0
 15
0.0
 25
0.0
 35
0.0
146
0.0
 13
0.0
 23
0.0
 33
0.0
 16
1.0
 26
0.0
 36
0.0
 17
0.0
 27
1.0
 37
0.0
 76
     0
330
23
  0
LAYOUT
  5
22
102
{ACAD_REACTORS
330
1A
102
}
330
1A
100
AcDbPlotSettings
  1

  2
none_device
  4
Letter_(8.50_x_11.00_Inches)
  6

 40
6.35
 41
6.35
 42
6.35000508
 43
6.35000508
 44
215.9
 45
279.4
 46
0.0
 47
0.0
 48
0.0
 49
0.0
140
0.0
141
0.0
142
1.0
143
1.0
 70
  1712
 72
     0
 73
     0
 74
     0
  7

 75
     0
 76
     0
 77
     2
 78
   300
147
1.0
148
0.0
149
0.0
100
AcDbLayout
  1
Model
 70
     1
 71
     0
 10
0.0
 20
0.0
 11
12.0
 21
9.0
 12
0.0
 22
0.0
 32
0.0
 14
1.000000000000000E+20
 24
1.000000000000000E+20
 34
1.000000000000000E+20
 15
-1.000000000000000E+20
 25
-1.000000000000000E+20
 35
-1.000000000000000E+20
146
0.0
 13
0.0
 23
0.0
 33
0.0
 16
1.0
 26
0.0
 36
0.0
 17
0.0
 27
1.0
 37
0.0
 76
     0
330
1F
331
29
  0
MATERIAL
  5
45
102
{ACAD_REACTORS
330
43
102
}
330
43
100
AcDbMaterial
  1
ByBlock
 72
     1
 94
      127
  0
MATERIAL
  5
44
102
{ACAD_REACTORS
330
43
102
}
330
43
100
AcDbMaterial
  1
ByLayer
 72
     1
 94
      127
  0
MATERIAL
  5
46
102
{ACAD_REACTORS
330
43
102
}
330
43
100
AcDbMaterial
  1
Global
 72
     1
 94
      127
  0
MLEADERSTYLE
  5
6C
102
{ACAD_REACTORS
330
6B
102
}
330
6B
100
AcDbMLeaderStyle
179
     2
170
     2
171
     1
172
     0
 90
        2
 40
0.0
 41
0.0
173
     1
 91
-1056964608
340
14
 92
       -2
290
     1
 42
0.09
291
     1
 43
0.36
  3
Standard
341
0
 44
0.18
300

342
11
174
     1
178
     6
175
     1
176
     0
 93
-1056964608
 45
0.18
292
     0
297
     0
 46
0.18
343
0
 94
-1056964608
 47
1.0
 49
1.0
140
1.0
293
     1
141
0.0
294
     1
177
     0
142
1.0
295
     0
296
     0
143
0.125
271
     0
272
     9
273
     9
298
     0
  0
MLINESTYLE
  5
18
102
{ACAD_REACTORS
330
17
102
}
330
17
100
AcDbMlineStyle
  2
Standard
 70
     0
  3

 62
   256
 51
90.0
 52
90.0
 71
     2
 49
0.5
 62
   256
  6
BYLAYER
 49
-0.5
 62
   256
  6
BYLAYER
  0
ACDBPLACEHOLDER
  5
F
102
{ACAD_REACTORS
330
E
102
}
330
E
  0
SCALE
  5
48
102
{ACAD_REACTORS
330
47
102
}
330
47
100
AcDbScale
 70
     0
300
1:1
140
1.0
141
1.0
290
     1
  0
SCALE
  5
49
102
{ACAD_REACTORS
330
47
102
}
330
47
100
AcDbScale
 70
     0
300
1:2
140
1.0
141
2.0
290
     0
  0
SCALE
  5
4A
102
{ACAD_REACTORS
330
47
102
}
330
47
100
AcDbScale
 70
     0
300
1:4
140
1.0
141
4.0
290
     0
  0
SCALE
  5
4B
102
{ACAD_REACTORS
330
47
102
}
330
47
100
AcDbScale
 70
     0
300
1:5
140
1.0
141
5.0
290
     0
  0
SCALE
  5
4C
102
{ACAD_REACTORS
330
47
102
}
330
47
100
AcDbScale
 70
     0
300
1:8
140
1.0
141
8.0
290
     0
  0
SCALE
  5
4D
102
{ACAD_REACTORS
330
47
102
}
330
47
100
AcDbScale
 70
     0
300
1:10
140
1.0
141
10.0
290
     0
  0
SCALE
  5
4E
102
{ACAD_REACTORS
330
47
102
}
330
47
100
AcDbScale
 70
     0
300
1:16
140
1.0
141
16.0
290
     0
  0
SCALE
  5
4F
102
{ACAD_REACTORS
330
47
102
}
330
47
100
AcDbScale
 70
     0
300
1:20
140
1.0
141
20.0
290
     0
  0
SCALE
  5
50
102
{ACAD_REACTORS
330
47
102
}
330
47
100
AcDbScale
 70
     0
300
1:30
140
1.0
141
30.0
290
     0
  0
SCALE
  5
51
102
{ACAD_REACTORS
330
47
102
}
330
47
100
AcDbScale
 70
     0
300
1:40
140
1.0
141
40.0
290
     0
  0
SCALE
  5
52
102
{ACAD_REACTORS
330
47
102
}
330
47
100
AcDbScale
 70
     0
300
1:50
140
1.0
141
50.0
290
     0
  0
SCALE
  5
53
102
{ACAD_REACTORS
330
47
102
}
330
47
100
AcDbScale
 70
     0
300
1:100
140
1.0
141
100.0
290
     0
  0
SCALE
  5
54
102
{ACAD_REACTORS
330
47
102
}
330
47
100
AcDbScale
 70
     0
300
2:1
140
2.0
141
1.0
290
     0
  0
SCALE
  5
55
102
{ACAD_REACTORS
330
47
102
}
330
47
100
AcDbScale
 70
     0
300
4:1
140
4.0
141
1.0
290
     0
  0
SCALE
  5
56
102
{ACAD_REACTORS
330
47
102
}
330
47
100
AcDbScale
 70
     0
300
8:1
140
8.0
141
1.0
290
     0
  0
SCALE
  5
57
102
{ACAD_REACTORS
330
47
102
}
330
47
100
AcDbScale
 70
     0
300
10:1
140
10.0
141
1.0
290
     0
  0
SCALE
  5
58
102
{ACAD_REACTORS
330
47
102
}
330
47
100
AcDbScale
 70
     0
300
100:1
140
100.0
141
1.0
290
     0
  0
SCALE
  5
59
102
{ACAD_REACTORS
330
47
102
}
330
47
100
AcDbScale
 70
     0
300
1/128" = 1'-0"
140
0.0078125
141
12.0
290
     0
  0
SCALE
  5
5A
102
{ACAD_REACTORS
330
47
102
}
330
47
100
AcDbScale
 70
     0
300
1/64" = 1'-0"
140
0.015625
141
12.0
290
     0
  0
SCALE
  5
5B
102
{ACAD_REACTORS
330
47
102
}
330
47
100
AcDbScale
 70
     0
300
1/32" = 1'-0"
140
0.03125
141
12.0
290
     0
  0
SCALE
  5
5C
102
{ACAD_REACTORS
330
47
102
}
330
47
100
AcDbScale
 70
     0
300
1/16" = 1'-0"
140
0.0625
141
12.0
290
     0
  0
SCALE
  5
5D
102
{ACAD_REACTORS
330
47
102
}
330
47
100
AcDbScale
 70
     0
300
3/32" = 1'-0"
140
0.09375
141
12.0
290
     0
  0
SCALE
  5
5E
102
{ACAD_REACTORS
330
47
102
}
330
47
100
AcDbScale
 70
     0
300
1/8" = 1'-0"
140
0.125
141
12.0
290
     0
  0
SCALE
  5
5F
102
{ACAD_REACTORS
330
47
102
}
330
47
100
AcDbScale
 70
     0
300
3/16" = 1'-0"
140
0.1875
141
12.0
290
     0
  0
SCALE
  5
60
102
{ACAD_REACTORS
330
47
102
}
330
47
100
AcDbScale
 70
     0
300
1/4" = 1'-0"
140
0.25
141
12.0
290
     0
  0
SCALE
  5
61
102
{ACAD_REACTORS
330
47
102
}
330
47
100
AcDbScale
 70
     0
300
3/8" = 1'-0"
140
0.375
141
12.0
290
     0
  0
SCALE
  5
62
102
{ACAD_REACTORS
330
47
102
}
330
47
100
AcDbScale
 70
     0
300
1/2" = 1'-0"
140
0.5
141
12.0
290
     0
  0
SCALE
  5
63
102
{ACAD_REACTORS
330
47
102
}
330
47
100
AcDbScale
 70
     0
300
3/4" = 1'-0"
140
0.75
141
12.0
290
     0
  0
SCALE
  5
64
102
{ACAD_REACTORS
330
47
102
}
330
47
100
AcDbScale
 70
     0
300
1" = 1'-0"
140
1.0
141
12.0
290
     0
  0
SCALE
  5
65
102
{ACAD_REACTORS
330
47
102
}
330
47
100
AcDbScale
 70
     0
300
1-1/2" = 1'-0"
140
1.5
141
12.0
290
     0
  0
SCALE
  5
66
102
{ACAD_REACTORS
330
47
102
}
330
47
100
AcDbScale
 70
     0
300
3" = 1'-0"
140
3.0
141
12.0
290
     0
  0
SCALE
  5
67
102
{ACAD_REACTORS
330
47
102
}
330
47
100
AcDbScale
 70
     0
300
6" = 1'-0"
140
6.0
141
12.0
290
     0
  0
SCALE
  5
68
102
{ACAD_REACTORS
330
47
102
}
330
47
100
AcDbScale
 70
     0
300
1'-0" = 1'-0"
140
12.0
141
12.0
290
     0
  0
TABLESTYLE
  5
6A
102
{ACAD_REACTORS
330
69
102
}
102
{ACAD_XDICTIONARY
360
19E
102
}
330
69
100
AcDbTableStyle
  3
Standard
 70
     0
 71
     0
 40
0.06
 41
0.06
280
     0
281
     0
  7
Standard
140
0.18
170
     2
 62
     0
 63
   257
283
     0
 90
        4
 91
        0
  1

274
    -2
284
     1
 64
     0
275
    -2
285
     1
 65
     0
276
    -2
286
     1
 66
     0
277
    -2
287
     1
 67
     0
278
    -2
288
     1
 68
     0
279
    -2
289
     1
 69
     0
  7
Standard
140
0.25
170
     5
 62
     0
 63
   257
283
     0
 90
        4
 91
        0
  1

274
    -2
284
     1
 64
     0
275
    -2
285
     1
 65
     0
276
    -2
286
     1
 66
     0
277
    -2
287
     1
 67
     0
278
    -2
288
     1
 68
     0
279
    -2
289
     1
 69
     0
  7
Standard
140
0.18
170
     5
 62
     0
 63
   257
283
     0
 90
        4
 91
        0
  1

274
    -2
284
     1
 64
     0
275
    -2
285
     1
 65
     0
276
    -2
286
     1
 66
     0
277
    -2
287
     1
 67
     0
278
    -2
288
     1
 68
     0
279
    -2
289
     1
 69
     0
  0
VISUALSTYLE
  5
2F
102
{ACAD_REACTORS
330
2A
102
}
330
2A
100
AcDbVisualStyle
  2
2dWireframe
 70
     4
177
     3
291
     0
 70
    58
 90
        0
176
     1
 90
        2
176
     1
 90
        0
176
     1
 90
        0
176
     1
 40
0.6
176
     1
 40
30.0
176
     1
 62
     7
420
 16777215
176
     1
 90
        1
176
     1
 90
        4
176
     1
 62
     7
176
     1
 62
   257
176
     1
 90
        1
176
     1
 90
        1
176
     1
 40
1.0
176
     1
 90
        0
176
     1
 62
   257
176
     1
 40
1.0
176
     1
 90
        1
176
     1
 90
        6
176
     1
 90
        2
176
     1
 62
     7
176
     1
 90
        5
176
     1
 90
        0
176
     1
 90
        0
176
     1
290
     0
176
     1
 90
        1
176
     1
 40
0.0
176
     1
 90
        0
176
     1
290
     1
176
     1
290
     1
176
     1
290
     0
176
     1
290
     0
176
     1
290
     0
176
     1
290
     0
176
     1
290
     0
176
     1
290
     0
176
     1
290
     0
176
     1
 90
       50
176
     1
 40
0.0
176
     1
 40
1.0
176
     1
 90
        0
176
     1
 62
    18
420
        0
176
     1
 90
       50
176
     1
 90
        3
176
     1
 62
     5
420
      255
176
     1
290
     0
176
     1
 90
       50
176
     1
 90
       50
176
     1
 90
       50
176
     1
290
     0
176
     1
 90
       50
176
     1
 62
   256
176
     0
 40
1.0
176
     0
 90
        2
176
     1
  1
strokes_ogs.tif
176
     1
290
     0
176
     1
 40
1.0
176
     1
 40
1.0
176
     1
  0
VISUALSTYLE
  5
32
102
{ACAD_REACTORS
330
2A
102
}
330
2A
100
AcDbVisualStyle
  2
Basic
 70
     7
177
     3
291
     1
 70
    58
 90
        1
176
     1
 90
        0
176
     1
 90
        1
176
     1
 90
        0
176
     1
 40
0.6
176
     1
 40
30.0
176
     1
 62
     7
420
 16777215
176
     1
 90
        0
176
     1
 90
        4
176
     1
 62
     7
176
     1
 62
   257
176
     1
 90
        1
176
     1
 90
        1
176
     1
 40
1.0
176
     1
 90
        8
176
     1
 62
     7
176
     1
 40
1.0
176
     1
 90
        1
176
     1
 90
        6
176
     1
 90
        2
176
     1
 62
     7
176
     1
 90
        5
176
     1
 90
        0
176
     1
 90
        0
176
     1
290
     0
176
     1
 90
        1
176
     1
 40
0.0
176
     1
 90
        0
176
     1
290
     0
176
     1
290
     1
176
     1
290
     1
176
     1
290
     0
176
     1
290
     0
176
     1
290
     0
176
     1
290
     0
176
     1
290
     0
176
     1
290
     0
176
     1
 90
       50
176
     1
 40
0.0
176
     1
 40
1.0
176
     1
 90
        0
176
     1
 62
    18
420
        0
176
     1
 90
       50
176
     1
 90
        3
176
     1
 62
     5
420
      255
176
     1
290
     0
176
     1
 90
       50
176
     1
 90
       50
176
     1
 90
       50
176
     1
290
     0
176
     1
 90
       50
176
     1
 62
   256
176
     0
 40
1.0
176
     0
 90
        2
176
     1
  1
strokes_ogs.tif
176
     1
290
     0
176
     1
 40
1.0
176
     1
 40
1.0
176
     1
  0
VISUALSTYLE
  5
36
102
{ACAD_REACTORS
330
2A
102
}
330
2A
100
AcDbVisualStyle
  2
Brighten
 70
    12
177
     3
291
     1
 70
    58
 90
        2
176
     1
 90
        2
176
     1
 90
        0
176
     1
 90
        0
176
     1
 40
0.6
176
     1
 40
30.0
176
     1
 62
     7
420
 16777215
176
     1
 90
        1
176
     1
 90
        4
176
     1
 62
     7
176
     1
 62
   257
176
     1
 90
        1
176
     1
 90
        1
176
     1
 40
1.0
176
     1
 90
        8
176
     1
 62
     7
176
     1
 40
1.0
176
     1
 90
        1
176
     1
 90
        6
176
     1
 90
        2
176
     1
 62
     7
176
     1
 90
        5
176
     1
 90
        0
176
     1
 90
        0
176
     1
290
     0
176
     1
 90
        1
176
     1
 40
50.0
176
     1
 90
        0
176
     1
290
     0
176
     1
290
     1
176
     1
290
     1
176
     1
290
     0
176
     1
290
     0
176
     1
290
     0
176
     1
290
     0
176
     1
290
     0
176
     1
290
     0
176
     1
 90
       50
176
     1
 40
0.0
176
     1
 40
1.0
176
     1
 90
        0
176
     1
 62
    18
420
        0
176
     1
 90
       50
176
     1
 90
        3
176
     1
 62
     5
420
      255
176
     1
290
     0
176
     1
 90
       50
176
     1
 90
       50
176
     1
 90
       50
176
     1
290
     0
176
     1
 90
       50
176
     1
 62
   256
176
     0
 40
1.0
176
     0
 90
        2
176
     1
  1
strokes_ogs.tif
176
     1
290
     0
176
     1
 40
1.0
176
     1
 40
1.0
176
     1
  0
VISUALSTYLE
  5
3A
102
{ACAD_REACTORS
330
2A
102
}
330
2A
100
AcDbVisualStyle
  2
ColorChange
 70
    16
177
     3
291
     1
 70
    58
 90
        2
176
     1
 90
        2
176
     1
 90
        3
176
     1
 90
        0
176
     1
 40
0.6
176
     1
 40
30.0
176
     1
 62
     8
420
  8421504
176
     1
 90
        1
176
     1
 90
        4
176
     1
 62
     7
176
     1
 62
   257
176
     1
 90
        1
176
     1
 90
        1
176
     1
 40
1.0
176
     1
 90
        8
176
     1
 62
     8
420
  8421504
176
     1
 40
1.0
176
     1
 90
        1
176
     1
 90
        6
176
     1
 90
        2
176
     1
 62
     7
176
     1
 90
        5
176
     1
 90
        0
176
     1
 90
        0
176
     1
290
     0
176
     1
 90
        1
176
     1
 40
0.0
176
     1
 90
        0
176
     1
290
     0
176
     1
290
     1
176
     1
290
     1
176
     1
290
     0
176
     1
290
     0
176
     1
290
     0
176
     1
290
     0
176
     1
290
     0
176
     1
290
     0
176
     1
 90
       50
176
     1
 40
0.0
176
     1
 40
1.0
176
     1
 90
        0
176
     1
 62
    18
420
        0
176
     1
 90
       50
176
     1
 90
        3
176
     1
 62
     5
420
      255
176
     1
290
     0
176
     1
 90
       50
176
     1
 90
       50
176
     1
 90
       50
176
     1
290
     0
176
     1
 90
       50
176
     1
 62
   256
176
     0
 40
1.0
176
     0
 90
        2
176
     1
  1
strokes_ogs.tif
176
     1
290
     0
176
     1
 40
1.0
176
     1
 40
1.0
176
     1
  0
VISUALSTYLE
  5
34
102
{ACAD_REACTORS
330
2A
102
}
330
2A
100
AcDbVisualStyle
  2
Conceptual
 70
     9
177
     3
291
     0
 70
    58
 90
        3
176
     1
 90
        2
176
     1
 90
        0
176
     1
 90
        0
176
     1
 40
0.6
176
     1
 40
30.0
176
     1
 62
     7
420
 16777215
176
     1
 90
        2
176
     1
 90
        2
176
     1
 62
     7
176
     1
 62
   257
176
     1
 90
        1
176
     1
 90
        1
176
     1
 40
179.0
176
     1
 90
        8
176
     1
 62
     7
176
     1
 40
1.0
176
     1
 90
        1
176
     1
 90
        6
176
     1
 90
        2
176
     1
 62
     7
176
     1
 90
        3
176
     1
 90
        0
176
     1
 90
        0
176
     1
290
     0
176
     1
 90
        1
176
     1
 40
0.0
176
     1
 90
        0
176
     1
290
     0
176
     1
290
     1
176
     1
290
     1
176
     1
290
     0
176
     1
290
     0
176
     1
290
     0
176
     1
290
     0
176
     1
290
     0
176
     1
290
     0
176
     1
 90
       50
176
     1
 40
0.0
176
     1
 40
1.0
176
     1
 90
        0
176
     1
 62
    18
420
        0
176
     1
 90
       50
176
     1
 90
        3
176
     1
 62
     5
420
      255
176
     1
290
     0
176
     1
 90
       50
176
     1
 90
       50
176
     1
 90
       50
176
     1
290
     0
176
     1
 90
       50
176
     1
 62
   256
176
     0
 40
1.0
176
     0
 90
        2
176
     1
  1
strokes_ogs.tif
176
     1
290
     0
176
     1
 40
1.0
176
     1
 40
1.0
176
     1
  0
VISUALSTYLE
  5
35
102
{ACAD_REACTORS
330
2A
102
}
330
2A
100
AcDbVisualStyle
  2
Dim
 70
    11
177
     3
291
     1
 70
    58
 90
        2
176
     1
 90
        2
176
     1
 90
        0
176
     1
 90
        0
176
     1
 40
0.6
176
     1
 40
30.0
176
     1
 62
     7
420
 16777215
176
     1
 90
        1
176
     1
 90
        4
176
     1
 62
     7
176
     1
 62
   257
176
     1
 90
        1
176
     1
 90
        1
176
     1
 40
1.0
176
     1
 90
        8
176
     1
 62
     7
176
     1
 40
1.0
176
     1
 90
        1
176
     1
 90
        6
176
     1
 90
        2
176
     1
 62
     7
176
     1
 90
        5
176
     1
 90
        0
176
     1
 90
        0
176
     1
290
     0
176
     1
 90
        1
176
     1
 40
-50.0
176
     1
 90
        0
176
     1
290
     0
176
     1
290
     1
176
     1
290
     1
176
     1
290
     0
176
     1
290
     0
176
     1
290
     0
176
     1
290
     0
176
     1
290
     0
176
     1
290
     0
176
     1
 90
       50
176
     1
 40
0.0
176
     1
 40
1.0
176
     1
 90
        0
176
     1
 62
    18
420
        0
176
     1
 90
       50
176
     1
 90
        3
176
     1
 62
     5
420
      255
176
     1
290
     0
176
     1
 90
       50
176
     1
 90
       50
176
     1
 90
       50
176
     1
290
     0
176
     1
 90
       50
176
     1
 62
   256
176
     0
 40
1.0
176
     0
 90
        2
176
     1
  1
strokes_ogs.tif
176
     1
290
     0
176
     1
 40
1.0
176
     1
 40
1.0
176
     1
  0
VISUALSTYLE
  5
3D
102
{ACAD_REACTORS
330
2A
102
}
330
2A
100
AcDbVisualStyle
  2
EdgeColorOff
 70
    22
177
     3
291
     1
 70
    58
 90
        2
176
     0
 90
        2
176
     0
 90
        0
176
     0
 90
        0
176
     0
 40
0.6
176
     0
 40
30.0
176
     0
 62
     7
420
 16777215
176
     0
 90
        1
176
     0
 90
        4
176
     0
 62
     7
176
     0
 62
   257
176
     0
 90
        1
176
     0
 90
        1
176
     0
 40
1.0
176
     0
 90
        8
176
     2
 62
     7
176
     0
 40
1.0
176
     0
 90
        1
176
     0
 90
        6
176
     0
 90
        2
176
     0
 62
     7
176
     0
 90
        5
176
     0
 90
        0
176
     0
 90
        0
176
     0
290
     0
176
     0
 90
        1
176
     0
 40
0.0
176
     0
 90
        0
176
     0
290
     0
176
     0
290
     1
176
     0
290
     1
176
     0
290
     0
176
     0
290
     0
176
     0
290
     0
176
     0
290
     0
176
     0
290
     0
176
     0
290
     0
176
     0
 90
       50
176
     0
 40
0.0
176
     0
 40
1.0
176
     0
 90
        0
176
     0
 62
    18
420
        0
176
     0
 90
       50
176
     0
 90
        3
176
     0
 62
     5
420
      255
176
     0
290
     0
176
     0
 90
       50
176
     0
 90
       50
176
     0
 90
       50
176
     0
290
     0
176
     0
 90
       50
176
     0
 62
   256
176
     0
 40
1.0
176
     0
 90
        2
176
     0
  1
strokes_ogs.tif
176
     0
290
     0
176
     0
 40
1.0
176
     0
 40
1.0
176
     0
  0
VISUALSTYLE
  5
39
102
{ACAD_REACTORS
330
2A
102
}
330
2A
100
AcDbVisualStyle
  2
Facepattern
 70
    15
177
     3
291
     1
 70
    58
 90
        2
176
     1
 90
        2
176
     1
 90
        0
176
     1
 90
        0
176
     1
 40
0.6
176
     1
 40
30.0
176
     1
 62
     7
420
 16777215
176
     1
 90
        1
176
     1
 90
        4
176
     1
 62
     7
176
     1
 62
   257
176
     1
 90
        1
176
     1
 90
        1
176
     1
 40
1.0
176
     1
 90
        8
176
     1
 62
     7
176
     1
 40
1.0
176
     1
 90
        1
176
     1
 90
        6
176
     1
 90
        2
176
     1
 62
     7
176
     1
 90
        5
176
     1
 90
        0
176
     1
 90
        0
176
     1
290
     0
176
     1
 90
        1
176
     1
 40
0.0
176
     1
 90
        0
176
     1
290
     0
176
     1
290
     1
176
     1
290
     1
176
     1
290
     0
176
     1
290
     0
176
     1
290
     0
176
     1
290
     0
176
     1
290
     0
176
     1
290
     0
176
     1
 90
       50
176
     1
 40
0.0
176
     1
 40
1.0
176
     1
 90
        0
176
     1
 62
    18
420
        0
176
     1
 90
       50
176
     1
 90
        3
176
     1
 62
     5
420
      255
176
     1
290
     0
176
     1
 90
       50
176
     1
 90
       50
176
     1
 90
       50
176
     1
290
     0
176
     1
 90
       50
176
     1
 62
   256
176
     0
 40
1.0
176
     0
 90
        2
176
     1
  1
strokes_ogs.tif
176
     1
290
     0
176
     1
 40
1.0
176
     1
 40
1.0
176
     1
  0
VISUALSTYLE
  5
2B
102
{ACAD_REACTORS
330
2A
102
}
330
2A
100
AcDbVisualStyle
  2
Flat
 70
     0
177
     3
291
     1
 70
    58
 90
        2
176
     1
 90
        1
176
     1
 90
        1
176
     1
 90
        2
176
     1
 40
0.6
176
     1
 40
30.0
176
     1
 62
     7
420
 16777215
176
     1
 90
        0
176
     1
 90
        0
176
     1
 62
     7
176
     1
 62
   257
176
     1
 90
        1
176
     1
 90
        1
176
     1
 40
1.0
176
     1
 90
        8
176
     1
 62
     7
176
     1
 40
1.0
176
     1
 90
        1
176
     1
 90
        6
176
     1
 90
        2
176
     1
 62
     7
176
     1
 90
        5
176
     1
 90
        0
176
     1
 90
        0
176
     1
290
     0
176
     1
 90
       13
176
     1
 40
0.0
176
     1
 90
        0
176
     1
290
     0
176
     1
290
     1
176
     1
290
     1
176
     1
290
     0
176
     1
290
     0
176
     1
290
     0
176
     1
290
     0
176
     1
290
     0
176
     1
290
     0
176
     1
 90
       50
176
     1
 40
0.0
176
     1
 40
1.0
176
     1
 90
        0
176
     1
 62
    18
420
        0
176
     1
 90
       50
176
     1
 90
        3
176
     1
 62
     5
420
      255
176
     1
290
     0
176
     1
 90
       50
176
     1
 90
       50
176
     1
 90
       50
176
     1
290
     0
176
     1
 90
       50
176
     1
 62
   256
176
     0
 40
1.0
176
     0
 90
        2
176
     1
  1
strokes_ogs.tif
176
     1
290
     0
176
     1
 40
1.0
176
     1
 40
1.0
176
     1
  0
VISUALSTYLE
  5
2C
102
{ACAD_REACTORS
330
2A
102
}
330
2A
100
AcDbVisualStyle
  2
FlatWithEdges
 70
     1
177
     3
291
     1
 70
    58
 90
        2
176
     1
 90
        1
176
     1
 90
        1
176
     1
 90
        2
176
     1
 40
0.6
176
     1
 40
30.0
176
     1
 62
     7
420
 16777215
176
     1
 90
        1
176
     1
 90
        0
176
     1
 62
     7
176
     1
 62
   257
176
     1
 90
        1
176
     1
 90
        1
176
     1
 40
1.0
176
     1
 90
        0
176
     1
 62
   257
176
     1
 40
1.0
176
     1
 90
        1
176
     1
 90
        6
176
     1
 90
        2
176
     1
 62
     7
176
     1
 90
        5
176
     1
 90
        0
176
     1
 90
        0
176
     1
290
     0
176
     1
 90
       13
176
     1
 40
0.0
176
     1
 90
        0
176
     1
290
     0
176
     1
290
     1
176
     1
290
     1
176
     1
290
     0
176
     1
290
     0
176
     1
290
     0
176
     1
290
     0
176
     1
290
     0
176
     1
290
     0
176
     1
 90
       50
176
     1
 40
0.0
176
     1
 40
1.0
176
     1
 90
        0
176
     1
 62
    18
420
        0
176
     1
 90
       50
176
     1
 90
        3
176
     1
 62
     5
420
      255
176
     1
290
     0
176
     1
 90
       50
176
     1
 90
       50
176
     1
 90
       50
176
     1
290
     0
176
     1
 90
       50
176
     1
 62
   256
176
     0
 40
1.0
176
     0
 90
        2
176
     1
  1
strokes_ogs.tif
176
     1
290
     0
176
     1
 40
1.0
176
     1
 40
1.0
176
     1
  0
VISUALSTYLE
  5
2D
102
{ACAD_REACTORS
330
2A
102
}
330
2A
100
AcDbVisualStyle
  2
Gouraud
 70
     2
177
     3
291
     1
 70
    58
 90
        2
176
     1
 90
        2
176
     1
 90
        1
176
     1
 90
        2
176
     1
 40
0.6
176
     1
 40
30.0
176
     1
 62
     7
420
 16777215
176
     1
 90
        0
176
     1
 90
        0
176
     1
 62
     7
176
     1
 62
   257
176
     1
 90
        1
176
     1
 90
        1
176
     1
 40
1.0
176
     1
 90
        0
176
     1
 62
     7
176
     1
 40
1.0
176
     1
 90
        1
176
     1
 90
        6
176
     1
 90
        2
176
     1
 62
     7
176
     1
 90
        5
176
     1
 90
        0
176
     1
 90
        0
176
     1
290
     0
176
     1
 90
       13
176
     1
 40
0.0
176
     1
 90
        0
176
     1
290
     0
176
     1
290
     1
176
     1
290
     1
176
     1
290
     0
176
     1
290
     0
176
     1
290
     0
176
     1
290
     0
176
     1
290
     0
176
     1
290
     0
176
     1
 90
       50
176
     1
 40
0.0
176
     1
 40
1.0
176
     1
 90
        0
176
     1
 62
    18
420
        0
176
     1
 90
       50
176
     1
 90
        3
176
     1
 62
     5
420
      255
176
     1
290
     0
176
     1
 90
       50
176
     1
 90
       50
176
     1
 90
       50
176
     1
290
     0
176
     1
 90
       50
176
     1
 62
   256
176
     0
 40
1.0
176
     0
 90
        2
176
     1
  1
strokes_ogs.tif
176
     1
290
     0
176
     1
 40
1.0
176
     1
 40
1.0
176
     1
  0
VISUALSTYLE
  5
2E
102
{ACAD_REACTORS
330
2A
102
}
330
2A
100
AcDbVisualStyle
  2
GouraudWithEdges
 70
     3
177
     3
291
     1
 70
    58
 90
        2
176
     1
 90
        2
176
     1
 90
        1
176
     1
 90
        2
176
     1
 40
0.6
176
     1
 40
30.0
176
     1
 62
     7
420
 16777215
176
     1
 90
        1
176
     1
 90
        0
176
     1
 62
     7
176
     1
 62
   257
176
     1
 90
        1
176
     1
 90
        1
176
     1
 40
1.0
176
     1
 90
        0
176
     1
 62
   257
176
     1
 40
1.0
176
     1
 90
        1
176
     1
 90
        6
176
     1
 90
        2
176
     1
 62
     7
176
     1
 90
        5
176
     1
 90
        0
176
     1
 90
        0
176
     1
290
     0
176
     1
 90
       13
176
     1
 40
0.0
176
     1
 90
        0
176
     1
290
     0
176
     1
290
     1
176
     1
290
     1
176
     1
290
     0
176
     1
290
     0
176
     1
290
     0
176
     1
290
     0
176
     1
290
     0
176
     1
290
     0
176
     1
 90
       50
176
     1
 40
0.0
176
     1
 40
1.0
176
     1
 90
        0
176
     1
 62
    18
420
        0
176
     1
 90
       50
176
     1
 90
        3
176
     1
 62
     5
420
      255
176
     1
290
     0
176
     1
 90
       50
176
     1
 90
       50
176
     1
 90
       50
176
     1
290
     0
176
     1
 90
       50
176
     1
 62
   256
176
     0
 40
1.0
176
     0
 90
        2
176
     1
  1
strokes_ogs.tif
176
     1
290
     0
176
     1
 40
1.0
176
     1
 40
1.0
176
     1
  0
VISUALSTYLE
  5
31
102
{ACAD_REACTORS
330
2A
102
}
330
2A
100
AcDbVisualStyle
  2
Hidden
 70
     6
177
     3
291
     0
 70
    58
 90
        1
176
     1
 90
        2
176
     1
 90
        2
176
     1
 90
        0
176
     1
 40
0.6
176
     1
 40
30.0
176
     1
 62
     7
420
 16777215
176
     1
 90
        2
176
     1
 90
        2
176
     1
 62
     7
176
     1
 62
   257
176
     1
 90
        2
176
     1
 90
        1
176
     1
 40
40.0
176
     1
 90
        0
176
     1
 62
   257
176
     1
 40
1.0
176
     1
 90
        1
176
     1
 90
        6
176
     1
 90
        2
176
     1
 62
     7
176
     1
 90
        3
176
     1
 90
        0
176
     1
 90
        0
176
     1
290
     0
176
     1
 90
        1
176
     1
 40
0.0
176
     1
 90
        0
176
     1
290
     0
176
     1
290
     1
176
     1
290
     1
176
     1
290
     0
176
     1
290
     0
176
     1
290
     0
176
     1
290
     0
176
     1
290
     0
176
     1
290
     0
176
     1
 90
       50
176
     1
 40
0.0
176
     1
 40
1.0
176
     1
 90
        0
176
     1
 62
    18
420
        0
176
     1
 90
       50
176
     1
 90
        3
176
     1
 62
     5
420
      255
176
     1
290
     0
176
     1
 90
       50
176
     1
 90
       50
176
     1
 90
       50
176
     1
290
     0
176
     1
 90
       50
176
     1
 62
   256
176
     0
 40
1.0
176
     0
 90
        2
176
     1
  1
strokes_ogs.tif
176
     1
290
     0
176
     1
 40
1.0
176
     1
 40
1.0
176
     1
  0
VISUALSTYLE
  5
3B
102
{ACAD_REACTORS
330
2A
102
}
330
2A
100
AcDbVisualStyle
  2
JitterOff
 70
    20
177
     3
291
     1
 70
    58
 90
        2
176
     0
 90
        2
176
     0
 90
        0
176
     0
 90
        0
176
     0
 40
0.6
176
     0
 40
30.0
176
     0
 62
     7
420
 16777215
176
     0
 90
        1
176
     0
 90
        4
176
     0
 62
     7
176
     0
 62
   257
176
     0
 90
        1
176
     0
 90
        1
176
     0
 40
1.0
176
     0
 90
       10
176
     2
 62
     7
176
     0
 40
1.0
176
     0
 90
        1
176
     0
 90
        6
176
     0
 90
        2
176
     0
 62
     7
176
     0
 90
        5
176
     0
 90
        0
176
     0
 90
        0
176
     0
290
     0
176
     0
 90
        1
176
     0
 40
0.0
176
     0
 90
        0
176
     0
290
     0
176
     0
290
     1
176
     0
290
     1
176
     0
290
     0
176
     0
290
     0
176
     0
290
     0
176
     0
290
     0
176
     0
290
     0
176
     0
290
     0
176
     0
 90
       50
176
     0
 40
0.0
176
     0
 40
1.0
176
     0
 90
        0
176
     0
 62
    18
420
        0
176
     0
 90
       50
176
     0
 90
        3
176
     0
 62
     5
420
      255
176
     0
290
     0
176
     0
 90
       50
176
     0
 90
       50
176
     0
 90
       50
176
     0
290
     0
176
     0
 90
       50
176
     0
 62
   256
176
     0
 40
1.0
176
     0
 90
        2
176
     0
  1
strokes_ogs.tif
176
     0
290
     0
176
     0
 40
1.0
176
     0
 40
1.0
176
     0
  0
VISUALSTYLE
  5
38
102
{ACAD_REACTORS
330
2A
102
}
330
2A
100
AcDbVisualStyle
  2
Linepattern
 70
    14
177
     3
291
     1
 70
    58
 90
        2
176
     1
 90
        2
176
     1
 90
        0
176
     1
 90
        0
176
     1
 40
0.6
176
     1
 40
30.0
176
     1
 62
     7
420
 16777215
176
     1
 90
        1
176
     1
 90
        4
176
     1
 62
     7
176
     1
 62
   257
176
     1
 90
        7
176
     1
 90
        7
176
     1
 40
1.0
176
     1
 90
        8
176
     1
 62
     7
176
     1
 40
1.0
176
     1
 90
        1
176
     1
 90
        6
176
     1
 90
        2
176
     1
 62
     7
176
     1
 90
        5
176
     1
 90
        0
176
     1
 90
        0
176
     1
290
     0
176
     1
 90
        1
176
     1
 40
0.0
176
     1
 90
        0
176
     1
290
     0
176
     1
290
     1
176
     1
290
     1
176
     1
290
     0
176
     1
290
     0
176
     1
290
     0
176
     1
290
     0
176
     1
290
     0
176
     1
290
     0
176
     1
 90
       50
176
     1
 40
0.0
176
     1
 40
1.0
176
     1
 90
        0
176
     1
 62
    18
420
        0
176
     1
 90
       50
176
     1
 90
        3
176
     1
 62
     5
420
      255
176
     1
290
     0
176
     1
 90
       50
176
     1
 90
       50
176
     1
 90
       50
176
     1
290
     0
176
     1
 90
       50
176
     1
 62
   256
176
     0
 40
1.0
176
     0
 90
        2
176
     1
  1
strokes_ogs.tif
176
     1
290
     0
176
     1
 40
1.0
176
     1
 40
1.0
176
     1
  0
VISUALSTYLE
  5
3C
102
{ACAD_REACTORS
330
2A
102
}
330
2A
100
AcDbVisualStyle
  2
OverhangOff
 70
    21
177
     3
291
     1
 70
    58
 90
        2
176
     0
 90
        2
176
     0
 90
        0
176
     0
 90
        0
176
     0
 40
0.6
176
     0
 40
30.0
176
     0
 62
     7
420
 16777215
176
     0
 90
        1
176
     0
 90
        4
176
     0
 62
     7
176
     0
 62
   257
176
     0
 90
        1
176
     0
 90
        1
176
     0
 40
1.0
176
     0
 90
        9
176
     2
 62
     7
176
     0
 40
1.0
176
     0
 90
        1
176
     0
 90
        6
176
     0
 90
        2
176
     0
 62
     7
176
     0
 90
        5
176
     0
 90
        0
176
     0
 90
        0
176
     0
290
     0
176
     0
 90
        1
176
     0
 40
0.0
176
     0
 90
        0
176
     0
290
     0
176
     0
290
     1
176
     0
290
     1
176
     0
290
     0
176
     0
290
     0
176
     0
290
     0
176
     0
290
     0
176
     0
290
     0
176
     0
290
     0
176
     0
 90
       50
176
     0
 40
0.0
176
     0
 40
1.0
176
     0
 90
        0
176
     0
 62
    18
420
        0
176
     0
 90
       50
176
     0
 90
        3
176
     0
 62
     5
420
      255
176
     0
290
     0
176
     0
 90
       50
176
     0
 90
       50
176
     0
 90
       50
176
     0
290
     0
176
     0
 90
       50
176
     0
 62
   256
176
     0
 40
1.0
176
     0
 90
        2
176
     0
  1
strokes_ogs.tif
176
     0
290
     0
176
     0
 40
1.0
176
     0
 40
1.0
176
     0
  0
VISUALSTYLE
  5
33
102
{ACAD_REACTORS
330
2A
102
}
330
2A
100
AcDbVisualStyle
  2
Realistic
 70
     8
177
     3
291
     0
 70
    58
 90
        2
176
     1
 90
        3
176
     1
 90
        0
176
     1
 90
        2
176
     1
 40
0.6
176
     1
 40
30.0
176
     1
 62
     7
420
 16777215
176
     1
 90
        0
176
     1
 90
        0
176
     1
 62
     7
176
     1
 62
   257
176
     1
 90
        1
176
     1
 90
        1
176
     1
 40
1.0
176
     1
 90
        8
176
     1
 62
   257
176
     1
 40
1.0
176
     1
 90
        1
176
     1
 90
        6
176
     1
 90
        2
176
     1
 62
     7
176
     1
 90
        3
176
     1
 90
        0
176
     1
 90
        0
176
     1
290
     0
176
     1
 90
       13
176
     1
 40
0.0
176
     1
 90
        0
176
     1
290
     0
176
     1
290
     1
176
     1
290
     1
176
     1
290
     0
176
     1
290
     0
176
     1
290
     0
176
     1
290
     0
176
     1
290
     0
176
     1
290
     0
176
     1
 90
       50
176
     1
 40
0.0
176
     1
 40
1.0
176
     1
 90
        0
176
     1
 62
    18
420
        0
176
     1
 90
       50
176
     1
 90
        3
176
     1
 62
     5
420
      255
176
     1
290
     0
176
     1
 90
       50
176
     1
 90
       50
176
     1
 90
       50
176
     1
290
     0
176
     1
 90
       50
176
     1
 62
   256
176
     0
 40
1.0
176
     0
 90
        2
176
     1
  1
strokes_ogs.tif
176
     1
290
     0
176
     1
 40
1.0
176
     1
 40
1.0
176
     1
  0
VISUALSTYLE
  5
42
102
{ACAD_REACTORS
330
2A
102
}
330
2A
100
AcDbVisualStyle
  2
Shaded
 70
    27
177
     3
291
     0
 70
    58
 90
        2
176
     1
 90
        2
176
     1
 90
        1
176
     1
 90
        2
176
     1
 40
0.6
176
     1
 40
30.0
176
     1
 62
     7
420
 16777215
176
     1
 90
        0
176
     1
 90
        4
176
     1
 62
     7
176
     1
 62
   257
176
     1
 90
        1
176
     1
 90
        1
176
     1
 40
1.0
176
     1
 90
        8
176
     1
 62
   257
176
     1
 40
1.0
176
     1
 90
        1
176
     1
 90
        6
176
     1
 90
        2
176
     1
 62
     8
420
  7895160
176
     1
 90
        3
176
     1
 90
        0
176
     1
 90
        0
176
     1
290
     0
176
     1
 90
        5
176
     1
 40
0.0
176
     1
 90
        0
176
     1
290
     0
176
     1
290
     1
176
     1
290
     1
176
     1
290
     0
176
     1
290
     0
176
     1
290
     0
176
     1
290
     0
176
     1
290
     0
176
     1
290
     0
176
     1
 90
       50
176
     1
 40
0.0
176
     1
 40
1.0
176
     1
 90
        0
176
     1
 62
    18
420
        0
176
     1
 90
       50
176
     1
 90
        3
176
     1
 62
     5
420
      255
176
     1
290
     0
176
     1
 90
       50
176
     1
 90
       50
176
     1
 90
       50
176
     1
290
     0
176
     1
 90
       50
176
     1
 62
   256
176
     0
 40
1.0
176
     0
 90
        2
176
     1
  1
strokes_ogs.tif
176
     1
290
     0
176
     1
 40
1.0
176
     1
 40
1.0
176
     1
  0
VISUALSTYLE
  5
41
102
{ACAD_REACTORS
330
2A
102
}
330
2A
100
AcDbVisualStyle
  2
Shaded with edges
 70
    26
177
     3
291
     0
 70
    58
 90
        2
176
     1
 90
        2
176
     1
 90
        1
176
     1
 90
        2
176
     1
 40
0.6
176
     1
 40
30.0
176
     1
 62
     7
420
 16777215
176
     1
 90
        1
176
     1
 90
       10
176
     1
 62
     7
176
     1
 62
   257
176
     1
 90
        2
176
     1
 90
        1
176
     1
 40
1.0
176
     1
 90
        8
176
     1
 62
   257
176
     1
 40
1.0
176
     1
 90
        1
176
     1
 90
        6
176
     1
 90
        2
176
     1
 62
     7
176
     1
 90
        3
176
     1
 90
        0
176
     1
 90
        0
176
     1
290
     0
176
     1
 90
        5
176
     1
 40
0.0
176
     1
 90
        0
176
     1
290
     0
176
     1
290
     1
176
     1
290
     1
176
     1
290
     0
176
     1
290
     0
176
     1
290
     0
176
     1
290
     0
176
     1
290
     0
176
     1
290
     0
176
     1
 90
       50
176
     1
 40
0.0
176
     1
 40
1.0
176
     1
 90
        0
176
     1
 62
    18
420
        0
176
     1
 90
       50
176
     1
 90
        3
176
     1
 62
     5
420
      255
176
     1
290
     0
176
     1
 90
       50
176
     1
 90
       50
176
     1
 90
       50
176
     1
290
     0
176
     1
 90
       50
176
     1
 62
   256
176
     0
 40
1.0
176
     0
 90
        2
176
     1
  1
strokes_ogs.tif
176
     1
290
     0
176
     1
 40
1.0
176
     1
 40
1.0
176
     1
  0
VISUALSTYLE
  5
3E
102
{ACAD_REACTORS
330
2A
102
}
330
2A
100
AcDbVisualStyle
  2
Shades of Gray
 70
    23
177
     3
291
     0
 70
    58
 90
        2
176
     1
 90
        2
176
     1
 90
        3
176
     1
 90
        0
176
     1
 40
0.6
176
     1
 40
30.0
176
     1
 62
     7
420
 16777215
176
     1
 90
        2
176
     1
 90
        2
176
     1
 62
     7
176
     1
 62
     7
176
     1
 90
        1
176
     1
 90
        1
176
     1
 40
40.0
176
     1
 90
        8
176
     1
 62
     7
176
     1
 40
1.0
176
     1
 90
        1
176
     1
 90
        6
176
     1
 90
        2
176
     1
 62
     7
176
     1
 90
        3
176
     1
 90
        0
176
     1
 90
        0
176
     1
290
     0
176
     1
 90
        1
176
     1
 40
0.0
176
     1
 90
        0
176
     1
290
     0
176
     1
290
     1
176
     1
290
     1
176
     1
290
     0
176
     1
290
     0
176
     1
290
     0
176
     1
290
     0
176
     1
290
     0
176
     1
290
     0
176
     1
 90
       50
176
     1
 40
0.0
176
     1
 40
1.0
176
     1
 90
        0
176
     1
 62
    18
420
        0
176
     1
 90
       50
176
     1
 90
        3
176
     1
 62
     5
420
      255
176
     1
290
     0
176
     1
 90
       50
176
     1
 90
       50
176
     1
 90
       50
176
     1
290
     0
176
     1
 90
       50
176
     1
 62
   256
176
     0
 40
1.0
176
     0
 90
        2
176
     1
  1
strokes_ogs.tif
176
     1
290
     0
176
     1
 40
1.0
176
     1
 40
1.0
176
     1
  0
VISUALSTYLE
  5
3F
102
{ACAD_REACTORS
330
2A
102
}
330
2A
100
AcDbVisualStyle
  2
Sketchy
 70
    24
177
     3
291
     0
 70
    58
 90
        1
176
     1
 90
        2
176
     1
 90
        2
176
     1
 90
        0
176
     1
 40
0.6
176
     1
 40
30.0
176
     1
 62
     7
420
 16777215
176
     1
 90
        2
176
     1
 90
        2
176
     1
 62
     7
176
     1
 62
     7
176
     1
 90
        1
176
     1
 90
        1
176
     1
 40
40.0
176
     1
 90
       11
176
     1
 62
     7
176
     1
 40
1.0
176
     1
 90
        1
176
     1
 90
        6
176
     1
 90
        2
176
     1
 62
     7
176
     1
 90
        6
176
     1
 90
        0
176
     1
 90
        0
176
     1
290
     0
176
     1
 90
        1
176
     1
 40
0.0
176
     1
 90
        0
176
     1
290
     0
176
     1
290
     1
176
     1
290
     1
176
     1
290
     0
176
     1
290
     0
176
     1
290
     0
176
     1
290
     0
176
     1
290
     0
176
     1
290
     0
176
     1
 90
       50
176
     1
 40
0.0
176
     1
 40
1.0
176
     1
 90
        0
176
     1
 62
    18
420
        0
176
     1
 90
       50
176
     1
 90
        3
176
     1
 62
     5
420
      255
176
     1
290
     0
176
     1
 90
       50
176
     1
 90
       50
176
     1
 90
       50
176
     1
290
     0
176
     1
 90
       50
176
     1
 62
   256
176
     0
 40
1.0
176
     0
 90
        2
176
     1
  1
strokes_ogs.tif
176
     1
290
     0
176
     1
 40
1.0
176
     1
 40
1.0
176
     1
  0
VISUALSTYLE
  5
37
102
{ACAD_REACTORS
330
2A
102
}
330
2A
100
AcDbVisualStyle
  2
Thicken
 70
    13
177
     3
291
     1
 70
    58
 90
        2
176
     1
 90
        2
176
     1
 90
        0
176
     1
 90
        0
176
     1
 40
0.6
176
     1
 40
30.0
176
     1
 62
     7
420
 16777215
176
     1
 90
        1
176
     1
 90
        4
176
     1
 62
     7
176
     1
 62
   257
176
     1
 90
        1
176
     1
 90
        1
176
     1
 40
1.0
176
     1
 90
       12
176
     1
 62
     7
176
     1
 40
1.0
176
     1
 90
        1
176
     1
 90
        6
176
     1
 90
        2
176
     1
 62
     7
176
     1
 90
        5
176
     1
 90
        0
176
     1
 90
        0
176
     1
290
     0
176
     1
 90
        1
176
     1
 40
0.0
176
     1
 90
        0
176
     1
290
     0
176
     1
290
     1
176
     1
290
     1
176
     1
290
     0
176
     1
290
     0
176
     1
290
     0
176
     1
290
     0
176
     1
290
     0
176
     1
290
     0
176
     1
 90
       50
176
     1
 40
0.0
176
     1
 40
1.0
176
     1
 90
        0
176
     1
 62
    18
420
        0
176
     1
 90
       50
176
     1
 90
        3
176
     1
 62
     5
420
      255
176
     1
290
     0
176
     1
 90
       50
176
     1
 90
       50
176
     1
 90
       50
176
     1
290
     0
176
     1
 90
       50
176
     1
 62
   256
176
     0
 40
1.0
176
     0
 90
        2
176
     1
  1
strokes_ogs.tif
176
     1
290
     0
176
     1
 40
1.0
176
     1
 40
1.0
176
     1
  0
VISUALSTYLE
  5
30
102
{ACAD_REACTORS
330
2A
102
}
330
2A
100
AcDbVisualStyle
  2
Wireframe
 70
     5
177
     3
291
     0
 70
    58
 90
        0
176
     1
 90
        2
176
     1
 90
        0
176
     1
 90
        0
176
     1
 40
0.6
176
     1
 40
30.0
176
     1
 62
     7
420
 16777215
176
     1
 90
        1
176
     1
 90
        4
176
     1
 62
     7
176
     1
 62
   257
176
     1
 90
        1
176
     1
 90
        1
176
     1
 40
1.0
176
     1
 90
        0
176
     1
 62
   257
176
     1
 40
1.0
176
     1
 90
        1
176
     1
 90
        6
176
     1
 90
        2
176
     1
 62
     7
176
     1
 90
        3
176
     1
 90
        0
176
     1
 90
        0
176
     1
290
     0
176
     1
 90
        1
176
     1
 40
0.0
176
     1
 90
        0
176
     1
290
     0
176
     1
290
     1
176
     1
290
     1
176
     1
290
     0
176
     1
290
     0
176
     1
290
     0
176
     1
290
     0
176
     1
290
     0
176
     1
290
     0
176
     1
 90
       50
176
     1
 40
0.0
176
     1
 40
1.0
176
     1
 90
        0
176
     1
 62
    18
420
        0
176
     1
 90
       50
176
     1
 90
        3
176
     1
 62
     5
420
      255
176
     1
290
     0
176
     1
 90
       50
176
     1
 90
       50
176
     1
 90
       50
176
     1
290
     0
176
     1
 90
       50
176
     1
 62
   256
176
     0
 40
1.0
176
     0
 90
        2
176
     1
  1
strokes_ogs.tif
176
     1
290
     0
176
     1
 40
1.0
176
     1
 40
1.0
176
     1
  0
VISUALSTYLE
  5
40
102
{ACAD_REACTORS
330
2A
102
}
330
2A
100
AcDbVisualStyle
  2
X-Ray
 70
    25
177
     3
291
     0
 70
    58
 90
        2
176
     1
 90
        2
176
     1
 90
        1
176
     1
 90
        1
176
     1
 40
0.5
176
     1
 40
30.0
176
     1
 62
     7
420
 16777215
176
     1
 90
        1
176
     1
 90
        0
176
     1
 62
     7
176
     1
 62
   257
176
     1
 90
        1
176
     1
 90
        1
176
     1
 40
1.0
176
     1
 90
        8
176
     1
 62
     7
176
     1
 40
1.0
176
     1
 90
        1
176
     1
 90
        6
176
     1
 90
        2
176
     1
 62
     7
176
     1
 90
        3
176
     1
 90
        0
176
     1
 90
        0
176
     1
290
     0
176
     1
 90
       13
176
     1
 40
0.0
176
     1
 90
        0
176
     1
290
     0
176
     1
290
     1
176
     1
290
     1
176
     1
290
     0
176
     1
290
     0
176
     1
290
     0
176
     1
290
     0
176
     1
290
     0
176
     1
290
     0
176
     1
 90
       50
176
     1
 40
0.0
176
     1
 40
1.0
176
     1
 90
        0
176
     1
 62
    18
420
        0
176
     1
 90
       50
176
     1
 90
        3
176
     1
 62
     5
420
      255
176
     1
290
     0
176
     1
 90
       50
176
     1
 90
       50
176
     1
 90
       50
176
     1
290
     0
176
     1
 90
       50
176
     1
 62
   256
176
     0
 40
1.0
176
     0
 90
        2
176
     1
  1
strokes_ogs.tif
176
     1
290
     0
176
     1
 40
1.0
176
     1
 40
1.0
176
     1
  0
DICTIONARYVAR
  5
19D
102
{ACAD_REACTORS
330
19C
102
}
330
19C
100
DictionaryVariables
280
     0
  1
1:1
  0
DICTIONARYVAR
  5
1A2
102
{ACAD_REACTORS
330
19C
102
}
330
19C
100
DictionaryVariables
280
     0
  1
Standard
  0
DICTIONARYVAR
  5
1A1
102
{ACAD_REACTORS
330
19C
102
}
330
19C
100
DictionaryVariables
280
     0
  1
Standard
  0
DICTIONARY
  5
19E
330
6A
100
AcDbDictionary
280
     1
281
     1
  3
ACAD_ROUNDTRIP_2008_TABLESTYLE_CELLSTYLEMAP
360
19F
  0
CELLSTYLEMAP
  5
19F
102
{ACAD_REACTORS
330
19E
102
}
330
19E
100
AcDbCellStyleMap
 90
        3
300
CELLSTYLE
  1
TABLEFORMAT_BEGIN
 90
        5
170
     1
 91
        0
 92
    32768
 62
   257
 93
        1
300
CONTENTFORMAT
  1
CONTENTFORMAT_BEGIN
 90
        0
 91
        0
 92
        4
 93
        0
300

 40
0.0
140
1.0
 94
        5
 62
     0
340
11
144
0.25
309
CONTENTFORMAT_END
171
     1
301
MARGIN
  1
CELLMARGIN_BEGIN
 40
0.06
 40
0.06
 40
0.06
 40
0.06
 40
0.06
 40
0.06
309
CELLMARGIN_END
 94
        6
 95
        1
302
GRIDFORMAT
  1
GRIDFORMAT_BEGIN
 90
        0
 91
        1
 62
     0
 92
       -2
340
14
 93
        0
 40
0.045
309
GRIDFORMAT_END
 95
        2
302
GRIDFORMAT
  1
GRIDFORMAT_BEGIN
 90
        0
 91
        1
 62
     0
 92
       -2
340
14
 93
        0
 40
0.045
309
GRIDFORMAT_END
 95
        4
302
GRIDFORMAT
  1
GRIDFORMAT_BEGIN
 90
        0
 91
        1
 62
     0
 92
       -2
340
14
 93
        0
 40
0.045
309
GRIDFORMAT_END
 95
        8
302
GRIDFORMAT
  1
GRIDFORMAT_BEGIN
 90
        0
 91
        1
 62
     0
 92
       -2
340
14
 93
        0
 40
0.045
309
GRIDFORMAT_END
 95
       16
302
GRIDFORMAT
  1
GRIDFORMAT_BEGIN
 90
        0
 91
        1
 62
     0
 92
       -2
340
14
 93
        0
 40
0.045
309
GRIDFORMAT_END
 95
       32
302
GRIDFORMAT
  1
GRIDFORMAT_BEGIN
 90
        0
 91
        1
 62
     0
 92
       -2
340
14
 93
        0
 40
0.045
309
GRIDFORMAT_END
309
TABLEFORMAT_END
  1
CELLSTYLE_BEGIN
 90
        1
 91
        1
300
_TITLE
309
CELLSTYLE_END
300
CELLSTYLE
  1
TABLEFORMAT_BEGIN
 90
        5
170
     1
 91
        0
 92
        0
 62
   257
 93
        1
300
CONTENTFORMAT
  1
CONTENTFORMAT_BEGIN
 90
        0
 91
        0
 92
        4
 93
        0
300

 40
0.0
140
1.0
 94
        5
 62
     0
340
11
144
0.18
309
CONTENTFORMAT_END
171
     1
301
MARGIN
  1
CELLMARGIN_BEGIN
 40
0.06
 40
0.06
 40
0.06
 40
0.06
 40
0.06
 40
0.06
309
CELLMARGIN_END
 94
        6
 95
        1
302
GRIDFORMAT
  1
GRIDFORMAT_BEGIN
 90
        0
 91
        1
 62
     0
 92
       -2
340
14
 93
        0
 40
0.045
309
GRIDFORMAT_END
 95
        2
302
GRIDFORMAT
  1
GRIDFORMAT_BEGIN
 90
        0
 91
        1
 62
     0
 92
       -2
340
14
 93
        0
 40
0.045
309
GRIDFORMAT_END
 95
        4
302
GRIDFORMAT
  1
GRIDFORMAT_BEGIN
 90
        0
 91
        1
 62
     0
 92
       -2
340
14
 93
        0
 40
0.045
309
GRIDFORMAT_END
 95
        8
302
GRIDFORMAT
  1
GRIDFORMAT_BEGIN
 90
        0
 91
        1
 62
     0
 92
       -2
340
14
 93
        0
 40
0.045
309
GRIDFORMAT_END
 95
       16
302
GRIDFORMAT
  1
GRIDFORMAT_BEGIN
 90
        0
 91
        1
 62
     0
 92
       -2
340
14
 93
        0
 40
0.045
309
GRIDFORMAT_END
 95
       32
302
GRIDFORMAT
  1
GRIDFORMAT_BEGIN
 90
        0
 91
        1
 62
     0
 92
       -2
340
14
 93
        0
 40
0.045
309
GRIDFORMAT_END
309
TABLEFORMAT_END
  1
CELLSTYLE_BEGIN
 90
        2
 91
        1
300
_HEADER
309
CELLSTYLE_END
300
CELLSTYLE
  1
TABLEFORMAT_BEGIN
 90
        5
170
     1
 91
        0
 92
        0
 62
   257
 93
        1
300
CONTENTFORMAT
  1
CONTENTFORMAT_BEGIN
 90
        0
 91
        0
 92
        4
 93
        0
300

 40
0.0
140
1.0
 94
        2
 62
     0
340
11
144
0.18
309
CONTENTFORMAT_END
171
     1
301
MARGIN
  1
CELLMARGIN_BEGIN
 40
0.06
 40
0.06
 40
0.06
 40
0.06
 40
0.06
 40
0.06
309
CELLMARGIN_END
 94
        6
 95
        1
302
GRIDFORMAT
  1
GRIDFORMAT_BEGIN
 90
        0
 91
        1
 62
     0
 92
       -2
340
14
 93
        0
 40
0.045
309
GRIDFORMAT_END
 95
        2
302
GRIDFORMAT
  1
GRIDFORMAT_BEGIN
 90
        0
 91
        1
 62
     0
 92
       -2
340
14
 93
        0
 40
0.045
309
GRIDFORMAT_END
 95
        4
302
GRIDFORMAT
  1
GRIDFORMAT_BEGIN
 90
        0
 91
        1
 62
     0
 92
       -2
340
14
 93
        0
 40
0.045
309
GRIDFORMAT_END
 95
        8
302
GRIDFORMAT
  1
GRIDFORMAT_BEGIN
 90
        0
 91
        1
 62
     0
 92
       -2
340
14
 93
        0
 40
0.045
309
GRIDFORMAT_END
 95
       16
302
GRIDFORMAT
  1
GRIDFORMAT_BEGIN
 90
        0
 91
        1
 62
     0
 92
       -2
340
14
 93
        0
 40
0.045
309
GRIDFORMAT_END
 95
       32
302
GRIDFORMAT
  1
GRIDFORMAT_BEGIN
 90
        0
 91
        1
 62
     0
 92
       -2
340
14
 93
        0
 40
0.045
309
GRIDFORMAT_END
309
TABLEFORMAT_END
  1
CELLSTYLE_BEGIN
 90
        3
 91
        2
300
_DATA
309
CELLSTYLE_END
  0
ENDSEC
  0
EOF