0
SECTION
  2
HEADER
  9
$ACADVER
  1
AC1027
  9
$ACADMAINTVER
 70
     8
  9
$DWGCODEPAGE
  3
ANSI_1252
  9
$REQUIREDVERSIONS
160
                 0
  9
$COMMENTS
  1
File was created by Cadenas
  9
$CUSTOMPROPERTYTAG
  1
NN
  9
$CUSTOMPROPERTY
  1
Four-Bolt Flange Expansion
  9
$CUSTOMPROPERTYTAG
  1
NT
  9
$CUSTOMPROPERTY
  1
Type E 4-Bolt Flange Bearing -Inch
  9
$CUSTOMPROPERTYTAG
  1
NB
  9
$CUSTOMPROPERTY
  1
023094
  9
$CUSTOMPROPERTYTAG
  1
NBSYN
  9
$CUSTOMPROPERTY
  1
$PN.
  9
$CUSTOMPROPERTYTAG
  1
LINA
  9
$CUSTOMPROPERTY
  1
023094
  9
$CUSTOMPROPERTYTAG
  1
SS
  9
$CUSTOMPROPERTY
  1
1-1/4
  9
$CUSTOMPROPERTYTAG
  1
PN
  9
$CUSTOMPROPERTY
  1
023094
  9
$CUSTOMPROPERTYTAG
  1
DESCRIPTION
  9
$CUSTOMPROPERTY
  1
F4B-E-104R
  9
$CUSTOMPROPERTYTAG
  1
A
  9
$CUSTOMPROPERTY
  1
2-13/16
  9
$CUSTOMPROPERTYTAG
  1
B
  9
$CUSTOMPROPERTY
  1
3-3/4
  9
$CUSTOMPROPERTYTAG
  1
C
  9
$CUSTOMPROPERTY
  1
2-11/32
  9
$CUSTOMPROPERTYTAG
  1
D
  9
$CUSTOMPROPERTY
  1
2-7/8
  9
$CUSTOMPROPERTYTAG
  1
E
  9
$CUSTOMPROPERTY
  1
1/16
  9
$CUSTOMPROPERTYTAG
  1
F
  9
$CUSTOMPROPERTY
  1
3/8
  9
$CUSTOMPROPERTYTAG
  1
H
  9
$CUSTOMPROPERTY
  1
1
  9
$CUSTOMPROPERTYTAG
  1
J
  9
$CUSTOMPROPERTY
  1
2-15/16
  9
$CUSTOMPROPERTYTAG
  1
L
  9
$CUSTOMPROPERTY
  1
2-1/4
  9
$CUSTOMPROPERTYTAG
  1
COMPANY
  9
$CUSTOMPROPERTY
  1
baldor
  9
$INSBASE
 10
0.0
 20
0.0
 30
0.0
  9
$EXTMIN
 10
1.000000000000000E+20
 20
1.000000000000000E+20
 30
1.000000000000000E+20
  9
$EXTMAX
 10
-1.000000000000000E+20
 20
-1.000000000000000E+20
 30
-1.000000000000000E+20
  9
$LIMMIN
 10
0.0
 20
0.0
  9
$LIMMAX
 10
12.0
 20
9.0
  9
$ORTHOMODE
 70
     0
  9
$REGENMODE
 70
     1
  9
$FILLMODE
 70
     1
  9
$QTEXTMODE
 70
     0
  9
$MIRRTEXT
 70
     1
  9
$LTSCALE
 40
1.0
  9
$ATTMODE
 70
     1
  9
$TEXTSIZE
 40
0.2
  9
$TRACEWID
 40
0.05
  9
$TEXTSTYLE
  7
Standard
  9
$CLAYER
  8
0
  9
$CELTYPE
  6
ByLayer
  9
$CECOLOR
 62
   256
  9
$CELTSCALE
 40
1.0
  9
$DISPSILH
 70
     0
  9
$DIMSCALE
 40
1.0
  9
$DIMASZ
 40
0.18
  9
$DIMEXO
 40
0.0625
  9
$DIMDLI
 40
0.38
  9
$DIMRND
 40
0.0
  9
$DIMDLE
 40
0.0
  9
$DIMEXE
 40
0.18
  9
$DIMTP
 40
0.0
  9
$DIMTM
 40
0.0
  9
$DIMTXT
 40
0.18
  9
$DIMCEN
 40
0.09
  9
$DIMTSZ
 40
0.0
  9
$DIMTOL
 70
     0
  9
$DIMLIM
 70
     0
  9
$DIMTIH
 70
     1
  9
$DIMTOH
 70
     1
  9
$DIMSE1
 70
     0
  9
$DIMSE2
 70
     0
  9
$DIMTAD
 70
     0
  9
$DIMZIN
 70
     0
  9
$DIMBLK
  1

  9
$DIMASO
 70
     1
  9
$DIMSHO
 70
     1
  9
$DIMPOST
  1

  9
$DIMAPOST
  1

  9
$DIMALT
 70
     0
  9
$DIMALTD
 70
     2
  9
$DIMALTF
 40
25.4
  9
$DIMLFAC
 40
1.0
  9
$DIMTOFL
 70
     0
  9
$DIMTVP
 40
0.0
  9
$DIMTIX
 70
     0
  9
$DIMSOXD
 70
     0
  9
$DIMSAH
 70
     0
  9
$DIMBLK1
  1

  9
$DIMBLK2
  1

  9
$DIMSTYLE
  2
Standard
  9
$DIMCLRD
 70
     0
  9
$DIMCLRE
 70
     0
  9
$DIMCLRT
 70
     0
  9
$DIMTFAC
 40
1.0
  9
$DIMGAP
 40
0.09
  9
$DIMJUST
 70
     0
  9
$DIMSD1
 70
     0
  9
$DIMSD2
 70
     0
  9
$DIMTOLJ
 70
     1
  9
$DIMTZIN
 70
     0
  9
$DIMALTZ
 70
     0
  9
$DIMALTTZ
 70
     0
  9
$DIMUPT
 70
     0
  9
$DIMDEC
 70
     4
  9
$DIMTDEC
 70
     4
  9
$DIMALTU
 70
     2
  9
$DIMALTTD
 70
     2
  9
$DIMTXSTY
  7
Standard
  9
$DIMAUNIT
 70
     0
  9
$DIMADEC
 70
     0
  9
$DIMALTRND
 40
0.0
  9
$DIMAZIN
 70
     0
  9
$DIMDSEP
 70
    46
  9
$DIMATFIT
 70
     3
  9
$DIMFRAC
 70
     0
  9
$DIMLDRBLK
  1

  9
$DIMLUNIT
 70
     2
  9
$DIMLWD
 70
    -2
  9
$DIMLWE
 70
    -2
  9
$DIMTMOVE
 70
     0
  9
$DIMFXL
 40
1.0
  9
$DIMFXLON
 70
     0
  9
$DIMJOGANG
 40
0.7853981633974483
  9
$DIMTFILL
 70
     0
  9
$DIMTFILLCLR
 70
     0
  9
$DIMARCSYM
 70
     0
  9
$DIMLTYPE
  6

  9
$DIMLTEX1
  6

  9
$DIMLTEX2
  6

  9
$DIMTXTDIRECTION
 70
     0
  9
$LUNITS
 70
     2
  9
$LUPREC
 70
     4
  9
$SKETCHINC
 40
0.1
  9
$FILLETRAD
 40
0.5
  9
$AUNITS
 70
     0
  9
$AUPREC
 70
     0
  9
$MENU
  1
.
  9
$ELEVATION
 40
0.0
  9
$PELEVATION
 40
0.0
  9
$THICKNESS
 40
0.0
  9
$LIMCHECK
 70
     0
  9
$CHAMFERA
 40
0.0
  9
$CHAMFERB
 40
0.0
  9
$CHAMFERC
 40
0.0
  9
$CHAMFERD
 40
0.0
  9
$SKPOLY
 70
     0
  9
$TDCREATE
 40
2458168.9584975
  9
$TDUCREATE
 40
2458168.916830834
  9
$TDUPDATE
 40
2458168.958497685
  9
$TDUUPDATE
 40
2458168.916831018
  9
$TDINDWG
 40
0.0000000116
  9
$TDUSRTIMER
 40
0.0000000116
  9
$USRTIMER
 70
     1
  9
$ANGBASE
 50
0.0
  9
$ANGDIR
 70
     0
  9
$PDMODE
 70
     0
  9
$PDSIZE
 40
0.0
  9
$PLINEWID
 40
0.0
  9
$SPLFRAME
 70
     0
  9
$SPLINETYPE
 70
     6
  9
$SPLINESEGS
 70
     8
  9
$HANDSEED
  5
1B6
  9
$SURFTAB1
 70
     6
  9
$SURFTAB2
 70
     6
  9
$SURFTYPE
 70
     6
  9
$SURFU
 70
     6
  9
$SURFV
 70
     6
  9
$UCSBASE
  2

  9
$UCSNAME
  2

  9
$UCSORG
 10
0.0
 20
0.0
 30
0.0
  9
$UCSXDIR
 10
1.0
 20
0.0
 30
0.0
  9
$UCSYDIR
 10
0.0
 20
1.0
 30
0.0
  9
$UCSORTHOREF
  2

  9
$UCSORTHOVIEW
 70
     0
  9
$UCSORGTOP
 10
0.0
 20
0.0
 30
0.0
  9
$UCSORGBOTTOM
 10
0.0
 20
0.0
 30
0.0
  9
$UCSORGLEFT
 10
0.0
 20
0.0
 30
0.0
  9
$UCSORGRIGHT
 10
0.0
 20
0.0
 30
0.0
  9
$UCSORGFRONT
 10
0.0
 20
0.0
 30
0.0
  9
$UCSORGBACK
 10
0.0
 20
0.0
 30
0.0
  9
$PUCSBASE
  2

  9
$PUCSNAME
  2

  9
$PUCSORG
 10
0.0
 20
0.0
 30
0.0
  9
$PUCSXDIR
 10
1.0
 20
0.0
 30
0.0
  9
$PUCSYDIR
 10
0.0
 20
1.0
 30
0.0
  9
$PUCSORTHOREF
  2

  9
$PUCSORTHOVIEW
 70
     0
  9
$PUCSORGTOP
 10
0.0
 20
0.0
 30
0.0
  9
$PUCSORGBOTTOM
 10
0.0
 20
0.0
 30
0.0
  9
$PUCSORGLEFT
 10
0.0
 20
0.0
 30
0.0
  9
$PUCSORGRIGHT
 10
0.0
 20
0.0
 30
0.0
  9
$PUCSORGFRONT
 10
0.0
 20
0.0
 30
0.0
  9
$PUCSORGBACK
 10
0.0
 20
0.0
 30
0.0
  9
$USERI1
 70
     0
  9
$USERI2
 70
     0
  9
$USERI3
 70
     0
  9
$USERI4
 70
     0
  9
$USERI5
 70
     0
  9
$USERR1
 40
0.0
  9
$USERR2
 40
0.0
  9
$USERR3
 40
0.0
  9
$USERR4
 40
0.0
  9
$USERR5
 40
0.0
  9
$WORLDVIEW
 70
     1
  9
$SHADEDGE
 70
     3
  9
$SHADEDIF
 70
    70
  9
$TILEMODE
 70
     1
  9
$MAXACTVP
 70
    64
  9
$PINSBASE
 10
0.0
 20
0.0
 30
0.0
  9
$PLIMCHECK
 70
     0
  9
$PEXTMIN
 10
1.000000000000000E+20
 20
1.000000000000000E+20
 30
1.000000000000000E+20
  9
$PEXTMAX
 10
-1.000000000000000E+20
 20
-1.000000000000000E+20
 30
-1.000000000000000E+20
  9
$PLIMMIN
 10
0.0
 20
0.0
  9
$PLIMMAX
 10
12.0
 20
9.0
  9
$UNITMODE
 70
     0
  9
$VISRETAIN
 70
     1
  9
$PLINEGEN
 70
     0
  9
$PSLTSCALE
 70
     1
  9
$TREEDEPTH
 70
  3020
  9
$CMLSTYLE
  2
Standard
  9
$CMLJUST
 70
     0
  9
$CMLSCALE
 40
1.0
  9
$PROXYGRAPHICS
 70
     1
  9
$MEASUREMENT
 70
     0
  9
$CELWEIGHT
370
    -1
  9
$ENDCAPS
280
     0
  9
$JOINSTYLE
280
     0
  9
$LWDISPLAY
290
     0
  9
$INSUNITS
 70
     1
  9
$HYPERLINKBASE
  1

  9
$STYLESHEET
  1

  9
$XEDIT
290
     1
  9
$CEPSNTYPE
380
     0
  9
$PSTYLEMODE
290
     1
  9
$FINGERPRINTGUID
  2
{CA9FD5D6-37C3-467F-96A3-9E4C06FEE88F}
  9
$VERSIONGUID
  2
{FAEB1C32-E019-11D5-929B-00C0DF256EC4}
  9
$EXTNAMES
290
     1
  9
$PSVPSCALE
 40
0.0
  9
$OLESTARTUP
290
     0
  9
$SORTENTS
280
   127
  9
$INDEXCTL
280
     0
  9
$HIDETEXT
280
     1
  9
$XCLIPFRAME
280
     2
  9
$HALOGAP
280
     0
  9
$OBSCOLOR
 70
   257
  9
$OBSLTYPE
280
     0
  9
$INTERSECTIONDISPLAY
280
     0
  9
$INTERSECTIONCOLOR
 70
   257
  9
$DIMASSOC
280
     2
  9
$PROJECTNAME
  1

  9
$CAMERADISPLAY
290
     0
  9
$LENSLENGTH
 40
50.0
  9
$CAMERAHEIGHT
 40
0.0
  9
$STEPSPERSEC
 40
2.0
  9
$STEPSIZE
 40
6.0
  9
$3DDWFPREC
 40
2.0
  9
$PSOLWIDTH
 40
0.25
  9
$PSOLHEIGHT
 40
4.0
  9
$LOFTANG1
 40
1.570796326794897
  9
$LOFTANG2
 40
1.570796326794897
  9
$LOFTMAG1
 40
0.0
  9
$LOFTMAG2
 40
0.0
  9
$LOFTPARAM
 70
     7
  9
$LOFTNORMALS
280
     1
  9
$LATITUDE
 40
37.795
  9
$LONGITUDE
 40
-122.394
  9
$NORTHDIRECTION
 40
0.0
  9
$TIMEZONE
 70
 -8000
  9
$LIGHTGLYPHDISPLAY
280
     1
  9
$TILEMODELIGHTSYNCH
280
     1
  9
$CMATERIAL
347
44
  9
$SOLIDHIST
280
     0
  9
$SHOWHIST
280
     1
  9
$DWFFRAME
280
     2
  9
$DGNFRAME
280
     2
  9
$REALWORLDSCALE
290
     1
  9
$INTERFERECOLOR
 62
   256
  9
$CSHADOW
280
     0
  9
$SHADOWPLANELOCATION
 40
0.0
  0
ENDSEC
  0
SECTION
  2
CLASSES
  0
CLASS
  1
ACDBDICTIONARYWDFLT
  2
AcDbDictionaryWithDefault
  3
ObjectDBX Classes
 90
        0
 91
        4
280
     0
281
     0
  0
CLASS
  1
VISUALSTYLE
  2
AcDbVisualStyle
  3
ObjectDBX Classes
 90
     4095
 91
        4
280
     0
281
     0
  0
CLASS
  1
MATERIAL
  2
AcDbMaterial
  3
ObjectDBX Classes
 90
     1153
 91
        4
280
     0
281
     0
  0
CLASS
  1
SCALE
  2
AcDbScale
  3
ObjectDBX Classes
 90
     1153
 91
        4
280
     0
281
     0
  0
CLASS
  1
TABLESTYLE
  2
AcDbTableStyle
  3
ObjectDBX Classes
 90
     4095
 91
        4
280
     0
281
     0
  0
CLASS
  1
MLEADERSTYLE
  2
AcDbMLeaderStyle
  3
ACDB_MLEADERSTYLE_CLASS
 90
     4095
 91
        4
280
     0
281
     0
  0
CLASS
  1
SUN
  2
AcDbSun
  3
SCENEOE
 90
     1153
 91
        4
280
     0
281
     0
  0
CLASS
  1
DICTIONARYVAR
  2
AcDbDictionaryVar
  3
ObjectDBX Classes
 90
        0
 91
        4
280
     0
281
     0
  0
CLASS
  1
CELLSTYLEMAP
  2
AcDbCellStyleMap
  3
ObjectDBX Classes
 90
     1152
 91
        4
280
     0
281
     0
  0
ENDSEC
  0
SECTION
  2
TABLES
  0
TABLE
  2
VPORT
  5
8
330
0
100
AcDbSymbolTable
 70
     1
  0
VPORT
  5
29
330
8
100
AcDbSymbolTableRecord
100
AcDbViewportTableRecord
  2
*Active
 70
     0
 10
0.0
 20
0.0
 11
1.0
 21
1.0
 12
0.0
 22
-1.40625
 13
0.0
 23
0.0
 14
0.5
 24
0.5
 15
0.5
 25
0.5
 16
0.0
 26
0.0
 36
1.0
 17
0.0
 27
0.0
 37
0.0
 40
3.155625
 41
1.212121212121212
 42
50.0
 43
0.0
 44
0.0
 50
0.0
 51
0.0
 71
     0
 72
   100
 73
     1
 74
     3
 75
     0
 76
     0
 77
     0
 78
     0
281
     0
 65
     1
110
0.0
120
0.0
130
0.0
111
1.0
121
0.0
131
0.0
112
0.0
122
1.0
132
0.0
 79
     0
146
0.0
348
2F
 60
     3
 61
     5
292
     1
282
     1
141
0.0
142
0.0
 63
   250
361
6D
  0
ENDTAB
  0
TABLE
  2
LTYPE
  5
5
330
0
100
AcDbSymbolTable
 70
     3
  0
LTYPE
  5
14
330
5
100
AcDbSymbolTableRecord
100
AcDbLinetypeTableRecord
  2
ByBlock
 70
     0
  3

 72
    65
 73
     0
 40
0.0
  0
LTYPE
  5
15
330
5
100
AcDbSymbolTableRecord
100
AcDbLinetypeTableRecord
  2
ByLayer
 70
     0
  3

 72
    65
 73
     0
 40
0.0
  0
LTYPE
  5
16
330
5
100
AcDbSymbolTableRecord
100
AcDbLinetypeTableRecord
  2
Continuous
 70
     0
  3
Solid line
 72
    65
 73
     0
 40
0.0
  0
LTYPE
  5
9A
330
5
100
AcDbSymbolTableRecord
100
AcDbLinetypeTableRecord
  2
Dashed
 70
     0
  3

 72
    65
 73
     2
 40
2.0
 49
1.0
 74
     0
 49
-1.0
 74
     0
  0
LTYPE
  5
BC
330
5
100
AcDbSymbolTableRecord
100
AcDbLinetypeTableRecord
  2
Center
 70
     0
  3

 72
    65
 73
     4
 40
1.5
 49
0.45
 74
     0
 49
-0.5
 74
     0
 49
0.05
 74
     0
 49
-0.5
 74
     0
  0
ENDTAB
  0
TABLE
  2
LAYER
  5
2
330
0
100
AcDbSymbolTable
 70
     7
  0
LAYER
  5
10
330
2
100
AcDbSymbolTableRecord
100
AcDbLayerTableRecord
  2
0
 70
     0
 62
     7
  6
Continuous
370
    -3
390
F
347
46
348
0
  0
LAYER
  5
72
330
2
100
AcDbSymbolTableRecord
100
AcDbLayerTableRecord
  2
AM_6
 70
     0
 62
    -2
  6
Continuous
370
    35
390
F
347
46
348
0
  0
LAYER
  5
9B
330
2
100
AcDbSymbolTableRecord
100
AcDbLayerTableRecord
  2
AM_9
 70
     0
 62
     6
  6
Dashed
370
    25
390
F
347
46
348
0
  0
LAYER
  5
BD
330
2
100
AcDbSymbolTableRecord
100
AcDbLayerTableRecord
  2
AM_7
 70
     0
 62
     7
  6
Center
370
    25
390
F
347
46
348
0
  0
LAYER
  5
BF
330
2
100
AcDbSymbolTableRecord
100
AcDbLayerTableRecord
  2
AM_4
 70
     0
 62
     7
  6
Continuous
370
    50
390
F
347
46
348
0
  0
LAYER
  5
C4
330
2
100
AcDbSymbolTableRecord
100
AcDbLayerTableRecord
  2
AM_5
 70
     0
 62
     3
  6
Continuous
370
    25
390
F
347
46
348
0
  0
LAYER
  5
1A5
330
2
100
AcDbSymbolTableRecord
100
AcDbLayerTableRecord
  2
ConnectionPoints
 70
     0
 62
     7
  6
Continuous
370
    50
390
F
347
46
348
0
  0
ENDTAB
  0
TABLE
  2
STYLE
  5
3
330
0
100
AcDbSymbolTable
 70
     1
  0
STYLE
  5
11
330
3
100
AcDbSymbolTableRecord
100
AcDbTextStyleTableRecord
  2
Standard
 70
     0
 40
0.0
 41
1.0
 50
0.0
 71
     0
 42
0.2
  3
txt
  4

  0
ENDTAB
  0
TABLE
  2
VIEW
  5
6
330
0
100
AcDbSymbolTable
 70
     0
  0
ENDTAB
  0
TABLE
  2
UCS
  5
7
330
0
100
AcDbSymbolTable
 70
     0
  0
ENDTAB
  0
TABLE
  2
APPID
  5
9
330
0
100
AcDbSymbolTable
 70
     1
  0
APPID
  5
12
330
9
100
AcDbSymbolTableRecord
100
AcDbRegAppTableRecord
  2
ACAD
 70
     0
  0
ENDTAB
  0
TABLE
  2
DIMSTYLE
  5
A
330
0
100
AcDbSymbolTable
 70
     1
100
AcDbDimStyleTable
  0
DIMSTYLE
105
27
330
A
100
AcDbSymbolTableRecord
100
AcDbDimStyleTableRecord
  2
Standard
 70
     0
178
     0
340
11
  0
ENDTAB
  0
TABLE
  2
BLOCK_RECORD
  5
1
330
0
100
AcDbSymbolTable
 70
     7
  0
BLOCK_RECORD
  5
1F
330
1
100
AcDbSymbolTableRecord
100
AcDbBlockTableRecord
  2
*Model_Space
340
22
 70
     0
280
     1
281
     0
  0
BLOCK_RECORD
  5
1B
330
1
100
AcDbSymbolTableRecord
100
AcDbBlockTableRecord
  2
*Paper_Space
340
1E
 70
     0
280
     1
281
     0
  0
BLOCK_RECORD
  5
23
330
1
100
AcDbSymbolTableRecord
100
AcDbBlockTableRecord
  2
*Paper_Space0
340
26
 70
     0
280
     1
281
     0
  0
BLOCK_RECORD
  5
6E
330
1
100
AcDbSymbolTableRecord
100
AcDbBlockTableRecord
  2
1_023094_4
340
0
102
{BLKREFS
331
6F
102
}
 70
     0
280
     1
281
     0
  0
BLOCK_RECORD
  5
85
330
1
100
AcDbSymbolTableRecord
100
AcDbBlockTableRecord
  2
2_1_1_4C_1_0_in_023094_4
340
0
102
{BLKREFS
331
86
102
}
 70
     0
280
     1
281
     0
  0
BLOCK_RECORD
  5
C7
330
1
100
AcDbSymbolTableRecord
100
AcDbBlockTableRecord
  2
3_1_1_4C_2_0_in_023094_4
340
0
102
{BLKREFS
331
C8
102
}
 70
     0
280
     1
281
     0
  0
BLOCK_RECORD
  5
101
330
1
100
AcDbSymbolTableRecord
100
AcDbBlockTableRecord
  2
4_1_1_4I_0_in_023094_4
340
0
102
{BLKREFS
331
102
102
}
 70
     0
280
     1
281
     0
  0
BLOCK_RECORD
  5
136
330
1
100
AcDbSymbolTableRecord
100
AcDbBlockTableRecord
  2
5_405015E_Inch_0_in_023094_4
340
0
102
{BLKREFS
331
137
102
}
 70
     0
280
     1
281
     0
  0
BLOCK_RECORD
  5
154
330
1
100
AcDbSymbolTableRecord
100
AcDbBlockTableRecord
  2
6_023094H_0_in_023094_4
340
0
102
{BLKREFS
331
155
102
}
 70
     0
280
     1
281
     0
  0
ENDTAB
  0
ENDSEC
  0
SECTION
  2
BLOCKS
  0
BLOCK
  5
20
330
1F
100
AcDbEntity
  8
0
100
AcDbBlockBegin
  2
*Model_Space
 70
     0
 10
0.0
 20
0.0
 30
0.0
  3
*Model_Space
  1

  0
ENDBLK
  5
21
330
1F
100
AcDbEntity
  8
0
100
AcDbBlockEnd
  0
BLOCK
  5
1C
330
1B
100
AcDbEntity
 67
     1
  8
0
100
AcDbBlockBegin
  2
*Paper_Space
 70
     0
 10
0.0
 20
0.0
 30
0.0
  3
*Paper_Space
  1

  0
ENDBLK
  5
1D
330
1B
100
AcDbEntity
 67
     1
  8
0
100
AcDbBlockEnd
  0
BLOCK
  5
24
330
23
100
AcDbEntity
  8
0
100
AcDbBlockBegin
  2
*Paper_Space0
 70
     0
 10
0.0
 20
0.0
 30
0.0
  3
*Paper_Space0
  1

  0
ENDBLK
  5
25
330
23
100
AcDbEntity
  8
0
100
AcDbBlockEnd
  0
BLOCK
  5
70
330
6E
100
AcDbEntity
  8
0
100
AcDbBlockBegin
  2
1_023094_4
 70
     2
 10
0.0
 20
0.0
 30
0.0
  3
1_023094_4
  1

  0
ATTDEF
  5
73
330
6E
100
AcDbEntity
  8
AM_6
100
AcDbText
 10
6.875
 20
0.140625
 30
0.0
 40
0.5
  1
Four-Bolt Flange Expansion
100
AcDbAttributeDefinition
  3

  2
NN
 70
     8
280
     0
  0
ATTDEF
  5
74
330
6E
100
AcDbEntity
  8
AM_6
100
AcDbText
 10
6.875
 20
-0.359375
 30
0.0
 40
0.5
  1
Type E 4-Bolt Flange Bearing -Inch
100
AcDbAttributeDefinition
  3

  2
NT
 70
     8
280
     0
  0
ATTDEF
  5
75
330
6E
100
AcDbEntity
  8
AM_6
100
AcDbText
 10
6.875
 20
-0.859375
 30
0.0
 40
0.5
  1
023094
100
AcDbAttributeDefinition
  3

  2
NB
 70
     8
280
     0
  0
ATTDEF
  5
76
330
6E
100
AcDbEntity
  8
AM_6
100
AcDbText
 10
6.875
 20
-1.359375
 30
0.0
 40
0.5
  1
$PN.
100
AcDbAttributeDefinition
  3

  2
NBSYN
 70
     8
280
     0
  0
ATTDEF
  5
77
330
6E
100
AcDbEntity
  8
AM_6
100
AcDbText
 10
6.875
 20
-1.859375
 30
0.0
 40
0.5
  1
023094
100
AcDbAttributeDefinition
  3

  2
LINA
 70
     8
280
     0
  0
ATTDEF
  5
78
330
6E
100
AcDbEntity
  8
AM_6
100
AcDbText
 10
6.875
 20
-2.359375
 30
0.0
 40
0.5
  1
1-1/4
100
AcDbAttributeDefinition
  3

  2
SS
 70
     8
280
     0
  0
ATTDEF
  5
79
330
6E
100
AcDbEntity
  8
AM_6
100
AcDbText
 10
6.875
 20
-2.859375
 30
0.0
 40
0.5
  1
023094
100
AcDbAttributeDefinition
  3

  2
PN
 70
     8
280
     0
  0
ATTDEF
  5
7A
330
6E
100
AcDbEntity
  8
AM_6
100
AcDbText
 10
6.875
 20
-3.359375
 30
0.0
 40
0.5
  1
F4B-E-104R
100
AcDbAttributeDefinition
  3

  2
DESCRIPTION
 70
     8
280
     0
  0
ATTDEF
  5
7B
330
6E
100
AcDbEntity
  8
AM_6
100
AcDbText
 10
6.875
 20
-3.859375
 30
0.0
 40
0.5
  1
2-13/16
100
AcDbAttributeDefinition
  3

  2
A
 70
     8
280
     0
  0
ATTDEF
  5
7C
330
6E
100
AcDbEntity
  8
AM_6
100
AcDbText
 10
6.875
 20
-4.359375
 30
0.0
 40
0.5
  1
3-3/4
100
AcDbAttributeDefinition
  3

  2
B
 70
     8
280
     0
  0
ATTDEF
  5
7D
330
6E
100
AcDbEntity
  8
AM_6
100
AcDbText
 10
6.875
 20
-4.859375
 30
0.0
 40
0.5
  1
2-11/32
100
AcDbAttributeDefinition
  3

  2
C
 70
     8
280
     0
  0
ATTDEF
  5
7E
330
6E
100
AcDbEntity
  8
AM_6
100
AcDbText
 10
6.875
 20
-5.359375
 30
0.0
 40
0.5
  1
2-7/8
100
AcDbAttributeDefinition
  3

  2
D
 70
     8
280
     0
  0
ATTDEF
  5
7F
330
6E
100
AcDbEntity
  8
AM_6
100
AcDbText
 10
6.875
 20
-5.859375
 30
0.0
 40
0.5
  1
1/16
100
AcDbAttributeDefinition
  3

  2
E
 70
     8
280
     0
  0
ATTDEF
  5
80
330
6E
100
AcDbEntity
  8
AM_6
100
AcDbText
 10
6.875
 20
-6.359375
 30
0.0
 40
0.5
  1
3/8
100
AcDbAttributeDefinition
  3

  2
F
 70
     8
280
     0
  0
ATTDEF
  5
81
330
6E
100
AcDbEntity
  8
AM_6
100
AcDbText
 10
6.875
 20
-6.859375
 30
0.0
 40
0.5
  1
1
100
AcDbAttributeDefinition
  3

  2
H
 70
     8
280
     0
  0
ATTDEF
  5
82
330
6E
100
AcDbEntity
  8
AM_6
100
AcDbText
 10
6.875
 20
-7.359375
 30
0.0
 40
0.5
  1
2-15/16
100
AcDbAttributeDefinition
  3

  2
J
 70
     8
280
     0
  0
ATTDEF
  5
83
330
6E
100
AcDbEntity
  8
AM_6
100
AcDbText
 10
6.875
 20
-7.859375
 30
0.0
 40
0.5
  1
2-1/4
100
AcDbAttributeDefinition
  3

  2
L
 70
     8
280
     0
  0
ATTDEF
  5
84
330
6E
100
AcDbEntity
  8
AM_6
100
AcDbText
 10
6.875
 20
-8.359375
 30
0.0
 40
0.5
  1
baldor
100
AcDbAttributeDefinition
  3

  2
COMPANY
 70
     8
280
     0
  0
INSERT
  5
86
330
6E
100
AcDbEntity
  8
0
100
AcDbBlockReference
  2
2_1_1_4C_1_0_in_023094_4
 10
0.0
 20
0.0
 30
0.0
  0
INSERT
  5
C8
330
6E
100
AcDbEntity
  8
0
100
AcDbBlockReference
  2
3_1_1_4C_2_0_in_023094_4
 10
0.0
 20
0.0
 30
0.0
  0
INSERT
  5
102
330
6E
100
AcDbEntity
  8
0
100
AcDbBlockReference
  2
4_1_1_4I_0_in_023094_4
 10
0.0
 20
0.0
 30
0.0
  0
INSERT
  5
137
330
6E
100
AcDbEntity
  8
0
100
AcDbBlockReference
  2
5_405015E_Inch_0_in_023094_4
 10
0.0
 20
0.0
 30
0.0
  0
INSERT
  5
155
330
6E
100
AcDbEntity
  8
0
100
AcDbBlockReference
  2
6_023094H_0_in_023094_4
 10
0.0
 20
0.0
 30
0.0
  0
ENDBLK
  5
71
330
6E
100
AcDbEntity
  8
0
100
AcDbBlockEnd
  0
BLOCK
  5
87
330
85
100
AcDbEntity
  8
0
100
AcDbBlockBegin
  2
2_1_1_4C_1_0_in_023094_4
 70
     2
 10
0.0
 20
0.0
 30
0.0
  3
2_1_1_4C_1_0_in_023094_4
  1

  0
ATTDEF
  5
89
330
85
100
AcDbEntity
  8
AM_6
100
AcDbText
 10
6.125
 20
-0.0625
 30
0.0
 40
0.5
  1
E-Type Collar -Inch
100
AcDbAttributeDefinition
  3

  2
NN
 70
     8
280
     0
  0
ATTDEF
  5
8A
330
85
100
AcDbEntity
  8
AM_6
100
AcDbText
 10
6.125
 20
-0.5625
 30
0.0
 40
0.5
  1
E-Type Bearings
100
AcDbAttributeDefinition
  3

  2
NT
 70
     8
280
     0
  0
ATTDEF
  5
8B
330
85
100
AcDbEntity
  8
AM_6
100
AcDbText
 10
6.125
 20
-1.0625
 30
0.0
 40
0.5
  1
1-1/4C
100
AcDbAttributeDefinition
  3

  2
NB
 70
     8
280
     0
  0
ATTDEF
  5
8C
330
85
100
AcDbEntity
  8
AM_6
100
AcDbText
 10
6.125
 20
-1.5625
 30
0.0
 40
0.5
  1
$BORE.C
100
AcDbAttributeDefinition
  3

  2
NBSYN
 70
     8
280
     0
  0
ATTDEF
  5
8D
330
85
100
AcDbEntity
  8
AM_6
100
AcDbText
 10
6.125
 20
-2.0625
 30
0.0
 40
0.5
  1
1-1/4C
100
AcDbAttributeDefinition
  3

  2
LINA
 70
     8
280
     0
  0
ATTDEF
  5
8E
330
85
100
AcDbEntity
  8
AM_6
100
AcDbText
 10
6.125
 20
-2.5625
 30
0.0
 40
0.5
  1
1-1/4
100
AcDbAttributeDefinition
  3

  2
BORE
 70
     8
280
     0
  0
ATTDEF
  5
8F
330
85
100
AcDbEntity
  8
AM_6
100
AcDbText
 10
6.125
 20
-3.0625
 30
0.0
 40
0.5
  1
2.25000
100
AcDbAttributeDefinition
  3

  2
L
 70
     8
280
     0
  0
ATTDEF
  5
90
330
85
100
AcDbEntity
  8
AM_6
100
AcDbText
 10
6.125
 20
-3.5625
 30
0.0
 40
0.5
  1
2.75
100
AcDbAttributeDefinition
  3

  2
A
 70
     8
280
     0
  0
ATTDEF
  5
91
330
85
100
AcDbEntity
  8
AM_6
100
AcDbText
 10
6.125
 20
-4.0625
 30
0.0
 40
0.5
  1
1.16
100
AcDbAttributeDefinition
  3

  2
B
 70
     8
280
     0
  0
ATTDEF
  5
92
330
85
100
AcDbEntity
  8
AM_6
100
AcDbText
 10
6.125
 20
-4.5625
 30
0.0
 40
0.5
  1
1.56
100
AcDbAttributeDefinition
  3

  2
C
 70
     8
280
     0
  0
ATTDEF
  5
93
330
85
100
AcDbEntity
  8
AM_6
100
AcDbText
 10
6.125
 20
-5.0625
 30
0.0
 40
0.5
  1
2.31
100
AcDbAttributeDefinition
  3

  2
D
 70
     8
280
     0
  0
ATTDEF
  5
94
330
85
100
AcDbEntity
  8
AM_6
100
AcDbText
 10
6.125
 20
-5.5625
 30
0.0
 40
0.5
  1
0.35
100
AcDbAttributeDefinition
  3

  2
E
 70
     8
280
     0
  0
ATTDEF
  5
95
330
85
100
AcDbEntity
  8
AM_6
100
AcDbText
 10
6.125
 20
-6.0625
 30
0.0
 40
0.5
  1
0.28
100
AcDbAttributeDefinition
  3

  2
F
 70
     8
280
     0
  0
ATTDEF
  5
96
330
85
100
AcDbEntity
  8
AM_6
100
AcDbText
 10
6.125
 20
-6.5625
 30
0.0
 40
0.5
  1
5/16-18
100
AcDbAttributeDefinition
  3

  2
CS
 70
     8
280
     0
  0
ATTDEF
  5
97
330
85
100
AcDbEntity
  8
AM_6
100
AcDbText
 10
6.125
 20
-7.0625
 30
0.0
 40
0.5
  1
0.3125
100
AcDbAttributeDefinition
  3

  2
NDM
 70
     8
280
     0
  0
ATTDEF
  5
98
330
85
100
AcDbEntity
  8
AM_6
100
AcDbText
 10
6.125
 20
-7.5625
 30
0.0
 40
0.5
  1
0.2520
100
AcDbAttributeDefinition
  3

  2
KDM
 70
     8
280
     0
  0
ATTDEF
  5
99
330
85
100
AcDbEntity
  8
AM_6
100
AcDbText
 10
6.125
 20
-8.0625
 30
0.0
 40
0.5
  1
baldor
100
AcDbAttributeDefinition
  3

  2
COMPANY
 70
     8
280
     0
  0
LINE
  5
9C
330
85
100
AcDbEntity
  8
AM_9
100
AcDbLine
 10
0.7401434613081493
 20
-0.2308606262026613
 30
0.0
 11
0.7318656299310281
 21
-0.2205357981673139
 31
0.0
  0
LINE
  5
9D
330
85
100
AcDbEntity
  8
AM_9
100
AcDbLine
 10
0.7317919740211158
 20
-0.4645560718610769
 30
0.0
 11
0.7401434613081493
 21
-0.4541393737973387
 31
0.0
  0
LWPOLYLINE
  5
9E
330
85
100
AcDbEntity
  8
AM_9
100
AcDbPolyline
 90
       26
 70
     0
 43
0.0
 10
0.7317100232539224
 20
-0.2203417150109742
 10
0.7268134552848636
 20
-0.2151208071958227
 10
0.7173727318928891
 20
-0.2091030749689675
 10
0.7066705481973362
 20
-0.2070843953072489
 10
0.6948417659646702
 20
-0.2094161452343475
 10
0.6827512834711387
 20
-0.2160264722305425
 10
0.6702981864797541
 20
-0.2271770534277236
 10
0.6588814474109522
 20
-0.2418042645489352
 10
0.6482482284069087
 20
-0.2606648215844449
 10
0.6401852564771471
 20
-0.280790011039058
 10
0.6340725430799927
 20
-0.3040867669941513
 10
0.6310817209513337
 20
-0.3253825051744102
 10
0.63042669673562
 20
-0.348027360559001
 10
0.6319509022329913
 20
-0.367785836340048
 10
0.6354585609762936
 20
-0.3873843662466035
 10
0.6405891030990039
 20
-0.4054130709128212
 10
0.6472813745560548
 20
-0.4222657168469797
 10
0.6556499420991235
 20
-0.4381077862005023
 10
0.6651415325515375
 20
-0.4518010520070307
 10
0.6760294617094282
 20
-0.4635208025147359
 10
0.6874241736010919
 20
-0.472014003536386
 10
0.69911739950395
 20
-0.4769227860977946
 10
0.7105480034802996
 20
-0.4776861560314922
 10
0.7210069390982979
 20
-0.4741243591011731
 10
0.7305696329207633
 20
-0.466028911743455
 10
0.7317110775168821
 20
-0.4646569707027193
  0
LWPOLYLINE
  5
9F
330
85
100
AcDbEntity
  8
AM_9
100
AcDbPolyline
 90
        3
 70
     0
 43
0.0
 10
0.7366885297573411
 20
-0.457358514512015
 10
0.7378989353065655
 20
-0.4552078255253498
 10
0.7442167407706205
 20
-0.4407286989308743
  0
LINE
  5
A0
330
85
100
AcDbEntity
  8
AM_9
100
AcDbLine
 10
0.7317110775168821
 20
-0.4646569707027193
 30
0.0
 11
0.7366885297573411
 21
-0.457358514512015
 31
0.0
  0
LINE
  5
A1
330
85
100
AcDbEntity
  8
AM_9
100
AcDbLine
 10
0.7152732106591081
 20
-0.4686999999999999
 30
0.0
 11
0.9923617114157799
 21
-0.4686999999999999
 31
0.0
  0
LINE
  5
A2
330
85
100
AcDbEntity
  8
AM_9
100
AcDbLine
 10
0.9923617114157799
 20
-0.2163
 30
0.0
 11
0.7152732106591081
 21
-0.2163
 31
0.0
  0
LINE
  5
A3
330
85
100
AcDbEntity
  8
AM_9
100
AcDbLine
 10
0.9674914607667386
 20
-0.4541393737973387
 30
0.0
 11
0.9870229431814743
 21
-0.4785007298120211
 31
0.0
  0
LINE
  5
A4
330
85
100
AcDbEntity
  8
AM_9
100
AcDbLine
 10
0.9870092996141151
 20
-0.2065162876265271
 30
0.0
 11
0.9674914607667386
 21
-0.2308606262026613
 31
0.0
  0
LWPOLYLINE
  5
A5
330
85
100
AcDbEntity
  8
AM_9
100
AcDbPolyline
 90
       14
 70
     0
 43
0.0
 10
0.987169912212328
 20
-0.4786840409826519
 10
0.9809415464958594
 20
-0.4700383509692949
 10
0.9720936801726177
 20
-0.4542742986317279
 10
0.964154574552079
 20
-0.4353217707545322
 10
0.9575382099915758
 20
-0.4135994566879055
 10
0.9525651393626121
 20
-0.3893385795774654
 10
0.9496203820587925
 20
-0.3631917855513297
 10
0.9489837621862993
 20
-0.3362048911390206
 10
0.9508084883291997
 20
-0.3086354466792248
 10
0.9549762341006579
 20
-0.2824972503146181
 10
0.9615528151963199
 20
-0.2573520779153184
 10
0.9697325974429937
 20
-0.2357894426012013
 10
0.9797745799872407
 20
-0.2167884816454916
 10
0.9871702558178619
 20
-0.2063155303289875
  0
LWPOLYLINE
  5
A6
330
85
100
AcDbEntity
  8
AM_9
100
AcDbPolyline
 90
       19
 70
     0
 43
0.0
 10
0.9871702558178619
 20
-0.2063155303289875
 10
0.9901011811462261
 20
-0.2028406676501217
 10
1.001411221651231
 20
-0.1926235115217834
 10
1.011799151373572
 20
-0.1874532873358685
 10
1.022299660205128
 20
-0.1864010453848849
 10
1.031515717634218
 20
-0.189346515145713
 10
1.040250286408209
 20
-0.19618691061146
 10
1.047889137517417
 20
-0.2063566895578135
 10
1.054698258004019
 20
-0.2200107677249234
 10
1.060531730415468
 20
-0.2368972451011447
 10
1.06531782947129
 20
-0.2567643161806271
 10
1.069019962041455
 20
-0.2794950120499533
 10
1.071521390065262
 20
-0.3044483234961615
 10
1.072750308468424
 20
-0.3309029195231443
 10
1.072641212588476
 20
-0.3584104068187394
 10
1.071157503804607
 20
-0.3852462633291038
 10
1.068174446380594
 20
-0.4116210434888589
 10
1.064683260780894
 20
-0.4313274512429282
 10
1.060085281103739
 20
-0.4496257619081625
  0
LWPOLYLINE
  5
A7
330
85
100
AcDbEntity
  8
AM_9
100
AcDbPolyline
 90
        3
 70
     0
 43
0.0
 10
0.7356158266372438
 20
-0.2258687739292022
 10
0.7348869170588237
 20
-0.2247309994058632
 10
0.7317100232539224
 20
-0.2203417150109742
  0
LWPOLYLINE
  5
A8
330
85
100
AcDbEntity
  8
AM_9
100
AcDbPolyline
 90
       13
 70
     0
 43
0.0
 10
0.7442167407706205
 20
-0.4407286989308743
 10
0.7485511609097001
 20
-0.4261310339877283
 10
0.7520691384911693
 20
-0.4091038666741512
 10
0.7548683626196412
 20
-0.3882970590272663
 10
0.7565894440507004
 20
-0.3650101246795793
 10
0.7571077468039628
 20
-0.3441437399528663
 10
0.756701891910777
 20
-0.3225406133427045
 10
0.7554999604686645
 20
-0.3034104774768007
 10
0.753441355057092
 20
-0.2848290311936163
 10
0.750490194323382
 20
-0.2674460839876112
 10
0.7465738352010276
 20
-0.2515709677352389
 10
0.741331135721851
 20
-0.2368901937805035
 10
0.7356158266372438
 20
-0.2258687739292022
  0
LWPOLYLINE
  5
A9
330
85
100
AcDbEntity
  8
AM_9
100
AcDbPolyline
 90
        3
 70
     0
 43
0.0
 10
-0.1368192470298983
 20
-0.397633687795608
 10
-0.1269124370382228
 20
-0.4142914654725679
 10
-0.1040269267013524
 20
-0.4397203967567355
  0
LWPOLYLINE
  5
AA
330
85
100
AcDbEntity
  8
AM_9
100
AcDbPolyline
 90
        8
 70
     0
 43
0.0
 10
-0.13752788903
 20
-0.2888094566944371
 10
-0.139574425800268
 20
-0.2932578945756183
 10
-0.146791852974601
 20
-0.3150567498521334
 10
-0.1498793270357145
 20
-0.3378327226594423
 10
-0.1489113321725795
 20
-0.3583293169474777
 10
-0.1445431189355256
 20
-0.3783659667422286
 10
-0.1371120878882211
 20
-0.3970202426094019
 10
-0.1368192470298983
 20
-0.397633687795608
  0
LWPOLYLINE
  5
AB
330
85
100
AcDbEntity
  8
AM_9
100
AcDbPolyline
 90
       15
 70
     0
 43
0.0
 10
0.1383802792356906
 20
-0.2906083425116622
 10
0.1300665503861976
 20
-0.2754540867437468
 10
0.1178464271106557
 20
-0.2591030243125583
 10
0.1018649090427032
 20
-0.2434394724891647
 10
0.0836838577810897
 20
-0.2303649484921424
 10
0.0615572758824462
 20
-0.2191691590001756
 10
0.0379166618120348
 20
-0.2115397221760733
 10
0.0117636670291267
 20
-0.2075193459812688
 10
-0.0147090016493718
 20
-0.2077450259005123
 10
-0.0412761812407434
 20
-0.2123947279502562
 10
-0.0666674153506539
 20
-0.2213624212650878
 10
-0.0899878492394938
 20
-0.2344551451226139
 10
-0.1106213773751233
 20
-0.2514064751122383
 10
-0.1270648571043861
 20
-0.2709630983203597
 10
-0.13752788903
 20
-0.2888094566944371
  0
LWPOLYLINE
  5
AC
330
85
100
AcDbEntity
  8
AM_9
100
AcDbPolyline
 90
        7
 70
     0
 43
0.0
 10
0.1389924812514307
 20
-0.393053371987296
 10
0.1452917880396369
 20
-0.375840089419462
 10
0.1493731595039331
 20
-0.354268480066639
 10
0.1495381023177205
 20
-0.3323047590547565
 10
0.1461755636431404
 20
-0.312485259215685
 10
0.13967303235203
 20
-0.2934840807356833
 10
0.1383802792356906
 20
-0.2906083425116622
  0
LWPOLYLINE
  5
AD
330
85
100
AcDbEntity
  8
AM_9
100
AcDbPolyline
 90
       13
 70
     0
 43
0.0
 10
-0.1040269267013524
 20
-0.4397203967567355
 10
-0.0872612043452632
 20
-0.4523717603792828
 10
-0.0688936377951713
 20
-0.4626093797893434
 10
-0.0449166642580344
 20
-0.4716097542939783
 10
-0.0197791576627689
 20
-0.4767179259630322
 10
0.0069526754731946
 20
-0.4777553989652571
 10
0.0334916657933992
 20
-0.4744519889923478
 10
0.0593231851400649
 20
-0.4667242710024871
 10
0.0834404904169332
 20
-0.4547835912695912
 10
0.1047464633939063
 20
-0.4390665279940754
 10
0.1228643582868776
 20
-0.4197921458179746
 10
0.1361578268394822
 20
-0.3988916796039579
 10
0.1389924812514307
 20
-0.393053371987296
  0
LINE
  5
AE
330
85
100
AcDbEntity
  8
AM_9
100
AcDbLine
 10
-0.78
 20
-0.0625
 30
0.0
 11
-0.78
 21
-0.6224999999999999
 31
0.0
  0
LINE
  5
AF
330
85
100
AcDbEntity
  8
AM_9
100
AcDbLine
 10
0.78
 20
-0.6224999999999999
 30
0.0
 11
0.78
 21
-0.0625
 31
0.0
  0
LINE
  5
B0
330
85
100
AcDbEntity
  8
AM_9
100
AcDbLine
 10
-0.8027627095472158
 20
-0.0625
 30
0.0
 11
-1.031666666666667
 21
-0.0625
 31
0.0
  0
LINE
  5
B1
330
85
100
AcDbEntity
  8
AM_9
100
AcDbLine
 10
1.031666666666667
 20
-0.0625
 30
0.0
 11
0.8027627095472158
 21
-0.0625
 31
0.0
  0
ARC
  5
B2
330
85
100
AcDbEntity
  8
AM_9
100
AcDbCircle
 10
-1.031666666666667
 20
-0.1558333333333328
 30
0.0
 40
0.0933333333333328
100
AcDbArc
 50
90.0
 51
179.9999991462263
  0
ARC
  5
B3
330
85
100
AcDbEntity
  8
AM_9
100
AcDbCircle
 10
1.031666666666667
 20
-0.1558333333333328
 30
0.0
 40
0.0933333333333328
100
AcDbArc
 50
0.0000008537736463
 51
90.0
  0
LWPOLYLINE
  5
B4
330
85
100
AcDbEntity
  8
AM_9
100
AcDbPolyline
 90
       10
 70
     0
 43
0.0
 10
1.060085281103739
 20
-0.4496257619081625
 10
1.054651496681591
 20
-0.4651020780783046
 10
1.048084386143414
 20
-0.4783200483361416
 10
1.039792980723404
 20
-0.4892856735353044
 10
1.030143451225298
 20
-0.4963469603103008
 10
1.020583120301915
 20
-0.4987300375961383
 10
1.010242447035708
 20
-0.4970268927252421
 10
1.000360562304744
 20
-0.4916316373840346
 10
0.990377351778859
 20
-0.4824683578755312
 10
0.987169912212328
 20
-0.4786840409826519
  0
LINE
  5
B5
330
85
100
AcDbEntity
  8
AM_9
100
AcDbLine
 10
-1.125
 20
-0.1558333333333334
 30
0.0
 11
-1.125
 21
-0.6224999999999999
 31
0.0
  0
LINE
  5
B6
330
85
100
AcDbEntity
  8
AM_9
100
AcDbLine
 10
1.125
 20
-0.6224999999999999
 30
0.0
 11
1.125
 21
-0.1558333333333334
 31
0.0
  0
LINE
  5
B7
330
85
100
AcDbEntity
  8
AM_9
100
AcDbLine
 10
-0.802762709547216
 20
-0.1558333333333333
 30
0.0
 11
-1.125
 21
-0.1558333333333334
 31
0.0
  0
LINE
  5
B8
330
85
100
AcDbEntity
  8
AM_9
100
AcDbLine
 10
1.125
 20
-0.1558333333333334
 30
0.0
 11
0.802762709547216
 21
-0.1558333333333333
 31
0.0
  0
LINE
  5
B9
330
85
100
AcDbEntity
  8
AM_9
100
AcDbLine
 10
1.125
 20
-0.6224999999999999
 30
0.0
 11
-1.125
 21
-0.6224999999999999
 31
0.0
  0
ELLIPSE
  5
BA
330
85
100
AcDbEntity
  8
AM_9
100
AcDbEllipse
 10
0.7152732106591081
 20
-0.3425
 30
0.0
 11
-2.318256390785938E-17
 21
-0.1261999999999999
 31
0.0
210
0.0
220
0.0
230
1.0
 40
0.4226182617406996
 41
0.0
 42
6.283185307179586
  0
ELLIPSE
  5
BB
330
85
100
AcDbEntity
  8
AM_9
100
AcDbEllipse
 10
0.9923617114157843
 20
-0.3425000000000089
 30
0.0
 11
-2.318256390785769E-17
 21
-0.1261999999999907
 31
0.0
210
0.0
220
0.0
230
1.0
 40
0.4226182617407199
 41
0.0
 42
6.283185307179586
  0
LINE
  5
BE
330
85
100
AcDbEntity
  8
AM_7
100
AcDbLine
 10
-0.13251
 20
-0.3425
 30
0.0
 11
0.13251
 21
-0.3425
 31
0.0
  0
CIRCLE
  5
C0
330
85
100
AcDbEntity
  8
AM_4
100
AcDbCircle
 10
0.0
 20
-0.3425
 30
0.0
 40
0.1262
  0
LINE
  5
C1
330
85
100
AcDbEntity
  8
AM_4
100
AcDbLine
 10
0.8027627095472158
 20
-0.0625
 30
0.0
 11
-0.8027627095472158
 21
-0.0625
 31
0.0
  0
LWPOLYLINE
  5
C2
330
85
100
AcDbEntity
  8
AM_4
100
AcDbPolyline
 90
       38
 70
     0
 43
0.0
 10
-0.0944316611461709
 20
-0.461964548264952
 10
-0.1100410531349844
 20
-0.4456776362718604
 10
-0.1231216915179457
 20
-0.427288115829181
 10
-0.1347364816200956
 20
-0.4040729767542466
 10
-0.1425154107603172
 20
-0.379286339538882
 10
-0.1463409492616884
 20
-0.3524054826373659
 10
-0.1457518241697922
 20
-0.3252552093020357
 10
-0.1405630296539488
 20
-0.2980719877209305
 10
-0.1309060893334685
 20
-0.2721587393067205
 10
-0.1170463318555484
 20
-0.2484891788053882
 10
-0.0992963149185771
 20
-0.2276022451456741
 10
-0.0788999913617038
 20
-0.2108769478803855
 10
-0.0558446746940343
 20
-0.1980564177916196
 10
-0.0324316979332321
 20
-0.1901510934594087
 10
-0.0079858099152142
 20
-0.1864825886368283
 10
0.015317280230351
 20
-0.1871237716907463
 10
0.0381803436319684
 20
-0.1916549741527672
 10
0.059691727714048
 20
-0.199831952061259
 10
0.0796107852917403
 20
-0.2113406528406991
 10
0.0980964339157272
 20
-0.2264534007491337
 10
0.1139826322643025
 20
-0.2442837521986115
 10
0.1276415342320419
 20
-0.2656851880821677
 10
0.1377570418769559
 20
-0.2889921986240984
 10
0.1443380754963585
 20
-0.3149840863207845
 10
0.1466487563449365
 20
-0.3417091864450443
 10
0.1444699132654577
 20
-0.3692117606482793
 10
0.1377728341559482
 20
-0.3959617399449462
 10
0.1266182216008403
 20
-0.4212011550692994
 10
0.1113108816303643
 20
-0.4441333708237347
 10
0.0927187528235986
 20
-0.4634541179969809
 10
0.0709962468105968
 20
-0.4791669700697391
 10
0.0481671341069856
 20
-0.4900342344209092
 10
0.0237623406932218
 20
-0.4966786121969277
 10
0.000173885703858
 20
-0.4987323146372872
 10
-0.0234197391423047
 20
-0.496738293370602
 10
-0.0456485885920955
 20
-0.4909494400898423
 10
-0.0666382569732799
 20
-0.4816402434431507
 10
-0.0944316611965694
 20
-0.4619645483944241
  0
LINE
  5
C3
330
85
100
AcDbEntity
  8
AM_4
100
AcDbLine
 10
0.802762709547216
 20
-0.1558333333333333
 30
0.0
 11
-0.802762709547216
 21
-0.1558333333333333
 31
0.0
  0
ARC
  5
C5
330
85
100
AcDbEntity
  8
AM_5
100
AcDbCircle
 10
-0.0000000000000001
 20
-0.3424999999999999
 30
0.0
 40
0.15625
100
AcDbArc
 50
75.0
 51
14.99999999999997
  0
ARC
  5
C6
330
85
100
AcDbEntity
  8
AM_5
100
AcDbCircle
 10
0.0
 20
-0.342499999999999
 30
0.0
 40
0.1562499999999992
100
AcDbArc
 50
63.85157066748174
 51
74.99999999999991
  0
ENDBLK
  5
88
330
85
100
AcDbEntity
  8
0
100
AcDbBlockEnd
  0
BLOCK
  5
C9
330
C7
100
AcDbEntity
  8
0
100
AcDbBlockBegin
  2
3_1_1_4C_2_0_in_023094_4
 70
     2
 10
0.0
 20
0.0
 30
0.0
  3
3_1_1_4C_2_0_in_023094_4
  1

  0
ATTDEF
  5
CB
330
C7
100
AcDbEntity
  8
AM_6
100
AcDbText
 10
6.125
 20
-2.2525
 30
0.0
 40
0.5
  1
E-Type Collar -Inch
100
AcDbAttributeDefinition
  3

  2
NN
 70
     8
280
     0
  0
ATTDEF
  5
CC
330
C7
100
AcDbEntity
  8
AM_6
100
AcDbText
 10
6.125
 20
-2.7525
 30
0.0
 40
0.5
  1
E-Type Bearings
100
AcDbAttributeDefinition
  3

  2
NT
 70
     8
280
     0
  0
ATTDEF
  5
CD
330
C7
100
AcDbEntity
  8
AM_6
100
AcDbText
 10
6.125
 20
-3.2525
 30
0.0
 40
0.5
  1
1-1/4C
100
AcDbAttributeDefinition
  3

  2
NB
 70
     8
280
     0
  0
ATTDEF
  5
CE
330
C7
100
AcDbEntity
  8
AM_6
100
AcDbText
 10
6.125
 20
-3.7525
 30
0.0
 40
0.5
  1
$BORE.C
100
AcDbAttributeDefinition
  3

  2
NBSYN
 70
     8
280
     0
  0
ATTDEF
  5
CF
330
C7
100
AcDbEntity
  8
AM_6
100
AcDbText
 10
6.125
 20
-4.2525
 30
0.0
 40
0.5
  1
1-1/4C
100
AcDbAttributeDefinition
  3

  2
LINA
 70
     8
280
     0
  0
ATTDEF
  5
D0
330
C7
100
AcDbEntity
  8
AM_6
100
AcDbText
 10
6.125
 20
-4.7525
 30
0.0
 40
0.5
  1
1-1/4
100
AcDbAttributeDefinition
  3

  2
BORE
 70
     8
280
     0
  0
ATTDEF
  5
D1
330
C7
100
AcDbEntity
  8
AM_6
100
AcDbText
 10
6.125
 20
-5.2525
 30
0.0
 40
0.5
  1
2.25000
100
AcDbAttributeDefinition
  3

  2
L
 70
     8
280
     0
  0
ATTDEF
  5
D2
330
C7
100
AcDbEntity
  8
AM_6
100
AcDbText
 10
6.125
 20
-5.7525
 30
0.0
 40
0.5
  1
2.75
100
AcDbAttributeDefinition
  3

  2
A
 70
     8
280
     0
  0
ATTDEF
  5
D3
330
C7
100
AcDbEntity
  8
AM_6
100
AcDbText
 10
6.125
 20
-6.2525
 30
0.0
 40
0.5
  1
1.16
100
AcDbAttributeDefinition
  3

  2
B
 70
     8
280
     0
  0
ATTDEF
  5
D4
330
C7
100
AcDbEntity
  8
AM_6
100
AcDbText
 10
6.125
 20
-6.7525
 30
0.0
 40
0.5
  1
1.56
100
AcDbAttributeDefinition
  3

  2
C
 70
     8
280
     0
  0
ATTDEF
  5
D5
330
C7
100
AcDbEntity
  8
AM_6
100
AcDbText
 10
6.125
 20
-7.2525
 30
0.0
 40
0.5
  1
2.31
100
AcDbAttributeDefinition
  3

  2
D
 70
     8
280
     0
  0
ATTDEF
  5
D6
330
C7
100
AcDbEntity
  8
AM_6
100
AcDbText
 10
6.125
 20
-7.7525
 30
0.0
 40
0.5
  1
0.35
100
AcDbAttributeDefinition
  3

  2
E
 70
     8
280
     0
  0
ATTDEF
  5
D7
330
C7
100
AcDbEntity
  8
AM_6
100
AcDbText
 10
6.125
 20
-8.2525
 30
0.0
 40
0.5
  1
0.28
100
AcDbAttributeDefinition
  3

  2
F
 70
     8
280
     0
  0
ATTDEF
  5
D8
330
C7
100
AcDbEntity
  8
AM_6
100
AcDbText
 10
6.125
 20
-8.7525
 30
0.0
 40
0.5
  1
5/16-18
100
AcDbAttributeDefinition
  3

  2
CS
 70
     8
280
     0
  0
ATTDEF
  5
D9
330
C7
100
AcDbEntity
  8
AM_6
100
AcDbText
 10
6.125
 20
-9.2525
 30
0.0
 40
0.5
  1
0.3125
100
AcDbAttributeDefinition
  3

  2
NDM
 70
     8
280
     0
  0
ATTDEF
  5
DA
330
C7
100
AcDbEntity
  8
AM_6
100
AcDbText
 10
6.125
 20
-9.7525
 30
0.0
 40
0.5
  1
0.2520
100
AcDbAttributeDefinition
  3

  2
KDM
 70
     8
280
     0
  0
ATTDEF
  5
DB
330
C7
100
AcDbEntity
  8
AM_6
100
AcDbText
 10
6.125
 20
-10.2525
 30
0.0
 40
0.5
  1
baldor
100
AcDbAttributeDefinition
  3

  2
COMPANY
 70
     8
280
     0
  0
LINE
  5
DC
330
C7
100
AcDbEntity
  8
AM_9
100
AcDbLine
 10
0.7401434613081497
 20
-2.420860626202662
 30
0.0
 11
0.7318173552647615
 21
-2.41047558582365
 31
0.0
  0
LINE
  5
DD
330
C7
100
AcDbEntity
  8
AM_9
100
AcDbLine
 10
0.7317770678867456
 20
-2.654574664082522
 30
0.0
 11
0.7401434613081497
 21
-2.644139373797338
 31
0.0
  0
LWPOLYLINE
  5
DE
330
C7
100
AcDbEntity
  8
AM_9
100
AcDbPolyline
 90
       25
 70
     0
 43
0.0
 10
0.7317153249113441
 20
-2.410348325169788
 10
0.7247251827028233
 20
-2.403390245706021
 10
0.7150517877036321
 20
-2.398282074036968
 10
0.7039480342293931
 20
-2.397244601034743
 10
0.6921139183444142
 20
-2.400548011007652
 10
0.6797964040077172
 20
-2.408275728997513
 10
0.6676000879121816
 20
-2.420216408730409
 10
0.6562460195285496
 20
-2.435933472005924
 10
0.6461701982599575
 20
-2.455207854182025
 10
0.6385240559479698
 20
-2.476108320396042
 10
0.6331448115831858
 20
-2.499159910580538
 10
0.6307107260213829
 20
-2.520731519933361
 10
0.6306095548628711
 20
-2.542695240945243
 10
0.6326201703233519
 20
-2.562514740784315
 10
0.6364655394551548
 20
-2.581515919264316
 10
0.6420537543243882
 20
-2.599545913256253
 10
0.6490011095784315
 20
-2.615896975687441
 10
0.6578141582710378
 20
-2.631560527510835
 10
0.6674734702166294
 20
-2.644635051507858
 10
0.6786963263611611
 20
-2.655830840999824
 10
0.6900600661369575
 20
-2.663460277823926
 10
0.7018627544065493
 20
-2.667480654018731
 10
0.7130106605644365
 20
-2.667254974099487
 10
0.7233681815396783
 20
-2.662605272049744
 10
0.7317175000798444
 20
-2.654648962157897
  0
LWPOLYLINE
  5
DF
330
C7
100
AcDbEntity
  8
AM_9
100
AcDbPolyline
 90
       12
 70
     0
 43
0.0
 10
0.7363287034015278
 20
-2.64796661578743
 10
0.7402263240899403
 20
-2.640544854877386
 10
0.7465252362667661
 20
-2.623593524887762
 10
0.7511762127017618
 20
-2.60403690167964
 10
0.7544968747204982
 20
-2.581742105424381
 10
0.7563277193280817
 20
-2.559943250147866
 10
0.7570883473600925
 20
-2.537167277340558
 10
0.7568521278157612
 20
-2.516670683052522
 10
0.755762634133546
 20
-2.496634033257771
 10
0.753858758231629
 20
-2.477979757390598
 10
0.751135328949227
 20
-2.460708534527432
 10
0.744568556491406
 20
-2.435279603243264
  0
LWPOLYLINE
  5
E0
330
C7
100
AcDbEntity
  8
AM_9
100
AcDbPolyline
 90
        3
 70
     0
 43
0.0
 10
0.7317175000798444
 20
-2.654648962157897
 10
0.7325080765012126
 20
-2.653637578734912
 10
0.7363287034015278
 20
-2.64796661578743
  0
LINE
  5
E1
330
C7
100
AcDbEntity
  8
AM_9
100
AcDbLine
 10
0.7152732106591081
 20
-2.6587
 30
0.0
 11
0.9923617114157799
 21
-2.6587
 31
0.0
  0
LINE
  5
E2
330
C7
100
AcDbEntity
  8
AM_9
100
AcDbLine
 10
0.9923617114157799
 20
-2.4063
 30
0.0
 11
0.7152732106591081
 21
-2.4063
 31
0.0
  0
ELLIPSE
  5
E3
330
C7
100
AcDbEntity
  8
AM_9
100
AcDbEllipse
 10
0.9923617114157801
 20
-2.5325
 30
0.0
 11
-2.318256390785937E-17
 21
-0.1261999999999999
 31
0.0
210
0.0
220
0.0
230
1.0
 40
0.4226182617407016
 41
3.450288653306682
 42
5.973927877449613
  0
LINE
  5
E4
330
C7
100
AcDbEntity
  8
AM_9
100
AcDbLine
 10
0.9674914607667385
 20
-2.644139373797338
 30
0.0
 11
0.9870082115742386
 21
-2.66848235527593
 31
0.0
  0
LINE
  5
E5
330
C7
100
AcDbEntity
  8
AM_9
100
AcDbLine
 10
0.9871467482591758
 20
-2.39634484977532
 30
0.0
 11
0.9674914607667385
 21
-2.420860626202661
 31
0.0
  0
LWPOLYLINE
  5
E6
330
C7
100
AcDbEntity
  8
AM_9
100
AcDbPolyline
 90
       13
 70
     0
 43
0.0
 10
0.1381627871042102
 20
-2.480142459060923
 10
0.1326032899141004
 20
-2.469586929087179
 10
0.120901146773081
 20
-2.45273428315302
 10
0.1058435305831707
 20
-2.436892213799497
 10
0.0881421612013445
 20
-2.423198947992969
 10
0.0669249098748643
 20
-2.411479197485264
 10
0.0435249671878877
 20
-2.402985996463614
 10
0.0180164298954341
 20
-2.398077213902205
 10
-0.0086881833316068
 20
-2.397313843968508
 10
-0.0350190329345502
 20
-2.400875640898827
 10
-0.0610994042607126
 20
-2.408971088256545
 10
-0.0827397585892239
 20
-2.41979217447465
 10
-0.1028594729276147
 20
-2.434271301069125
  0
LWPOLYLINE
  5
E7
330
C7
100
AcDbEntity
  8
AM_9
100
AcDbPolyline
 90
        7
 70
     0
 43
0.0
 10
0.1385413154379769
 20
-2.58404353892456
 10
0.1437286022121231
 20
-2.570913233005848
 10
0.1487500704286706
 20
-2.54961749482559
 10
0.1498429457206477
 20
-2.526972639440999
 10
0.1472960905266888
 20
-2.507214163659952
 10
0.141383778885884
 20
-2.487615633753396
 10
0.1381627871042102
 20
-2.480142459060923
  0
LWPOLYLINE
  5
E8
330
C7
100
AcDbEntity
  8
AM_9
100
AcDbPolyline
 90
       16
 70
     0
 43
0.0
 10
-0.1372140039325107
 20
-2.58683537491519
 10
-0.135518687195356
 20
-2.590170968806384
 10
-0.1245629321578965
 20
-2.607553916012388
 10
-0.1107874301092471
 20
-2.623429032264761
 10
-0.0934795226187945
 20
-2.638109806219496
 10
-0.0736482582921548
 20
-2.650269000594137
 10
-0.0505943610178358
 20
-2.659879192804177
 10
-0.0256368483096517
 20
-2.665896925031032
 10
0.0005899496398196
 20
-2.667915604692751
 10
0.0275369834952562
 20
-2.665583854765652
 10
0.0532811090355426
 20
-2.658973527769458
 10
0.0782222139162039
 20
-2.647822946572276
 10
0.099894507492395
 20
-2.633195735451065
 10
0.1191862067320094
 20
-2.614335178415555
 10
0.1333003059422877
 20
-2.594209988960942
 10
0.1385413154379769
 20
-2.58404353892456
  0
LWPOLYLINE
  5
E9
330
C7
100
AcDbEntity
  8
AM_9
100
AcDbPolyline
 90
        7
 70
     0
 43
0.0
 10
-0.1377355987730518
 20
-2.479241241380039
 10
-0.1410204713171018
 20
-2.486702940972733
 10
-0.1478546027510875
 20
-2.509989875320421
 10
-0.1499584719492549
 20
-2.530856260047134
 10
-0.1483091766092948
 20
-2.552459386657295
 10
-0.1435021913752054
 20
-2.571589522523199
 10
-0.1372140039325107
 20
-2.58683537491519
  0
LWPOLYLINE
  5
EA
330
C7
100
AcDbEntity
  8
AM_9
100
AcDbPolyline
 90
        4
 70
     0
 43
0.0
 10
-0.1028594729276147
 20
-2.434271301069125
 10
-0.1176421742407892
 20
-2.448868966012272
 10
-0.1303572391921786
 20
-2.465896133325848
 10
-0.1377355987730518
 20
-2.479241241380039
  0
LWPOLYLINE
  5
EB
330
C7
100
AcDbEntity
  8
AM_9
100
AcDbPolyline
 90
        3
 70
     0
 43
0.0
 10
0.7359007887294319
 20
-2.416328020659038
 10
0.7332729234830262
 20
-2.412390620210656
 10
0.7317153249113441
 20
-2.410348325169788
  0
LWPOLYLINE
  5
EC
330
C7
100
AcDbEntity
  8
AM_9
100
AcDbPolyline
 90
        3
 70
     0
 43
0.0
 10
0.744568556491406
 20
-2.435279603243264
 10
0.7393589893975209
 20
-2.422628239620717
 10
0.7359007887294319
 20
-2.416328020659038
  0
LINE
  5
ED
330
C7
100
AcDbEntity
  8
AM_9
100
AcDbLine
 10
0.78
 20
-2.8125
 30
0.0
 11
0.78
 21
-2.2525
 31
0.0
  0
LINE
  5
EE
330
C7
100
AcDbEntity
  8
AM_9
100
AcDbLine
 10
-0.78
 20
-2.2525
 30
0.0
 11
-0.78
 21
-2.8125
 31
0.0
  0
LINE
  5
EF
330
C7
100
AcDbEntity
  8
AM_9
100
AcDbLine
 10
-1.125
 20
-2.2525
 30
0.0
 11
1.125
 21
-2.2525
 31
0.0
  0
LINE
  5
F0
330
C7
100
AcDbEntity
  8
AM_9
100
AcDbLine
 10
1.125
 20
-2.34375
 30
0.0
 11
1.125
 21
-2.2525
 31
0.0
  0
LINE
  5
F1
330
C7
100
AcDbEntity
  8
AM_9
100
AcDbLine
 10
-1.125
 20
-2.2525
 30
0.0
 11
-1.125
 21
-2.34375
 31
0.0
  0
ELLIPSE
  5
F2
330
C7
100
AcDbEntity
  8
AM_9
100
AcDbEllipse
 10
0.715273210659108
 20
-2.5325
 30
0.0
 11
-2.318256390785937E-17
 21
-0.1261999999999999
 31
0.0
210
0.0
220
0.0
230
1.0
 40
0.4226182617406989
 41
0.0
 42
6.283185307179586
  0
LINE
  5
F3
330
C7
100
AcDbEntity
  8
AM_7
100
AcDbLine
 10
-0.13251
 20
-2.5325
 30
0.0
 11
0.13251
 21
-2.5325
 31
0.0
  0
ELLIPSE
  5
F4
330
C7
100
AcDbEntity
  8
AM_4
100
AcDbEllipse
 10
0.9923617114157798
 20
-2.5325
 30
0.0
 11
-2.318256390785937E-17
 21
-0.1261999999999999
 31
0.0
210
0.0
220
0.0
230
1.0
 40
0.4226182617406989
 41
5.973927877449618
 42
9.733473960486265
  0
LWPOLYLINE
  5
F5
330
C7
100
AcDbEntity
  8
AM_4
100
AcDbPolyline
 90
       14
 70
     0
 43
0.0
 10
0.9871656846624647
 20
-2.668678766200041
 10
0.9833951657817689
 20
-2.663659347159301
 10
0.9742547275603872
 20
-2.648546599250866
 10
0.9661783800487067
 20
-2.630716247801388
 10
0.9590693942666765
 20
-2.609314811917832
 10
0.9537047457840773
 20
-2.586007801375902
 10
0.9501715220014946
 20
-2.560015913679215
 10
0.9489200685018017
 20
-2.533290813554955
 10
0.9501005597317477
 20
-2.505788239351721
 10
0.9536963056908679
 20
-2.479038260055054
 10
0.959607528460657
 20
-2.4537988449307
 10
0.9675511942253321
 20
-2.430866629176265
 10
0.9769415247645573
 20
-2.411545882003019
 10
0.987177123405904
 20
-2.396306963271262
  0
LWPOLYLINE
  5
F6
330
C7
100
AcDbEntity
  8
AM_4
100
AcDbPolyline
 90
        9
 70
     0
 43
0.0
 10
0.987177123405904
 20
-2.396306963271262
 10
0.9875596069055241
 20
-2.395833029930261
 10
0.998301713826901
 20
-2.384965765579091
 10
1.009326393418958
 20
-2.378321387803072
 10
1.019519411888082
 20
-2.376267685362713
 10
1.029272914594963
 20
-2.378261706629398
 10
1.038046183212606
 20
-2.384050559910158
 10
1.045968520860001
 20
-2.393359756556849
 10
1.055906520666424
 20
-2.413035451624032
  0
CIRCLE
  5
F7
330
C7
100
AcDbEntity
  8
AM_4
100
AcDbCircle
 10
0.0
 20
-2.5325
 30
0.0
 40
0.1262
  0
LINE
  5
F8
330
C7
100
AcDbEntity
  8
AM_4
100
AcDbLine
 10
-1.031666666666667
 20
-2.8125
 30
0.0
 11
1.031666666657637
 21
-2.8125
 31
0.0
  0
ARC
  5
F9
330
C7
100
AcDbEntity
  8
AM_4
100
AcDbCircle
 10
1.031666666666667
 20
-2.719166666666666
 30
0.0
 40
0.0933333333333333
100
AcDbArc
 50
270.0
 51
0.0
  0
ARC
  5
FA
330
C7
100
AcDbEntity
  8
AM_4
100
AcDbCircle
 10
-1.031666666666667
 20
-2.719166666666666
 30
0.0
 40
0.0933333333333333
100
AcDbArc
 50
180.0
 51
270.0
  0
LINE
  5
FB
330
C7
100
AcDbEntity
  8
AM_4
100
AcDbLine
 10
-1.125
 20
-2.719166666666666
 30
0.0
 11
1.125
 21
-2.719166666666666
 31
0.0
  0
LWPOLYLINE
  5
FC
330
C7
100
AcDbEntity
  8
AM_4
100
AcDbPolyline
 90
       39
 70
     0
 43
0.0
 10
-0.1066758680238844
 20
-2.42537423822652
 10
-0.0908226039044556
 20
-2.409897921921695
 10
-0.0724114050777637
 20
-2.396679951663858
 10
-0.0501918097974462
 20
-2.385714326464695
 10
-0.0255805440619602
 20
-2.378653039689699
 10
-0.0023403297726229
 20
-2.376269962403862
 10
0.0216847836585466
 20
-2.377973107274758
 10
0.0436951074190858
 20
-2.383368362615965
 10
0.0650956713409572
 20
-2.392531642124469
 10
0.0846289072579089
 20
-2.404961649030705
 10
0.102388099760737
 20
-2.420725701368272
 10
0.1179007732929035
 20
-2.439678229245468
 10
0.130544070581117
 20
-2.461400543312094
 10
0.1398858933230125
 20
-2.485661420422534
 10
0.1453548542996451
 20
-2.51180821444867
 10
0.1465311812400083
 20
-2.538795108860979
 10
0.1431538339130528
 20
-2.566364553320775
 10
0.1353735492552186
 20
-2.592502749685382
 10
0.1229024714025249
 20
-2.617647922084681
 10
0.1070418971707027
 20
-2.639210557398798
 10
0.0870010148902199
 20
-2.658211518354508
 10
0.0656766147882787
 20
-2.672159332349878
 10
0.0413956574003072
 20
-2.682376488478216
 10
0.0181360177056217
 20
-2.687546712664131
 10
-0.0064362725142289
 20
-2.688598954615115
 10
-0.0290058651437735
 20
-2.685653484854286
 10
-0.0513900147607059
 20
-2.67881308938854
 10
-0.0718755658151693
 20
-2.668643310442187
 10
-0.0909565303083706
 20
-2.654989232275076
 10
-0.1080055856627532
 20
-2.638102754898855
 10
-0.1225415240941229
 20
-2.618235683819373
 10
-0.1341638829646043
 20
-2.595504987950047
 10
-0.1422215965616665
 20
-2.570551676503838
 10
-0.14624482346234
 20
-2.544097080476856
 10
-0.1458858875069017
 20
-2.516589593181261
 10
-0.1410386304464152
 20
-2.489753736670896
 10
-0.1314785371883254
 20
-2.463378956511141
 10
-0.1205836421573698
 20
-2.443672548757072
 10
-0.1066758681695787
 20
-2.42537423813373
  0
LWPOLYLINE
  5
FD
330
C7
100
AcDbEntity
  8
AM_4
100
AcDbPolyline
 90
       19
 70
     0
 43
0.0
 10
1.055906520666424
 20
-2.413035451624032
 10
1.061212202816068
 20
-2.42932236372814
 10
1.06550526365022
 20
-2.447711884170819
 10
1.069200567127167
 20
-2.470927023245753
 10
1.071611589741043
 20
-2.495713660461118
 10
1.072781506806589
 20
-2.522594517362634
 10
1.072600437737817
 20
-2.549744790697964
 10
1.071012656811298
 20
-2.576928012279069
 10
1.067993436785734
 20
-2.60284126069328
 10
1.063528999638169
 20
-2.626510821194612
 10
1.057581386431797
 20
-2.647397754854325
 10
1.050428061818026
 20
-2.664123052119614
 10
1.041940270933319
 20
-2.67694358220838
 10
1.032875219760304
 20
-2.684848906540591
 10
1.022945521148024
 20
-2.688517411363172
 10
1.013025326535056
 20
-2.687876228309253
 10
1.002873198613005
 20
-2.683345025847232
 10
0.9929313075571718
 20
-2.675168047938741
 10
0.9871656846624647
 20
-2.668678766200041
  0
LINE
  5
FE
330
C7
100
AcDbEntity
  8
AM_4
100
AcDbLine
 10
1.125
 20
-2.719166666666666
 30
0.0
 11
1.125
 21
-2.34375
 31
0.0
  0
LINE
  5
FF
330
C7
100
AcDbEntity
  8
AM_4
100
AcDbLine
 10
-1.125
 20
-2.34375
 30
0.0
 11
-1.125
 21
-2.719166666666666
 31
0.0
  0
CIRCLE
  5
100
330
C7
100
AcDbEntity
  8
AM_5
100
AcDbCircle
 10
0.0000000000000004
 20
-2.532499999999999
 30
0.0
 40
0.1562499999999998
  0
ENDBLK
  5
CA
330
C7
100
AcDbEntity
  8
0
100
AcDbBlockEnd
  0
BLOCK
  5
103
330
101
100
AcDbEntity
  8
0
100
AcDbBlockBegin
  2
4_1_1_4I_0_in_023094_4
 70
     2
 10
0.0
 20
0.0
 30
0.0
  3
4_1_1_4I_0_in_023094_4
  1

  0
ATTDEF
  5
105
330
101
100
AcDbEntity
  8
AM_6
100
AcDbText
 10
6.155
 20
-0.0625
 30
0.0
 40
0.5
  1
E-Type Insert -Inch
100
AcDbAttributeDefinition
  3

  2
NN
 70
     8
280
     0
  0
ATTDEF
  5
106
330
101
100
AcDbEntity
  8
AM_6
100
AcDbText
 10
6.155
 20
-0.5625
 30
0.0
 40
0.5
  1
E-Type Bearings
100
AcDbAttributeDefinition
  3

  2
NT
 70
     8
280
     0
  0
ATTDEF
  5
107
330
101
100
AcDbEntity
  8
AM_6
100
AcDbText
 10
6.155
 20
-1.0625
 30
0.0
 40
0.5
  1
1-1/4I
100
AcDbAttributeDefinition
  3

  2
NB
 70
     8
280
     0
  0
ATTDEF
  5
108
330
101
100
AcDbEntity
  8
AM_6
100
AcDbText
 10
6.155
 20
-1.5625
 30
0.0
 40
0.5
  1
$BORE.I
100
AcDbAttributeDefinition
  3

  2
NBSYN
 70
     8
280
     0
  0
ATTDEF
  5
109
330
101
100
AcDbEntity
  8
AM_6
100
AcDbText
 10
6.155
 20
-2.0625
 30
0.0
 40
0.5
  1
1-1/4I
100
AcDbAttributeDefinition
  3

  2
LINA
 70
     8
280
     0
  0
ATTDEF
  5
10A
330
101
100
AcDbEntity
  8
AM_6
100
AcDbText
 10
6.155
 20
-2.5625
 30
0.0
 40
0.5
  1
1-1/4
100
AcDbAttributeDefinition
  3

  2
BORE
 70
     8
280
     0
  0
ATTDEF
  5
10B
330
101
100
AcDbEntity
  8
AM_6
100
AcDbText
 10
6.155
 20
-3.0625
 30
0.0
 40
0.5
  1
2.75
100
AcDbAttributeDefinition
  3

  2
A
 70
     8
280
     0
  0
ATTDEF
  5
10C
330
101
100
AcDbEntity
  8
AM_6
100
AcDbText
 10
6.155
 20
-3.5625
 30
0.0
 40
0.5
  1
1.16
100
AcDbAttributeDefinition
  3

  2
B
 70
     8
280
     0
  0
ATTDEF
  5
10D
330
101
100
AcDbEntity
  8
AM_6
100
AcDbText
 10
6.155
 20
-4.0625
 30
0.0
 40
0.5
  1
1.56
100
AcDbAttributeDefinition
  3

  2
C
 70
     8
280
     0
  0
ATTDEF
  5
10E
330
101
100
AcDbEntity
  8
AM_6
100
AcDbText
 10
6.155
 20
-4.5625
 30
0.0
 40
0.5
  1
2.31
100
AcDbAttributeDefinition
  3

  2
D
 70
     8
280
     0
  0
ATTDEF
  5
10F
330
101
100
AcDbEntity
  8
AM_6
100
AcDbText
 10
6.155
 20
-5.0625
 30
0.0
 40
0.5
  1
0.35
100
AcDbAttributeDefinition
  3

  2
E
 70
     8
280
     0
  0
ATTDEF
  5
110
330
101
100
AcDbEntity
  8
AM_6
100
AcDbText
 10
6.155
 20
-5.5625
 30
0.0
 40
0.5
  1
0.28
100
AcDbAttributeDefinition
  3

  2
F
 70
     8
280
     0
  0
ATTDEF
  5
111
330
101
100
AcDbEntity
  8
AM_6
100
AcDbText
 10
6.155
 20
-6.0625
 30
0.0
 40
0.5
  1
baldor
100
AcDbAttributeDefinition
  3

  2
COMPANY
 70
     8
280
     0
  0
LINE
  5
112
330
101
100
AcDbEntity
  8
AM_9
100
AcDbLine
 10
0.7067978357962812
 20
-0.1675000049999998
 30
0.0
 11
0.5663182927321594
 21
-0.1675000049999998
 31
0.0
  0
LINE
  5
113
330
101
100
AcDbEntity
  8
AM_9
100
AcDbLine
 10
0.5662855795419846
 20
-0.5175000149999999
 30
0.0
 11
0.7068497621073095
 21
-0.5175000149999999
 31
0.0
  0
LWPOLYLINE
  5
114
330
101
100
AcDbEntity
  8
AM_9
100
AcDbPolyline
 90
       10
 70
     0
 43
0.0
 10
0.6172186863970199
 20
-0.3088946473243166
 10
0.6159908256665595
 20
-0.2827910252005877
 10
0.6137887174256595
 20
-0.2568200208627271
 10
0.6105048575478588
 20
-0.2332695259015027
 10
0.6058024155824105
 20
-0.2121011834590895
 10
0.5995377341443091
 20
-0.1944722591253024
 10
0.5913284050861649
 20
-0.1806240718771236
 10
0.5816960831182864
 20
-0.1718236800785305
 10
0.5700924708142998
 20
-0.1677198342941748
 10
0.5664487771604119
 20
-0.1675000056573622
  0
LWPOLYLINE
  5
115
330
101
100
AcDbEntity
  8
AM_9
100
AcDbPolyline
 90
        5
 70
     0
 43
0.0
 10
0.6172371012659943
 20
-0.3755246076188594
 10
0.6174581031686331
 20
-0.3674152252274906
 10
0.6177370819082597
 20
-0.3389233087228656
 10
0.6172435385474089
 20
-0.3096811020886241
 10
0.6172186863970199
 20
-0.3088946473243166
  0
LWPOLYLINE
  5
116
330
101
100
AcDbEntity
  8
AM_9
100
AcDbPolyline
 90
       10
 70
     0
 43
0.0
 10
0.5664391104433786
 20
-0.5175000148303655
 10
0.5734275310609299
 20
-0.5166698321940427
 10
0.5838553690806195
 20
-0.5117151731475112
 10
0.5930155850021543
 20
-0.5021215977298299
 10
0.6004147191075287
 20
-0.4885306658879107
 10
0.6064085627500431
 20
-0.4706737150299846
 10
0.6109367887932017
 20
-0.4492018687551009
 10
0.6142250061070144
 20
-0.4240154137040197
 10
0.6163046062806391
 20
-0.3969819895008514
 10
0.6172371012659943
 20
-0.3755246076188594
  0
LWPOLYLINE
  5
117
330
101
100
AcDbEntity
  8
AM_9
100
AcDbPolyline
 90
       11
 70
     0
 43
0.0
 10
0.5664487771604119
 20
-0.1675000056573622
 10
0.5579118919651298
 20
-0.1685932245464952
 10
0.5444408894524907
 20
-0.1742363874353519
 10
0.5310255351580101
 20
-0.1840554837925719
 10
0.5173538556856022
 20
-0.1983132398022321
 10
0.5043669813332106
 20
-0.2164259537394776
 10
0.4923903029797927
 20
-0.2385462538540897
 10
0.4824683558885562
 20
-0.2635487449236343
 10
0.4749541297785094
 20
-0.2917124523123977
 10
0.4711566028662585
 20
-0.3165097054852791
 10
0.4698264729825774
 20
-0.3425000099999999
  0
LWPOLYLINE
  5
118
330
101
100
AcDbEntity
  8
AM_9
100
AcDbPolyline
 90
        9
 70
     0
 43
0.0
 10
0.7598113418845095
 20
-0.4103411899601159
 10
0.7573196545426946
 20
-0.431251367223067
 10
0.7530512646371633
 20
-0.4549816161293112
 10
0.7473919222041282
 20
-0.4756168103363725
 10
0.7400685703866672
 20
-0.4928659450629597
 10
0.7311618072433721
 20
-0.5058478049848439
 10
0.7207627764473998
 20
-0.5140664992640471
 10
0.7090155541300974
 20
-0.5174287833659076
 10
0.7069280945964488
 20
-0.5175000139708386
  0
LWPOLYLINE
  5
119
330
101
100
AcDbEntity
  8
AM_9
100
AcDbPolyline
 90
        7
 70
     0
 43
0.0
 10
0.7596370310578935
 20
-0.2728955484879507
 10
0.7611484194908354
 20
-0.2908463210707394
 10
0.7625414410053919
 20
-0.3198959301599247
 10
0.7628303027975719
 20
-0.3489940966701433
 10
0.7620739301501157
 20
-0.3779052337848735
 10
0.7602627579638962
 20
-0.4054434782672144
 10
0.7598113418845095
 20
-0.4103411899601159
  0
LWPOLYLINE
  5
11A
330
101
100
AcDbEntity
  8
AM_9
100
AcDbPolyline
 90
        9
 70
     0
 43
0.0
 10
0.7069151899440108
 20
-0.16750000538156
 10
0.7144071215982326
 20
-0.1684458189737194
 10
0.7252937074895107
 20
-0.1737971951384762
 10
0.7348223352117362
 20
-0.1836631578219597
 10
0.7429132835173362
 20
-0.197934101544994
 10
0.7495064692959229
 20
-0.2160971416423322
 10
0.754740011528404
 20
-0.2382269759132532
 10
0.7585815268553542
 20
-0.2633268301258824
 10
0.7596370310578935
 20
-0.2728955484879507
  0
LWPOLYLINE
  5
11B
330
101
100
AcDbEntity
  8
AM_9
100
AcDbPolyline
 90
       11
 70
     0
 43
0.0
 10
0.7069280945964488
 20
-0.5175000139708386
 10
0.6964722496464415
 20
-0.5158397056891231
 10
0.6832968485008653
 20
-0.5095478128565203
 10
0.6699908516439589
 20
-0.4987316030393312
 10
0.6570315545405419
 20
-0.4837520412201849
 10
0.6447350494889053
 20
-0.4645578156889601
 10
0.6339238256518072
 20
-0.4419731139837434
 10
0.6250572631749455
 20
-0.4161798968927016
 10
0.6187541351199856
 20
-0.388222413398741
 10
0.6159087773066796
 20
-0.3655708930413423
 10
0.6149400559310539
 20
-0.3425000099999999
  0
LINE
  5
11C
330
101
100
AcDbEntity
  8
AM_9
100
AcDbLine
 10
0.7067978357962811
 20
-2.357499985
 30
0.0
 11
0.5663182927321594
 21
-2.357499985
 31
0.0
  0
LINE
  5
11D
330
101
100
AcDbEntity
  8
AM_9
100
AcDbLine
 10
0.5662855795419846
 20
-2.707499995
 30
0.0
 11
0.7068497621073098
 21
-2.707499995
 31
0.0
  0
LWPOLYLINE
  5
11E
330
101
100
AcDbEntity
  8
AM_9
100
AcDbPolyline
 90
       10
 70
     0
 43
0.0
 10
0.6172186863970199
 20
-2.498894627324317
 10
0.6159908256665595
 20
-2.472791005200588
 10
0.6137887174256595
 20
-2.446820000862727
 10
0.6105048575478588
 20
-2.423269505901503
 10
0.6058024155824105
 20
-2.402101163459089
 10
0.5995377341443091
 20
-2.384472239125303
 10
0.5913284050861649
 20
-2.370624051877124
 10
0.5816960831182864
 20
-2.36182366007853
 10
0.5700924708142998
 20
-2.357719814294175
 10
0.5664487771604119
 20
-2.357499985657362
  0
LWPOLYLINE
  5
11F
330
101
100
AcDbEntity
  8
AM_9
100
AcDbPolyline
 90
        5
 70
     0
 43
0.0
 10
0.6172371012659943
 20
-2.565524587618859
 10
0.6174581031686331
 20
-2.557415205227491
 10
0.6177370819082597
 20
-2.528923288722865
 10
0.6172435385474089
 20
-2.499681082088624
 10
0.6172186863970199
 20
-2.498894627324317
  0
LWPOLYLINE
  5
120
330
101
100
AcDbEntity
  8
AM_9
100
AcDbPolyline
 90
       10
 70
     0
 43
0.0
 10
0.5664391104433786
 20
-2.707499994830366
 10
0.5734275310609299
 20
-2.706669812194043
 10
0.5838553690806195
 20
-2.701715153147511
 10
0.5930155850021543
 20
-2.69212157772983
 10
0.6004147191075287
 20
-2.678530645887911
 10
0.6064085627500431
 20
-2.660673695029984
 10
0.6109367887932018
 20
-2.639201848755101
 10
0.6142250061070144
 20
-2.61401539370402
 10
0.6163046062806391
 20
-2.586981969500851
 10
0.6172371012659943
 20
-2.565524587618859
  0
LWPOLYLINE
  5
121
330
101
100
AcDbEntity
  8
AM_9
100
AcDbPolyline
 90
       11
 70
     0
 43
0.0
 10
0.5664487771604119
 20
-2.357499985657362
 10
0.5579118919651298
 20
-2.358593204546495
 10
0.5444408894524908
 20
-2.364236367435352
 10
0.5310255351580101
 20
-2.374055463792572
 10
0.5173538556856022
 20
-2.388313219802232
 10
0.5043669813332106
 20
-2.406425933739478
 10
0.4923903029797927
 20
-2.42854623385409
 10
0.4824683558885562
 20
-2.453548724923634
 10
0.4749541297785094
 20
-2.481712432312397
 10
0.4711566028662585
 20
-2.506509685485279
 10
0.4698264729825774
 20
-2.53249999
  0
LWPOLYLINE
  5
122
330
101
100
AcDbEntity
  8
AM_9
100
AcDbPolyline
 90
        9
 70
     0
 43
0.0
 10
0.7597942004935897
 20
-2.600517283562179
 10
0.7573196545426946
 20
-2.621251347223067
 10
0.7530512646371633
 20
-2.644981596129311
 10
0.7473919222041282
 20
-2.665616790336373
 10
0.740068570386667
 20
-2.68286592506296
 10
0.7311618072433719
 20
-2.695847784984844
 10
0.7207627764473998
 20
-2.704066479264047
 10
0.7090155541300976
 20
-2.707428763365908
 10
0.7069280945964489
 20
-2.707499993970838
  0
LWPOLYLINE
  5
123
330
101
100
AcDbEntity
  8
AM_9
100
AcDbPolyline
 90
        7
 70
     0
 43
0.0
 10
0.7594683371484928
 20
-2.461244615102434
 10
0.7611484194908354
 20
-2.48084630107074
 10
0.7625414410053919
 20
-2.509895910159925
 10
0.7628303027975719
 20
-2.538994076670143
 10
0.7620739301501157
 20
-2.567905213784874
 10
0.7602627579638962
 20
-2.595443458267214
 10
0.7597942004935897
 20
-2.600517283562179
  0
LWPOLYLINE
  5
124
330
101
100
AcDbEntity
  8
AM_9
100
AcDbPolyline
 90
        9
 70
     0
 43
0.0
 10
0.7069151899440108
 20
-2.35749998538156
 10
0.7144071215982326
 20
-2.358445798973719
 10
0.7252937074895107
 20
-2.363797175138476
 10
0.7348223352117362
 20
-2.37366313782196
 10
0.7429132835173362
 20
-2.387934081544994
 10
0.7495064692959229
 20
-2.406097121642332
 10
0.754740011528404
 20
-2.428226955913253
 10
0.7585815268553542
 20
-2.453326810125882
 10
0.7594683371484928
 20
-2.461244615102434
  0
LWPOLYLINE
  5
125
330
101
100
AcDbEntity
  8
AM_9
100
AcDbPolyline
 90
       11
 70
     0
 43
0.0
 10
0.7069280945964489
 20
-2.707499993970838
 10
0.6964722496464415
 20
-2.705839685689123
 10
0.6832968485008653
 20
-2.69954779285652
 10
0.6699908516439589
 20
-2.688731583039331
 10
0.6570315545405419
 20
-2.673752021220185
 10
0.6447350494889053
 20
-2.65455779568896
 10
0.6339238256518072
 20
-2.631973093983743
 10
0.6250572631749455
 20
-2.606179876892702
 10
0.6187541351199856
 20
-2.578222393398741
 10
0.6159087773066796
 20
-2.555570873041342
 10
0.6149400559310539
 20
-2.53249999
  0
LWPOLYLINE
  5
126
330
101
100
AcDbEntity
  8
AM_9
100
AcDbPolyline
 90
       11
 70
     0
 43
0.0
 10
0.4698264729825774
 20
-0.3425000099999999
 10
0.4714058779442291
 20
-0.3708124929560168
 10
0.4762214178818974
 20
-0.3991249759120338
 10
0.4836879103013872
 20
-0.4250311851155339
 10
0.493763644757061
 20
-0.4493409197780994
 10
0.5056806549069117
 20
-0.470644585848549
 10
0.5192415668381035
 20
-0.488925713125008
 10
0.5333073872190597
 20
-0.502900340255843
 10
0.5478113071011863
 20
-0.5125875166400874
 10
0.5609576731963692
 20
-0.5170384977383745
 10
0.5664391104433786
 20
-0.5175000148303655
  0
LWPOLYLINE
  5
127
330
101
100
AcDbEntity
  8
AM_9
100
AcDbPolyline
 90
       11
 70
     0
 43
0.0
 10
0.4698264729825774
 20
-2.53249999
 10
0.4714058779442291
 20
-2.560812472956017
 10
0.4762214178818974
 20
-2.589124955912034
 10
0.4836879103013872
 20
-2.615031165115534
 10
0.493763644757061
 20
-2.639340899778099
 10
0.5056806549069117
 20
-2.660644565848549
 10
0.5192415668381035
 20
-2.678925693125008
 10
0.5333073872190597
 20
-2.692900320255843
 10
0.5478113071011864
 20
-2.702587496640088
 10
0.5609576731963694
 20
-2.707038477738374
 10
0.5664391104433786
 20
-2.707499994830366
  0
LINE
  5
128
330
101
100
AcDbEntity
  8
AM_9
100
AcDbLine
 10
0.625
 20
-2.8125
 30
0.0
 11
0.625
 21
-0.0625
 31
0.0
  0
LINE
  5
129
330
101
100
AcDbEntity
  8
AM_9
100
AcDbLine
 10
-0.625
 20
-0.0625
 30
0.0
 11
-0.625
 21
-2.8125
 31
0.0
  0
LWPOLYLINE
  5
12A
330
101
100
AcDbEntity
  8
AM_9
100
AcDbPolyline
 90
       39
 70
     0
 43
0.0
 10
-0.175000005
 20
-0.3425000099999999
 10
-0.1726559192425627
 20
-0.3139529383374686
 10
-0.1654244859383798
 20
-0.2854058666749373
 10
-0.15394265350871
 20
-0.2592734446455575
 10
-0.1379044363893158
 20
-0.2347625133976323
 10
-0.1182808147387951
 20
-0.2135246223683791
 10
-0.0947268739129514
 20
-0.1953544320552998
 10
-0.0688746030485631
 20
-0.1816233777475099
 10
-0.0401780130212538
 20
-0.172174647767407
 10
-0.0116038888018717
 20
-0.1678851437523811
 10
0.018169764340438
 20
-0.1684458189737194
 10
0.0460727748703402
 20
-0.1736737645114889
 10
0.0734564914774144
 20
-0.1836631578219597
 10
0.0982729539841898
 20
-0.1976986693113815
 10
0.1210260989247946
 20
-0.2160971416423323
 10
0.1402836640584189
 20
-0.2378792885900196
 10
0.156066041593361
 20
-0.2633268301258825
 10
0.1670691481221657
 20
-0.2904144890202319
 10
0.1735340235359727
 20
-0.3198959301599247
 10
0.1748948209625324
 20
-0.3485665865043992
 10
0.1713810721134135
 20
-0.3779052337848736
 10
0.1634287199208377
 20
-0.405078402876746
 10
0.1508250587305159
 20
-0.431251367223067
 10
0.1343116225578497
 20
-0.4546846337052018
 10
0.1135998205025268
 20
-0.4756168103363725
 10
0.089872905592081
 20
-0.4926594672127806
 10
0.0627893273063932
 20
-0.5058478049848439
 10
0.0348377534492034
 20
-0.5139973355902625
 10
0.0049925943855809
 20
-0.5174287833659076
 10
-0.0235080743849614
 20
-0.5159138854215218
 10
-0.0521539385934478
 20
-0.5095478128565203
 10
-0.0784650944996728
 20
-0.4989232521833706
 10
-0.1033095611556448
 20
-0.4837520412201849
 10
-0.125111222777447
 20
-0.4648608848135287
 10
-0.1439795240089346
 20
-0.4419731139837434
 10
-0.1585440287115954
 20
-0.4165863968055179
 10
-0.1689214716294018
 20
-0.388222413398741
 10
-0.1734442915074992
 20
-0.3657826106593262
 10
-0.175000005
 20
-0.3425000099999999
  0
LWPOLYLINE
  5
12B
330
101
100
AcDbEntity
  8
AM_9
100
AcDbPolyline
 90
       11
 70
     0
 43
0.0
 10
0.6149400559310539
 20
-0.3425000099999999
 10
0.6164742890070909
 20
-0.3135396158458221
 10
0.6209274548487117
 20
-0.2854058666749373
 10
0.6280812551265993
 20
-0.2589286581081074
 10
0.6375028151544326
 20
-0.2347625133976323
 10
0.6489314751917195
 20
-0.2132586265182651
 10
0.6616542845735668
 20
-0.1953544320552998
 10
0.6752535028110612
 20
-0.1814668008971262
 10
0.6890016505182085
 20
-0.172174647767407
 10
0.702121214163616
 20
-0.1678755856888207
 10
0.7069151899440108
 20
-0.16750000538156
  0
LINE
  5
12C
330
101
100
AcDbEntity
  8
AM_9
100
AcDbLine
 10
0.7800000000000001
 20
-0.8574999999999999
 30
0.0
 11
0.7800000000000001
 21
-0.0625
 31
0.0
  0
LINE
  5
12D
330
101
100
AcDbEntity
  8
AM_9
100
AcDbLine
 10
-0.7800000000000001
 20
-0.0625
 30
0.0
 11
-0.7800000000000001
 21
-0.8574999999999999
 31
0.0
  0
LWPOLYLINE
  5
12E
330
101
100
AcDbEntity
  8
AM_9
100
AcDbPolyline
 90
       39
 70
     0
 43
0.0
 10
-0.175000005
 20
-2.53249999
 10
-0.1726559192425627
 20
-2.503952918337469
 10
-0.1654244859383798
 20
-2.475405846674937
 10
-0.15394265350871
 20
-2.449273424645558
 10
-0.1379044363893158
 20
-2.424762493397632
 10
-0.1182808147387951
 20
-2.403524602368379
 10
-0.0947268739129513
 20
-2.3853544120553
 10
-0.0688746030485632
 20
-2.37162335774751
 10
-0.0401780130212537
 20
-2.362174627767407
 10
-0.0116038888018716
 20
-2.357885123752381
 10
0.018169764340438
 20
-2.358445798973719
 10
0.0460727748703402
 20
-2.363673744511489
 10
0.0734564914774144
 20
-2.37366313782196
 10
0.0982729539841899
 20
-2.387698649311381
 10
0.1210260989247946
 20
-2.406097121642332
 10
0.1402836640584189
 20
-2.427879268590019
 10
0.156066041593361
 20
-2.453326810125882
 10
0.1670691481221657
 20
-2.480414469020232
 10
0.1735340235359727
 20
-2.509895910159925
 10
0.1748948209625324
 20
-2.538566566504399
 10
0.1713810721134135
 20
-2.567905213784874
 10
0.1634287199208378
 20
-2.595078382876746
 10
0.1508250587305159
 20
-2.621251347223067
 10
0.1343116225578497
 20
-2.644684613705202
 10
0.1135998205025268
 20
-2.665616790336373
 10
0.0898729055920808
 20
-2.682659447212781
 10
0.0627893273063932
 20
-2.695847784984844
 10
0.0348377534492034
 20
-2.703997315590263
 10
0.004992594385581
 20
-2.707428763365908
 10
-0.0235080743849614
 20
-2.705913865421522
 10
-0.0521539385934478
 20
-2.69954779285652
 10
-0.0784650944996727
 20
-2.688923232183371
 10
-0.1033095611556448
 20
-2.673752021220185
 10
-0.1251112227774471
 20
-2.654860864813529
 10
-0.1439795240089346
 20
-2.631973093983743
 10
-0.1585440287115954
 20
-2.606586376805518
 10
-0.1689214716294018
 20
-2.578222393398741
 10
-0.1734442915074992
 20
-2.555782590659326
 10
-0.175000005
 20
-2.53249999
  0
LWPOLYLINE
  5
12F
330
101
100
AcDbEntity
  8
AM_9
100
AcDbPolyline
 90
       11
 70
     0
 43
0.0
 10
0.6149400559310539
 20
-2.53249999
 10
0.6164742890070909
 20
-2.503539595845822
 10
0.6209274548487117
 20
-2.475405846674937
 10
0.6280812551265993
 20
-2.448928638108108
 10
0.6375028151544326
 20
-2.424762493397632
 10
0.6489314751917195
 20
-2.403258606518265
 10
0.6616542845735669
 20
-2.3853544120553
 10
0.6752535028110611
 20
-2.371466780897126
 10
0.6890016505182082
 20
-2.362174627767407
 10
0.7021212141636157
 20
-2.357875565688821
 10
0.7069151899440108
 20
-2.35749998538156
  0
LINE
  5
130
330
101
100
AcDbEntity
  8
AM_9
100
AcDbLine
 10
0.7800000000000001
 20
-2.8125
 30
0.0
 11
0.7800000000000001
 21
-2.0175
 31
0.0
  0
LINE
  5
131
330
101
100
AcDbEntity
  8
AM_9
100
AcDbLine
 10
-0.7800000000000001
 20
-2.0175
 30
0.0
 11
-0.7800000000000001
 21
-2.8125
 31
0.0
  0
LINE
  5
132
330
101
100
AcDbEntity
  8
AM_9
100
AcDbLine
 10
-1.155
 20
-2.0175
 30
0.0
 11
1.155
 21
-2.0175
 31
0.0
  0
LINE
  5
133
330
101
100
AcDbEntity
  8
AM_9
100
AcDbLine
 10
-1.155
 20
-0.8574999999999999
 30
0.0
 11
1.155
 21
-0.8574999999999999
 31
0.0
  0
LINE
  5
134
330
101
100
AcDbEntity
  8
AM_9
100
AcDbLine
 10
1.155
 20
-2.0175
 30
0.0
 11
1.155
 21
-0.8574999999999999
 31
0.0
  0
LINE
  5
135
330
101
100
AcDbEntity
  8
AM_9
100
AcDbLine
 10
-1.155
 20
-0.8574999999999999
 30
0.0
 11
-1.155
 21
-2.0175
 31
0.0
  0
ENDBLK
  5
104
330
101
100
AcDbEntity
  8
0
100
AcDbBlockEnd
  0
BLOCK
  5
138
330
136
100
AcDbEntity
  8
0
100
AcDbBlockBegin
  2
5_405015E_Inch_0_in_023094_4
 70
     2
 10
0.0
 20
0.0
 30
0.0
  3
5_405015E_Inch_0_in_023094_4
  1

  0
ATTDEF
  5
13A
330
136
100
AcDbEntity
  8
AM_6
100
AcDbText
 10
5.252590742770462
 20
-1.21875
 30
0.0
 40
0.5
  1
405015E -Inch
100
AcDbAttributeDefinition
  3

  2
NN
 70
     8
280
     0
  0
ATTDEF
  5
13B
330
136
100
AcDbEntity
  8
AM_6
100
AcDbText
 10
5.252590742770462
 20
-1.71875
 30
0.0
 40
0.5
  1
Grease Fitting
100
AcDbAttributeDefinition
  3

  2
NT
 70
     8
280
     0
  0
ATTDEF
  5
13C
330
136
100
AcDbEntity
  8
AM_6
100
AcDbText
 10
5.252590742770462
 20
-2.21875
 30
0.0
 40
0.5
  1
405015E-Inch
100
AcDbAttributeDefinition
  3

  2
NB
 70
     8
280
     0
  0
ATTDEF
  5
13D
330
136
100
AcDbEntity
  8
AM_6
100
AcDbText
 10
5.252590742770462
 20
-2.71875
 30
0.0
 40
0.5
  1
$MN.-Inch
100
AcDbAttributeDefinition
  3

  2
NBSYN
 70
     8
280
     0
  0
ATTDEF
  5
13E
330
136
100
AcDbEntity
  8
AM_6
100
AcDbText
 10
5.252590742770462
 20
-3.21875
 30
0.0
 40
0.5
  1
405015E
100
AcDbAttributeDefinition
  3

  2
LINA
 70
     8
280
     0
  0
ATTDEF
  5
13F
330
136
100
AcDbEntity
  8
AM_6
100
AcDbText
 10
5.252590742770462
 20
-3.71875
 30
0.0
 40
0.5
  1
405015E
100
AcDbAttributeDefinition
  3

  2
MN
 70
     8
280
     0
  0
ATTDEF
  5
140
330
136
100
AcDbEntity
  8
AM_6
100
AcDbText
 10
5.252590742770462
 20
-4.21875
 30
0.0
 40
0.5
  1
1/8 x 27PTF
100
AcDbAttributeDefinition
  3

  2
T
 70
     8
280
     0
  0
ATTDEF
  5
141
330
136
100
AcDbEntity
  8
AM_6
100
AcDbText
 10
5.252590742770462
 20
-4.71875
 30
0.0
 40
0.5
  1
baldor
100
AcDbAttributeDefinition
  3

  2
COMPANY
 70
     8
280
     0
  0
CIRCLE
  5
142
330
136
100
AcDbEntity
  8
AM_9
100
AcDbCircle
 10
0.0
 20
-1.4375
 30
0.0
 40
0.161902872472269
  0
CIRCLE
  5
143
330
136
100
AcDbEntity
  8
AM_9
100
AcDbCircle
 10
0.0
 20
-1.4375
 30
0.0
 40
0.1986176267812154
  0
CIRCLE
  5
144
330
136
100
AcDbEntity
  8
AM_9
100
AcDbCircle
 10
0.0
 20
-1.4375
 30
0.0
 40
0.2057518972230696
  0
CIRCLE
  5
145
330
136
100
AcDbEntity
  8
AM_9
100
AcDbCircle
 10
0.0
 20
-1.4375
 30
0.0
 40
0.1188200907348975
  0
CIRCLE
  5
146
330
136
100
AcDbEntity
  8
AM_9
100
AcDbCircle
 10
0.0
 20
-1.4375
 30
0.0
 40
0.105
  0
LINE
  5
147
330
136
100
AcDbEntity
  8
AM_4
100
AcDbLine
 10
-0.2525907427704613
 20
-1.4375
 30
0.0
 11
-0.1262953713852306
 21
-1.65625
 31
0.0
  0
LINE
  5
148
330
136
100
AcDbEntity
  8
AM_4
100
AcDbLine
 10
-0.1262953713852306
 20
-1.65625
 30
0.0
 11
0.1262953713852306
 21
-1.65625
 31
0.0
  0
LINE
  5
149
330
136
100
AcDbEntity
  8
AM_4
100
AcDbLine
 10
0.2525907427704613
 20
-1.4375
 30
0.0
 11
0.1262953713852306
 21
-1.21875
 31
0.0
  0
LINE
  5
14A
330
136
100
AcDbEntity
  8
AM_4
100
AcDbLine
 10
0.1262953713852306
 20
-1.21875
 30
0.0
 11
-0.1262953713852306
 21
-1.21875
 31
0.0
  0
LINE
  5
14B
330
136
100
AcDbEntity
  8
AM_4
100
AcDbLine
 10
0.1262953713852306
 20
-1.65625
 30
0.0
 11
0.2525907427704613
 21
-1.4375
 31
0.0
  0
LINE
  5
14C
330
136
100
AcDbEntity
  8
AM_4
100
AcDbLine
 10
-0.1262953713852306
 20
-1.21875
 30
0.0
 11
-0.2525907427704613
 21
-1.4375
 31
0.0
  0
CIRCLE
  5
14D
330
136
100
AcDbEntity
  8
AM_4
100
AcDbCircle
 10
0.0
 20
-1.4375
 30
0.0
 40
0.21375
  0
CIRCLE
  5
14E
330
136
100
AcDbEntity
  8
AM_4
100
AcDbCircle
 10
0.0
 20
-1.4375
 30
0.0
 40
0.1725340532830154
  0
CIRCLE
  5
14F
330
136
100
AcDbEntity
  8
AM_4
100
AcDbCircle
 10
0.0
 20
-1.4375
 30
0.0
 40
0.135
  0
CIRCLE
  5
150
330
136
100
AcDbEntity
  8
AM_4
100
AcDbCircle
 10
0.0
 20
-1.4375
 30
0.0
 40
0.1026779019331875
  0
ARC
  5
151
330
136
100
AcDbEntity
  8
AM_5
100
AcDbCircle
 10
-0.0000000000000002
 20
-1.4375
 30
0.0
 40
0.2025000050000001
100
AcDbArc
 50
75.00000000000001
 51
15.0
  0
ARC
  5
152
330
136
100
AcDbEntity
  8
AM_5
100
AcDbCircle
 10
-0.0000000000000026
 20
-1.437500000000001
 30
0.0
 40
0.2025000050000028
100
AcDbArc
 50
15.00000000000019
 51
44.99999999999977
  0
CIRCLE
  5
153
330
136
100
AcDbEntity
  8
AM_4
100
AcDbCircle
 10
0.0000000000000004
 20
-1.4375
 30
0.0
 40
0.2187499999999993
  0
ENDBLK
  5
139
330
136
100
AcDbEntity
  8
0
100
AcDbBlockEnd
  0
BLOCK
  5
156
330
154
100
AcDbEntity
  8
0
100
AcDbBlockBegin
  2
6_023094H_0_in_023094_4
 70
     2
 10
0.0
 20
0.0
 30
0.0
  3
6_023094H_0_in_023094_4
  1

  0
ATTDEF
  5
158
330
154
100
AcDbEntity
  8
AM_6
100
AcDbText
 10
6.875
 20
0.140625
 30
0.0
 40
0.5
  1
F4B-E-Housing
100
AcDbAttributeDefinition
  3

  2
NN
 70
     8
280
     0
  0
ATTDEF
  5
159
330
154
100
AcDbEntity
  8
AM_6
100
AcDbText
 10
6.875
 20
-0.359375
 30
0.0
 40
0.5
  1
Type E Flange Bearing -Inch (4-Bolt Flange)
100
AcDbAttributeDefinition
  3

  2
NT
 70
     8
280
     0
  0
ATTDEF
  5
15A
330
154
100
AcDbEntity
  8
AM_6
100
AcDbText
 10
6.875
 20
-0.859375
 30
0.0
 40
0.5
  1
023094H
100
AcDbAttributeDefinition
  3

  2
NB
 70
     8
280
     0
  0
ATTDEF
  5
15B
330
154
100
AcDbEntity
  8
AM_6
100
AcDbText
 10
6.875
 20
-1.359375
 30
0.0
 40
0.5
  1
$PN.H
100
AcDbAttributeDefinition
  3

  2
NBSYN
 70
     8
280
     0
  0
ATTDEF
  5
15C
330
154
100
AcDbEntity
  8
AM_6
100
AcDbText
 10
6.875
 20
-1.859375
 30
0.0
 40
0.5
  1
023094
100
AcDbAttributeDefinition
  3

  2
LINA
 70
     8
280
     0
  0
ATTDEF
  5
15D
330
154
100
AcDbEntity
  8
AM_6
100
AcDbText
 10
6.875
 20
-2.359375
 30
0.0
 40
0.5
  1
1-1/4
100
AcDbAttributeDefinition
  3

  2
SS
 70
     8
280
     0
  0
ATTDEF
  5
15E
330
154
100
AcDbEntity
  8
AM_6
100
AcDbText
 10
6.875
 20
-2.859375
 30
0.0
 40
0.5
  1
023094
100
AcDbAttributeDefinition
  3

  2
PN
 70
     8
280
     0
  0
ATTDEF
  5
15F
330
154
100
AcDbEntity
  8
AM_6
100
AcDbText
 10
6.875
 20
-3.359375
 30
0.0
 40
0.5
  1
F4B-E-104R
100
AcDbAttributeDefinition
  3

  2
DESCRIPTION
 70
     8
280
     0
  0
ATTDEF
  5
160
330
154
100
AcDbEntity
  8
AM_6
100
AcDbText
 10
6.875
 20
-3.859375
 30
0.0
 40
0.5
  1
2-13/16
100
AcDbAttributeDefinition
  3

  2
A
 70
     8
280
     0
  0
ATTDEF
  5
161
330
154
100
AcDbEntity
  8
AM_6
100
AcDbText
 10
6.875
 20
-4.359375
 30
0.0
 40
0.5
  1
3-3/4
100
AcDbAttributeDefinition
  3

  2
B
 70
     8
280
     0
  0
ATTDEF
  5
162
330
154
100
AcDbEntity
  8
AM_6
100
AcDbText
 10
6.875
 20
-4.859375
 30
0.0
 40
0.5
  1
2-11/32
100
AcDbAttributeDefinition
  3

  2
C
 70
     8
280
     0
  0
ATTDEF
  5
163
330
154
100
AcDbEntity
  8
AM_6
100
AcDbText
 10
6.875
 20
-5.359375
 30
0.0
 40
0.5
  1
1/16
100
AcDbAttributeDefinition
  3

  2
E
 70
     8
280
     0
  0
ATTDEF
  5
164
330
154
100
AcDbEntity
  8
AM_6
100
AcDbText
 10
6.875
 20
-5.859375
 30
0.0
 40
0.5
  1
0.062500
100
AcDbAttributeDefinition
  3

  2
E1
 70
     8
280
     0
  0
ATTDEF
  5
165
330
154
100
AcDbEntity
  8
AM_6
100
AcDbText
 10
6.875
 20
-6.359375
 30
0.0
 40
0.5
  1
3/8
100
AcDbAttributeDefinition
  3

  2
F
 70
     8
280
     0
  0
ATTDEF
  5
166
330
154
100
AcDbEntity
  8
AM_6
100
AcDbText
 10
6.875
 20
-6.859375
 30
0.0
 40
0.5
  1
0.375000
100
AcDbAttributeDefinition
  3

  2
F1
 70
     8
280
     0
  0
ATTDEF
  5
167
330
154
100
AcDbEntity
  8
AM_6
100
AcDbText
 10
6.875
 20
-7.359375
 30
0.0
 40
0.5
  1
1
100
AcDbAttributeDefinition
  3

  2
H
 70
     8
280
     0
  0
ATTDEF
  5
168
330
154
100
AcDbEntity
  8
AM_6
100
AcDbText
 10
6.875
 20
-7.859375
 30
0.0
 40
0.5
  1
2-15/16
100
AcDbAttributeDefinition
  3

  2
J
 70
     8
280
     0
  0
ATTDEF
  5
169
330
154
100
AcDbEntity
  8
AM_6
100
AcDbText
 10
6.875
 20
-8.359375
 30
0.0
 40
0.5
  1
2.9375000
100
AcDbAttributeDefinition
  3

  2
J1
 70
     8
280
     0
  0
ATTDEF
  5
16A
330
154
100
AcDbEntity
  8
AM_6
100
AcDbText
 10
6.875
 20
-8.859375
 30
0.0
 40
0.5
  1
2-1/4
100
AcDbAttributeDefinition
  3

  2
L
 70
     8
280
     0
  0
ATTDEF
  5
16B
330
154
100
AcDbEntity
  8
AM_6
100
AcDbText
 10
6.875
 20
-9.359375
 30
0.0
 40
0.5
  1
2.75
100
AcDbAttributeDefinition
  3

  2
AINS
 70
     8
280
     0
  0
ATTDEF
  5
16C
330
154
100
AcDbEntity
  8
AM_6
100
AcDbText
 10
6.875
 20
-9.859375
 30
0.0
 40
0.5
  1
2.31
100
AcDbAttributeDefinition
  3

  2
BORE
 70
     8
280
     0
  0
ATTDEF
  5
16D
330
154
100
AcDbEntity
  8
AM_6
100
AcDbText
 10
6.875
 20
-10.359375
 30
0.0
 40
0.5
  1
baldor
100
AcDbAttributeDefinition
  3

  2
COMPANY
 70
     8
280
     0
  0
LINE
  5
16E
330
154
100
AcDbEntity
  8
AM_9
100
AcDbLine
 10
1.09173945687679
 20
-0.6
 30
0.0
 11
1.875
 21
-0.5999999999999999
 31
0.0
  0
LINE
  5
16F
330
154
100
AcDbEntity
  8
AM_9
100
AcDbLine
 10
1.214308093994778
 20
-0.5999999999999999
 30
0.0
 11
1.214308093994778
 21
-0.0000000000000001
 31
0.0
  0
LINE
  5
170
330
154
100
AcDbEntity
  8
AM_9
100
AcDbLine
 10
-1.875
 20
-0.5999999999999999
 30
0.0
 11
-1.09173945687679
 21
-0.6
 31
0.0
  0
LINE
  5
171
330
154
100
AcDbEntity
  8
AM_9
100
AcDbLine
 10
-1.214308093994779
 20
-0.5999999999999999
 30
0.0
 11
-1.214308093994779
 21
-0.0000000000000001
 31
0.0
  0
LINE
  5
172
330
154
100
AcDbEntity
  8
AM_9
100
AcDbLine
 10
1.155
 20
-2.34375
 30
0.0
 11
1.155
 21
-0.5999999999999999
 31
0.0
  0
LINE
  5
173
330
154
100
AcDbEntity
  8
AM_9
100
AcDbLine
 10
-1.155
 20
-0.5999999999999999
 30
0.0
 11
-1.155
 21
-2.34375
 31
0.0
  0
LINE
  5
174
330
154
100
AcDbEntity
  8
AM_9
100
AcDbLine
 10
1.804070539819324
 20
-0.9062499999999998
 30
0.0
 11
1.804070539819324
 21
-0.9999999999999999
 31
0.0
  0
LINE
  5
175
330
154
100
AcDbEntity
  8
AM_9
100
AcDbLine
 10
1.362058614685712
 20
-0.9062499999999999
 30
0.0
 11
1.875
 21
-0.9062499999999998
 31
0.0
  0
LINE
  5
176
330
154
100
AcDbEntity
  8
AM_9
100
AcDbLine
 10
-1.804070539819324
 20
-0.9062499999999998
 30
0.0
 11
-1.804070539819324
 21
-0.9999999999999999
 31
0.0
  0
LINE
  5
177
330
154
100
AcDbEntity
  8
AM_9
100
AcDbLine
 10
-1.875
 20
-0.9062499999999998
 30
0.0
 11
-1.362058614685711
 21
-0.9062499999999999
 31
0.0
  0
LINE
  5
178
330
154
100
AcDbEntity
  8
AM_9
100
AcDbLine
 10
-1.362058614685711
 20
-0.9062499999999999
 30
0.0
 11
-1.362058614685711
 21
-1.0
 31
0.0
  0
LINE
  5
179
330
154
100
AcDbEntity
  8
AM_9
100
AcDbLine
 10
0.3745309566644659
 20
-0.9062499999999999
 30
0.0
 11
-0.374530956664466
 21
-0.9062499999999999
 31
0.0
  0
LINE
  5
17A
330
154
100
AcDbEntity
  8
AM_9
100
AcDbLine
 10
1.362058614685712
 20
-1.0
 30
0.0
 11
1.362058614685712
 21
-0.9062499999999999
 31
0.0
  0
LINE
  5
17B
330
154
100
AcDbEntity
  8
AM_9
100
AcDbLine
 10
1.46875
 20
-0.9999999999999999
 30
0.0
 11
1.46875
 21
-0.9062499999999999
 31
0.0
  0
LINE
  5
17C
330
154
100
AcDbEntity
  8
AM_9
100
AcDbLine
 10
-1.46875
 20
-0.9062499999999999
 30
0.0
 11
-1.46875
 21
-1.0
 31
0.0
  0
LINE
  5
17D
330
154
100
AcDbEntity
  8
AM_9
100
AcDbLine
 10
1.625
 20
-0.9999999999999999
 30
0.0
 11
1.625
 21
0.0000000000000001
 31
0.0
  0
LINE
  5
17E
330
154
100
AcDbEntity
  8
AM_9
100
AcDbLine
 10
1.25
 20
0.0000000000000001
 30
0.0
 11
1.25
 21
-0.9999999999999999
 31
0.0
  0
LINE
  5
17F
330
154
100
AcDbEntity
  8
AM_9
100
AcDbLine
 10
-1.25
 20
-0.9999999999999999
 30
0.0
 11
-1.25
 21
0.0000000000000001
 31
0.0
  0
LINE
  5
180
330
154
100
AcDbEntity
  8
AM_9
100
AcDbLine
 10
-1.625
 20
0.0000000000000001
 30
0.0
 11
-1.625
 21
-0.9999999999999999
 31
0.0
  0
LINE
  5
181
330
154
100
AcDbEntity
  8
AM_9
100
AcDbLine
 10
-0.9471303251711295
 20
-0.5999999999999999
 30
0.0
 11
-0.9471303251711295
 21
-0.0000000000000001
 31
0.0
  0
LINE
  5
182
330
154
100
AcDbEntity
  8
AM_9
100
AcDbLine
 10
0.9471303251711295
 20
-0.5999999999999999
 30
0.0
 11
0.9471303251711295
 21
-0.0000000000000001
 31
0.0
  0
LINE
  5
183
330
154
100
AcDbEntity
  8
AM_7
100
AcDbLine
 10
1.4375
 20
0.0499999999999999
 30
0.0
 11
1.4375
 21
-1.05
 31
0.0
  0
LINE
  5
184
330
154
100
AcDbEntity
  8
AM_7
100
AcDbLine
 10
-1.4375
 20
0.0499999999999999
 30
0.0
 11
-1.4375
 21
-1.05
 31
0.0
  0
LINE
  5
185
330
154
100
AcDbEntity
  8
AM_7
100
AcDbLine
 10
0.0
 20
0.140625
 30
0.0
 11
0.0
 21
-2.953125
 31
0.0
  0
LINE
  5
186
330
154
100
AcDbEntity
  8
AM_7
100
AcDbLine
 10
-0.5250000000000001
 20
-1.4375
 30
0.0
 11
0.524999999999999
 21
-1.4375
 31
0.0
  0
LINE
  5
187
330
154
100
AcDbEntity
  8
AM_4
100
AcDbLine
 10
1.46875
 20
-2.21875
 30
0.0
 11
1.46875
 21
-0.9999999999999999
 31
0.0
  0
LINE
  5
188
330
154
100
AcDbEntity
  8
AM_4
100
AcDbLine
 10
-1.46875
 20
-1.0
 30
0.0
 11
-1.46875
 21
-2.21875
 31
0.0
  0
LINE
  5
189
330
154
100
AcDbEntity
  8
AM_4
100
AcDbLine
 10
-1.34375
 20
-2.34375
 30
0.0
 11
1.343749999995816
 21
-2.34375
 31
0.0
  0
LINE
  5
18A
330
154
100
AcDbEntity
  8
AM_4
100
AcDbLine
 10
-1.46875
 20
-2.21875
 30
0.0
 11
1.46875
 21
-2.21875
 31
0.0
  0
ARC
  5
18B
330
154
100
AcDbEntity
  8
AM_4
100
AcDbCircle
 10
1.343749999999999
 20
-2.218749999999999
 30
0.0
 40
0.1250000000000009
100
AcDbArc
 50
270.0
 51
0.0
  0
ARC
  5
18C
330
154
100
AcDbEntity
  8
AM_4
100
AcDbCircle
 10
-1.343749999999999
 20
-2.218749999999999
 30
0.0
 40
0.1250000000000007
100
AcDbArc
 50
180.0
 51
270.0
  0
CIRCLE
  5
18D
330
154
100
AcDbEntity
  8
AM_4
100
AcDbCircle
 10
0.0
 20
-1.4375
 30
0.0
 40
0.3999999999999999
  0
LINE
  5
18E
330
154
100
AcDbEntity
  8
AM_4
100
AcDbLine
 10
-0.5495660948970934
 20
-0.9999999999999999
 30
0.0
 11
-0.5495660948970934
 21
-0.9062499999999998
 31
0.0
  0
LINE
  5
18F
330
154
100
AcDbEntity
  8
AM_4
100
AcDbLine
 10
1.875
 20
-0.9999999999999999
 30
0.0
 11
0.5495660948970933
 21
-0.9999999999999999
 31
0.0
  0
LINE
  5
190
330
154
100
AcDbEntity
  8
AM_4
100
AcDbLine
 10
0.5495660948970933
 20
-0.9062499999999998
 30
0.0
 11
0.5495660948970933
 21
-0.9999999999999999
 31
0.0
  0
LINE
  5
191
330
154
100
AcDbEntity
  8
AM_4
100
AcDbLine
 10
1.875
 20
-0.9999999999999999
 30
0.0
 11
1.875
 21
0.0000000000000001
 31
0.0
  0
LINE
  5
192
330
154
100
AcDbEntity
  8
AM_4
100
AcDbLine
 10
1.180824544732908
 20
-0.9062499999999998
 30
0.0
 11
1.180824544732908
 21
-0.9999999999999999
 31
0.0
  0
LINE
  5
193
330
154
100
AcDbEntity
  8
AM_4
100
AcDbLine
 10
-1.180824544732907
 20
-0.9062499999999998
 30
0.0
 11
-1.180824544732907
 21
-0.9999999999999999
 31
0.0
  0
LINE
  5
194
330
154
100
AcDbEntity
  8
AM_4
100
AcDbLine
 10
-0.8027627095472158
 20
-0.5999999999999999
 30
0.0
 11
-0.8027627095472158
 21
0.0000000000000001
 31
0.0
  0
ARC
  5
195
330
154
100
AcDbEntity
  8
AM_4
100
AcDbCircle
 10
0.0
 20
-1.4375
 30
0.0
 40
0.6500000000000006
100
AcDbArc
 50
54.8161845116697
 51
125.1838154883303
  0
LINE
  5
196
330
154
100
AcDbEntity
  8
AM_4
100
AcDbLine
 10
1.343425561388869
 20
-0.9062499999999998
 30
0.0
 11
0.3745309566644659
 21
-0.9062499999999998
 31
0.0
  0
LINE
  5
197
330
154
100
AcDbEntity
  8
AM_4
100
AcDbLine
 10
1.09173945687679
 20
-0.5999999999999999
 30
0.0
 11
-1.09173945687679
 21
-0.5999999999999999
 31
0.0
  0
LINE
  5
198
330
154
100
AcDbEntity
  8
AM_4
100
AcDbLine
 10
-1.09173945687679
 20
-0.5999999999999999
 30
0.0
 11
-1.09173945687679
 21
0.0000000000000001
 31
0.0
  0
LINE
  5
199
330
154
100
AcDbEntity
  8
AM_4
100
AcDbLine
 10
-1.343425561388866
 20
-0.9062499999999998
 30
0.0
 11
-1.343425561388866
 21
-0.9999999999999999
 31
0.0
  0
LINE
  5
19A
330
154
100
AcDbEntity
  8
AM_4
100
AcDbLine
 10
-0.374530956664466
 20
-0.9062499999999998
 30
0.0
 11
-1.343425561388866
 21
-0.9062499999999998
 31
0.0
  0
LINE
  5
19B
330
154
100
AcDbEntity
  8
AM_4
100
AcDbLine
 10
1.343425561388869
 20
-0.9999999999999999
 30
0.0
 11
1.343425561388869
 21
-0.9062499999999998
 31
0.0
  0
LINE
  5
19C
330
154
100
AcDbEntity
  8
AM_4
100
AcDbLine
 10
1.4375
 20
-0.9999999999999999
 30
0.0
 11
1.4375
 21
0.0000000000000001
 31
0.0
  0
LINE
  5
19D
330
154
100
AcDbEntity
  8
AM_4
100
AcDbLine
 10
1.09173945687679
 20
0.0000000000000001
 30
0.0
 11
1.09173945687679
 21
-0.5999999999999999
 31
0.0
  0
LINE
  5
19E
330
154
100
AcDbEntity
  8
AM_4
100
AcDbLine
 10
0.802762709547216
 20
0.0000000000000001
 30
0.0
 11
0.802762709547216
 21
-0.5999999999999999
 31
0.0
  0
LINE
  5
19F
330
154
100
AcDbEntity
  8
AM_4
100
AcDbLine
 10
0.802762709547216
 20
0.0000000000000001
 30
0.0
 11
1.875
 21
0.0000000000000001
 31
0.0
  0
LINE
  5
1A0
330
154
100
AcDbEntity
  8
AM_4
100
AcDbLine
 10
-0.8027627095472158
 20
0.0000000000000001
 30
0.0
 11
-1.875
 21
0.0000000000000001
 31
0.0
  0
LINE
  5
1A1
330
154
100
AcDbEntity
  8
AM_4
100
AcDbLine
 10
-1.875
 20
-0.9999999999999999
 30
0.0
 11
-1.875
 21
0.0000000000000001
 31
0.0
  0
LINE
  5
1A2
330
154
100
AcDbEntity
  8
AM_4
100
AcDbLine
 10
-0.5495660948970934
 20
-0.9999999999999999
 30
0.0
 11
-1.875
 21
-0.9999999999999999
 31
0.0
  0
LINE
  5
1A3
330
154
100
AcDbEntity
  8
AM_4
100
AcDbLine
 10
-1.4375
 20
-0.9999999999999999
 30
0.0
 11
-1.4375
 21
0.0000000000000001
 31
0.0
  0
CIRCLE
  5
1A4
330
154
100
AcDbEntity
  8
AM_4
100
AcDbCircle
 10
-0.0000000000000005
 20
-1.4375
 30
0.0
 40
0.4999999999999996
  0
ENDBLK
  5
157
330
154
100
AcDbEntity
  8
0
100
AcDbBlockEnd
  0
ENDSEC
  0
SECTION
  2
ENTITIES
  0
INSERT
  5
6F
330
1F
100
AcDbEntity
  8
0
100
AcDbBlockReference
  2
1_023094_4
 10
0.0
 20
0.0
 30
0.0
  0
POINT
  5
1A6
330
1F
100
AcDbEntity
  8
ConnectionPoints
100
AcDbPoint
 10
0.0
 20
-2.8125
 30
0.0000000000000002
  0
POINT
  5
1A7
330
1F
100
AcDbEntity
  8
ConnectionPoints
100
AcDbPoint
 10
0.0
 20
-2.8125
 30
0.0000000000000002
  0
POINT
  5
1A8
330
1F
100
AcDbEntity
  8
ConnectionPoints
100
AcDbPoint
 10
0.0
 20
-0.0625
 30
0.0
  0
POINT
  5
1A9
330
1F
100
AcDbEntity
  8
ConnectionPoints
100
AcDbPoint
 10
0.0
 20
-1.4375
 30
0.0000000000000001
  0
POINT
  5
1AA
330
1F
100
AcDbEntity
  8
ConnectionPoints
100
AcDbPoint
 10
0.0
 20
-1.4375
 30
1.56875
  0
POINT
  5
1AB
330
1F
100
AcDbEntity
  8
ConnectionPoints
100
AcDbPoint
 10
0.0
 20
-1.4375
 30
1.56875
  0
POINT
  5
1AC
330
1F
100
AcDbEntity
  8
ConnectionPoints
100
AcDbPoint
 10
0.0
 20
-1.4375
 30
0.0000000000000001
  0
ENDSEC
  0
SECTION
  2
OBJECTS
  0
DICTIONARY
  5
C
330
0
100
AcDbDictionary
281
     1
  3
ACAD_DETAILVIEWSTYLE
350
1B4
  3
ACAD_GROUP
350
D
  3
ACAD_LAYOUT
350
1A
  3
ACAD_MATERIAL
350
43
  3
ACAD_MLEADERSTYLE
350
6B
  3
ACAD_MLINESTYLE
350
17
  3
ACAD_PLOTSETTINGS
350
19
  3
ACAD_PLOTSTYLENAME
350
E
  3
ACAD_SCALELIST
350
47
  3
ACAD_SECTIONVIEWSTYLE
350
1B5
  3
ACAD_TABLESTYLE
350
69
  3
ACAD_VISUALSTYLE
350
2A
  3
ACDB_RECOMPOSE_DATA
350
1B1
  3
AcDbVariableDictionary
350
1AD
  0
SUN
  5
6D
330
29
100
AcDbSun
 90
        1
290
     0
 63
     7
421
 16777215
 40
1.0
291
     1
 91
  2455826
 92
 54000000
292
     0
 70
     2
 71
   256
280
     1
  0
DICTIONARY
  5
1B4
102
{ACAD_REACTORS
330
C
102
}
330
C
100
AcDbDictionary
281
     1
  0
DICTIONARY
  5
D
102
{ACAD_REACTORS
330
C
102
}
330
C
100
AcDbDictionary
281
     1
  0
DICTIONARY
  5
1A
102
{ACAD_REACTORS
330
C
102
}
330
C
100
AcDbDictionary
281
     1
  3
Layout1
350
1E
  3
Layout2
350
26
  3
Model
350
22
  0
DICTIONARY
  5
43
102
{ACAD_REACTORS
330
C
102
}
330
C
100
AcDbDictionary
281
     1
  3
ByBlock
350
45
  3
ByLayer
350
44
  3
Global
350
46
  0
DICTIONARY
  5
6B
102
{ACAD_REACTORS
330
C
102
}
330
C
100
AcDbDictionary
281
     1
  3
Standard
350
6C
  0
DICTIONARY
  5
17
102
{ACAD_REACTORS
330
C
102
}
330
C
100
AcDbDictionary
281
     1
  3
Standard
350
18
  0
DICTIONARY
  5
19
102
{ACAD_REACTORS
330
C
102
}
330
C
100
AcDbDictionary
281
     1
  0
ACDBDICTIONARYWDFLT
  5
E
102
{ACAD_REACTORS
330
C
102
}
330
C
100
AcDbDictionary
281
     1
  3
Normal
350
F
100
AcDbDictionaryWithDefault
340
F
  0
DICTIONARY
  5
47
102
{ACAD_REACTORS
330
C
102
}
330
C
100
AcDbDictionary
281
     1
  3
A0
350
48
  3
A1
350
49
  3
A2
350
4A
  3
A3
350
4B
  3
A4
350
4C
  3
A5
350
4D
  3
A6
350
4E
  3
A7
350
4F
  3
A8
350
50
  3
A9
350
51
  3
B0
350
52
  3
B1
350
53
  3
B2
350
54
  3
B3
350
55
  3
B4
350
56
  3
B5
350
57
  3
B6
350
58
  3
B7
350
59
  3
B8
350
5A
  3
B9
350
5B
  3
C0
350
5C
  3
C1
350
5D
  3
C2
350
5E
  3
C3
350
5F
  3
C4
350
60
  3
C5
350
61
  3
C6
350
62
  3
C7
350
63
  3
C8
350
64
  3
C9
350
65
  3
D0
350
66
  3
D1
350
67
  3
D2
350
68
  0
DICTIONARY
  5
1B5
102
{ACAD_REACTORS
330
C
102
}
330
C
100
AcDbDictionary
281
     1
  0
DICTIONARY
  5
69
102
{ACAD_REACTORS
330
C
102
}
330
C
100
AcDbDictionary
281
     1
  3
Standard
350
6A
  0
DICTIONARY
  5
2A
102
{ACAD_REACTORS
330
C
102
}
330
C
100
AcDbDictionary
281
     1
  3
2dWireframe
350
2F
  3
Basic
350
32
  3
Brighten
350
36
  3
ColorChange
350
3A
  3
Conceptual
350
34
  3
Dim
350
35
  3
EdgeColorOff
350
3D
  3
Facepattern
350
39
  3
Flat
350
2B
  3
FlatWithEdges
350
2C
  3
Gouraud
350
2D
  3
GouraudWithEdges
350
2E
  3
Hidden
350
31
  3
JitterOff
350
3B
  3
Linepattern
350
38
  3
OverhangOff
350
3C
  3
Realistic
350
33
  3
Shaded
350
42
  3
Shaded with edges
350
41
  3
Shades of Gray
350
3E
  3
Sketchy
350
3F
  3
Thicken
350
37
  3
Wireframe
350
30
  3
X-Ray
350
40
  0
XRECORD
  5
1B1
102
{ACAD_REACTORS
330
C
102
}
330
C
100
AcDbXrecord
280
     1
 90
        1
330
6A
  0
DICTIONARY
  5
1AD
102
{ACAD_REACTORS
330
C
102
}
330
C
100
AcDbDictionary
281
     1
  3
CANNOSCALE
350
1AE
  3
CMLEADERSTYLE
350
1B3
  3
CTABLESTYLE
350
1B2
  0
LAYOUT
  5
1E
102
{ACAD_REACTORS
330
1A
102
}
330
1A
100
AcDbPlotSettings
  1

  2
none_device
  4

  6

 40
0.0
 41
0.0
 42
0.0
 43
0.0
 44
0.0
 45
0.0
 46
0.0
 47
0.0
 48
0.0
 49
0.0
140
0.0
141
0.0
142
1.0
143
1.0
 70
   688
 72
     0
 73
     0
 74
     5
  7

 75
    16
 76
     0
 77
     2
 78
   300
147
1.0
148
0.0
149
0.0
100
AcDbLayout
  1
Layout1
 70
     1
 71
     1
 10
0.0
 20
0.0
 11
12.0
 21
9.0
 12
0.0
 22
0.0
 32
0.0
 14
1.000000000000000E+20
 24
1.000000000000000E+20
 34
1.000000000000000E+20
 15
-1.000000000000000E+20
 25
-1.000000000000000E+20
 35
-1.000000000000000E+20
146
0.0
 13
0.0
 23
0.0
 33
0.0
 16
1.0
 26
0.0
 36
0.0
 17
0.0
 27
1.0
 37
0.0
 76
     0
330
1B
  0
LAYOUT
  5
26
102
{ACAD_REACTORS
330
1A
102
}
330
1A
100
AcDbPlotSettings
  1

  2
none_device
  4

  6

 40
0.0
 41
0.0
 42
0.0
 43
0.0
 44
0.0
 45
0.0
 46
0.0
 47
0.0
 48
0.0
 49
0.0
140
0.0
141
0.0
142
1.0
143
1.0
 70
   688
 72
     0
 73
     0
 74
     5
  7

 75
    16
 76
     0
 77
     2
 78
   300
147
1.0
148
0.0
149
0.0
100
AcDbLayout
  1
Layout2
 70
     1
 71
     2
 10
0.0
 20
0.0
 11
0.0
 21
0.0
 12
0.0
 22
0.0
 32
0.0
 14
0.0
 24
0.0
 34
0.0
 15
0.0
 25
0.0
 35
0.0
146
0.0
 13
0.0
 23
0.0
 33
0.0
 16
1.0
 26
0.0
 36
0.0
 17
0.0
 27
1.0
 37
0.0
 76
     0
330
23
  0
LAYOUT
  5
22
102
{ACAD_REACTORS
330
1A
102
}
330
1A
100
AcDbPlotSettings
  1

  2
none_device
  4
Letter_(8.50_x_11.00_Inches)
  6

 40
6.35
 41
6.35
 42
6.35000508
 43
6.35000508
 44
215.9
 45
279.4
 46
0.0
 47
0.0
 48
0.0
 49
0.0
140
0.0
141
0.0
142
1.0
143
1.0
 70
  1712
 72
     0
 73
     0
 74
     0
  7

 75
     0
 76
     0
 77
     2
 78
   300
147
1.0
148
0.0
149
0.0
100
AcDbLayout
  1
Model
 70
     1
 71
     0
 10
0.0
 20
0.0
 11
12.0
 21
9.0
 12
0.0
 22
0.0
 32
0.0
 14
1.000000000000000E+20
 24
1.000000000000000E+20
 34
1.000000000000000E+20
 15
-1.000000000000000E+20
 25
-1.000000000000000E+20
 35
-1.000000000000000E+20
146
0.0
 13
0.0
 23
0.0
 33
0.0
 16
1.0
 26
0.0
 36
0.0
 17
0.0
 27
1.0
 37
0.0
 76
     0
330
1F
331
29
  0
MATERIAL
  5
45
102
{ACAD_REACTORS
330
43
102
}
330
43
100
AcDbMaterial
  1
ByBlock
 72
     1
 94
      127
  0
MATERIAL
  5
44
102
{ACAD_REACTORS
330
43
102
}
330
43
100
AcDbMaterial
  1
ByLayer
 72
     1
 94
      127
  0
MATERIAL
  5
46
102
{ACAD_REACTORS
330
43
102
}
330
43
100
AcDbMaterial
  1
Global
 72
     1
 94
      127
  0
MLEADERSTYLE
  5
6C
102
{ACAD_REACTORS
330
6B
102
}
330
6B
100
AcDbMLeaderStyle
179
     2
170
     2
171
     1
172
     0
 90
        2
 40
0.0
 41
0.0
173
     1
 91
-1056964608
340
14
 92
       -2
290
     1
 42
0.09
291
     1
 43
0.36
  3
Standard
341
0
 44
0.18
300

342
11
174
     1
178
     6
175
     1
176
     0
 93
-1056964608
 45
0.18
292
     0
297
     0
 46
0.18
343
0
 94
-1056964608
 47
1.0
 49
1.0
140
1.0
293
     1
141
0.0
294
     1
177
     0
142
1.0
295
     0
296
     0
143
0.125
271
     0
272
     9
273
     9
298
     0
  0
MLINESTYLE
  5
18
102
{ACAD_REACTORS
330
17
102
}
330
17
100
AcDbMlineStyle
  2
Standard
 70
     0
  3

 62
   256
 51
90.0
 52
90.0
 71
     2
 49
0.5
 62
   256
  6
BYLAYER
 49
-0.5
 62
   256
  6
BYLAYER
  0
ACDBPLACEHOLDER
  5
F
102
{ACAD_REACTORS
330
E
102
}
330
E
  0
SCALE
  5
48
102
{ACAD_REACTORS
330
47
102
}
330
47
100
AcDbScale
 70
     0
300
1:1
140
1.0
141
1.0
290
     1
  0
SCALE
  5
49
102
{ACAD_REACTORS
330
47
102
}
330
47
100
AcDbScale
 70
     0
300
1:2
140
1.0
141
2.0
290
     0
  0
SCALE
  5
4A
102
{ACAD_REACTORS
330
47
102
}
330
47
100
AcDbScale
 70
     0
300
1:4
140
1.0
141
4.0
290
     0
  0
SCALE
  5
4B
102
{ACAD_REACTORS
330
47
102
}
330
47
100
AcDbScale
 70
     0
300
1:5
140
1.0
141
5.0
290
     0
  0
SCALE
  5
4C
102
{ACAD_REACTORS
330
47
102
}
330
47
100
AcDbScale
 70
     0
300
1:8
140
1.0
141
8.0
290
     0
  0
SCALE
  5
4D
102
{ACAD_REACTORS
330
47
102
}
330
47
100
AcDbScale
 70
     0
300
1:10
140
1.0
141
10.0
290
     0
  0
SCALE
  5
4E
102
{ACAD_REACTORS
330
47
102
}
330
47
100
AcDbScale
 70
     0
300
1:16
140
1.0
141
16.0
290
     0
  0
SCALE
  5
4F
102
{ACAD_REACTORS
330
47
102
}
330
47
100
AcDbScale
 70
     0
300
1:20
140
1.0
141
20.0
290
     0
  0
SCALE
  5
50
102
{ACAD_REACTORS
330
47
102
}
330
47
100
AcDbScale
 70
     0
300
1:30
140
1.0
141
30.0
290
     0
  0
SCALE
  5
51
102
{ACAD_REACTORS
330
47
102
}
330
47
100
AcDbScale
 70
     0
300
1:40
140
1.0
141
40.0
290
     0
  0
SCALE
  5
52
102
{ACAD_REACTORS
330
47
102
}
330
47
100
AcDbScale
 70
     0
300
1:50
140
1.0
141
50.0
290
     0
  0
SCALE
  5
53
102
{ACAD_REACTORS
330
47
102
}
330
47
100
AcDbScale
 70
     0
300
1:100
140
1.0
141
100.0
290
     0
  0
SCALE
  5
54
102
{ACAD_REACTORS
330
47
102
}
330
47
100
AcDbScale
 70
     0
300
2:1
140
2.0
141
1.0
290
     0
  0
SCALE
  5
55
102
{ACAD_REACTORS
330
47
102
}
330
47
100
AcDbScale
 70
     0
300
4:1
140
4.0
141
1.0
290
     0
  0
SCALE
  5
56
102
{ACAD_REACTORS
330
47
102
}
330
47
100
AcDbScale
 70
     0
300
8:1
140
8.0
141
1.0
290
     0
  0
SCALE
  5
57
102
{ACAD_REACTORS
330
47
102
}
330
47
100
AcDbScale
 70
     0
300
10:1
140
10.0
141
1.0
290
     0
  0
SCALE
  5
58
102
{ACAD_REACTORS
330
47
102
}
330
47
100
AcDbScale
 70
     0
300
100:1
140
100.0
141
1.0
290
     0
  0
SCALE
  5
59
102
{ACAD_REACTORS
330
47
102
}
330
47
100
AcDbScale
 70
     0
300
1/128" = 1'-0"
140
0.0078125
141
12.0
290
     0
  0
SCALE
  5
5A
102
{ACAD_REACTORS
330
47
102
}
330
47
100
AcDbScale
 70
     0
300
1/64" = 1'-0"
140
0.015625
141
12.0
290
     0
  0
SCALE
  5
5B
102
{ACAD_REACTORS
330
47
102
}
330
47
100
AcDbScale
 70
     0
300
1/32" = 1'-0"
140
0.03125
141
12.0
290
     0
  0
SCALE
  5
5C
102
{ACAD_REACTORS
330
47
102
}
330
47
100
AcDbScale
 70
     0
300
1/16" = 1'-0"
140
0.0625
141
12.0
290
     0
  0
SCALE
  5
5D
102
{ACAD_REACTORS
330
47
102
}
330
47
100
AcDbScale
 70
     0
300
3/32" = 1'-0"
140
0.09375
141
12.0
290
     0
  0
SCALE
  5
5E
102
{ACAD_REACTORS
330
47
102
}
330
47
100
AcDbScale
 70
     0
300
1/8" = 1'-0"
140
0.125
141
12.0
290
     0
  0
SCALE
  5
5F
102
{ACAD_REACTORS
330
47
102
}
330
47
100
AcDbScale
 70
     0
300
3/16" = 1'-0"
140
0.1875
141
12.0
290
     0
  0
SCALE
  5
60
102
{ACAD_REACTORS
330
47
102
}
330
47
100
AcDbScale
 70
     0
300
1/4" = 1'-0"
140
0.25
141
12.0
290
     0
  0
SCALE
  5
61
102
{ACAD_REACTORS
330
47
102
}
330
47
100
AcDbScale
 70
     0
300
3/8" = 1'-0"
140
0.375
141
12.0
290
     0
  0
SCALE
  5
62
102
{ACAD_REACTORS
330
47
102
}
330
47
100
AcDbScale
 70
     0
300
1/2" = 1'-0"
140
0.5
141
12.0
290
     0
  0
SCALE
  5
63
102
{ACAD_REACTORS
330
47
102
}
330
47
100
AcDbScale
 70
     0
300
3/4" = 1'-0"
140
0.75
141
12.0
290
     0
  0
SCALE
  5
64
102
{ACAD_REACTORS
330
47
102
}
330
47
100
AcDbScale
 70
     0
300
1" = 1'-0"
140
1.0
141
12.0
290
     0
  0
SCALE
  5
65
102
{ACAD_REACTORS
330
47
102
}
330
47
100
AcDbScale
 70
     0
300
1-1/2" = 1'-0"
140
1.5
141
12.0
290
     0
  0
SCALE
  5
66
102
{ACAD_REACTORS
330
47
102
}
330
47
100
AcDbScale
 70
     0
300
3" = 1'-0"
140
3.0
141
12.0
290
     0
  0
SCALE
  5
67
102
{ACAD_REACTORS
330
47
102
}
330
47
100
AcDbScale
 70
     0
300
6" = 1'-0"
140
6.0
141
12.0
290
     0
  0
SCALE
  5
68
102
{ACAD_REACTORS
330
47
102
}
330
47
100
AcDbScale
 70
     0
300
1'-0" = 1'-0"
140
12.0
141
12.0
290
     0
  0
TABLESTYLE
  5
6A
102
{ACAD_REACTORS
330
69
102
}
102
{ACAD_XDICTIONARY
360
1AF
102
}
330
69
100
AcDbTableStyle
  3
Standard
 70
     0
 71
     0
 40
0.06
 41
0.06
280
     0
281
     0
  7
Standard
140
0.18
170
     2
 62
     0
 63
   257
283
     0
 90
        4
 91
        0
  1

274
    -2
284
     1
 64
     0
275
    -2
285
     1
 65
     0
276
    -2
286
     1
 66
     0
277
    -2
287
     1
 67
     0
278
    -2
288
     1
 68
     0
279
    -2
289
     1
 69
     0
  7
Standard
140
0.25
170
     5
 62
     0
 63
   257
283
     0
 90
        4
 91
        0
  1

274
    -2
284
     1
 64
     0
275
    -2
285
     1
 65
     0
276
    -2
286
     1
 66
     0
277
    -2
287
     1
 67
     0
278
    -2
288
     1
 68
     0
279
    -2
289
     1
 69
     0
  7
Standard
140
0.18
170
     5
 62
     0
 63
   257
283
     0
 90
        4
 91
        0
  1

274
    -2
284
     1
 64
     0
275
    -2
285
     1
 65
     0
276
    -2
286
     1
 66
     0
277
    -2
287
     1
 67
     0
278
    -2
288
     1
 68
     0
279
    -2
289
     1
 69
     0
  0
VISUALSTYLE
  5
2F
102
{ACAD_REACTORS
330
2A
102
}
330
2A
100
AcDbVisualStyle
  2
2dWireframe
 70
     4
177
     3
291
     0
 70
    58
 90
        0
176
     1
 90
        2
176
     1
 90
        0
176
     1
 90
        0
176
     1
 40
0.6
176
     1
 40
30.0
176
     1
 62
     7
420
 16777215
176
     1
 90
        1
176
     1
 90
        4
176
     1
 62
     7
176
     1
 62
   257
176
     1
 90
        1
176
     1
 90
        1
176
     1
 40
1.0
176
     1
 90
        0
176
     1
 62
   257
176
     1
 40
1.0
176
     1
 90
        1
176
     1
 90
        6
176
     1
 90
        2
176
     1
 62
     7
176
     1
 90
        5
176
     1
 90
        0
176
     1
 90
        0
176
     1
290
     0
176
     1
 90
        1
176
     1
 40
0.0
176
     1
 90
        0
176
     1
290
     1
176
     1
290
     1
176
     1
290
     0
176
     1
290
     0
176
     1
290
     0
176
     1
290
     0
176
     1
290
     0
176
     1
290
     0
176
     1
290
     0
176
     1
 90
       50
176
     1
 40
0.0
176
     1
 40
1.0
176
     1
 90
        0
176
     1
 62
    18
420
        0
176
     1
 90
       50
176
     1
 90
        3
176
     1
 62
     5
420
      255
176
     1
290
     0
176
     1
 90
       50
176
     1
 90
       50
176
     1
 90
       50
176
     1
290
     0
176
     1
 90
       50
176
     1
 62
   256
176
     0
 40
1.0
176
     0
 90
        2
176
     1
  1
strokes_ogs.tif
176
     1
290
     0
176
     1
 40
1.0
176
     1
 40
1.0
176
     1
  0
VISUALSTYLE
  5
32
102
{ACAD_REACTORS
330
2A
102
}
330
2A
100
AcDbVisualStyle
  2
Basic
 70
     7
177
     3
291
     1
 70
    58
 90
        1
176
     1
 90
        0
176
     1
 90
        1
176
     1
 90
        0
176
     1
 40
0.6
176
     1
 40
30.0
176
     1
 62
     7
420
 16777215
176
     1
 90
        0
176
     1
 90
        4
176
     1
 62
     7
176
     1
 62
   257
176
     1
 90
        1
176
     1
 90
        1
176
     1
 40
1.0
176
     1
 90
        8
176
     1
 62
     7
176
     1
 40
1.0
176
     1
 90
        1
176
     1
 90
        6
176
     1
 90
        2
176
     1
 62
     7
176
     1
 90
        5
176
     1
 90
        0
176
     1
 90
        0
176
     1
290
     0
176
     1
 90
        1
176
     1
 40
0.0
176
     1
 90
        0
176
     1
290
     0
176
     1
290
     1
176
     1
290
     1
176
     1
290
     0
176
     1
290
     0
176
     1
290
     0
176
     1
290
     0
176
     1
290
     0
176
     1
290
     0
176
     1
 90
       50
176
     1
 40
0.0
176
     1
 40
1.0
176
     1
 90
        0
176
     1
 62
    18
420
        0
176
     1
 90
       50
176
     1
 90
        3
176
     1
 62
     5
420
      255
176
     1
290
     0
176
     1
 90
       50
176
     1
 90
       50
176
     1
 90
       50
176
     1
290
     0
176
     1
 90
       50
176
     1
 62
   256
176
     0
 40
1.0
176
     0
 90
        2
176
     1
  1
strokes_ogs.tif
176
     1
290
     0
176
     1
 40
1.0
176
     1
 40
1.0
176
     1
  0
VISUALSTYLE
  5
36
102
{ACAD_REACTORS
330
2A
102
}
330
2A
100
AcDbVisualStyle
  2
Brighten
 70
    12
177
     3
291
     1
 70
    58
 90
        2
176
     1
 90
        2
176
     1
 90
        0
176
     1
 90
        0
176
     1
 40
0.6
176
     1
 40
30.0
176
     1
 62
     7
420
 16777215
176
     1
 90
        1
176
     1
 90
        4
176
     1
 62
     7
176
     1
 62
   257
176
     1
 90
        1
176
     1
 90
        1
176
     1
 40
1.0
176
     1
 90
        8
176
     1
 62
     7
176
     1
 40
1.0
176
     1
 90
        1
176
     1
 90
        6
176
     1
 90
        2
176
     1
 62
     7
176
     1
 90
        5
176
     1
 90
        0
176
     1
 90
        0
176
     1
290
     0
176
     1
 90
        1
176
     1
 40
50.0
176
     1
 90
        0
176
     1
290
     0
176
     1
290
     1
176
     1
290
     1
176
     1
290
     0
176
     1
290
     0
176
     1
290
     0
176
     1
290
     0
176
     1
290
     0
176
     1
290
     0
176
     1
 90
       50
176
     1
 40
0.0
176
     1
 40
1.0
176
     1
 90
        0
176
     1
 62
    18
420
        0
176
     1
 90
       50
176
     1
 90
        3
176
     1
 62
     5
420
      255
176
     1
290
     0
176
     1
 90
       50
176
     1
 90
       50
176
     1
 90
       50
176
     1
290
     0
176
     1
 90
       50
176
     1
 62
   256
176
     0
 40
1.0
176
     0
 90
        2
176
     1
  1
strokes_ogs.tif
176
     1
290
     0
176
     1
 40
1.0
176
     1
 40
1.0
176
     1
  0
VISUALSTYLE
  5
3A
102
{ACAD_REACTORS
330
2A
102
}
330
2A
100
AcDbVisualStyle
  2
ColorChange
 70
    16
177
     3
291
     1
 70
    58
 90
        2
176
     1
 90
        2
176
     1
 90
        3
176
     1
 90
        0
176
     1
 40
0.6
176
     1
 40
30.0
176
     1
 62
     8
420
  8421504
176
     1
 90
        1
176
     1
 90
        4
176
     1
 62
     7
176
     1
 62
   257
176
     1
 90
        1
176
     1
 90
        1
176
     1
 40
1.0
176
     1
 90
        8
176
     1
 62
     8
420
  8421504
176
     1
 40
1.0
176
     1
 90
        1
176
     1
 90
        6
176
     1
 90
        2
176
     1
 62
     7
176
     1
 90
        5
176
     1
 90
        0
176
     1
 90
        0
176
     1
290
     0
176
     1
 90
        1
176
     1
 40
0.0
176
     1
 90
        0
176
     1
290
     0
176
     1
290
     1
176
     1
290
     1
176
     1
290
     0
176
     1
290
     0
176
     1
290
     0
176
     1
290
     0
176
     1
290
     0
176
     1
290
     0
176
     1
 90
       50
176
     1
 40
0.0
176
     1
 40
1.0
176
     1
 90
        0
176
     1
 62
    18
420
        0
176
     1
 90
       50
176
     1
 90
        3
176
     1
 62
     5
420
      255
176
     1
290
     0
176
     1
 90
       50
176
     1
 90
       50
176
     1
 90
       50
176
     1
290
     0
176
     1
 90
       50
176
     1
 62
   256
176
     0
 40
1.0
176
     0
 90
        2
176
     1
  1
strokes_ogs.tif
176
     1
290
     0
176
     1
 40
1.0
176
     1
 40
1.0
176
     1
  0
VISUALSTYLE
  5
34
102
{ACAD_REACTORS
330
2A
102
}
330
2A
100
AcDbVisualStyle
  2
Conceptual
 70
     9
177
     3
291
     0
 70
    58
 90
        3
176
     1
 90
        2
176
     1
 90
        0
176
     1
 90
        0
176
     1
 40
0.6
176
     1
 40
30.0
176
     1
 62
     7
420
 16777215
176
     1
 90
        2
176
     1
 90
        2
176
     1
 62
     7
176
     1
 62
   257
176
     1
 90
        1
176
     1
 90
        1
176
     1
 40
179.0
176
     1
 90
        8
176
     1
 62
     7
176
     1
 40
1.0
176
     1
 90
        1
176
     1
 90
        6
176
     1
 90
        2
176
     1
 62
     7
176
     1
 90
        3
176
     1
 90
        0
176
     1
 90
        0
176
     1
290
     0
176
     1
 90
        1
176
     1
 40
0.0
176
     1
 90
        0
176
     1
290
     0
176
     1
290
     1
176
     1
290
     1
176
     1
290
     0
176
     1
290
     0
176
     1
290
     0
176
     1
290
     0
176
     1
290
     0
176
     1
290
     0
176
     1
 90
       50
176
     1
 40
0.0
176
     1
 40
1.0
176
     1
 90
        0
176
     1
 62
    18
420
        0
176
     1
 90
       50
176
     1
 90
        3
176
     1
 62
     5
420
      255
176
     1
290
     0
176
     1
 90
       50
176
     1
 90
       50
176
     1
 90
       50
176
     1
290
     0
176
     1
 90
       50
176
     1
 62
   256
176
     0
 40
1.0
176
     0
 90
        2
176
     1
  1
strokes_ogs.tif
176
     1
290
     0
176
     1
 40
1.0
176
     1
 40
1.0
176
     1
  0
VISUALSTYLE
  5
35
102
{ACAD_REACTORS
330
2A
102
}
330
2A
100
AcDbVisualStyle
  2
Dim
 70
    11
177
     3
291
     1
 70
    58
 90
        2
176
     1
 90
        2
176
     1
 90
        0
176
     1
 90
        0
176
     1
 40
0.6
176
     1
 40
30.0
176
     1
 62
     7
420
 16777215
176
     1
 90
        1
176
     1
 90
        4
176
     1
 62
     7
176
     1
 62
   257
176
     1
 90
        1
176
     1
 90
        1
176
     1
 40
1.0
176
     1
 90
        8
176
     1
 62
     7
176
     1
 40
1.0
176
     1
 90
        1
176
     1
 90
        6
176
     1
 90
        2
176
     1
 62
     7
176
     1
 90
        5
176
     1
 90
        0
176
     1
 90
        0
176
     1
290
     0
176
     1
 90
        1
176
     1
 40
-50.0
176
     1
 90
        0
176
     1
290
     0
176
     1
290
     1
176
     1
290
     1
176
     1
290
     0
176
     1
290
     0
176
     1
290
     0
176
     1
290
     0
176
     1
290
     0
176
     1
290
     0
176
     1
 90
       50
176
     1
 40
0.0
176
     1
 40
1.0
176
     1
 90
        0
176
     1
 62
    18
420
        0
176
     1
 90
       50
176
     1
 90
        3
176
     1
 62
     5
420
      255
176
     1
290
     0
176
     1
 90
       50
176
     1
 90
       50
176
     1
 90
       50
176
     1
290
     0
176
     1
 90
       50
176
     1
 62
   256
176
     0
 40
1.0
176
     0
 90
        2
176
     1
  1
strokes_ogs.tif
176
     1
290
     0
176
     1
 40
1.0
176
     1
 40
1.0
176
     1
  0
VISUALSTYLE
  5
3D
102
{ACAD_REACTORS
330
2A
102
}
330
2A
100
AcDbVisualStyle
  2
EdgeColorOff
 70
    22
177
     3
291
     1
 70
    58
 90
        2
176
     0
 90
        2
176
     0
 90
        0
176
     0
 90
        0
176
     0
 40
0.6
176
     0
 40
30.0
176
     0
 62
     7
420
 16777215
176
     0
 90
        1
176
     0
 90
        4
176
     0
 62
     7
176
     0
 62
   257
176
     0
 90
        1
176
     0
 90
        1
176
     0
 40
1.0
176
     0
 90
        8
176
     2
 62
     7
176
     0
 40
1.0
176
     0
 90
        1
176
     0
 90
        6
176
     0
 90
        2
176
     0
 62
     7
176
     0
 90
        5
176
     0
 90
        0
176
     0
 90
        0
176
     0
290
     0
176
     0
 90
        1
176
     0
 40
0.0
176
     0
 90
        0
176
     0
290
     0
176
     0
290
     1
176
     0
290
     1
176
     0
290
     0
176
     0
290
     0
176
     0
290
     0
176
     0
290
     0
176
     0
290
     0
176
     0
290
     0
176
     0
 90
       50
176
     0
 40
0.0
176
     0
 40
1.0
176
     0
 90
        0
176
     0
 62
    18
420
        0
176
     0
 90
       50
176
     0
 90
        3
176
     0
 62
     5
420
      255
176
     0
290
     0
176
     0
 90
       50
176
     0
 90
       50
176
     0
 90
       50
176
     0
290
     0
176
     0
 90
       50
176
     0
 62
   256
176
     0
 40
1.0
176
     0
 90
        2
176
     0
  1
strokes_ogs.tif
176
     0
290
     0
176
     0
 40
1.0
176
     0
 40
1.0
176
     0
  0
VISUALSTYLE
  5
39
102
{ACAD_REACTORS
330
2A
102
}
330
2A
100
AcDbVisualStyle
  2
Facepattern
 70
    15
177
     3
291
     1
 70
    58
 90
        2
176
     1
 90
        2
176
     1
 90
        0
176
     1
 90
        0
176
     1
 40
0.6
176
     1
 40
30.0
176
     1
 62
     7
420
 16777215
176
     1
 90
        1
176
     1
 90
        4
176
     1
 62
     7
176
     1
 62
   257
176
     1
 90
        1
176
     1
 90
        1
176
     1
 40
1.0
176
     1
 90
        8
176
     1
 62
     7
176
     1
 40
1.0
176
     1
 90
        1
176
     1
 90
        6
176
     1
 90
        2
176
     1
 62
     7
176
     1
 90
        5
176
     1
 90
        0
176
     1
 90
        0
176
     1
290
     0
176
     1
 90
        1
176
     1
 40
0.0
176
     1
 90
        0
176
     1
290
     0
176
     1
290
     1
176
     1
290
     1
176
     1
290
     0
176
     1
290
     0
176
     1
290
     0
176
     1
290
     0
176
     1
290
     0
176
     1
290
     0
176
     1
 90
       50
176
     1
 40
0.0
176
     1
 40
1.0
176
     1
 90
        0
176
     1
 62
    18
420
        0
176
     1
 90
       50
176
     1
 90
        3
176
     1
 62
     5
420
      255
176
     1
290
     0
176
     1
 90
       50
176
     1
 90
       50
176
     1
 90
       50
176
     1
290
     0
176
     1
 90
       50
176
     1
 62
   256
176
     0
 40
1.0
176
     0
 90
        2
176
     1
  1
strokes_ogs.tif
176
     1
290
     0
176
     1
 40
1.0
176
     1
 40
1.0
176
     1
  0
VISUALSTYLE
  5
2B
102
{ACAD_REACTORS
330
2A
102
}
330
2A
100
AcDbVisualStyle
  2
Flat
 70
     0
177
     3
291
     1
 70
    58
 90
        2
176
     1
 90
        1
176
     1
 90
        1
176
     1
 90
        2
176
     1
 40
0.6
176
     1
 40
30.0
176
     1
 62
     7
420
 16777215
176
     1
 90
        0
176
     1
 90
        0
176
     1
 62
     7
176
     1
 62
   257
176
     1
 90
        1
176
     1
 90
        1
176
     1
 40
1.0
176
     1
 90
        8
176
     1
 62
     7
176
     1
 40
1.0
176
     1
 90
        1
176
     1
 90
        6
176
     1
 90
        2
176
     1
 62
     7
176
     1
 90
        5
176
     1
 90
        0
176
     1
 90
        0
176
     1
290
     0
176
     1
 90
       13
176
     1
 40
0.0
176
     1
 90
        0
176
     1
290
     0
176
     1
290
     1
176
     1
290
     1
176
     1
290
     0
176
     1
290
     0
176
     1
290
     0
176
     1
290
     0
176
     1
290
     0
176
     1
290
     0
176
     1
 90
       50
176
     1
 40
0.0
176
     1
 40
1.0
176
     1
 90
        0
176
     1
 62
    18
420
        0
176
     1
 90
       50
176
     1
 90
        3
176
     1
 62
     5
420
      255
176
     1
290
     0
176
     1
 90
       50
176
     1
 90
       50
176
     1
 90
       50
176
     1
290
     0
176
     1
 90
       50
176
     1
 62
   256
176
     0
 40
1.0
176
     0
 90
        2
176
     1
  1
strokes_ogs.tif
176
     1
290
     0
176
     1
 40
1.0
176
     1
 40
1.0
176
     1
  0
VISUALSTYLE
  5
2C
102
{ACAD_REACTORS
330
2A
102
}
330
2A
100
AcDbVisualStyle
  2
FlatWithEdges
 70
     1
177
     3
291
     1
 70
    58
 90
        2
176
     1
 90
        1
176
     1
 90
        1
176
     1
 90
        2
176
     1
 40
0.6
176
     1
 40
30.0
176
     1
 62
     7
420
 16777215
176
     1
 90
        1
176
     1
 90
        0
176
     1
 62
     7
176
     1
 62
   257
176
     1
 90
        1
176
     1
 90
        1
176
     1
 40
1.0
176
     1
 90
        0
176
     1
 62
   257
176
     1
 40
1.0
176
     1
 90
        1
176
     1
 90
        6
176
     1
 90
        2
176
     1
 62
     7
176
     1
 90
        5
176
     1
 90
        0
176
     1
 90
        0
176
     1
290
     0
176
     1
 90
       13
176
     1
 40
0.0
176
     1
 90
        0
176
     1
290
     0
176
     1
290
     1
176
     1
290
     1
176
     1
290
     0
176
     1
290
     0
176
     1
290
     0
176
     1
290
     0
176
     1
290
     0
176
     1
290
     0
176
     1
 90
       50
176
     1
 40
0.0
176
     1
 40
1.0
176
     1
 90
        0
176
     1
 62
    18
420
        0
176
     1
 90
       50
176
     1
 90
        3
176
     1
 62
     5
420
      255
176
     1
290
     0
176
     1
 90
       50
176
     1
 90
       50
176
     1
 90
       50
176
     1
290
     0
176
     1
 90
       50
176
     1
 62
   256
176
     0
 40
1.0
176
     0
 90
        2
176
     1
  1
strokes_ogs.tif
176
     1
290
     0
176
     1
 40
1.0
176
     1
 40
1.0
176
     1
  0
VISUALSTYLE
  5
2D
102
{ACAD_REACTORS
330
2A
102
}
330
2A
100
AcDbVisualStyle
  2
Gouraud
 70
     2
177
     3
291
     1
 70
    58
 90
        2
176
     1
 90
        2
176
     1
 90
        1
176
     1
 90
        2
176
     1
 40
0.6
176
     1
 40
30.0
176
     1
 62
     7
420
 16777215
176
     1
 90
        0
176
     1
 90
        0
176
     1
 62
     7
176
     1
 62
   257
176
     1
 90
        1
176
     1
 90
        1
176
     1
 40
1.0
176
     1
 90
        0
176
     1
 62
     7
176
     1
 40
1.0
176
     1
 90
        1
176
     1
 90
        6
176
     1
 90
        2
176
     1
 62
     7
176
     1
 90
        5
176
     1
 90
        0
176
     1
 90
        0
176
     1
290
     0
176
     1
 90
       13
176
     1
 40
0.0
176
     1
 90
        0
176
     1
290
     0
176
     1
290
     1
176
     1
290
     1
176
     1
290
     0
176
     1
290
     0
176
     1
290
     0
176
     1
290
     0
176
     1
290
     0
176
     1
290
     0
176
     1
 90
       50
176
     1
 40
0.0
176
     1
 40
1.0
176
     1
 90
        0
176
     1
 62
    18
420
        0
176
     1
 90
       50
176
     1
 90
        3
176
     1
 62
     5
420
      255
176
     1
290
     0
176
     1
 90
       50
176
     1
 90
       50
176
     1
 90
       50
176
     1
290
     0
176
     1
 90
       50
176
     1
 62
   256
176
     0
 40
1.0
176
     0
 90
        2
176
     1
  1
strokes_ogs.tif
176
     1
290
     0
176
     1
 40
1.0
176
     1
 40
1.0
176
     1
  0
VISUALSTYLE
  5
2E
102
{ACAD_REACTORS
330
2A
102
}
330
2A
100
AcDbVisualStyle
  2
GouraudWithEdges
 70
     3
177
     3
291
     1
 70
    58
 90
        2
176
     1
 90
        2
176
     1
 90
        1
176
     1
 90
        2
176
     1
 40
0.6
176
     1
 40
30.0
176
     1
 62
     7
420
 16777215
176
     1
 90
        1
176
     1
 90
        0
176
     1
 62
     7
176
     1
 62
   257
176
     1
 90
        1
176
     1
 90
        1
176
     1
 40
1.0
176
     1
 90
        0
176
     1
 62
   257
176
     1
 40
1.0
176
     1
 90
        1
176
     1
 90
        6
176
     1
 90
        2
176
     1
 62
     7
176
     1
 90
        5
176
     1
 90
        0
176
     1
 90
        0
176
     1
290
     0
176
     1
 90
       13
176
     1
 40
0.0
176
     1
 90
        0
176
     1
290
     0
176
     1
290
     1
176
     1
290
     1
176
     1
290
     0
176
     1
290
     0
176
     1
290
     0
176
     1
290
     0
176
     1
290
     0
176
     1
290
     0
176
     1
 90
       50
176
     1
 40
0.0
176
     1
 40
1.0
176
     1
 90
        0
176
     1
 62
    18
420
        0
176
     1
 90
       50
176
     1
 90
        3
176
     1
 62
     5
420
      255
176
     1
290
     0
176
     1
 90
       50
176
     1
 90
       50
176
     1
 90
       50
176
     1
290
     0
176
     1
 90
       50
176
     1
 62
   256
176
     0
 40
1.0
176
     0
 90
        2
176
     1
  1
strokes_ogs.tif
176
     1
290
     0
176
     1
 40
1.0
176
     1
 40
1.0
176
     1
  0
VISUALSTYLE
  5
31
102
{ACAD_REACTORS
330
2A
102
}
330
2A
100
AcDbVisualStyle
  2
Hidden
 70
     6
177
     3
291
     0
 70
    58
 90
        1
176
     1
 90
        2
176
     1
 90
        2
176
     1
 90
        0
176
     1
 40
0.6
176
     1
 40
30.0
176
     1
 62
     7
420
 16777215
176
     1
 90
        2
176
     1
 90
        2
176
     1
 62
     7
176
     1
 62
   257
176
     1
 90
        2
176
     1
 90
        1
176
     1
 40
40.0
176
     1
 90
        0
176
     1
 62
   257
176
     1
 40
1.0
176
     1
 90
        1
176
     1
 90
        6
176
     1
 90
        2
176
     1
 62
     7
176
     1
 90
        3
176
     1
 90
        0
176
     1
 90
        0
176
     1
290
     0
176
     1
 90
        1
176
     1
 40
0.0
176
     1
 90
        0
176
     1
290
     0
176
     1
290
     1
176
     1
290
     1
176
     1
290
     0
176
     1
290
     0
176
     1
290
     0
176
     1
290
     0
176
     1
290
     0
176
     1
290
     0
176
     1
 90
       50
176
     1
 40
0.0
176
     1
 40
1.0
176
     1
 90
        0
176
     1
 62
    18
420
        0
176
     1
 90
       50
176
     1
 90
        3
176
     1
 62
     5
420
      255
176
     1
290
     0
176
     1
 90
       50
176
     1
 90
       50
176
     1
 90
       50
176
     1
290
     0
176
     1
 90
       50
176
     1
 62
   256
176
     0
 40
1.0
176
     0
 90
        2
176
     1
  1
strokes_ogs.tif
176
     1
290
     0
176
     1
 40
1.0
176
     1
 40
1.0
176
     1
  0
VISUALSTYLE
  5
3B
102
{ACAD_REACTORS
330
2A
102
}
330
2A
100
AcDbVisualStyle
  2
JitterOff
 70
    20
177
     3
291
     1
 70
    58
 90
        2
176
     0
 90
        2
176
     0
 90
        0
176
     0
 90
        0
176
     0
 40
0.6
176
     0
 40
30.0
176
     0
 62
     7
420
 16777215
176
     0
 90
        1
176
     0
 90
        4
176
     0
 62
     7
176
     0
 62
   257
176
     0
 90
        1
176
     0
 90
        1
176
     0
 40
1.0
176
     0
 90
       10
176
     2
 62
     7
176
     0
 40
1.0
176
     0
 90
        1
176
     0
 90
        6
176
     0
 90
        2
176
     0
 62
     7
176
     0
 90
        5
176
     0
 90
        0
176
     0
 90
        0
176
     0
290
     0
176
     0
 90
        1
176
     0
 40
0.0
176
     0
 90
        0
176
     0
290
     0
176
     0
290
     1
176
     0
290
     1
176
     0
290
     0
176
     0
290
     0
176
     0
290
     0
176
     0
290
     0
176
     0
290
     0
176
     0
290
     0
176
     0
 90
       50
176
     0
 40
0.0
176
     0
 40
1.0
176
     0
 90
        0
176
     0
 62
    18
420
        0
176
     0
 90
       50
176
     0
 90
        3
176
     0
 62
     5
420
      255
176
     0
290
     0
176
     0
 90
       50
176
     0
 90
       50
176
     0
 90
       50
176
     0
290
     0
176
     0
 90
       50
176
     0
 62
   256
176
     0
 40
1.0
176
     0
 90
        2
176
     0
  1
strokes_ogs.tif
176
     0
290
     0
176
     0
 40
1.0
176
     0
 40
1.0
176
     0
  0
VISUALSTYLE
  5
38
102
{ACAD_REACTORS
330
2A
102
}
330
2A
100
AcDbVisualStyle
  2
Linepattern
 70
    14
177
     3
291
     1
 70
    58
 90
        2
176
     1
 90
        2
176
     1
 90
        0
176
     1
 90
        0
176
     1
 40
0.6
176
     1
 40
30.0
176
     1
 62
     7
420
 16777215
176
     1
 90
        1
176
     1
 90
        4
176
     1
 62
     7
176
     1
 62
   257
176
     1
 90
        7
176
     1
 90
        7
176
     1
 40
1.0
176
     1
 90
        8
176
     1
 62
     7
176
     1
 40
1.0
176
     1
 90
        1
176
     1
 90
        6
176
     1
 90
        2
176
     1
 62
     7
176
     1
 90
        5
176
     1
 90
        0
176
     1
 90
        0
176
     1
290
     0
176
     1
 90
        1
176
     1
 40
0.0
176
     1
 90
        0
176
     1
290
     0
176
     1
290
     1
176
     1
290
     1
176
     1
290
     0
176
     1
290
     0
176
     1
290
     0
176
     1
290
     0
176
     1
290
     0
176
     1
290
     0
176
     1
 90
       50
176
     1
 40
0.0
176
     1
 40
1.0
176
     1
 90
        0
176
     1
 62
    18
420
        0
176
     1
 90
       50
176
     1
 90
        3
176
     1
 62
     5
420
      255
176
     1
290
     0
176
     1
 90
       50
176
     1
 90
       50
176
     1
 90
       50
176
     1
290
     0
176
     1
 90
       50
176
     1
 62
   256
176
     0
 40
1.0
176
     0
 90
        2
176
     1
  1
strokes_ogs.tif
176
     1
290
     0
176
     1
 40
1.0
176
     1
 40
1.0
176
     1
  0
VISUALSTYLE
  5
3C
102
{ACAD_REACTORS
330
2A
102
}
330
2A
100
AcDbVisualStyle
  2
OverhangOff
 70
    21
177
     3
291
     1
 70
    58
 90
        2
176
     0
 90
        2
176
     0
 90
        0
176
     0
 90
        0
176
     0
 40
0.6
176
     0
 40
30.0
176
     0
 62
     7
420
 16777215
176
     0
 90
        1
176
     0
 90
        4
176
     0
 62
     7
176
     0
 62
   257
176
     0
 90
        1
176
     0
 90
        1
176
     0
 40
1.0
176
     0
 90
        9
176
     2
 62
     7
176
     0
 40
1.0
176
     0
 90
        1
176
     0
 90
        6
176
     0
 90
        2
176
     0
 62
     7
176
     0
 90
        5
176
     0
 90
        0
176
     0
 90
        0
176
     0
290
     0
176
     0
 90
        1
176
     0
 40
0.0
176
     0
 90
        0
176
     0
290
     0
176
     0
290
     1
176
     0
290
     1
176
     0
290
     0
176
     0
290
     0
176
     0
290
     0
176
     0
290
     0
176
     0
290
     0
176
     0
290
     0
176
     0
 90
       50
176
     0
 40
0.0
176
     0
 40
1.0
176
     0
 90
        0
176
     0
 62
    18
420
        0
176
     0
 90
       50
176
     0
 90
        3
176
     0
 62
     5
420
      255
176
     0
290
     0
176
     0
 90
       50
176
     0
 90
       50
176
     0
 90
       50
176
     0
290
     0
176
     0
 90
       50
176
     0
 62
   256
176
     0
 40
1.0
176
     0
 90
        2
176
     0
  1
strokes_ogs.tif
176
     0
290
     0
176
     0
 40
1.0
176
     0
 40
1.0
176
     0
  0
VISUALSTYLE
  5
33
102
{ACAD_REACTORS
330
2A
102
}
330
2A
100
AcDbVisualStyle
  2
Realistic
 70
     8
177
     3
291
     0
 70
    58
 90
        2
176
     1
 90
        3
176
     1
 90
        0
176
     1
 90
        2
176
     1
 40
0.6
176
     1
 40
30.0
176
     1
 62
     7
420
 16777215
176
     1
 90
        0
176
     1
 90
        0
176
     1
 62
     7
176
     1
 62
   257
176
     1
 90
        1
176
     1
 90
        1
176
     1
 40
1.0
176
     1
 90
        8
176
     1
 62
   257
176
     1
 40
1.0
176
     1
 90
        1
176
     1
 90
        6
176
     1
 90
        2
176
     1
 62
     7
176
     1
 90
        3
176
     1
 90
        0
176
     1
 90
        0
176
     1
290
     0
176
     1
 90
       13
176
     1
 40
0.0
176
     1
 90
        0
176
     1
290
     0
176
     1
290
     1
176
     1
290
     1
176
     1
290
     0
176
     1
290
     0
176
     1
290
     0
176
     1
290
     0
176
     1
290
     0
176
     1
290
     0
176
     1
 90
       50
176
     1
 40
0.0
176
     1
 40
1.0
176
     1
 90
        0
176
     1
 62
    18
420
        0
176
     1
 90
       50
176
     1
 90
        3
176
     1
 62
     5
420
      255
176
     1
290
     0
176
     1
 90
       50
176
     1
 90
       50
176
     1
 90
       50
176
     1
290
     0
176
     1
 90
       50
176
     1
 62
   256
176
     0
 40
1.0
176
     0
 90
        2
176
     1
  1
strokes_ogs.tif
176
     1
290
     0
176
     1
 40
1.0
176
     1
 40
1.0
176
     1
  0
VISUALSTYLE
  5
42
102
{ACAD_REACTORS
330
2A
102
}
330
2A
100
AcDbVisualStyle
  2
Shaded
 70
    27
177
     3
291
     0
 70
    58
 90
        2
176
     1
 90
        2
176
     1
 90
        1
176
     1
 90
        2
176
     1
 40
0.6
176
     1
 40
30.0
176
     1
 62
     7
420
 16777215
176
     1
 90
        0
176
     1
 90
        4
176
     1
 62
     7
176
     1
 62
   257
176
     1
 90
        1
176
     1
 90
        1
176
     1
 40
1.0
176
     1
 90
        8
176
     1
 62
   257
176
     1
 40
1.0
176
     1
 90
        1
176
     1
 90
        6
176
     1
 90
        2
176
     1
 62
     8
420
  7895160
176
     1
 90
        3
176
     1
 90
        0
176
     1
 90
        0
176
     1
290
     0
176
     1
 90
        5
176
     1
 40
0.0
176
     1
 90
        0
176
     1
290
     0
176
     1
290
     1
176
     1
290
     1
176
     1
290
     0
176
     1
290
     0
176
     1
290
     0
176
     1
290
     0
176
     1
290
     0
176
     1
290
     0
176
     1
 90
       50
176
     1
 40
0.0
176
     1
 40
1.0
176
     1
 90
        0
176
     1
 62
    18
420
        0
176
     1
 90
       50
176
     1
 90
        3
176
     1
 62
     5
420
      255
176
     1
290
     0
176
     1
 90
       50
176
     1
 90
       50
176
     1
 90
       50
176
     1
290
     0
176
     1
 90
       50
176
     1
 62
   256
176
     0
 40
1.0
176
     0
 90
        2
176
     1
  1
strokes_ogs.tif
176
     1
290
     0
176
     1
 40
1.0
176
     1
 40
1.0
176
     1
  0
VISUALSTYLE
  5
41
102
{ACAD_REACTORS
330
2A
102
}
330
2A
100
AcDbVisualStyle
  2
Shaded with edges
 70
    26
177
     3
291
     0
 70
    58
 90
        2
176
     1
 90
        2
176
     1
 90
        1
176
     1
 90
        2
176
     1
 40
0.6
176
     1
 40
30.0
176
     1
 62
     7
420
 16777215
176
     1
 90
        1
176
     1
 90
       10
176
     1
 62
     7
176
     1
 62
   257
176
     1
 90
        2
176
     1
 90
        1
176
     1
 40
1.0
176
     1
 90
        8
176
     1
 62
   257
176
     1
 40
1.0
176
     1
 90
        1
176
     1
 90
        6
176
     1
 90
        2
176
     1
 62
     7
176
     1
 90
        3
176
     1
 90
        0
176
     1
 90
        0
176
     1
290
     0
176
     1
 90
        5
176
     1
 40
0.0
176
     1
 90
        0
176
     1
290
     0
176
     1
290
     1
176
     1
290
     1
176
     1
290
     0
176
     1
290
     0
176
     1
290
     0
176
     1
290
     0
176
     1
290
     0
176
     1
290
     0
176
     1
 90
       50
176
     1
 40
0.0
176
     1
 40
1.0
176
     1
 90
        0
176
     1
 62
    18
420
        0
176
     1
 90
       50
176
     1
 90
        3
176
     1
 62
     5
420
      255
176
     1
290
     0
176
     1
 90
       50
176
     1
 90
       50
176
     1
 90
       50
176
     1
290
     0
176
     1
 90
       50
176
     1
 62
   256
176
     0
 40
1.0
176
     0
 90
        2
176
     1
  1
strokes_ogs.tif
176
     1
290
     0
176
     1
 40
1.0
176
     1
 40
1.0
176
     1
  0
VISUALSTYLE
  5
3E
102
{ACAD_REACTORS
330
2A
102
}
330
2A
100
AcDbVisualStyle
  2
Shades of Gray
 70
    23
177
     3
291
     0
 70
    58
 90
        2
176
     1
 90
        2
176
     1
 90
        3
176
     1
 90
        0
176
     1
 40
0.6
176
     1
 40
30.0
176
     1
 62
     7
420
 16777215
176
     1
 90
        2
176
     1
 90
        2
176
     1
 62
     7
176
     1
 62
     7
176
     1
 90
        1
176
     1
 90
        1
176
     1
 40
40.0
176
     1
 90
        8
176
     1
 62
     7
176
     1
 40
1.0
176
     1
 90
        1
176
     1
 90
        6
176
     1
 90
        2
176
     1
 62
     7
176
     1
 90
        3
176
     1
 90
        0
176
     1
 90
        0
176
     1
290
     0
176
     1
 90
        1
176
     1
 40
0.0
176
     1
 90
        0
176
     1
290
     0
176
     1
290
     1
176
     1
290
     1
176
     1
290
     0
176
     1
290
     0
176
     1
290
     0
176
     1
290
     0
176
     1
290
     0
176
     1
290
     0
176
     1
 90
       50
176
     1
 40
0.0
176
     1
 40
1.0
176
     1
 90
        0
176
     1
 62
    18
420
        0
176
     1
 90
       50
176
     1
 90
        3
176
     1
 62
     5
420
      255
176
     1
290
     0
176
     1
 90
       50
176
     1
 90
       50
176
     1
 90
       50
176
     1
290
     0
176
     1
 90
       50
176
     1
 62
   256
176
     0
 40
1.0
176
     0
 90
        2
176
     1
  1
strokes_ogs.tif
176
     1
290
     0
176
     1
 40
1.0
176
     1
 40
1.0
176
     1
  0
VISUALSTYLE
  5
3F
102
{ACAD_REACTORS
330
2A
102
}
330
2A
100
AcDbVisualStyle
  2
Sketchy
 70
    24
177
     3
291
     0
 70
    58
 90
        1
176
     1
 90
        2
176
     1
 90
        2
176
     1
 90
        0
176
     1
 40
0.6
176
     1
 40
30.0
176
     1
 62
     7
420
 16777215
176
     1
 90
        2
176
     1
 90
        2
176
     1
 62
     7
176
     1
 62
     7
176
     1
 90
        1
176
     1
 90
        1
176
     1
 40
40.0
176
     1
 90
       11
176
     1
 62
     7
176
     1
 40
1.0
176
     1
 90
        1
176
     1
 90
        6
176
     1
 90
        2
176
     1
 62
     7
176
     1
 90
        6
176
     1
 90
        0
176
     1
 90
        0
176
     1
290
     0
176
     1
 90
        1
176
     1
 40
0.0
176
     1
 90
        0
176
     1
290
     0
176
     1
290
     1
176
     1
290
     1
176
     1
290
     0
176
     1
290
     0
176
     1
290
     0
176
     1
290
     0
176
     1
290
     0
176
     1
290
     0
176
     1
 90
       50
176
     1
 40
0.0
176
     1
 40
1.0
176
     1
 90
        0
176
     1
 62
    18
420
        0
176
     1
 90
       50
176
     1
 90
        3
176
     1
 62
     5
420
      255
176
     1
290
     0
176
     1
 90
       50
176
     1
 90
       50
176
     1
 90
       50
176
     1
290
     0
176
     1
 90
       50
176
     1
 62
   256
176
     0
 40
1.0
176
     0
 90
        2
176
     1
  1
strokes_ogs.tif
176
     1
290
     0
176
     1
 40
1.0
176
     1
 40
1.0
176
     1
  0
VISUALSTYLE
  5
37
102
{ACAD_REACTORS
330
2A
102
}
330
2A
100
AcDbVisualStyle
  2
Thicken
 70
    13
177
     3
291
     1
 70
    58
 90
        2
176
     1
 90
        2
176
     1
 90
        0
176
     1
 90
        0
176
     1
 40
0.6
176
     1
 40
30.0
176
     1
 62
     7
420
 16777215
176
     1
 90
        1
176
     1
 90
        4
176
     1
 62
     7
176
     1
 62
   257
176
     1
 90
        1
176
     1
 90
        1
176
     1
 40
1.0
176
     1
 90
       12
176
     1
 62
     7
176
     1
 40
1.0
176
     1
 90
        1
176
     1
 90
        6
176
     1
 90
        2
176
     1
 62
     7
176
     1
 90
        5
176
     1
 90
        0
176
     1
 90
        0
176
     1
290
     0
176
     1
 90
        1
176
     1
 40
0.0
176
     1
 90
        0
176
     1
290
     0
176
     1
290
     1
176
     1
290
     1
176
     1
290
     0
176
     1
290
     0
176
     1
290
     0
176
     1
290
     0
176
     1
290
     0
176
     1
290
     0
176
     1
 90
       50
176
     1
 40
0.0
176
     1
 40
1.0
176
     1
 90
        0
176
     1
 62
    18
420
        0
176
     1
 90
       50
176
     1
 90
        3
176
     1
 62
     5
420
      255
176
     1
290
     0
176
     1
 90
       50
176
     1
 90
       50
176
     1
 90
       50
176
     1
290
     0
176
     1
 90
       50
176
     1
 62
   256
176
     0
 40
1.0
176
     0
 90
        2
176
     1
  1
strokes_ogs.tif
176
     1
290
     0
176
     1
 40
1.0
176
     1
 40
1.0
176
     1
  0
VISUALSTYLE
  5
30
102
{ACAD_REACTORS
330
2A
102
}
330
2A
100
AcDbVisualStyle
  2
Wireframe
 70
     5
177
     3
291
     0
 70
    58
 90
        0
176
     1
 90
        2
176
     1
 90
        0
176
     1
 90
        0
176
     1
 40
0.6
176
     1
 40
30.0
176
     1
 62
     7
420
 16777215
176
     1
 90
        1
176
     1
 90
        4
176
     1
 62
     7
176
     1
 62
   257
176
     1
 90
        1
176
     1
 90
        1
176
     1
 40
1.0
176
     1
 90
        0
176
     1
 62
   257
176
     1
 40
1.0
176
     1
 90
        1
176
     1
 90
        6
176
     1
 90
        2
176
     1
 62
     7
176
     1
 90
        3
176
     1
 90
        0
176
     1
 90
        0
176
     1
290
     0
176
     1
 90
        1
176
     1
 40
0.0
176
     1
 90
        0
176
     1
290
     0
176
     1
290
     1
176
     1
290
     1
176
     1
290
     0
176
     1
290
     0
176
     1
290
     0
176
     1
290
     0
176
     1
290
     0
176
     1
290
     0
176
     1
 90
       50
176
     1
 40
0.0
176
     1
 40
1.0
176
     1
 90
        0
176
     1
 62
    18
420
        0
176
     1
 90
       50
176
     1
 90
        3
176
     1
 62
     5
420
      255
176
     1
290
     0
176
     1
 90
       50
176
     1
 90
       50
176
     1
 90
       50
176
     1
290
     0
176
     1
 90
       50
176
     1
 62
   256
176
     0
 40
1.0
176
     0
 90
        2
176
     1
  1
strokes_ogs.tif
176
     1
290
     0
176
     1
 40
1.0
176
     1
 40
1.0
176
     1
  0
VISUALSTYLE
  5
40
102
{ACAD_REACTORS
330
2A
102
}
330
2A
100
AcDbVisualStyle
  2
X-Ray
 70
    25
177
     3
291
     0
 70
    58
 90
        2
176
     1
 90
        2
176
     1
 90
        1
176
     1
 90
        1
176
     1
 40
0.5
176
     1
 40
30.0
176
     1
 62
     7
420
 16777215
176
     1
 90
        1
176
     1
 90
        0
176
     1
 62
     7
176
     1
 62
   257
176
     1
 90
        1
176
     1
 90
        1
176
     1
 40
1.0
176
     1
 90
        8
176
     1
 62
     7
176
     1
 40
1.0
176
     1
 90
        1
176
     1
 90
        6
176
     1
 90
        2
176
     1
 62
     7
176
     1
 90
        3
176
     1
 90
        0
176
     1
 90
        0
176
     1
290
     0
176
     1
 90
       13
176
     1
 40
0.0
176
     1
 90
        0
176
     1
290
     0
176
     1
290
     1
176
     1
290
     1
176
     1
290
     0
176
     1
290
     0
176
     1
290
     0
176
     1
290
     0
176
     1
290
     0
176
     1
290
     0
176
     1
 90
       50
176
     1
 40
0.0
176
     1
 40
1.0
176
     1
 90
        0
176
     1
 62
    18
420
        0
176
     1
 90
       50
176
     1
 90
        3
176
     1
 62
     5
420
      255
176
     1
290
     0
176
     1
 90
       50
176
     1
 90
       50
176
     1
 90
       50
176
     1
290
     0
176
     1
 90
       50
176
     1
 62
   256
176
     0
 40
1.0
176
     0
 90
        2
176
     1
  1
strokes_ogs.tif
176
     1
290
     0
176
     1
 40
1.0
176
     1
 40
1.0
176
     1
  0
DICTIONARYVAR
  5
1AE
102
{ACAD_REACTORS
330
1AD
102
}
330
1AD
100
DictionaryVariables
280
     0
  1
1:1
  0
DICTIONARYVAR
  5
1B3
102
{ACAD_REACTORS
330
1AD
102
}
330
1AD
100
DictionaryVariables
280
     0
  1
Standard
  0
DICTIONARYVAR
  5
1B2
102
{ACAD_REACTORS
330
1AD
102
}
330
1AD
100
DictionaryVariables
280
     0
  1
Standard
  0
DICTIONARY
  5
1AF
330
6A
100
AcDbDictionary
280
     1
281
     1
  3
ACAD_ROUNDTRIP_2008_TABLESTYLE_CELLSTYLEMAP
360
1B0
  0
CELLSTYLEMAP
  5
1B0
102
{ACAD_REACTORS
330
1AF
102
}
330
1AF
100
AcDbCellStyleMap
 90
        3
300
CELLSTYLE
  1
TABLEFORMAT_BEGIN
 90
        5
170
     1
 91
        0
 92
    32768
 62
   257
 93
        1
300
CONTENTFORMAT
  1
CONTENTFORMAT_BEGIN
 90
        0
 91
        0
 92
        4
 93
        0
300

 40
0.0
140
1.0
 94
        5
 62
     0
340
11
144
0.25
309
CONTENTFORMAT_END
171
     1
301
MARGIN
  1
CELLMARGIN_BEGIN
 40
0.06
 40
0.06
 40
0.06
 40
0.06
 40
0.06
 40
0.06
309
CELLMARGIN_END
 94
        6
 95
        1
302
GRIDFORMAT
  1
GRIDFORMAT_BEGIN
 90
        0
 91
        1
 62
     0
 92
       -2
340
14
 93
        0
 40
0.045
309
GRIDFORMAT_END
 95
        2
302
GRIDFORMAT
  1
GRIDFORMAT_BEGIN
 90
        0
 91
        1
 62
     0
 92
       -2
340
14
 93
        0
 40
0.045
309
GRIDFORMAT_END
 95
        4
302
GRIDFORMAT
  1
GRIDFORMAT_BEGIN
 90
        0
 91
        1
 62
     0
 92
       -2
340
14
 93
        0
 40
0.045
309
GRIDFORMAT_END
 95
        8
302
GRIDFORMAT
  1
GRIDFORMAT_BEGIN
 90
        0
 91
        1
 62
     0
 92
       -2
340
14
 93
        0
 40
0.045
309
GRIDFORMAT_END
 95
       16
302
GRIDFORMAT
  1
GRIDFORMAT_BEGIN
 90
        0
 91
        1
 62
     0
 92
       -2
340
14
 93
        0
 40
0.045
309
GRIDFORMAT_END
 95
       32
302
GRIDFORMAT
  1
GRIDFORMAT_BEGIN
 90
        0
 91
        1
 62
     0
 92
       -2
340
14
 93
        0
 40
0.045
309
GRIDFORMAT_END
309
TABLEFORMAT_END
  1
CELLSTYLE_BEGIN
 90
        1
 91
        1
300
_TITLE
309
CELLSTYLE_END
300
CELLSTYLE
  1
TABLEFORMAT_BEGIN
 90
        5
170
     1
 91
        0
 92
        0
 62
   257
 93
        1
300
CONTENTFORMAT
  1
CONTENTFORMAT_BEGIN
 90
        0
 91
        0
 92
        4
 93
        0
300

 40
0.0
140
1.0
 94
        5
 62
     0
340
11
144
0.18
309
CONTENTFORMAT_END
171
     1
301
MARGIN
  1
CELLMARGIN_BEGIN
 40
0.06
 40
0.06
 40
0.06
 40
0.06
 40
0.06
 40
0.06
309
CELLMARGIN_END
 94
        6
 95
        1
302
GRIDFORMAT
  1
GRIDFORMAT_BEGIN
 90
        0
 91
        1
 62
     0
 92
       -2
340
14
 93
        0
 40
0.045
309
GRIDFORMAT_END
 95
        2
302
GRIDFORMAT
  1
GRIDFORMAT_BEGIN
 90
        0
 91
        1
 62
     0
 92
       -2
340
14
 93
        0
 40
0.045
309
GRIDFORMAT_END
 95
        4
302
GRIDFORMAT
  1
GRIDFORMAT_BEGIN
 90
        0
 91
        1
 62
     0
 92
       -2
340
14
 93
        0
 40
0.045
309
GRIDFORMAT_END
 95
        8
302
GRIDFORMAT
  1
GRIDFORMAT_BEGIN
 90
        0
 91
        1
 62
     0
 92
       -2
340
14
 93
        0
 40
0.045
309
GRIDFORMAT_END
 95
       16
302
GRIDFORMAT
  1
GRIDFORMAT_BEGIN
 90
        0
 91
        1
 62
     0
 92
       -2
340
14
 93
        0
 40
0.045
309
GRIDFORMAT_END
 95
       32
302
GRIDFORMAT
  1
GRIDFORMAT_BEGIN
 90
        0
 91
        1
 62
     0
 92
       -2
340
14
 93
        0
 40
0.045
309
GRIDFORMAT_END
309
TABLEFORMAT_END
  1
CELLSTYLE_BEGIN
 90
        2
 91
        1
300
_HEADER
309
CELLSTYLE_END
300
CELLSTYLE
  1
TABLEFORMAT_BEGIN
 90
        5
170
     1
 91
        0
 92
        0
 62
   257
 93
        1
300
CONTENTFORMAT
  1
CONTENTFORMAT_BEGIN
 90
        0
 91
        0
 92
        4
 93
        0
300

 40
0.0
140
1.0
 94
        2
 62
     0
340
11
144
0.18
309
CONTENTFORMAT_END
171
     1
301
MARGIN
  1
CELLMARGIN_BEGIN
 40
0.06
 40
0.06
 40
0.06
 40
0.06
 40
0.06
 40
0.06
309
CELLMARGIN_END
 94
        6
 95
        1
302
GRIDFORMAT
  1
GRIDFORMAT_BEGIN
 90
        0
 91
        1
 62
     0
 92
       -2
340
14
 93
        0
 40
0.045
309
GRIDFORMAT_END
 95
        2
302
GRIDFORMAT
  1
GRIDFORMAT_BEGIN
 90
        0
 91
        1
 62
     0
 92
       -2
340
14
 93
        0
 40
0.045
309
GRIDFORMAT_END
 95
        4
302
GRIDFORMAT
  1
GRIDFORMAT_BEGIN
 90
        0
 91
        1
 62
     0
 92
       -2
340
14
 93
        0
 40
0.045
309
GRIDFORMAT_END
 95
        8
302
GRIDFORMAT
  1
GRIDFORMAT_BEGIN
 90
        0
 91
        1
 62
     0
 92
       -2
340
14
 93
        0
 40
0.045
309
GRIDFORMAT_END
 95
       16
302
GRIDFORMAT
  1
GRIDFORMAT_BEGIN
 90
        0
 91
        1
 62
     0
 92
       -2
340
14
 93
        0
 40
0.045
309
GRIDFORMAT_END
 95
       32
302
GRIDFORMAT
  1
GRIDFORMAT_BEGIN
 90
        0
 91
        1
 62
     0
 92
       -2
340
14
 93
        0
 40
0.045
309
GRIDFORMAT_END
309
TABLEFORMAT_END
  1
CELLSTYLE_BEGIN
 90
        3
 91
        2
300
_DATA
309
CELLSTYLE_END
  0
ENDSEC
  0
EOF