0
SECTION
  2
HEADER
  9
$ACADVER
  1
AC1027
  9
$ACADMAINTVER
 70
     8
  9
$DWGCODEPAGE
  3
ANSI_1252
  9
$REQUIREDVERSIONS
160
                 0
  9
$COMMENTS
  1
File was created by Cadenas
  9
$CUSTOMPROPERTYTAG
  1
NN
  9
$CUSTOMPROPERTY
  1
Four-Bolt Flange Expansion
  9
$CUSTOMPROPERTYTAG
  1
NT
  9
$CUSTOMPROPERTY
  1
Type E 4-Bolt Flange Bearing -Inch
  9
$CUSTOMPROPERTYTAG
  1
NB
  9
$CUSTOMPROPERTY
  1
023094
  9
$CUSTOMPROPERTYTAG
  1
NBSYN
  9
$CUSTOMPROPERTY
  1
$PN.
  9
$CUSTOMPROPERTYTAG
  1
LINA
  9
$CUSTOMPROPERTY
  1
023094
  9
$CUSTOMPROPERTYTAG
  1
SS
  9
$CUSTOMPROPERTY
  1
1-1/4
  9
$CUSTOMPROPERTYTAG
  1
PN
  9
$CUSTOMPROPERTY
  1
023094
  9
$CUSTOMPROPERTYTAG
  1
DESCRIPTION
  9
$CUSTOMPROPERTY
  1
F4B-E-104R
  9
$CUSTOMPROPERTYTAG
  1
A
  9
$CUSTOMPROPERTY
  1
2-13/16
  9
$CUSTOMPROPERTYTAG
  1
B
  9
$CUSTOMPROPERTY
  1
3-3/4
  9
$CUSTOMPROPERTYTAG
  1
C
  9
$CUSTOMPROPERTY
  1
2-11/32
  9
$CUSTOMPROPERTYTAG
  1
D
  9
$CUSTOMPROPERTY
  1
2-7/8
  9
$CUSTOMPROPERTYTAG
  1
E
  9
$CUSTOMPROPERTY
  1
1/16
  9
$CUSTOMPROPERTYTAG
  1
F
  9
$CUSTOMPROPERTY
  1
3/8
  9
$CUSTOMPROPERTYTAG
  1
H
  9
$CUSTOMPROPERTY
  1
1
  9
$CUSTOMPROPERTYTAG
  1
J
  9
$CUSTOMPROPERTY
  1
2-15/16
  9
$CUSTOMPROPERTYTAG
  1
L
  9
$CUSTOMPROPERTY
  1
2-1/4
  9
$CUSTOMPROPERTYTAG
  1
COMPANY
  9
$CUSTOMPROPERTY
  1
baldor
  9
$INSBASE
 10
0.0
 20
0.0
 30
0.0
  9
$EXTMIN
 10
1.000000000000000E+20
 20
1.000000000000000E+20
 30
1.000000000000000E+20
  9
$EXTMAX
 10
-1.000000000000000E+20
 20
-1.000000000000000E+20
 30
-1.000000000000000E+20
  9
$LIMMIN
 10
0.0
 20
0.0
  9
$LIMMAX
 10
12.0
 20
9.0
  9
$ORTHOMODE
 70
     0
  9
$REGENMODE
 70
     1
  9
$FILLMODE
 70
     1
  9
$QTEXTMODE
 70
     0
  9
$MIRRTEXT
 70
     1
  9
$LTSCALE
 40
1.0
  9
$ATTMODE
 70
     1
  9
$TEXTSIZE
 40
0.2
  9
$TRACEWID
 40
0.05
  9
$TEXTSTYLE
  7
Standard
  9
$CLAYER
  8
0
  9
$CELTYPE
  6
ByLayer
  9
$CECOLOR
 62
   256
  9
$CELTSCALE
 40
1.0
  9
$DISPSILH
 70
     0
  9
$DIMSCALE
 40
1.0
  9
$DIMASZ
 40
0.18
  9
$DIMEXO
 40
0.0625
  9
$DIMDLI
 40
0.38
  9
$DIMRND
 40
0.0
  9
$DIMDLE
 40
0.0
  9
$DIMEXE
 40
0.18
  9
$DIMTP
 40
0.0
  9
$DIMTM
 40
0.0
  9
$DIMTXT
 40
0.18
  9
$DIMCEN
 40
0.09
  9
$DIMTSZ
 40
0.0
  9
$DIMTOL
 70
     0
  9
$DIMLIM
 70
     0
  9
$DIMTIH
 70
     1
  9
$DIMTOH
 70
     1
  9
$DIMSE1
 70
     0
  9
$DIMSE2
 70
     0
  9
$DIMTAD
 70
     0
  9
$DIMZIN
 70
     0
  9
$DIMBLK
  1

  9
$DIMASO
 70
     1
  9
$DIMSHO
 70
     1
  9
$DIMPOST
  1

  9
$DIMAPOST
  1

  9
$DIMALT
 70
     0
  9
$DIMALTD
 70
     2
  9
$DIMALTF
 40
25.4
  9
$DIMLFAC
 40
1.0
  9
$DIMTOFL
 70
     0
  9
$DIMTVP
 40
0.0
  9
$DIMTIX
 70
     0
  9
$DIMSOXD
 70
     0
  9
$DIMSAH
 70
     0
  9
$DIMBLK1
  1

  9
$DIMBLK2
  1

  9
$DIMSTYLE
  2
Standard
  9
$DIMCLRD
 70
     0
  9
$DIMCLRE
 70
     0
  9
$DIMCLRT
 70
     0
  9
$DIMTFAC
 40
1.0
  9
$DIMGAP
 40
0.09
  9
$DIMJUST
 70
     0
  9
$DIMSD1
 70
     0
  9
$DIMSD2
 70
     0
  9
$DIMTOLJ
 70
     1
  9
$DIMTZIN
 70
     0
  9
$DIMALTZ
 70
     0
  9
$DIMALTTZ
 70
     0
  9
$DIMUPT
 70
     0
  9
$DIMDEC
 70
     4
  9
$DIMTDEC
 70
     4
  9
$DIMALTU
 70
     2
  9
$DIMALTTD
 70
     2
  9
$DIMTXSTY
  7
Standard
  9
$DIMAUNIT
 70
     0
  9
$DIMADEC
 70
     0
  9
$DIMALTRND
 40
0.0
  9
$DIMAZIN
 70
     0
  9
$DIMDSEP
 70
    46
  9
$DIMATFIT
 70
     3
  9
$DIMFRAC
 70
     0
  9
$DIMLDRBLK
  1

  9
$DIMLUNIT
 70
     2
  9
$DIMLWD
 70
    -2
  9
$DIMLWE
 70
    -2
  9
$DIMTMOVE
 70
     0
  9
$DIMFXL
 40
1.0
  9
$DIMFXLON
 70
     0
  9
$DIMJOGANG
 40
0.7853981633974483
  9
$DIMTFILL
 70
     0
  9
$DIMTFILLCLR
 70
     0
  9
$DIMARCSYM
 70
     0
  9
$DIMLTYPE
  6

  9
$DIMLTEX1
  6

  9
$DIMLTEX2
  6

  9
$DIMTXTDIRECTION
 70
     0
  9
$LUNITS
 70
     2
  9
$LUPREC
 70
     4
  9
$SKETCHINC
 40
0.1
  9
$FILLETRAD
 40
0.5
  9
$AUNITS
 70
     0
  9
$AUPREC
 70
     0
  9
$MENU
  1
.
  9
$ELEVATION
 40
0.0
  9
$PELEVATION
 40
0.0
  9
$THICKNESS
 40
0.0
  9
$LIMCHECK
 70
     0
  9
$CHAMFERA
 40
0.0
  9
$CHAMFERB
 40
0.0
  9
$CHAMFERC
 40
0.0
  9
$CHAMFERD
 40
0.0
  9
$SKPOLY
 70
     0
  9
$TDCREATE
 40
2458168.958491169
  9
$TDUCREATE
 40
2458168.916824502
  9
$TDUPDATE
 40
2458168.958491354
  9
$TDUUPDATE
 40
2458168.916824687
  9
$TDINDWG
 40
0.0000000116
  9
$TDUSRTIMER
 40
0.0000000116
  9
$USRTIMER
 70
     1
  9
$ANGBASE
 50
0.0
  9
$ANGDIR
 70
     0
  9
$PDMODE
 70
     0
  9
$PDSIZE
 40
0.0
  9
$PLINEWID
 40
0.0
  9
$SPLFRAME
 70
     0
  9
$SPLINETYPE
 70
     6
  9
$SPLINESEGS
 70
     8
  9
$HANDSEED
  5
1E5
  9
$SURFTAB1
 70
     6
  9
$SURFTAB2
 70
     6
  9
$SURFTYPE
 70
     6
  9
$SURFU
 70
     6
  9
$SURFV
 70
     6
  9
$UCSBASE
  2

  9
$UCSNAME
  2

  9
$UCSORG
 10
0.0
 20
0.0
 30
0.0
  9
$UCSXDIR
 10
1.0
 20
0.0
 30
0.0
  9
$UCSYDIR
 10
0.0
 20
1.0
 30
0.0
  9
$UCSORTHOREF
  2

  9
$UCSORTHOVIEW
 70
     0
  9
$UCSORGTOP
 10
0.0
 20
0.0
 30
0.0
  9
$UCSORGBOTTOM
 10
0.0
 20
0.0
 30
0.0
  9
$UCSORGLEFT
 10
0.0
 20
0.0
 30
0.0
  9
$UCSORGRIGHT
 10
0.0
 20
0.0
 30
0.0
  9
$UCSORGFRONT
 10
0.0
 20
0.0
 30
0.0
  9
$UCSORGBACK
 10
0.0
 20
0.0
 30
0.0
  9
$PUCSBASE
  2

  9
$PUCSNAME
  2

  9
$PUCSORG
 10
0.0
 20
0.0
 30
0.0
  9
$PUCSXDIR
 10
1.0
 20
0.0
 30
0.0
  9
$PUCSYDIR
 10
0.0
 20
1.0
 30
0.0
  9
$PUCSORTHOREF
  2

  9
$PUCSORTHOVIEW
 70
     0
  9
$PUCSORGTOP
 10
0.0
 20
0.0
 30
0.0
  9
$PUCSORGBOTTOM
 10
0.0
 20
0.0
 30
0.0
  9
$PUCSORGLEFT
 10
0.0
 20
0.0
 30
0.0
  9
$PUCSORGRIGHT
 10
0.0
 20
0.0
 30
0.0
  9
$PUCSORGFRONT
 10
0.0
 20
0.0
 30
0.0
  9
$PUCSORGBACK
 10
0.0
 20
0.0
 30
0.0
  9
$USERI1
 70
     0
  9
$USERI2
 70
     0
  9
$USERI3
 70
     0
  9
$USERI4
 70
     0
  9
$USERI5
 70
     0
  9
$USERR1
 40
0.0
  9
$USERR2
 40
0.0
  9
$USERR3
 40
0.0
  9
$USERR4
 40
0.0
  9
$USERR5
 40
0.0
  9
$WORLDVIEW
 70
     1
  9
$SHADEDGE
 70
     3
  9
$SHADEDIF
 70
    70
  9
$TILEMODE
 70
     1
  9
$MAXACTVP
 70
    64
  9
$PINSBASE
 10
0.0
 20
0.0
 30
0.0
  9
$PLIMCHECK
 70
     0
  9
$PEXTMIN
 10
1.000000000000000E+20
 20
1.000000000000000E+20
 30
1.000000000000000E+20
  9
$PEXTMAX
 10
-1.000000000000000E+20
 20
-1.000000000000000E+20
 30
-1.000000000000000E+20
  9
$PLIMMIN
 10
0.0
 20
0.0
  9
$PLIMMAX
 10
12.0
 20
9.0
  9
$UNITMODE
 70
     0
  9
$VISRETAIN
 70
     1
  9
$PLINEGEN
 70
     0
  9
$PSLTSCALE
 70
     1
  9
$TREEDEPTH
 70
  3020
  9
$CMLSTYLE
  2
Standard
  9
$CMLJUST
 70
     0
  9
$CMLSCALE
 40
1.0
  9
$PROXYGRAPHICS
 70
     1
  9
$MEASUREMENT
 70
     0
  9
$CELWEIGHT
370
    -1
  9
$ENDCAPS
280
     0
  9
$JOINSTYLE
280
     0
  9
$LWDISPLAY
290
     0
  9
$INSUNITS
 70
     1
  9
$HYPERLINKBASE
  1

  9
$STYLESHEET
  1

  9
$XEDIT
290
     1
  9
$CEPSNTYPE
380
     0
  9
$PSTYLEMODE
290
     1
  9
$FINGERPRINTGUID
  2
{65C7DC33-2732-4D3C-ABD6-F784FD29A5C2}
  9
$VERSIONGUID
  2
{FAEB1C32-E019-11D5-929B-00C0DF256EC4}
  9
$EXTNAMES
290
     1
  9
$PSVPSCALE
 40
0.0
  9
$OLESTARTUP
290
     0
  9
$SORTENTS
280
   127
  9
$INDEXCTL
280
     0
  9
$HIDETEXT
280
     1
  9
$XCLIPFRAME
280
     2
  9
$HALOGAP
280
     0
  9
$OBSCOLOR
 70
   257
  9
$OBSLTYPE
280
     0
  9
$INTERSECTIONDISPLAY
280
     0
  9
$INTERSECTIONCOLOR
 70
   257
  9
$DIMASSOC
280
     2
  9
$PROJECTNAME
  1

  9
$CAMERADISPLAY
290
     0
  9
$LENSLENGTH
 40
50.0
  9
$CAMERAHEIGHT
 40
0.0
  9
$STEPSPERSEC
 40
2.0
  9
$STEPSIZE
 40
6.0
  9
$3DDWFPREC
 40
2.0
  9
$PSOLWIDTH
 40
0.25
  9
$PSOLHEIGHT
 40
4.0
  9
$LOFTANG1
 40
1.570796326794897
  9
$LOFTANG2
 40
1.570796326794897
  9
$LOFTMAG1
 40
0.0
  9
$LOFTMAG2
 40
0.0
  9
$LOFTPARAM
 70
     7
  9
$LOFTNORMALS
280
     1
  9
$LATITUDE
 40
37.795
  9
$LONGITUDE
 40
-122.394
  9
$NORTHDIRECTION
 40
0.0
  9
$TIMEZONE
 70
 -8000
  9
$LIGHTGLYPHDISPLAY
280
     1
  9
$TILEMODELIGHTSYNCH
280
     1
  9
$CMATERIAL
347
44
  9
$SOLIDHIST
280
     0
  9
$SHOWHIST
280
     1
  9
$DWFFRAME
280
     2
  9
$DGNFRAME
280
     2
  9
$REALWORLDSCALE
290
     1
  9
$INTERFERECOLOR
 62
   256
  9
$CSHADOW
280
     0
  9
$SHADOWPLANELOCATION
 40
0.0
  0
ENDSEC
  0
SECTION
  2
CLASSES
  0
CLASS
  1
ACDBDICTIONARYWDFLT
  2
AcDbDictionaryWithDefault
  3
ObjectDBX Classes
 90
        0
 91
        4
280
     0
281
     0
  0
CLASS
  1
VISUALSTYLE
  2
AcDbVisualStyle
  3
ObjectDBX Classes
 90
     4095
 91
        4
280
     0
281
     0
  0
CLASS
  1
MATERIAL
  2
AcDbMaterial
  3
ObjectDBX Classes
 90
     1153
 91
        4
280
     0
281
     0
  0
CLASS
  1
SCALE
  2
AcDbScale
  3
ObjectDBX Classes
 90
     1153
 91
        4
280
     0
281
     0
  0
CLASS
  1
TABLESTYLE
  2
AcDbTableStyle
  3
ObjectDBX Classes
 90
     4095
 91
        4
280
     0
281
     0
  0
CLASS
  1
MLEADERSTYLE
  2
AcDbMLeaderStyle
  3
ACDB_MLEADERSTYLE_CLASS
 90
     4095
 91
        4
280
     0
281
     0
  0
CLASS
  1
SUN
  2
AcDbSun
  3
SCENEOE
 90
     1153
 91
        4
280
     0
281
     0
  0
CLASS
  1
DICTIONARYVAR
  2
AcDbDictionaryVar
  3
ObjectDBX Classes
 90
        0
 91
        4
280
     0
281
     0
  0
CLASS
  1
CELLSTYLEMAP
  2
AcDbCellStyleMap
  3
ObjectDBX Classes
 90
     1152
 91
        4
280
     0
281
     0
  0
ENDSEC
  0
SECTION
  2
TABLES
  0
TABLE
  2
VPORT
  5
8
330
0
100
AcDbSymbolTable
 70
     1
  0
VPORT
  5
29
330
8
100
AcDbSymbolTableRecord
100
AcDbViewportTableRecord
  2
*Active
 70
     0
 10
0.0
 20
0.0
 11
1.0
 21
1.0
 12
-1.40625
 22
0.072115384615385
 13
0.0
 23
0.0
 14
0.5
 24
0.5
 15
0.5
 25
0.5
 16
0.0
 26
0.0
 36
1.0
 17
0.0
 27
0.0
 37
0.0
 40
3.972115384615385
 41
0.7944444444444444
 42
50.0
 43
0.0
 44
0.0
 50
0.0
 51
0.0
 71
     0
 72
   100
 73
     1
 74
     3
 75
     0
 76
     0
 77
     0
 78
     0
281
     0
 65
     1
110
0.0
120
0.0
130
0.0
111
1.0
121
0.0
131
0.0
112
0.0
122
1.0
132
0.0
 79
     0
146
0.0
348
2F
 60
     3
 61
     5
292
     1
282
     1
141
0.0
142
0.0
 63
   250
361
6D
  0
ENDTAB
  0
TABLE
  2
LTYPE
  5
5
330
0
100
AcDbSymbolTable
 70
     3
  0
LTYPE
  5
14
330
5
100
AcDbSymbolTableRecord
100
AcDbLinetypeTableRecord
  2
ByBlock
 70
     0
  3

 72
    65
 73
     0
 40
0.0
  0
LTYPE
  5
15
330
5
100
AcDbSymbolTableRecord
100
AcDbLinetypeTableRecord
  2
ByLayer
 70
     0
  3

 72
    65
 73
     0
 40
0.0
  0
LTYPE
  5
16
330
5
100
AcDbSymbolTableRecord
100
AcDbLinetypeTableRecord
  2
Continuous
 70
     0
  3
Solid line
 72
    65
 73
     0
 40
0.0
  0
LTYPE
  5
9A
330
5
100
AcDbSymbolTableRecord
100
AcDbLinetypeTableRecord
  2
Dashed
 70
     0
  3

 72
    65
 73
     2
 40
2.0
 49
1.0
 74
     0
 49
-1.0
 74
     0
  0
LTYPE
  5
140
330
5
100
AcDbSymbolTableRecord
100
AcDbLinetypeTableRecord
  2
Center
 70
     0
  3

 72
    65
 73
     4
 40
1.5
 49
0.45
 74
     0
 49
-0.5
 74
     0
 49
0.05
 74
     0
 49
-0.5
 74
     0
  0
ENDTAB
  0
TABLE
  2
LAYER
  5
2
330
0
100
AcDbSymbolTable
 70
     7
  0
LAYER
  5
10
330
2
100
AcDbSymbolTableRecord
100
AcDbLayerTableRecord
  2
0
 70
     0
 62
     7
  6
Continuous
370
    -3
390
F
347
46
348
0
  0
LAYER
  5
72
330
2
100
AcDbSymbolTableRecord
100
AcDbLayerTableRecord
  2
AM_6
 70
     0
 62
    -2
  6
Continuous
370
    35
390
F
347
46
348
0
  0
LAYER
  5
9B
330
2
100
AcDbSymbolTableRecord
100
AcDbLayerTableRecord
  2
AM_9
 70
     0
 62
     6
  6
Dashed
370
    25
390
F
347
46
348
0
  0
LAYER
  5
B8
330
2
100
AcDbSymbolTableRecord
100
AcDbLayerTableRecord
  2
AM_5
 70
     0
 62
     3
  6
Continuous
370
    25
390
F
347
46
348
0
  0
LAYER
  5
BB
330
2
100
AcDbSymbolTableRecord
100
AcDbLayerTableRecord
  2
AM_4
 70
     0
 62
     7
  6
Continuous
370
    50
390
F
347
46
348
0
  0
LAYER
  5
141
330
2
100
AcDbSymbolTableRecord
100
AcDbLayerTableRecord
  2
AM_7
 70
     0
 62
     7
  6
Center
370
    25
390
F
347
46
348
0
  0
LAYER
  5
1D4
330
2
100
AcDbSymbolTableRecord
100
AcDbLayerTableRecord
  2
ConnectionPoints
 70
     0
 62
     7
  6
Continuous
370
    50
390
F
347
46
348
0
  0
ENDTAB
  0
TABLE
  2
STYLE
  5
3
330
0
100
AcDbSymbolTable
 70
     1
  0
STYLE
  5
11
330
3
100
AcDbSymbolTableRecord
100
AcDbTextStyleTableRecord
  2
Standard
 70
     0
 40
0.0
 41
1.0
 50
0.0
 71
     0
 42
0.2
  3
txt
  4

  0
ENDTAB
  0
TABLE
  2
VIEW
  5
6
330
0
100
AcDbSymbolTable
 70
     0
  0
ENDTAB
  0
TABLE
  2
UCS
  5
7
330
0
100
AcDbSymbolTable
 70
     0
  0
ENDTAB
  0
TABLE
  2
APPID
  5
9
330
0
100
AcDbSymbolTable
 70
     1
  0
APPID
  5
12
330
9
100
AcDbSymbolTableRecord
100
AcDbRegAppTableRecord
  2
ACAD
 70
     0
  0
ENDTAB
  0
TABLE
  2
DIMSTYLE
  5
A
330
0
100
AcDbSymbolTable
 70
     1
100
AcDbDimStyleTable
  0
DIMSTYLE
105
27
330
A
100
AcDbSymbolTableRecord
100
AcDbDimStyleTableRecord
  2
Standard
 70
     0
178
     0
340
11
  0
ENDTAB
  0
TABLE
  2
BLOCK_RECORD
  5
1
330
0
100
AcDbSymbolTable
 70
     7
  0
BLOCK_RECORD
  5
1F
330
1
100
AcDbSymbolTableRecord
100
AcDbBlockTableRecord
  2
*Model_Space
340
22
 70
     0
280
     1
281
     0
  0
BLOCK_RECORD
  5
1B
330
1
100
AcDbSymbolTableRecord
100
AcDbBlockTableRecord
  2
*Paper_Space
340
1E
 70
     0
280
     1
281
     0
  0
BLOCK_RECORD
  5
23
330
1
100
AcDbSymbolTableRecord
100
AcDbBlockTableRecord
  2
*Paper_Space0
340
26
 70
     0
280
     1
281
     0
  0
BLOCK_RECORD
  5
6E
330
1
100
AcDbSymbolTableRecord
100
AcDbBlockTableRecord
  2
1_023094_2
340
0
102
{BLKREFS
331
6F
102
}
 70
     0
280
     1
281
     0
  0
BLOCK_RECORD
  5
85
330
1
100
AcDbSymbolTableRecord
100
AcDbBlockTableRecord
  2
2_1_1_4C_1_0_in_023094_2
340
0
102
{BLKREFS
331
86
102
}
 70
     0
280
     1
281
     0
  0
BLOCK_RECORD
  5
C1
330
1
100
AcDbSymbolTableRecord
100
AcDbBlockTableRecord
  2
3_1_1_4C_2_0_in_023094_2
340
0
102
{BLKREFS
331
C2
102
}
 70
     0
280
     1
281
     0
  0
BLOCK_RECORD
  5
F9
330
1
100
AcDbSymbolTableRecord
100
AcDbBlockTableRecord
  2
4_1_1_4I_0_in_023094_2
340
0
102
{BLKREFS
331
FA
102
}
 70
     0
280
     1
281
     0
  0
BLOCK_RECORD
  5
148
330
1
100
AcDbSymbolTableRecord
100
AcDbBlockTableRecord
  2
5_405015E_Inch_0_in_023094_2
340
0
102
{BLKREFS
331
149
102
}
 70
     0
280
     1
281
     0
  0
BLOCK_RECORD
  5
17D
330
1
100
AcDbSymbolTableRecord
100
AcDbBlockTableRecord
  2
6_023094H_0_in_023094_2
340
0
102
{BLKREFS
331
17E
102
}
 70
     0
280
     1
281
     0
  0
ENDTAB
  0
ENDSEC
  0
SECTION
  2
BLOCKS
  0
BLOCK
  5
20
330
1F
100
AcDbEntity
  8
0
100
AcDbBlockBegin
  2
*Model_Space
 70
     0
 10
0.0
 20
0.0
 30
0.0
  3
*Model_Space
  1

  0
ENDBLK
  5
21
330
1F
100
AcDbEntity
  8
0
100
AcDbBlockEnd
  0
BLOCK
  5
1C
330
1B
100
AcDbEntity
 67
     1
  8
0
100
AcDbBlockBegin
  2
*Paper_Space
 70
     0
 10
0.0
 20
0.0
 30
0.0
  3
*Paper_Space
  1

  0
ENDBLK
  5
1D
330
1B
100
AcDbEntity
 67
     1
  8
0
100
AcDbBlockEnd
  0
BLOCK
  5
24
330
23
100
AcDbEntity
  8
0
100
AcDbBlockBegin
  2
*Paper_Space0
 70
     0
 10
0.0
 20
0.0
 30
0.0
  3
*Paper_Space0
  1

  0
ENDBLK
  5
25
330
23
100
AcDbEntity
  8
0
100
AcDbBlockEnd
  0
BLOCK
  5
70
330
6E
100
AcDbEntity
  8
0
100
AcDbBlockBegin
  2
1_023094_2
 70
     2
 10
0.0
 20
0.0
 30
0.0
  3
1_023094_2
  1

  0
ATTDEF
  5
73
330
6E
100
AcDbEntity
  8
AM_6
100
AcDbText
 10
5.140625
 20
2.019230769230769
 30
0.0
 40
0.5
  1
Four-Bolt Flange Expansion
100
AcDbAttributeDefinition
  3

  2
NN
 70
     8
280
     0
  0
ATTDEF
  5
74
330
6E
100
AcDbEntity
  8
AM_6
100
AcDbText
 10
5.140625
 20
1.519230769230769
 30
0.0
 40
0.5
  1
Type E 4-Bolt Flange Bearing -Inch
100
AcDbAttributeDefinition
  3

  2
NT
 70
     8
280
     0
  0
ATTDEF
  5
75
330
6E
100
AcDbEntity
  8
AM_6
100
AcDbText
 10
5.140625
 20
1.019230769230769
 30
0.0
 40
0.5
  1
023094
100
AcDbAttributeDefinition
  3

  2
NB
 70
     8
280
     0
  0
ATTDEF
  5
76
330
6E
100
AcDbEntity
  8
AM_6
100
AcDbText
 10
5.140625
 20
0.5192307692307692
 30
0.0
 40
0.5
  1
$PN.
100
AcDbAttributeDefinition
  3

  2
NBSYN
 70
     8
280
     0
  0
ATTDEF
  5
77
330
6E
100
AcDbEntity
  8
AM_6
100
AcDbText
 10
5.140625
 20
0.0192307692307692
 30
0.0
 40
0.5
  1
023094
100
AcDbAttributeDefinition
  3

  2
LINA
 70
     8
280
     0
  0
ATTDEF
  5
78
330
6E
100
AcDbEntity
  8
AM_6
100
AcDbText
 10
5.140625
 20
-0.4807692307692308
 30
0.0
 40
0.5
  1
1-1/4
100
AcDbAttributeDefinition
  3

  2
SS
 70
     8
280
     0
  0
ATTDEF
  5
79
330
6E
100
AcDbEntity
  8
AM_6
100
AcDbText
 10
5.140625
 20
-0.9807692307692308
 30
0.0
 40
0.5
  1
023094
100
AcDbAttributeDefinition
  3

  2
PN
 70
     8
280
     0
  0
ATTDEF
  5
7A
330
6E
100
AcDbEntity
  8
AM_6
100
AcDbText
 10
5.140625
 20
-1.480769230769231
 30
0.0
 40
0.5
  1
F4B-E-104R
100
AcDbAttributeDefinition
  3

  2
DESCRIPTION
 70
     8
280
     0
  0
ATTDEF
  5
7B
330
6E
100
AcDbEntity
  8
AM_6
100
AcDbText
 10
5.140625
 20
-1.980769230769231
 30
0.0
 40
0.5
  1
2-13/16
100
AcDbAttributeDefinition
  3

  2
A
 70
     8
280
     0
  0
ATTDEF
  5
7C
330
6E
100
AcDbEntity
  8
AM_6
100
AcDbText
 10
5.140625
 20
-2.480769230769231
 30
0.0
 40
0.5
  1
3-3/4
100
AcDbAttributeDefinition
  3

  2
B
 70
     8
280
     0
  0
ATTDEF
  5
7D
330
6E
100
AcDbEntity
  8
AM_6
100
AcDbText
 10
5.140625
 20
-2.980769230769231
 30
0.0
 40
0.5
  1
2-11/32
100
AcDbAttributeDefinition
  3

  2
C
 70
     8
280
     0
  0
ATTDEF
  5
7E
330
6E
100
AcDbEntity
  8
AM_6
100
AcDbText
 10
5.140625
 20
-3.480769230769231
 30
0.0
 40
0.5
  1
2-7/8
100
AcDbAttributeDefinition
  3

  2
D
 70
     8
280
     0
  0
ATTDEF
  5
7F
330
6E
100
AcDbEntity
  8
AM_6
100
AcDbText
 10
5.140625
 20
-3.980769230769231
 30
0.0
 40
0.5
  1
1/16
100
AcDbAttributeDefinition
  3

  2
E
 70
     8
280
     0
  0
ATTDEF
  5
80
330
6E
100
AcDbEntity
  8
AM_6
100
AcDbText
 10
5.140625
 20
-4.480769230769231
 30
0.0
 40
0.5
  1
3/8
100
AcDbAttributeDefinition
  3

  2
F
 70
     8
280
     0
  0
ATTDEF
  5
81
330
6E
100
AcDbEntity
  8
AM_6
100
AcDbText
 10
5.140625
 20
-4.980769230769231
 30
0.0
 40
0.5
  1
1
100
AcDbAttributeDefinition
  3

  2
H
 70
     8
280
     0
  0
ATTDEF
  5
82
330
6E
100
AcDbEntity
  8
AM_6
100
AcDbText
 10
5.140625
 20
-5.480769230769231
 30
0.0
 40
0.5
  1
2-15/16
100
AcDbAttributeDefinition
  3

  2
J
 70
     8
280
     0
  0
ATTDEF
  5
83
330
6E
100
AcDbEntity
  8
AM_6
100
AcDbText
 10
5.140625
 20
-5.980769230769231
 30
0.0
 40
0.5
  1
2-1/4
100
AcDbAttributeDefinition
  3

  2
L
 70
     8
280
     0
  0
ATTDEF
  5
84
330
6E
100
AcDbEntity
  8
AM_6
100
AcDbText
 10
5.140625
 20
-6.480769230769231
 30
0.0
 40
0.5
  1
baldor
100
AcDbAttributeDefinition
  3

  2
COMPANY
 70
     8
280
     0
  0
INSERT
  5
86
330
6E
100
AcDbEntity
  8
0
100
AcDbBlockReference
  2
2_1_1_4C_1_0_in_023094_2
 10
0.0
 20
0.0
 30
0.0
  0
INSERT
  5
C2
330
6E
100
AcDbEntity
  8
0
100
AcDbBlockReference
  2
3_1_1_4C_2_0_in_023094_2
 10
0.0
 20
0.0
 30
0.0
  0
INSERT
  5
FA
330
6E
100
AcDbEntity
  8
0
100
AcDbBlockReference
  2
4_1_1_4I_0_in_023094_2
 10
0.0
 20
0.0
 30
0.0
  0
INSERT
  5
149
330
6E
100
AcDbEntity
  8
0
100
AcDbBlockReference
  2
5_405015E_Inch_0_in_023094_2
 10
0.0
 20
0.0
 30
0.0
  0
INSERT
  5
17E
330
6E
100
AcDbEntity
  8
0
100
AcDbBlockReference
  2
6_023094H_0_in_023094_2
 10
0.0
 20
0.0
 30
0.0
  0
ENDBLK
  5
71
330
6E
100
AcDbEntity
  8
0
100
AcDbBlockEnd
  0
BLOCK
  5
87
330
85
100
AcDbEntity
  8
0
100
AcDbBlockBegin
  2
2_1_1_4C_1_0_in_023094_2
 70
     2
 10
0.0
 20
0.0
 30
0.0
  3
2_1_1_4C_1_0_in_023094_2
  1

  0
ATTDEF
  5
89
330
85
100
AcDbEntity
  8
AM_6
100
AcDbText
 10
4.9375
 20
1.125
 30
0.0
 40
0.5
  1
E-Type Collar -Inch
100
AcDbAttributeDefinition
  3

  2
NN
 70
     8
280
     0
  0
ATTDEF
  5
8A
330
85
100
AcDbEntity
  8
AM_6
100
AcDbText
 10
4.9375
 20
0.6249999999999998
 30
0.0
 40
0.5
  1
E-Type Bearings
100
AcDbAttributeDefinition
  3

  2
NT
 70
     8
280
     0
  0
ATTDEF
  5
8B
330
85
100
AcDbEntity
  8
AM_6
100
AcDbText
 10
4.9375
 20
0.1249999999999998
 30
0.0
 40
0.5
  1
1-1/4C
100
AcDbAttributeDefinition
  3

  2
NB
 70
     8
280
     0
  0
ATTDEF
  5
8C
330
85
100
AcDbEntity
  8
AM_6
100
AcDbText
 10
4.9375
 20
-0.3750000000000002
 30
0.0
 40
0.5
  1
$BORE.C
100
AcDbAttributeDefinition
  3

  2
NBSYN
 70
     8
280
     0
  0
ATTDEF
  5
8D
330
85
100
AcDbEntity
  8
AM_6
100
AcDbText
 10
4.9375
 20
-0.8750000000000002
 30
0.0
 40
0.5
  1
1-1/4C
100
AcDbAttributeDefinition
  3

  2
LINA
 70
     8
280
     0
  0
ATTDEF
  5
8E
330
85
100
AcDbEntity
  8
AM_6
100
AcDbText
 10
4.9375
 20
-1.375
 30
0.0
 40
0.5
  1
1-1/4
100
AcDbAttributeDefinition
  3

  2
BORE
 70
     8
280
     0
  0
ATTDEF
  5
8F
330
85
100
AcDbEntity
  8
AM_6
100
AcDbText
 10
4.9375
 20
-1.875
 30
0.0
 40
0.5
  1
2.25000
100
AcDbAttributeDefinition
  3

  2
L
 70
     8
280
     0
  0
ATTDEF
  5
90
330
85
100
AcDbEntity
  8
AM_6
100
AcDbText
 10
4.9375
 20
-2.375
 30
0.0
 40
0.5
  1
2.75
100
AcDbAttributeDefinition
  3

  2
A
 70
     8
280
     0
  0
ATTDEF
  5
91
330
85
100
AcDbEntity
  8
AM_6
100
AcDbText
 10
4.9375
 20
-2.875
 30
0.0
 40
0.5
  1
1.16
100
AcDbAttributeDefinition
  3

  2
B
 70
     8
280
     0
  0
ATTDEF
  5
92
330
85
100
AcDbEntity
  8
AM_6
100
AcDbText
 10
4.9375
 20
-3.375
 30
0.0
 40
0.5
  1
1.56
100
AcDbAttributeDefinition
  3

  2
C
 70
     8
280
     0
  0
ATTDEF
  5
93
330
85
100
AcDbEntity
  8
AM_6
100
AcDbText
 10
4.9375
 20
-3.875
 30
0.0
 40
0.5
  1
2.31
100
AcDbAttributeDefinition
  3

  2
D
 70
     8
280
     0
  0
ATTDEF
  5
94
330
85
100
AcDbEntity
  8
AM_6
100
AcDbText
 10
4.9375
 20
-4.375
 30
0.0
 40
0.5
  1
0.35
100
AcDbAttributeDefinition
  3

  2
E
 70
     8
280
     0
  0
ATTDEF
  5
95
330
85
100
AcDbEntity
  8
AM_6
100
AcDbText
 10
4.9375
 20
-4.875
 30
0.0
 40
0.5
  1
0.28
100
AcDbAttributeDefinition
  3

  2
F
 70
     8
280
     0
  0
ATTDEF
  5
96
330
85
100
AcDbEntity
  8
AM_6
100
AcDbText
 10
4.9375
 20
-5.375
 30
0.0
 40
0.5
  1
5/16-18
100
AcDbAttributeDefinition
  3

  2
CS
 70
     8
280
     0
  0
ATTDEF
  5
97
330
85
100
AcDbEntity
  8
AM_6
100
AcDbText
 10
4.9375
 20
-5.875
 30
0.0
 40
0.5
  1
0.3125
100
AcDbAttributeDefinition
  3

  2
NDM
 70
     8
280
     0
  0
ATTDEF
  5
98
330
85
100
AcDbEntity
  8
AM_6
100
AcDbText
 10
4.9375
 20
-6.375
 30
0.0
 40
0.5
  1
0.2520
100
AcDbAttributeDefinition
  3

  2
KDM
 70
     8
280
     0
  0
ATTDEF
  5
99
330
85
100
AcDbEntity
  8
AM_6
100
AcDbText
 10
4.9375
 20
-6.875
 30
0.0
 40
0.5
  1
baldor
100
AcDbAttributeDefinition
  3

  2
COMPANY
 70
     8
280
     0
  0
LINE
  5
9C
330
85
100
AcDbEntity
  8
AM_9
100
AcDbLine
 10
-0.2163
 20
1.09495
 30
0.0
 11
-0.1865038471420646
 21
1.124746152857935
 31
0.0
  0
LINE
  5
9D
330
85
100
AcDbEntity
  8
AM_9
100
AcDbLine
 10
-0.4987311174391998
 20
1.1249811174392
 30
0.0
 11
-0.4687000000000001
 21
1.09495
 31
0.0
  0
LINE
  5
9E
330
85
100
AcDbEntity
  8
AM_9
100
AcDbLine
 10
-0.4687000000000001
 20
0.7892166666666667
 30
0.0
 11
-0.4777476824885067
 21
0.7801689841781602
 31
0.0
  0
LINE
  5
9F
330
85
100
AcDbEntity
  8
AM_9
100
AcDbLine
 10
-0.2072943594156901
 20
0.7802110260823569
 30
0.0
 11
-0.2163
 21
0.7892166666666667
 31
0.0
  0
LINE
  5
A0
330
85
100
AcDbEntity
  8
AM_9
100
AcDbLine
 10
-0.4687000000000001
 20
1.09495
 30
0.0
 11
-0.2163
 21
1.09495
 31
0.0
  0
LINE
  5
A1
330
85
100
AcDbEntity
  8
AM_9
100
AcDbLine
 10
-0.4687000000000001
 20
0.7892166666666667
 30
0.0
 11
-0.2163
 21
0.7892166666666667
 31
0.0
  0
LINE
  5
A2
330
85
100
AcDbEntity
  8
AM_9
100
AcDbLine
 10
-0.2163
 20
0.7892166666666667
 30
0.0
 11
-0.2163
 21
1.09495
 31
0.0
  0
LINE
  5
A3
330
85
100
AcDbEntity
  8
AM_9
100
AcDbLine
 10
-0.4687000000000001
 20
1.09495
 30
0.0
 11
-0.4687000000000001
 21
0.7892166666666667
 31
0.0
  0
LWPOLYLINE
  5
A4
330
85
100
AcDbEntity
  8
AM_9
100
AcDbPolyline
 90
       39
 70
     0
 43
0.0
 10
-0.4407286989308742
 20
0.2335410943640434
 10
-0.4261310339877282
 20
0.219251361456983
 10
-0.4091038666741512
 20
0.2068622994389027
 10
-0.3882970590272662
 20
0.1964020242154896
 10
-0.3650101246795793
 20
0.1896639479475536
 10
-0.3441437399528663
 20
0.1875842736729994
 10
-0.3225406133427045
 20
0.189214816488167
 10
-0.3034104774768007
 20
0.1939582680162056
 10
-0.2848290311936162
 20
0.2018071467756606
 10
-0.2674460839876112
 20
0.2125193361189802
 10
-0.2515709677352388
 20
0.2258926926512434
 10
-0.2368901937805035
 20
0.2425451446831091
 10
-0.2247309994058631
 20
0.261421535332837
 10
-0.2151208071958227
 20
0.2830939794783309
 10
-0.2091030749689675
 20
0.3062292662965662
 10
-0.2070843953072489
 20
0.3301768258228857
 10
-0.2094161452343475
 20
0.3543937362187692
 10
-0.2160264722305425
 20
0.3771613513053969
 10
-0.2271770534277236
 20
0.3988738412104167
 10
-0.2418042645489351
 20
0.4174628585367189
 10
-0.2606648215844449
 20
0.43379054204455
 10
-0.280790011039058
 20
0.4456039019008805
 10
-0.3040867669941513
 20
0.4542598486682161
 10
-0.3253825051744102
 20
0.4584057825563534
 10
-0.348027360559001
 20
0.4593061942136363
 10
-0.367785836340048
 20
0.4572067991258533
 10
-0.3873843662466035
 20
0.4523189331455606
 10
-0.4054130709128211
 20
0.4450231465787075
 10
-0.4222657168469797
 20
0.4352319176632433
 10
-0.4381077862005023
 20
0.4225200035802045
 10
-0.4518010520070307
 20
0.4074147047849302
 10
-0.4635208025147359
 20
0.3890811829179879
 10
-0.472014003536386
 20
0.3685756442697426
 10
-0.4769227860977946
 20
0.3458827282632573
 10
-0.4776861560314921
 20
0.3217476258656154
 10
-0.474124359101173
 20
0.2975718296010281
 10
-0.466028911743455
 20
0.2732544811234051
 10
-0.4552078255253497
 20
0.2527947018302345
 10
-0.4407286989308742
 20
0.2335410943640434
  0
LINE
  5
A5
330
85
100
AcDbEntity
  8
AM_9
100
AcDbLine
 10
-0.0625
 20
0.78
 30
0.0
 11
-0.2076196298083018
 21
0.78
 31
0.0
  0
LINE
  5
A6
330
85
100
AcDbEntity
  8
AM_9
100
AcDbLine
 10
-0.4774855916507102
 20
0.78
 30
0.0
 11
-0.6224999999999999
 21
0.78
 31
0.0
  0
LINE
  5
A7
330
85
100
AcDbEntity
  8
AM_9
100
AcDbLine
 10
-0.6224999999999999
 20
-0.78
 30
0.0
 11
-0.0625
 21
-0.78
 31
0.0
  0
LWPOLYLINE
  5
A8
330
85
100
AcDbEntity
  8
AM_9
100
AcDbPolyline
 90
       21
 70
     0
 43
0.0
 10
-0.4779166666649812
 20
0.7799999999996459
 10
-0.4777553989652571
 20
0.7799628028835817
 10
-0.4744519889923478
 20
0.7792806351516655
 10
-0.4667242710024871
 20
0.7777351971091795
 10
-0.4547835912695912
 20
0.7755241353813442
 10
-0.4390665279940754
 20
0.7729314454000604
 10
-0.4197921458179746
 20
0.7702625198351233
 10
-0.398891679603958
 20
0.7680247814323533
 10
-0.375840089419462
 20
0.76634867803647
 10
-0.354268480066639
 20
0.7655661365442878
 10
-0.3323047590547565
 20
0.7655314206191768
 10
-0.312485259215685
 20
0.7661819117869969
 10
-0.2934840807356833
 20
0.7673926270388509
 10
-0.2754540867437469
 20
0.7690789638233854
 10
-0.2591030243125583
 20
0.7710461851389016
 10
-0.2434394724891648
 20
0.7733180042010358
 10
-0.2303649484921425
 20
0.7754979122775731
 10
-0.2191691590001757
 20
0.7775631693470106
 10
-0.2115397221760733
 20
0.7790778695079404
 10
-0.2075193459812689
 20
0.7799053533780481
 10
-0.2070833333334443
 20
0.7799999999999766
  0
ELLIPSE
  5
A9
330
85
100
AcDbEntity
  8
AM_9
100
AcDbEllipse
 10
-0.3424999999999999
 20
0.3335373758034557
 30
0.0
 11
0.1262
 21
0.0
 31
0.0
210
0.0
220
0.0
230
1.0
 40
0.9063077870366506
 41
2.541352447250701
 42
6.283185307179586
  0
ELLIPSE
  5
AA
330
85
100
AcDbEntity
  8
AM_9
100
AcDbEllipse
 10
-0.3424999999999999
 20
0.3335373758034557
 30
0.0
 11
0.1262
 21
0.0
 31
0.0
210
0.0
220
0.0
230
1.0
 40
0.9063077870366504
 41
0.0
 42
0.6002402063390928
  0
LINE
  5
AB
330
85
100
AcDbEntity
  8
AM_9
100
AcDbLine
 10
-0.2163
 20
0.3335373758034557
 30
0.0
 11
-0.2163
 21
0.4627458656929788
 31
0.0
  0
LINE
  5
AC
330
85
100
AcDbEntity
  8
AM_9
100
AcDbLine
 10
-0.4686999999999999
 20
0.4627458656929788
 30
0.0
 11
-0.4686999999999999
 21
0.3335373758034557
 31
0.0
  0
LINE
  5
AD
330
85
100
AcDbEntity
  8
AM_9
100
AcDbLine
 10
-0.6224999999999999
 20
-1.125
 30
0.0
 11
-0.6224999999999999
 21
1.125
 31
0.0
  0
LINE
  5
AE
330
85
100
AcDbEntity
  8
AM_9
100
AcDbLine
 10
-0.1558333333333334
 20
1.125
 30
0.0
 11
-0.1867023124926051
 21
1.125
 31
0.0
  0
LINE
  5
AF
330
85
100
AcDbEntity
  8
AM_9
100
AcDbLine
 10
-0.498717623353244
 20
1.125
 30
0.0
 11
-0.6224999999999999
 21
1.125
 31
0.0
  0
LINE
  5
B0
330
85
100
AcDbEntity
  8
AM_9
100
AcDbLine
 10
-0.6224999999999999
 20
-1.125
 30
0.0
 11
-0.1558333333333334
 21
-1.125
 31
0.0
  0
LWPOLYLINE
  5
B1
330
85
100
AcDbEntity
  8
AM_9
100
AcDbPolyline
 90
       21
 70
     0
 43
0.0
 10
-0.1862500000001137
 20
1.124999999999986
 10
-0.1871237716907463
 20
1.124892341722067
 10
-0.1916549741527673
 20
1.124351929495452
 10
-0.199831952061259
 20
1.123413189566702
 10
-0.2113406528406992
 20
1.122179630391335
 10
-0.2264534007491338
 20
1.120714272207549
 10
-0.2442837521986115
 20
1.119210864646203
 10
-0.2656851880821678
 20
1.117736217297638
 10
-0.2889921986240984
 20
1.116533921299891
 10
-0.3149840863207846
 20
1.115704226570739
 10
-0.3417091864450443
 20
1.115400888587813
 10
-0.3692117606482793
 20
1.115687405330586
 10
-0.3959617399449462
 20
1.116531972748044
 10
-0.4212011550692994
 20
1.117852804168098
 10
-0.4441333708237348
 20
1.119479739714244
 10
-0.463454117996981
 20
1.121171171038985
 10
-0.4791669700697391
 20
1.122757557506877
 10
-0.4900342344209092
 20
1.123964771004481
 10
-0.4966786121969277
 20
1.124749016965465
 10
-0.4987323146372873
 20
1.124996291266288
 10
-0.4987499999999888
 20
1.124999999999998
  0
LINE
  5
B2
330
85
100
AcDbEntity
  8
AM_9
100
AcDbLine
 10
-0.0625
 20
0.8027627095472161
 30
0.0
 11
-0.0625
 21
1.031666666666667
 31
0.0
  0
LINE
  5
B3
330
85
100
AcDbEntity
  8
AM_9
100
AcDbLine
 10
-0.0625
 20
-1.031666666666667
 30
0.0
 11
-0.0625
 21
-0.8027627095472158
 31
0.0
  0
LINE
  5
B4
330
85
100
AcDbEntity
  8
AM_9
100
AcDbLine
 10
-0.1558333333333333
 20
0.802762709547216
 30
0.0
 11
-0.1558333333333334
 21
1.125
 31
0.0
  0
LINE
  5
B5
330
85
100
AcDbEntity
  8
AM_9
100
AcDbLine
 10
-0.1558333333333334
 20
-1.125
 30
0.0
 11
-0.1558333333333333
 21
-0.8027627095472164
 31
0.0
  0
ARC
  5
B6
330
85
100
AcDbEntity
  8
AM_9
100
AcDbCircle
 10
-0.1558333333333328
 20
1.031666666666667
 30
0.0
 40
0.0933333333333328
100
AcDbArc
 50
0.0
 51
90.0
  0
ARC
  5
B7
330
85
100
AcDbEntity
  8
AM_9
100
AcDbCircle
 10
-0.1558333333333328
 20
-1.031666666666667
 30
0.0
 40
0.0933333333333328
100
AcDbArc
 50
270.0
 51
0.0
  0
LINE
  5
B9
330
85
100
AcDbEntity
  8
AM_5
100
AcDbLine
 10
-0.18625
 20
1.125
 30
0.0
 11
-0.18625
 21
0.78
 31
0.0
  0
LINE
  5
BA
330
85
100
AcDbEntity
  8
AM_5
100
AcDbLine
 10
-0.49875
 20
1.125
 30
0.0
 11
-0.49875
 21
0.78
 31
0.0
  0
ELLIPSE
  5
BC
330
85
100
AcDbEntity
  8
AM_4
100
AcDbEllipse
 10
-0.3425
 20
0.3335373758034557
 30
0.0
 11
0.1262
 21
0.0
 31
0.0
210
0.0
220
0.0
230
1.0
 40
0.9063077870366506
 41
0.6002402063390928
 42
2.5413524472507
  0
LWPOLYLINE
  5
BD
330
85
100
AcDbEntity
  8
AM_4
100
AcDbPolyline
 90
       39
 70
     0
 43
0.0
 10
-0.4496257617734799
 20
0.3766220877843646
 10
-0.4651020780783044
 20
0.3915804138964044
 10
-0.4783200483361416
 20
0.4088326302075016
 10
-0.4892856735353044
 20
0.4294828951638688
 10
-0.4963469603103008
 20
0.452138772831563
 10
-0.4987300375961383
 20
0.4733234565863045
 10
-0.497026892725242
 20
0.4950103011123151
 10
-0.4916316373840346
 20
0.514688007811856
 10
-0.4824683578755312
 20
0.5336456699754006
 10
-0.4700383509692948
 20
0.5507982229077282
 10
-0.4542742986317279
 20
0.5662674959490935
 10
-0.4353217707545322
 20
0.5796817716388014
 10
-0.4135994566879055
 20
0.5905468452257865
 10
-0.3893385795774654
 20
0.5985354252432242
 10
-0.3631917855513297
 20
0.6031965931423292
 10
-0.3362048911390206
 20
0.6041976655919294
 10
-0.3086354466792248
 20
0.6013220589011699
 10
-0.2824972503146181
 20
0.594680916376947
 10
-0.2573520779153184
 20
0.5839873145780071
 10
-0.2357894426012013
 20
0.5703014022922134
 10
-0.2167884816454916
 20
0.5528713886708431
 10
-0.2028406676501217
 20
0.534157889666387
 10
-0.1926235115217834
 20
0.5126407759347569
 10
-0.1874532873358684
 20
0.491820574274521
 10
-0.1864010453848848
 20
0.4696045195102787
 10
-0.1893465151457129
 20
0.4489992475200416
 10
-0.19618691061146
 20
0.4283740674079592
 10
-0.2063566895578135
 20
0.4093328174884149
 10
-0.2200107677249233
 20
0.3914544476223115
 10
-0.2368972451011446
 20
0.3753630892642116
 10
-0.256764316180627
 20
0.3615562504100578
 10
-0.2794950120499532
 20
0.350458729035084
 10
-0.3044483234961615
 20
0.3427344608185867
 10
-0.3309029195231443
 20
0.3388683751560495
 10
-0.3584104068187393
 20
0.3392135449193089
 10
-0.3852462633291037
 20
0.3438700365589946
 10
-0.4116210434888589
 20
0.3530274098416599
 10
-0.4313274512429282
 20
0.3634206298670498
 10
-0.4496257618662698
 20
0.3766220874574134
  0
LINE
  5
BE
330
85
100
AcDbEntity
  8
AM_4
100
AcDbLine
 10
-0.0625
 20
-0.8027627095472158
 30
0.0
 11
-0.0625
 21
0.8027627095472161
 31
0.0
  0
LINE
  5
BF
330
85
100
AcDbEntity
  8
AM_4
100
AcDbLine
 10
-0.1558333333333333
 20
-0.8027627095472164
 30
0.0
 11
-0.1558333333333333
 21
0.802762709547216
 31
0.0
  0
ELLIPSE
  5
C0
330
85
100
AcDbEntity
  8
AM_4
100
AcDbEllipse
 10
-0.3424999999999999
 20
0.4627458656929788
 30
0.0
 11
0.1262
 21
0.0
 31
0.0
210
0.0
220
0.0
230
1.0
 40
0.90630778703665
 41
0.0
 42
6.283185307179586
  0
ENDBLK
  5
88
330
85
100
AcDbEntity
  8
0
100
AcDbBlockEnd
  0
BLOCK
  5
C3
330
C1
100
AcDbEntity
  8
0
100
AcDbBlockBegin
  2
3_1_1_4C_2_0_in_023094_2
 70
     2
 10
0.0
 20
0.0
 30
0.0
  3
3_1_1_4C_2_0_in_023094_2
  1

  0
ATTDEF
  5
C5
330
C1
100
AcDbEntity
  8
AM_6
100
AcDbText
 10
2.7475
 20
1.125
 30
0.0
 40
0.5
  1
E-Type Collar -Inch
100
AcDbAttributeDefinition
  3

  2
NN
 70
     8
280
     0
  0
ATTDEF
  5
C6
330
C1
100
AcDbEntity
  8
AM_6
100
AcDbText
 10
2.7475
 20
0.6250000000000002
 30
0.0
 40
0.5
  1
E-Type Bearings
100
AcDbAttributeDefinition
  3

  2
NT
 70
     8
280
     0
  0
ATTDEF
  5
C7
330
C1
100
AcDbEntity
  8
AM_6
100
AcDbText
 10
2.7475
 20
0.1250000000000002
 30
0.0
 40
0.5
  1
1-1/4C
100
AcDbAttributeDefinition
  3

  2
NB
 70
     8
280
     0
  0
ATTDEF
  5
C8
330
C1
100
AcDbEntity
  8
AM_6
100
AcDbText
 10
2.7475
 20
-0.3749999999999998
 30
0.0
 40
0.5
  1
$BORE.C
100
AcDbAttributeDefinition
  3

  2
NBSYN
 70
     8
280
     0
  0
ATTDEF
  5
C9
330
C1
100
AcDbEntity
  8
AM_6
100
AcDbText
 10
2.7475
 20
-0.8749999999999998
 30
0.0
 40
0.5
  1
1-1/4C
100
AcDbAttributeDefinition
  3

  2
LINA
 70
     8
280
     0
  0
ATTDEF
  5
CA
330
C1
100
AcDbEntity
  8
AM_6
100
AcDbText
 10
2.7475
 20
-1.375
 30
0.0
 40
0.5
  1
1-1/4
100
AcDbAttributeDefinition
  3

  2
BORE
 70
     8
280
     0
  0
ATTDEF
  5
CB
330
C1
100
AcDbEntity
  8
AM_6
100
AcDbText
 10
2.7475
 20
-1.875
 30
0.0
 40
0.5
  1
2.25000
100
AcDbAttributeDefinition
  3

  2
L
 70
     8
280
     0
  0
ATTDEF
  5
CC
330
C1
100
AcDbEntity
  8
AM_6
100
AcDbText
 10
2.7475
 20
-2.375
 30
0.0
 40
0.5
  1
2.75
100
AcDbAttributeDefinition
  3

  2
A
 70
     8
280
     0
  0
ATTDEF
  5
CD
330
C1
100
AcDbEntity
  8
AM_6
100
AcDbText
 10
2.7475
 20
-2.875
 30
0.0
 40
0.5
  1
1.16
100
AcDbAttributeDefinition
  3

  2
B
 70
     8
280
     0
  0
ATTDEF
  5
CE
330
C1
100
AcDbEntity
  8
AM_6
100
AcDbText
 10
2.7475
 20
-3.375
 30
0.0
 40
0.5
  1
1.56
100
AcDbAttributeDefinition
  3

  2
C
 70
     8
280
     0
  0
ATTDEF
  5
CF
330
C1
100
AcDbEntity
  8
AM_6
100
AcDbText
 10
2.7475
 20
-3.875
 30
0.0
 40
0.5
  1
2.31
100
AcDbAttributeDefinition
  3

  2
D
 70
     8
280
     0
  0
ATTDEF
  5
D0
330
C1
100
AcDbEntity
  8
AM_6
100
AcDbText
 10
2.7475
 20
-4.375
 30
0.0
 40
0.5
  1
0.35
100
AcDbAttributeDefinition
  3

  2
E
 70
     8
280
     0
  0
ATTDEF
  5
D1
330
C1
100
AcDbEntity
  8
AM_6
100
AcDbText
 10
2.7475
 20
-4.875
 30
0.0
 40
0.5
  1
0.28
100
AcDbAttributeDefinition
  3

  2
F
 70
     8
280
     0
  0
ATTDEF
  5
D2
330
C1
100
AcDbEntity
  8
AM_6
100
AcDbText
 10
2.7475
 20
-5.375
 30
0.0
 40
0.5
  1
5/16-18
100
AcDbAttributeDefinition
  3

  2
CS
 70
     8
280
     0
  0
ATTDEF
  5
D3
330
C1
100
AcDbEntity
  8
AM_6
100
AcDbText
 10
2.7475
 20
-5.875
 30
0.0
 40
0.5
  1
0.3125
100
AcDbAttributeDefinition
  3

  2
NDM
 70
     8
280
     0
  0
ATTDEF
  5
D4
330
C1
100
AcDbEntity
  8
AM_6
100
AcDbText
 10
2.7475
 20
-6.375
 30
0.0
 40
0.5
  1
0.2520
100
AcDbAttributeDefinition
  3

  2
KDM
 70
     8
280
     0
  0
ATTDEF
  5
D5
330
C1
100
AcDbEntity
  8
AM_6
100
AcDbText
 10
2.7475
 20
-6.875
 30
0.0
 40
0.5
  1
baldor
100
AcDbAttributeDefinition
  3

  2
COMPANY
 70
     8
280
     0
  0
LINE
  5
D6
330
C1
100
AcDbEntity
  8
AM_9
100
AcDbLine
 10
-2.4063
 20
0.7892166666666668
 30
0.0
 11
-2.4063
 21
1.09495
 31
0.0
  0
LINE
  5
D7
330
C1
100
AcDbEntity
  8
AM_9
100
AcDbLine
 10
-2.6587
 20
1.09495
 30
0.0
 11
-2.6587
 21
0.7892166666666668
 31
0.0
  0
LINE
  5
D8
330
C1
100
AcDbEntity
  8
AM_9
100
AcDbLine
 10
-2.6587
 20
1.09495
 30
0.0
 11
-2.4063
 21
1.09495
 31
0.0
  0
LINE
  5
D9
330
C1
100
AcDbEntity
  8
AM_9
100
AcDbLine
 10
-2.4063
 20
1.09495
 30
0.0
 11
-2.37625
 21
1.125
 31
0.0
  0
LINE
  5
DA
330
C1
100
AcDbEntity
  8
AM_9
100
AcDbLine
 10
-2.68875
 20
1.125
 30
0.0
 11
-2.6587
 21
1.09495
 31
0.0
  0
LINE
  5
DB
330
C1
100
AcDbEntity
  8
AM_9
100
AcDbLine
 10
-2.6587
 20
0.7892166666666668
 30
0.0
 11
-2.4063
 21
0.7892166666666668
 31
0.0
  0
LINE
  5
DC
330
C1
100
AcDbEntity
  8
AM_9
100
AcDbLine
 10
-2.6587
 20
0.7892166666666668
 30
0.0
 11
-2.667898359520265
 21
0.7800183071464017
 31
0.0
  0
LINE
  5
DD
330
C1
100
AcDbEntity
  8
AM_9
100
AcDbLine
 10
-2.397272479543588
 20
0.7801891462102548
 30
0.0
 11
-2.4063
 21
0.7892166666666668
 31
0.0
  0
LWPOLYLINE
  5
DE
330
C1
100
AcDbEntity
  8
AM_9
100
AcDbPolyline
 90
       38
 70
     0
 43
0.0
 10
-2.435279603243264
 20
0.2324170060135534
 10
-2.422628239620717
 20
0.2484866728251673
 10
-2.412390620210656
 20
0.2659150610376477
 10
-2.403390245706021
 20
0.2883848472163401
 10
-2.398282074036968
 20
0.311610238762849
 10
-2.397244601034743
 20
0.3359277878991582
 10
-2.400548011007652
 20
0.3596919849453718
 10
-2.408275728997513
 20
0.3824501617410994
 10
-2.420216408730409
 20
0.4033734282518462
 10
-2.435933472005924
 20
0.4215874793381467
 10
-2.455207854182025
 20
0.4368799318813891
 10
-2.476108320396042
 20
0.4479821968333325
 10
-2.499159910580538
 20
0.4555520250918573
 10
-2.520731519933361
 20
0.4589202875065721
 10
-2.542695240945243
 20
0.4590551048791982
 10
-2.562514740784315
 20
0.4562825193408361
 10
-2.581515919264316
 20
0.4509008949714548
 10
-2.599545913256253
 20
0.4429071422803831
 10
-2.615896975687441
 20
0.4326633330500344
 10
-2.631560527510835
 20
0.4191392709994107
 10
-2.644635051507858
 20
0.4035829116265586
 10
-2.655830840999824
 20
0.3844022335040472
 10
-2.663460277823926
 20
0.3636167008307757
 10
-2.667480654018731
 20
0.3402637477995005
 10
-2.667254974099487
 20
0.3162527437374513
 10
-2.662605272049744
 20
0.2917688957574772
 10
-2.653637578734912
 20
0.2680147717206904
 10
-2.640544854877386
 20
0.24588259786528
 10
-2.623593524887762
 20
0.2260532495162348
 10
-2.60403690167964
 20
0.2100786630015958
 10
-2.581742105424381
 20
0.1978243312562965
 10
-2.559943250147866
 20
0.1907145183418255
 10
-2.537167277340557
 20
0.1876625543137574
 10
-2.516670683052522
 20
0.1886204674888822
 10
-2.496634033257771
 20
0.1929322182724388
 10
-2.477979757390598
 20
0.2002436619319185
 10
-2.460708534527432
 20
0.2102277755301061
 10
-2.435279603243264
 20
0.2324170060135535
  0
LINE
  5
DF
330
C1
100
AcDbEntity
  8
AM_9
100
AcDbLine
 10
-2.8125
 20
-0.78
 30
0.0
 11
-2.2525
 21
-0.78
 31
0.0
  0
LINE
  5
E0
330
C1
100
AcDbEntity
  8
AM_9
100
AcDbLine
 10
-2.2525
 20
0.78
 30
0.0
 11
-2.397562184573689
 21
0.78
 31
0.0
  0
LINE
  5
E1
330
C1
100
AcDbEntity
  8
AM_9
100
AcDbLine
 10
-2.667870208185645
 20
0.78
 30
0.0
 11
-2.8125
 21
0.78
 31
0.0
  0
LWPOLYLINE
  5
E2
330
C1
100
AcDbEntity
  8
AM_9
100
AcDbPolyline
 90
       21
 70
     0
 43
0.0
 10
-2.667916666666593
 20
0.7799999999999845
 10
-2.667915604692751
 20
0.7799997768970337
 10
-2.665583854765652
 20
0.7795137680246463
 10
-2.658973527769458
 20
0.7781780795036203
 10
-2.647822946572276
 20
0.7760678354693278
 10
-2.633195735451065
 20
0.7735768141386166
 10
-2.614335178415555
 20
0.7708402221763176
 10
-2.594209988960942
 20
0.7685252295375166
 10
-2.570913233005848
 20
0.7666433909622838
 10
-2.54961749482559
 20
0.7656849329505352
 10
-2.526972639440999
 20
0.7654718098125881
 10
-2.507214163659952
 20
0.7659659664211939
 10
-2.487615633753396
 20
0.7670792834303033
 10
-2.469586929087179
 20
0.7686458010709205
 10
-2.45273428315302
 20
0.7705731066608501
 10
-2.436892213799497
 20
0.7727853175583044
 10
-2.423198947992969
 20
0.7750038447767574
 10
-2.411479197485264
 20
0.7771235786142647
 10
-2.402985996463614
 20
0.7787846796331405
 10
-2.398077213902205
 20
0.779791900607991
 10
-2.397083333334439
 20
0.7799999999997678
  0
ELLIPSE
  5
E3
330
C1
100
AcDbEntity
  8
AM_9
100
AcDbEllipse
 10
-2.532500000000012
 20
0.3335373758034599
 30
0.0
 11
0.1261999999999874
 21
0.0
 31
0.0
210
0.0
220
0.0
230
1.0
 40
0.906307787036648
 41
2.541352447250647
 42
3.141592653589793
  0
LINE
  5
E4
330
C1
100
AcDbEntity
  8
AM_9
100
AcDbLine
 10
-2.4063
 20
0.3335373758034558
 30
0.0
 11
-2.4063
 21
0.462745865692979
 31
0.0
  0
LINE
  5
E5
330
C1
100
AcDbEntity
  8
AM_9
100
AcDbLine
 10
-2.6587
 20
0.462745865692979
 30
0.0
 11
-2.6587
 21
0.3335373758034558
 31
0.0
  0
ELLIPSE
  5
E6
330
C1
100
AcDbEntity
  8
AM_9
100
AcDbEllipse
 10
-2.5325
 20
0.3335373758034557
 30
0.0
 11
0.1261999999999999
 21
0.0
 31
0.0
210
0.0
220
0.0
230
1.0
 40
0.9063077870366502
 41
3.141592653589793
 42
6.283185307179586
  0
ELLIPSE
  5
E7
330
C1
100
AcDbEntity
  8
AM_9
100
AcDbEllipse
 10
-2.532499999999999
 20
0.3335373758034554
 30
0.0
 11
0.126199999999999
 21
0.0
 31
0.0
210
0.0
220
0.0
230
1.0
 40
0.9063077870366516
 41
0.0
 42
0.6002402063391182
  0
LINE
  5
E8
330
C1
100
AcDbEntity
  8
AM_9
100
AcDbLine
 10
-2.34375
 20
-1.125
 30
0.0
 11
-2.2525
 21
-1.125
 31
0.0
  0
LINE
  5
E9
330
C1
100
AcDbEntity
  8
AM_9
100
AcDbLine
 10
-2.2525
 20
1.125
 30
0.0
 11
-2.34375
 21
1.125
 31
0.0
  0
LINE
  5
EA
330
C1
100
AcDbEntity
  8
AM_9
100
AcDbLine
 10
-2.2525
 20
1.125
 30
0.0
 11
-2.2525
 21
-1.125
 31
0.0
  0
LINE
  5
EB
330
C1
100
AcDbEntity
  8
AM_5
100
AcDbLine
 10
-2.68875
 20
1.125
 30
0.0
 11
-2.68875
 21
0.78
 31
0.0
  0
LINE
  5
EC
330
C1
100
AcDbEntity
  8
AM_5
100
AcDbLine
 10
-2.37625
 20
1.125
 30
0.0
 11
-2.37625
 21
0.78
 31
0.0
  0
ELLIPSE
  5
ED
330
C1
100
AcDbEntity
  8
AM_4
100
AcDbEllipse
 10
-2.5325
 20
0.3335373758034562
 30
0.0
 11
0.126199999999999
 21
0.0
 31
0.0
210
0.0
220
0.0
230
1.0
 40
0.9063077870366535
 41
0.6002402063391061
 42
2.541352447250678
  0
ELLIPSE
  5
EE
330
C1
100
AcDbEntity
  8
AM_4
100
AcDbEllipse
 10
-2.5325
 20
0.4627458656929788
 30
0.0
 11
0.1261999999999999
 21
0.0
 31
0.0
210
0.0
220
0.0
230
1.0
 40
0.9063077870366496
 41
1.570796326794897
 42
6.283185307179586
  0
ELLIPSE
  5
EF
330
C1
100
AcDbEntity
  8
AM_4
100
AcDbEllipse
 10
-2.5325
 20
0.462745865692979
 30
0.0
 11
0.1261999999999999
 21
0.0
 31
0.0
210
0.0
220
0.0
230
1.0
 40
0.9063077870366506
 41
0.0
 42
1.570796326794897
  0
LINE
  5
F0
330
C1
100
AcDbEntity
  8
AM_4
100
AcDbLine
 10
-2.8125
 20
1.031666666666667
 30
0.0
 11
-2.8125
 21
-1.031666666666667
 31
0.0
  0
ARC
  5
F1
330
C1
100
AcDbEntity
  8
AM_4
100
AcDbCircle
 10
-2.719166666666666
 20
-1.031666666666667
 30
0.0
 40
0.0933333333333333
100
AcDbArc
 50
180.0
 51
270.0
  0
ARC
  5
F2
330
C1
100
AcDbEntity
  8
AM_4
100
AcDbCircle
 10
-2.719166666666666
 20
1.031666666666667
 30
0.0
 40
0.0933333333333333
100
AcDbArc
 50
90.0
 51
180.0
  0
LWPOLYLINE
  5
F3
330
C1
100
AcDbEntity
  8
AM_4
100
AcDbPolyline
 90
       38
 70
     0
 43
0.0
 10
-2.413035451735047
 20
0.3881834872530196
 10
-2.42932236372814
 20
0.373434508892148
 10
-2.447711884170819
 20
0.3610035084783456
 10
-2.470927023245753
 20
0.3499111538567566
 10
-2.495713660461118
 20
0.3424523335190974
 10
-2.522594517362634
 20
0.3387768600956141
 10
-2.549744790697964
 20
0.3393424538200956
 10
-2.576928012279069
 20
0.3443272607094023
 10
-2.60284126069328
 20
0.3535746300041839
 10
-2.626510821194611
 20
0.366785379136235
 10
-2.647397754854325
 20
0.383596938299824
 10
-2.664123052119614
 20
0.4027661412918224
 10
-2.67694358220838
 20
0.4242469467272598
 10
-2.684848906540591
 20
0.4458532055187673
 10
-2.688517411363172
 20
0.4681959640612007
 10
-2.687876228309253
 20
0.4892822164529947
 10
-2.683345025847232
 20
0.5097748007735574
 10
-2.675168047938741
 20
0.5288740070401675
 10
-2.663659347159301
 20
0.5464054793988136
 10
-2.648546599250866
 20
0.5625398795666972
 10
-2.630716247801388
 20
0.5763022973461558
 10
-2.609314811917832
 20
0.588058253662757
 10
-2.586007801375902
 20
0.5967179047665059
 10
-2.560015913679215
 20
0.6023317026383108
 10
-2.533290813554955
 20
0.6042976945136697
 10
-2.505788239351721
 20
0.6024440792717971
 10
-2.479038260055054
 20
0.5967313939383371
 10
-2.4537988449307
 20
0.587180089197062
 10
-2.430866629176265
 20
0.5739945004554785
 10
-2.411545882003019
 20
0.5578591391066343
 10
-2.395833029930261
 20
0.5388422986446096
 10
-2.384965765579091
 20
0.5186622865000969
 10
-2.378321387803072
 20
0.49687546885299
 10
-2.376267685362712
 20
0.4756015710471531
 10
-2.378261706629398
 20
0.4541170193696666
 10
-2.384050559910157
 20
0.4336812400662838
 10
-2.393359756556849
 20
0.4142159501636095
 10
-2.413035451605576
 20
0.3881834870639915
  0
LINE
  5
F4
330
C1
100
AcDbEntity
  8
AM_4
100
AcDbLine
 10
-2.719166666666666
 20
-1.125
 30
0.0
 11
-2.34375
 21
-1.125
 31
0.0
  0
LINE
  5
F5
330
C1
100
AcDbEntity
  8
AM_4
100
AcDbLine
 10
-2.34375
 20
1.125
 30
0.0
 11
-2.37625
 21
1.125
 31
0.0
  0
LINE
  5
F6
330
C1
100
AcDbEntity
  8
AM_4
100
AcDbLine
 10
-2.68875
 20
1.125
 30
0.0
 11
-2.719166666666666
 21
1.125
 31
0.0
  0
LINE
  5
F7
330
C1
100
AcDbEntity
  8
AM_4
100
AcDbLine
 10
-2.719166666666666
 20
1.125
 30
0.0
 11
-2.719166666666666
 21
-1.125
 31
0.0
  0
LWPOLYLINE
  5
F8
330
C1
100
AcDbEntity
  8
AM_4
100
AcDbPolyline
 90
       20
 70
     0
 43
0.0
 10
-2.376250000000137
 20
1.124999999999983
 10
-2.377973107274758
 20
1.124790989543249
 10
-2.383368362615965
 20
1.124151118661381
 10
-2.392531642124469
 20
1.12311511145237
 10
-2.404961649030705
 20
1.121812349752102
 10
-2.420725701368272
 20
1.120331056887823
 10
-2.439678229245468
 20
1.118804901516317
 10
-2.461400543312094
 20
1.117400217306276
 10
-2.485661420422534
 20
1.116269204470509
 10
-2.51180821444867
 20
1.115570242670326
 10
-2.538795108860979
 20
1.115416340621029
 10
-2.566364553320775
 20
1.11585482023245
 10
-2.592502749685382
 20
1.116825412569953
 10
-2.617647922084681
 20
1.118266507825014
 10
-2.639210557398799
 20
1.119895991710881
 10
-2.658211518354508
 20
1.121630876629238
 10
-2.672159332349878
 20
1.123081289252898
 10
-2.682376488478216
 20
1.124238141831345
 10
-2.687546712664131
 20
1.124853805995153
 10
-2.688749999999733
 20
1.124999999999968
  0
ENDBLK
  5
C4
330
C1
100
AcDbEntity
  8
0
100
AcDbBlockEnd
  0
BLOCK
  5
FB
330
F9
100
AcDbEntity
  8
0
100
AcDbBlockBegin
  2
4_1_1_4I_0_in_023094_2
 70
     2
 10
0.0
 20
0.0
 30
0.0
  3
4_1_1_4I_0_in_023094_2
  1

  0
ATTDEF
  5
FD
330
F9
100
AcDbEntity
  8
AM_6
100
AcDbText
 10
4.9375
 20
1.155
 30
0.0
 40
0.5
  1
E-Type Insert -Inch
100
AcDbAttributeDefinition
  3

  2
NN
 70
     8
280
     0
  0
ATTDEF
  5
FE
330
F9
100
AcDbEntity
  8
AM_6
100
AcDbText
 10
4.9375
 20
0.655
 30
0.0
 40
0.5
  1
E-Type Bearings
100
AcDbAttributeDefinition
  3

  2
NT
 70
     8
280
     0
  0
ATTDEF
  5
FF
330
F9
100
AcDbEntity
  8
AM_6
100
AcDbText
 10
4.9375
 20
0.155
 30
0.0
 40
0.5
  1
1-1/4I
100
AcDbAttributeDefinition
  3

  2
NB
 70
     8
280
     0
  0
ATTDEF
  5
100
330
F9
100
AcDbEntity
  8
AM_6
100
AcDbText
 10
4.9375
 20
-0.345
 30
0.0
 40
0.5
  1
$BORE.I
100
AcDbAttributeDefinition
  3

  2
NBSYN
 70
     8
280
     0
  0
ATTDEF
  5
101
330
F9
100
AcDbEntity
  8
AM_6
100
AcDbText
 10
4.9375
 20
-0.845
 30
0.0
 40
0.5
  1
1-1/4I
100
AcDbAttributeDefinition
  3

  2
LINA
 70
     8
280
     0
  0
ATTDEF
  5
102
330
F9
100
AcDbEntity
  8
AM_6
100
AcDbText
 10
4.9375
 20
-1.345
 30
0.0
 40
0.5
  1
1-1/4
100
AcDbAttributeDefinition
  3

  2
BORE
 70
     8
280
     0
  0
ATTDEF
  5
103
330
F9
100
AcDbEntity
  8
AM_6
100
AcDbText
 10
4.9375
 20
-1.845
 30
0.0
 40
0.5
  1
2.75
100
AcDbAttributeDefinition
  3

  2
A
 70
     8
280
     0
  0
ATTDEF
  5
104
330
F9
100
AcDbEntity
  8
AM_6
100
AcDbText
 10
4.9375
 20
-2.345
 30
0.0
 40
0.5
  1
1.16
100
AcDbAttributeDefinition
  3

  2
B
 70
     8
280
     0
  0
ATTDEF
  5
105
330
F9
100
AcDbEntity
  8
AM_6
100
AcDbText
 10
4.9375
 20
-2.845
 30
0.0
 40
0.5
  1
1.56
100
AcDbAttributeDefinition
  3

  2
C
 70
     8
280
     0
  0
ATTDEF
  5
106
330
F9
100
AcDbEntity
  8
AM_6
100
AcDbText
 10
4.9375
 20
-3.345
 30
0.0
 40
0.5
  1
2.31
100
AcDbAttributeDefinition
  3

  2
D
 70
     8
280
     0
  0
ATTDEF
  5
107
330
F9
100
AcDbEntity
  8
AM_6
100
AcDbText
 10
4.9375
 20
-3.845
 30
0.0
 40
0.5
  1
0.35
100
AcDbAttributeDefinition
  3

  2
E
 70
     8
280
     0
  0
ATTDEF
  5
108
330
F9
100
AcDbEntity
  8
AM_6
100
AcDbText
 10
4.9375
 20
-4.345
 30
0.0
 40
0.5
  1
0.28
100
AcDbAttributeDefinition
  3

  2
F
 70
     8
280
     0
  0
ATTDEF
  5
109
330
F9
100
AcDbEntity
  8
AM_6
100
AcDbText
 10
4.9375
 20
-4.845
 30
0.0
 40
0.5
  1
baldor
100
AcDbAttributeDefinition
  3

  2
COMPANY
 70
     8
280
     0
  0
LINE
  5
10A
330
F9
100
AcDbEntity
  8
AM_9
100
AcDbLine
 10
-0.5175000149999999
 20
0.7800000000000001
 30
0.0
 11
-0.5175000149999999
 21
0.625
 31
0.0
  0
LINE
  5
10B
330
F9
100
AcDbEntity
  8
AM_9
100
AcDbLine
 10
-0.1675000049999998
 20
0.625
 30
0.0
 11
-0.1675000049999998
 21
0.7800000000000001
 31
0.0
  0
LINE
  5
10C
330
F9
100
AcDbEntity
  8
AM_9
100
AcDbLine
 10
-2.707499995
 20
0.7800000000000001
 30
0.0
 11
-2.707499995
 21
0.625
 31
0.0
  0
LINE
  5
10D
330
F9
100
AcDbEntity
  8
AM_9
100
AcDbLine
 10
-2.357499985
 20
0.625
 30
0.0
 11
-2.357499985
 21
0.7800000000000001
 31
0.0
  0
LINE
  5
10E
330
F9
100
AcDbEntity
  8
AM_9
100
AcDbLine
 10
-2.8125
 20
-0.625
 30
0.0
 11
-0.0625
 21
-0.625
 31
0.0
  0
LINE
  5
10F
330
F9
100
AcDbEntity
  8
AM_9
100
AcDbLine
 10
-0.0625
 20
0.625
 30
0.0
 11
-0.1675000049999998
 21
0.625
 31
0.0
  0
LINE
  5
110
330
F9
100
AcDbEntity
  8
AM_9
100
AcDbLine
 10
-0.5175000149999999
 20
0.6250000000000001
 30
0.0
 11
-2.357499985
 21
0.625
 31
0.0
  0
LINE
  5
111
330
F9
100
AcDbEntity
  8
AM_9
100
AcDbLine
 10
-2.707499995
 20
0.625
 30
0.0
 11
-2.8125
 21
0.625
 31
0.0
  0
LWPOLYLINE
  5
112
330
F9
100
AcDbEntity
  8
AM_9
100
AcDbPolyline
 90
       21
 70
     0
 43
0.0
 10
-0.5175000149989676
 20
0.624999999999711
 10
-0.5166698321940427
 20
0.6247680571324885
 10
-0.5117151731475112
 20
0.6234049804814193
 10
-0.5021215977298299
 20
0.62086959139532
 10
-0.4885306658879107
 20
0.6175151420888831
 10
-0.4706737150299846
 20
0.613537689886378
 10
-0.4492018687551009
 20
0.6094138863791942
 10
-0.4240154137040199
 20
0.6055119811292171
 10
-0.3969819895008515
 20
0.6024684924046495
 10
-0.3674152252274908
 20
0.6005170823547255
 10
-0.3389233087228656
 20
0.6000106591070078
 10
-0.309681102088624
 20
0.6008968954541997
 10
-0.2827910252005876
 20
0.6029636482540025
 10
-0.2568200208627271
 20
0.6060866759701645
 10
-0.2332695259015027
 20
0.6098617030986551
 10
-0.2121011834590895
 20
0.6140063942771659
 10
-0.1944722591253024
 20
0.6179904637444024
 10
-0.1806240718771236
 20
0.621452989045158
 10
-0.1718236800785305
 20
0.6238031803745971
 10
-0.1677198342941748
 20
0.6249384834283764
 10
-0.1675000050039946
 20
0.6249999999988815
  0
LWPOLYLINE
  5
113
330
F9
100
AcDbEntity
  8
AM_9
100
AcDbPolyline
 90
       21
 70
     0
 43
0.0
 10
-2.707499994998968
 20
0.624999999999711
 10
-2.706669812194043
 20
0.6247680571324885
 10
-2.701715153147511
 20
0.6234049804814193
 10
-2.69212157772983
 20
0.6208695913953203
 10
-2.678530645887911
 20
0.6175151420888831
 10
-2.660673695029984
 20
0.613537689886378
 10
-2.639201848755101
 20
0.6094138863791942
 10
-2.61401539370402
 20
0.6055119811292171
 10
-2.586981969500851
 20
0.6024684924046494
 10
-2.557415205227491
 20
0.6005170823547255
 10
-2.528923288722865
 20
0.6000106591070077
 10
-2.499681082088624
 20
0.6008968954541997
 10
-2.472791005200588
 20
0.6029636482540025
 10
-2.446820000862727
 20
0.6060866759701645
 10
-2.423269505901503
 20
0.6098617030986551
 10
-2.402101163459089
 20
0.614006394277166
 10
-2.384472239125303
 20
0.6179904637444024
 10
-2.370624051877124
 20
0.621452989045158
 10
-2.36182366007853
 20
0.6238031803745971
 10
-2.357719814294175
 20
0.6249384834283764
 10
-2.357499985003995
 20
0.6249999999988815
  0
LWPOLYLINE
  5
114
330
F9
100
AcDbEntity
  8
AM_9
100
AcDbPolyline
 90
        3
 70
     0
 43
0.0
 10
-2.70378563506141
 20
0.2962050487551471
 10
-2.707038477738374
 20
0.2755929768374284
 10
-2.707499994830366
 20
0.2641433969648191
  0
LWPOLYLINE
  5
115
330
F9
100
AcDbEntity
  8
AM_9
100
AcDbPolyline
 90
        6
 70
     0
 43
0.0
 10
-2.648644640649643
 20
0.3769158601624845
 10
-2.660644565848549
 20
0.3673037915035958
 10
-2.678925693125008
 20
0.347869508964944
 10
-2.692900320255843
 20
0.3258960428381725
 10
-2.702587496640088
 20
0.3008783339027417
 10
-2.70378563506141
 20
0.2962050487551471
  0
LWPOLYLINE
  5
116
330
F9
100
AcDbEntity
  8
AM_9
100
AcDbPolyline
 90
        3
 70
     0
 43
0.0
 10
-2.62803755211846
 20
0.3896486657581339
 10
-2.639340899778099
 20
0.3831741942201
 10
-2.648644640649643
 20
0.3769158601624845
  0
LINE
  5
117
330
F9
100
AcDbEntity
  8
AM_9
100
AcDbLine
 10
-2.707499995
 20
0.3296094572356776
 30
0.0
 11
-2.707499995
 21
0.2640633024431691
 31
0.0
  0
LINE
  5
118
330
F9
100
AcDbEntity
  8
AM_9
100
AcDbLine
 10
-2.357499985
 20
0.2640785568542703
 30
0.0
 11
-2.357499985
 21
0.3295852435991851
 31
0.0
  0
LWPOLYLINE
  5
119
330
F9
100
AcDbEntity
  8
AM_9
100
AcDbPolyline
 90
       21
 70
     0
 43
0.0
 10
-2.707499994830366
 20
0.2641433969648191
 10
-2.706669812194043
 20
0.2486078571191309
 10
-2.701715153147511
 20
0.2230199721902361
 10
-2.69212157772983
 20
0.197376584083707
 10
-2.678530645887911
 20
0.1735717865294573
 10
-2.660673695029984
 20
0.1513064936591524
 10
-2.639201848755101
 20
0.1318379311846586
 10
-2.61401539370402
 20
0.115553632019241
 10
-2.586981969500851
 20
0.1038924072166311
 10
-2.557415205227491
 20
0.0968012956080321
 10
-2.528923288722865
 20
0.0950047242797329
 10
-2.499681082088624
 20
0.0981601452804222
 10
-2.472791005200588
 20
0.1057369504696931
 10
-2.446820000862727
 20
0.1178490999582259
 10
-2.423269505901503
 20
0.1338238353600313
 10
-2.402101163459089
 20
0.1537154295265001
 10
-2.384472239125303
 20
0.1765771937060606
 10
-2.370624051877124
 20
0.2023751895323448
 10
-2.36182366007853
 20
0.2285927970974668
 10
-2.357719814294175
 20
0.2561631798694863
 10
-2.357499985657362
 20
0.2641226663001052
  0
LWPOLYLINE
  5
11A
330
F9
100
AcDbEntity
  8
AM_9
100
AcDbPolyline
 90
        3
 70
     0
 43
0.0
 10
-2.414836715988694
 20
0.3758030079137465
 10
-2.42854623385409
 20
0.3849373839099912
 10
-2.435969357893616
 20
0.3891241788775603
  0
LWPOLYLINE
  5
11B
330
F9
100
AcDbEntity
  8
AM_9
100
AcDbPolyline
 90
        6
 70
     0
 43
0.0
 10
-2.361294592115374
 20
0.2965411740988894
 10
-2.364236367435352
 20
0.3069350385540575
 10
-2.374055463792572
 20
0.329601093763581
 10
-2.388313219802232
 20
0.3506707686808825
 10
-2.406425933739478
 20
0.3691056056751575
 10
-2.414836715988694
 20
0.3758030079137465
  0
LWPOLYLINE
  5
11C
330
F9
100
AcDbEntity
  8
AM_9
100
AcDbPolyline
 90
        3
 70
     0
 43
0.0
 10
-2.357499985657362
 20
0.2641226663001052
 10
-2.358593204546495
 20
0.2817078642918748
 10
-2.361294592115374
 20
0.2965411740988894
  0
LWPOLYLINE
  5
11D
330
F9
100
AcDbEntity
  8
AM_9
100
AcDbPolyline
 90
       21
 70
     0
 43
0.0
 10
-2.35749998538156
 20
0.3296527176081267
 10
-2.358445798973719
 20
0.3130853950757339
 10
-2.363797175138476
 20
0.2869477463281866
 10
-2.37366313782196
 20
0.2616030115919366
 10
-2.387934081544994
 20
0.2376424189191236
 10
-2.406097121642332
 20
0.2159630812976146
 10
-2.428226955913253
 20
0.1968926191269485
 10
-2.453326810125882
 20
0.1815325511135671
 10
-2.48084630107074
 20
0.1704629365777576
 10
-2.509895910159925
 20
0.1641053038430527
 10
-2.538994076670143
 20
0.1627758599924162
 10
-2.567905213784874
 20
0.1662628190112176
 10
-2.595443458267214
 20
0.1743664809805585
 10
-2.621251347223067
 20
0.1867269151550843
 10
-2.644981596129311
 20
0.2032537107511491
 10
-2.665616790336373
 20
0.2231710434263793
 10
-2.68286592506296
 20
0.2463552208078389
 10
-2.695847784984844
 20
0.2716659927716505
 10
-2.704066479264047
 20
0.2981428384447712
 10
-2.707428763365908
 20
0.3251106642384882
 10
-2.707499993970838
 20
0.3296250431478691
  0
LWPOLYLINE
  5
11E
330
F9
100
AcDbEntity
  8
AM_9
100
AcDbPolyline
 90
        7
 70
     0
 43
0.0
 10
-2.654907429612496
 20
0.4387252353405063
 10
-2.65455779568896
 20
0.4389917159283953
 10
-2.631973093983743
 20
0.4544673621625402
 10
-2.606179876892702
 20
0.4665897770848295
 10
-2.578222393398741
 20
0.4749140135560529
 10
-2.555570873041342
 20
0.4786007185548536
 10
-2.53249999
 20
0.4798423987222393
  0
LWPOLYLINE
  5
11F
330
F9
100
AcDbEntity
  8
AM_9
100
AcDbPolyline
 90
        6
 70
     0
 43
0.0
 10
-2.707499993970838
 20
0.3296250431478691
 10
-2.705839685689123
 20
0.3511625415686236
 10
-2.69954779285652
 20
0.3761720574800654
 10
-2.688731583039331
 20
0.3993802484185087
 10
-2.673752021220185
 20
0.4203683341285819
 10
-2.654907429612496
 20
0.4387252353405063
  0
LWPOLYLINE
  5
120
330
F9
100
AcDbEntity
  8
AM_9
100
AcDbPolyline
 90
        3
 70
     0
 43
0.0
 10
-0.5137856550614097
 20
0.2962050487551473
 10
-0.5170384977383745
 20
0.2755929768374286
 10
-0.5175000148303655
 20
0.2641433969648192
  0
LWPOLYLINE
  5
121
330
F9
100
AcDbEntity
  8
AM_9
100
AcDbPolyline
 90
        6
 70
     0
 43
0.0
 10
-0.4588730447167756
 20
0.3767502464775631
 10
-0.470644585848549
 20
0.3673037915035958
 10
-0.488925713125008
 20
0.347869508964944
 10
-0.502900340255843
 20
0.3258960428381724
 10
-0.5125875166400874
 20
0.3008783339027417
 10
-0.5137856550614097
 20
0.2962050487551473
  0
LWPOLYLINE
  5
122
330
F9
100
AcDbEntity
  8
AM_9
100
AcDbPolyline
 90
        3
 70
     0
 43
0.0
 10
-0.4380791990490149
 20
0.3896268423789397
 10
-0.4493409197780994
 20
0.3831741942201
 10
-0.4588730447167756
 20
0.3767502464775631
  0
LINE
  5
123
330
F9
100
AcDbEntity
  8
AM_9
100
AcDbLine
 10
-0.5175000149999999
 20
0.3296094572356775
 30
0.0
 11
-0.5175000149999999
 21
0.264063302443169
 31
0.0
  0
LINE
  5
124
330
F9
100
AcDbEntity
  8
AM_9
100
AcDbLine
 10
-0.1675000049999998
 20
0.2640785568542703
 30
0.0
 11
-0.1675000049999998
 21
0.3295852435991851
 31
0.0
  0
LWPOLYLINE
  5
125
330
F9
100
AcDbEntity
  8
AM_9
100
AcDbPolyline
 90
       21
 70
     0
 43
0.0
 10
-0.5175000148303655
 20
0.2641433969648192
 10
-0.5166698321940427
 20
0.2486078571191309
 10
-0.5117151731475112
 20
0.2230199721902361
 10
-0.5021215977298299
 20
0.197376584083707
 10
-0.4885306658879107
 20
0.1735717865294573
 10
-0.4706737150299846
 20
0.1513064936591524
 10
-0.4492018687551009
 20
0.1318379311846586
 10
-0.4240154137040197
 20
0.115553632019241
 10
-0.3969819895008514
 20
0.1038924072166311
 10
-0.3674152252274906
 20
0.0968012956080321
 10
-0.3389233087228656
 20
0.0950047242797329
 10
-0.3096811020886241
 20
0.0981601452804222
 10
-0.2827910252005877
 20
0.1057369504696931
 10
-0.2568200208627271
 20
0.1178490999582259
 10
-0.2332695259015027
 20
0.1338238353600313
 10
-0.2121011834590895
 20
0.1537154295265001
 10
-0.1944722591253024
 20
0.1765771937060607
 10
-0.1806240718771236
 20
0.2023751895323448
 10
-0.1718236800785305
 20
0.2285927970974668
 10
-0.1677198342941748
 20
0.2561631798694863
 10
-0.1675000056573622
 20
0.2641226663001052
  0
LWPOLYLINE
  5
126
330
F9
100
AcDbEntity
  8
AM_9
100
AcDbPolyline
 90
        3
 70
     0
 43
0.0
 10
-0.2263291371472429
 20
0.3768968761076764
 10
-0.2385462538540897
 20
0.3849373839099912
 10
-0.2464023541807484
 20
0.389353846930537
  0
LWPOLYLINE
  5
127
330
F9
100
AcDbEntity
  8
AM_9
100
AcDbPolyline
 90
        6
 70
     0
 43
0.0
 10
-0.1712946121153735
 20
0.2965411740988892
 10
-0.1742363874353519
 20
0.3069350385540576
 10
-0.1840554837925719
 20
0.3296010937635812
 10
-0.1983132398022321
 20
0.3506707686808826
 10
-0.2164259537394776
 20
0.3691056056751575
 10
-0.2263291371472429
 20
0.3768968761076764
  0
LWPOLYLINE
  5
128
330
F9
100
AcDbEntity
  8
AM_9
100
AcDbPolyline
 90
        3
 70
     0
 43
0.0
 10
-0.1675000056573622
 20
0.2641226663001052
 10
-0.1685932245464952
 20
0.2817078642918748
 10
-0.1712946121153735
 20
0.2965411740988892
  0
LWPOLYLINE
  5
129
330
F9
100
AcDbEntity
  8
AM_9
100
AcDbPolyline
 90
       21
 70
     0
 43
0.0
 10
-0.16750000538156
 20
0.3296527176081266
 10
-0.1684458189737194
 20
0.3130853950757339
 10
-0.1737971951384762
 20
0.2869477463281866
 10
-0.1836631578219597
 20
0.2616030115919366
 10
-0.197934101544994
 20
0.2376424189191237
 10
-0.2160971416423322
 20
0.2159630812976147
 10
-0.2382269759132532
 20
0.1968926191269486
 10
-0.2633268301258824
 20
0.1815325511135671
 10
-0.2908463210707394
 20
0.1704629365777576
 10
-0.3198959301599247
 20
0.1641053038430527
 10
-0.3489940966701433
 20
0.1627758599924162
 10
-0.3779052337848735
 20
0.1662628190112176
 10
-0.4054434782672144
 20
0.1743664809805585
 10
-0.431251367223067
 20
0.1867269151550843
 10
-0.4549816161293112
 20
0.2032537107511491
 10
-0.4756168103363725
 20
0.2231710434263793
 10
-0.4928659450629597
 20
0.2463552208078389
 10
-0.5058478049848439
 20
0.2716659927716504
 10
-0.5140664992640471
 20
0.2981428384447712
 10
-0.5174287833659076
 20
0.3251106642384882
 10
-0.5175000139708386
 20
0.3296250431478691
  0
LWPOLYLINE
  5
12A
330
F9
100
AcDbEntity
  8
AM_9
100
AcDbPolyline
 90
        7
 70
     0
 43
0.0
 10
-0.4647920320890109
 20
0.4388197698433197
 10
-0.4645578156889601
 20
0.4389917159283954
 10
-0.4419731139837434
 20
0.4544673621625402
 10
-0.4161798968927016
 20
0.4665897770848295
 10
-0.388222413398741
 20
0.4749140135560531
 10
-0.3655708930413423
 20
0.4786007185548536
 10
-0.3425000099999999
 20
0.4798423987222393
  0
LWPOLYLINE
  5
12B
330
F9
100
AcDbEntity
  8
AM_9
100
AcDbPolyline
 90
        6
 70
     0
 43
0.0
 10
-0.5175000139708386
 20
0.3296250431478691
 10
-0.5158397056891231
 20
0.3511625415686236
 10
-0.5095478128565203
 20
0.3761720574800654
 10
-0.4987316030393312
 20
0.3993802484185087
 10
-0.4837520412201849
 20
0.4203683341285819
 10
-0.4647920320890109
 20
0.4388197698433197
  0
LWPOLYLINE
  5
12C
330
F9
100
AcDbEntity
  8
AM_9
100
AcDbPolyline
 90
        7
 70
     0
 43
0.0
 10
-0.2198427309484381
 20
0.4385199768312141
 10
-0.2132586265182651
 20
0.4327631423252249
 10
-0.1953544320552998
 20
0.4130540009556156
 10
-0.1814668008971262
 20
0.3904138061525982
 10
-0.172174647767407
 20
0.3656182785135133
 10
-0.1678755856888207
 20
0.3397257645243441
 10
-0.16750000538156
 20
0.3296527176081266
  0
LWPOLYLINE
  5
12D
330
F9
100
AcDbEntity
  8
AM_9
100
AcDbPolyline
 90
        6
 70
     0
 43
0.0
 10
-0.3425000099999999
 20
0.4798423987222393
 10
-0.3135396158458221
 20
0.4778753585664813
 10
-0.2854058666749373
 20
0.4720689523947759
 10
-0.2589286581081074
 20
0.4625098347608406
 10
-0.2347625133976323
 20
0.449433154840821
 10
-0.2198427309484381
 20
0.4385199768312141
  0
LINE
  5
12E
330
F9
100
AcDbEntity
  8
AM_9
100
AcDbLine
 10
-0.8574999999999999
 20
-0.7800000000000001
 30
0.0
 11
-0.0625
 21
-0.7800000000000001
 31
0.0
  0
LINE
  5
12F
330
F9
100
AcDbEntity
  8
AM_9
100
AcDbLine
 10
-0.0625
 20
0.7800000000000001
 30
0.0
 11
-0.1675000049999998
 21
0.7800000000000001
 31
0.0
  0
LINE
  5
130
330
F9
100
AcDbEntity
  8
AM_9
100
AcDbLine
 10
-0.5175000149999999
 20
0.7800000000000001
 30
0.0
 11
-0.8574999999999999
 21
0.7800000000000001
 31
0.0
  0
LWPOLYLINE
  5
131
330
F9
100
AcDbEntity
  8
AM_9
100
AcDbPolyline
 90
       21
 70
     0
 43
0.0
 10
-0.1675000050009317
 20
0.7799999999997912
 10
-0.1684458189737194
 20
0.7797883428622239
 10
-0.1736737645114889
 20
0.7786381055508054
 10
-0.1836631578219597
 20
0.7765334145159682
 10
-0.1976986693113815
 20
0.7737844832479012
 10
-0.2160971416423323
 20
0.7705534915754039
 10
-0.2378792885900196
 20
0.767281235009918
 10
-0.2633268301258825
 20
0.7642273160921293
 10
-0.2904144890202319
 20
0.7618975651265293
 10
-0.3198959301599247
 20
0.7604511441739151
 10
-0.3485665865043992
 20
0.7601393303865313
 10
-0.3779052337848736
 20
0.7609392407553032
 10
-0.405078402876746
 20
0.7626867335315571
 10
-0.431251367223067
 20
0.7652789044909944
 10
-0.4546846337052018
 20
0.7683491316100239
 10
-0.4756168103363725
 20
0.7716832775056058
 10
-0.4926594672127806
 20
0.7748050469895232
 10
-0.5058478049848439
 20
0.7774686491276744
 10
-0.5139973355902625
 20
0.779221618626314
 10
-0.5174287833659076
 20
0.7799840216320468
 10
-0.5175000149977113
 20
0.7799999999994867
  0
LINE
  5
132
330
F9
100
AcDbEntity
  8
AM_9
100
AcDbLine
 10
-0.3459480007557479
 20
0.7601229419575837
 30
0.0
 11
-0.3425000099999999
 21
0.7601151217085476
 31
0.0
  0
LINE
  5
133
330
F9
100
AcDbEntity
  8
AM_9
100
AcDbLine
 10
-0.5175000149977113
 20
0.7799999999994867
 30
0.0
 11
-0.5083592098471846
 21
0.7780001750796387
 31
0.0
  0
LWPOLYLINE
  5
134
330
F9
100
AcDbEntity
  8
AM_9
100
AcDbPolyline
 90
        7
 70
     0
 43
0.0
 10
-2.409618058315044
 20
0.4383346788138078
 10
-2.403258606518265
 20
0.4327631423252249
 10
-2.3853544120553
 20
0.4130540009556156
 10
-2.371466780897126
 20
0.3904138061525982
 10
-2.362174627767407
 20
0.3656182785135135
 10
-2.357875565688821
 20
0.3397257645243442
 10
-2.35749998538156
 20
0.3296527176081267
  0
LWPOLYLINE
  5
135
330
F9
100
AcDbEntity
  8
AM_9
100
AcDbPolyline
 90
        6
 70
     0
 43
0.0
 10
-2.53249999
 20
0.4798423987222393
 10
-2.503539595845822
 20
0.4778753585664813
 10
-2.475405846674937
 20
0.4720689523947759
 10
-2.448928638108108
 20
0.4625098347608406
 10
-2.424762493397632
 20
0.449433154840821
 10
-2.409618058315044
 20
0.4383346788138078
  0
LINE
  5
136
330
F9
100
AcDbEntity
  8
AM_9
100
AcDbLine
 10
-2.8125
 20
-0.7800000000000001
 30
0.0
 11
-2.0175
 21
-0.7800000000000001
 31
0.0
  0
LINE
  5
137
330
F9
100
AcDbEntity
  8
AM_9
100
AcDbLine
 10
-2.0175
 20
0.7800000000000001
 30
0.0
 11
-2.357499985
 21
0.7800000000000001
 31
0.0
  0
LINE
  5
138
330
F9
100
AcDbEntity
  8
AM_9
100
AcDbLine
 10
-2.707499995
 20
0.7800000000000002
 30
0.0
 11
-2.8125
 21
0.7800000000000001
 31
0.0
  0
LWPOLYLINE
  5
139
330
F9
100
AcDbEntity
  8
AM_9
100
AcDbPolyline
 90
       21
 70
     0
 43
0.0
 10
-2.357499985000932
 20
0.7799999999997912
 10
-2.358445798973719
 20
0.7797883428622239
 10
-2.363673744511489
 20
0.7786381055508054
 10
-2.37366313782196
 20
0.7765334145159682
 10
-2.387698649311381
 20
0.7737844832479012
 10
-2.406097121642332
 20
0.7705534915754039
 10
-2.427879268590019
 20
0.767281235009918
 10
-2.453326810125882
 20
0.7642273160921293
 10
-2.480414469020232
 20
0.7618975651265293
 10
-2.509895910159925
 20
0.7604511441739151
 10
-2.538566566504399
 20
0.7601393303865313
 10
-2.567905213784874
 20
0.7609392407553031
 10
-2.595078382876746
 20
0.7626867335315571
 10
-2.621251347223067
 20
0.7652789044909944
 10
-2.644684613705202
 20
0.7683491316100239
 10
-2.665616790336373
 20
0.7716832775056058
 10
-2.682659447212781
 20
0.7748050469895232
 10
-2.695847784984844
 20
0.7774686491276744
 10
-2.703997315590263
 20
0.779221618626314
 10
-2.707428763365908
 20
0.7799840216320468
 10
-2.707499994997712
 20
0.7799999999994867
  0
LINE
  5
13A
330
F9
100
AcDbEntity
  8
AM_9
100
AcDbLine
 10
-2.535947980755748
 20
0.7601229419575837
 30
0.0
 11
-2.53249999
 21
0.7601151217085476
 31
0.0
  0
LINE
  5
13B
330
F9
100
AcDbEntity
  8
AM_9
100
AcDbLine
 10
-2.707499994997712
 20
0.7799999999994867
 30
0.0
 11
-2.703077353441075
 21
0.7790196628895247
 31
0.0
  0
LINE
  5
13C
330
F9
100
AcDbEntity
  8
AM_9
100
AcDbLine
 10
-2.0175
 20
-1.155
 30
0.0
 11
-0.8574999999999999
 21
-1.155
 31
0.0
  0
LINE
  5
13D
330
F9
100
AcDbEntity
  8
AM_9
100
AcDbLine
 10
-0.8574999999999999
 20
1.155
 30
0.0
 11
-2.0175
 21
1.155
 31
0.0
  0
LINE
  5
13E
330
F9
100
AcDbEntity
  8
AM_9
100
AcDbLine
 10
-2.0175
 20
1.155
 30
0.0
 11
-2.0175
 21
-1.155
 31
0.0
  0
LINE
  5
13F
330
F9
100
AcDbEntity
  8
AM_9
100
AcDbLine
 10
-0.8574999999999999
 20
1.155
 30
0.0
 11
-0.8574999999999999
 21
-1.155
 31
0.0
  0
LINE
  5
142
330
F9
100
AcDbEntity
  8
AM_7
100
AcDbLine
 10
-0.3425000099999999
 20
-0.04
 30
0.0
 11
-0.3425
 21
1.143291666666666
 31
0.0
  0
LINE
  5
143
330
F9
100
AcDbEntity
  8
AM_7
100
AcDbLine
 10
-2.53249999
 20
-0.04
 30
0.0
 11
-2.5325
 21
1.143291666666667
 31
0.0
  0
LWPOLYLINE
  5
144
330
F9
100
AcDbEntity
  8
AM_4
100
AcDbPolyline
 90
        5
 70
     0
 43
0.0
 10
-2.53249999
 20
0.412174823691054
 10
-2.560812472956017
 20
0.4103675160628953
 10
-2.589124955912034
 20
0.4047692690293512
 10
-2.615031165115534
 20
0.3958168837079556
 10
-2.62803755211846
 20
0.3896486657581339
  0
LWPOLYLINE
  5
145
330
F9
100
AcDbEntity
  8
AM_4
100
AcDbPolyline
 90
        5
 70
     0
 43
0.0
 10
-2.435969357893616
 20
0.3891241788775603
 10
-2.453548724923634
 20
0.3973025114018202
 10
-2.481712432312397
 20
0.4062555533236918
 10
-2.506509685485279
 20
0.4106536930012036
 10
-2.53249999
 20
0.412174823691054
  0
LWPOLYLINE
  5
146
330
F9
100
AcDbEntity
  8
AM_4
100
AcDbPolyline
 90
        5
 70
     0
 43
0.0
 10
-0.3425000099999999
 20
0.412174823691054
 10
-0.3708124929560168
 20
0.4103675160628953
 10
-0.3991249759120338
 20
0.4047692690293512
 10
-0.4250311851155339
 20
0.3958168837079556
 10
-0.4380791990490149
 20
0.3896268423789397
  0
LWPOLYLINE
  5
147
330
F9
100
AcDbEntity
  8
AM_4
100
AcDbPolyline
 90
        5
 70
     0
 43
0.0
 10
-0.2464023541807484
 20
0.389353846930537
 10
-0.2635487449236343
 20
0.3973025114018202
 10
-0.2917124523123977
 20
0.4062555533236918
 10
-0.3165097054852791
 20
0.4106536930012036
 10
-0.3425000099999999
 20
0.412174823691054
  0
ENDBLK
  5
FC
330
F9
100
AcDbEntity
  8
0
100
AcDbBlockEnd
  0
BLOCK
  5
14A
330
148
100
AcDbEntity
  8
0
100
AcDbBlockBegin
  2
5_405015E_Inch_0_in_023094_2
 70
     2
 10
0.0
 20
0.0
 30
0.0
  3
5_405015E_Inch_0_in_023094_2
  1

  0
ATTDEF
  5
14C
330
148
100
AcDbEntity
  8
AM_6
100
AcDbText
 10
3.78125
 20
1.94375
 30
0.0
 40
0.5
  1
405015E -Inch
100
AcDbAttributeDefinition
  3

  2
NN
 70
     8
280
     0
  0
ATTDEF
  5
14D
330
148
100
AcDbEntity
  8
AM_6
100
AcDbText
 10
3.78125
 20
1.44375
 30
0.0
 40
0.5
  1
Grease Fitting
100
AcDbAttributeDefinition
  3

  2
NT
 70
     8
280
     0
  0
ATTDEF
  5
14E
330
148
100
AcDbEntity
  8
AM_6
100
AcDbText
 10
3.78125
 20
0.9437500000000001
 30
0.0
 40
0.5
  1
405015E-Inch
100
AcDbAttributeDefinition
  3

  2
NB
 70
     8
280
     0
  0
ATTDEF
  5
14F
330
148
100
AcDbEntity
  8
AM_6
100
AcDbText
 10
3.78125
 20
0.4437500000000001
 30
0.0
 40
0.5
  1
$MN.-Inch
100
AcDbAttributeDefinition
  3

  2
NBSYN
 70
     8
280
     0
  0
ATTDEF
  5
150
330
148
100
AcDbEntity
  8
AM_6
100
AcDbText
 10
3.78125
 20
-0.0562499999999999
 30
0.0
 40
0.5
  1
405015E
100
AcDbAttributeDefinition
  3

  2
LINA
 70
     8
280
     0
  0
ATTDEF
  5
151
330
148
100
AcDbEntity
  8
AM_6
100
AcDbText
 10
3.78125
 20
-0.5562499999999999
 30
0.0
 40
0.5
  1
405015E
100
AcDbAttributeDefinition
  3

  2
MN
 70
     8
280
     0
  0
ATTDEF
  5
152
330
148
100
AcDbEntity
  8
AM_6
100
AcDbText
 10
3.78125
 20
-1.05625
 30
0.0
 40
0.5
  1
1/8 x 27PTF
100
AcDbAttributeDefinition
  3

  2
T
 70
     8
280
     0
  0
ATTDEF
  5
153
330
148
100
AcDbEntity
  8
AM_6
100
AcDbText
 10
3.78125
 20
-1.55625
 30
0.0
 40
0.5
  1
baldor
100
AcDbAttributeDefinition
  3

  2
COMPANY
 70
     8
280
     0
  0
LINE
  5
154
330
148
100
AcDbEntity
  8
AM_9
100
AcDbLine
 10
-1.599402872472269
 20
1.30375
 30
0.0
 11
-1.275597127527731
 21
1.30375
 31
0.0
  0
LINE
  5
155
330
148
100
AcDbEntity
  8
AM_9
100
AcDbLine
 10
-1.275597127527731
 20
1.30375
 30
0.0
 11
-1.238882373218785
 21
1.340464754308947
 31
0.0
  0
LINE
  5
156
330
148
100
AcDbEntity
  8
AM_9
100
AcDbLine
 10
-1.636117626781215
 20
1.340464754308947
 30
0.0
 11
-1.599402872472269
 21
1.30375
 31
0.0
  0
LINE
  5
157
330
148
100
AcDbEntity
  8
AM_9
100
AcDbLine
 10
-1.636117626781215
 20
1.340464754308947
 30
0.0
 11
-1.238882373218785
 21
1.340464754308947
 31
0.0
  0
LINE
  5
158
330
148
100
AcDbEntity
  8
AM_9
100
AcDbLine
 10
-1.238882373218785
 20
1.340464754308947
 30
0.0
 11
-1.23174810277693
 21
1.56875
 31
0.0
  0
LINE
  5
159
330
148
100
AcDbEntity
  8
AM_9
100
AcDbLine
 10
-1.64325189722307
 20
1.56875
 30
0.0
 11
-1.636117626781215
 21
1.340464754308947
 31
0.0
  0
LINE
  5
15A
330
148
100
AcDbEntity
  8
AM_5
100
AcDbLine
 10
-1.269350875147652
 20
1.503620087748463
 30
0.0
 11
-1.275597127527731
 21
1.30375
 31
0.0
  0
LINE
  5
15B
330
148
100
AcDbEntity
  8
AM_5
100
AcDbLine
 10
-1.23174810277693
 20
1.56875
 30
0.0
 11
-1.269350875147652
 21
1.503620087748463
 31
0.0
  0
LINE
  5
15C
330
148
100
AcDbEntity
  8
AM_5
100
AcDbLine
 10
-1.641216485751557
 20
1.503620087748463
 30
0.0
 11
-1.233783514248443
 21
1.503620087748463
 31
0.0
  0
LINE
  5
15D
330
148
100
AcDbEntity
  8
AM_5
100
AcDbLine
 10
-1.605649124852348
 20
1.503620087748463
 30
0.0
 11
-1.599402872472269
 21
1.30375
 31
0.0
  0
LINE
  5
15E
330
148
100
AcDbEntity
  8
AM_5
100
AcDbLine
 10
-1.64325189722307
 20
1.56875
 30
0.0
 11
-1.605649124852348
 21
1.503620087748463
 31
0.0
  0
LINE
  5
15F
330
148
100
AcDbEntity
  8
AM_4
100
AcDbLine
 10
-1.3325
 20
1.77375
 30
0.0
 11
-1.3325
 21
1.80375
 31
0.0
  0
LINE
  5
160
330
148
100
AcDbEntity
  8
AM_4
100
AcDbLine
 10
-1.5425
 20
1.80375
 30
0.0
 11
-1.5425
 21
1.77375
 31
0.0
  0
LINE
  5
161
330
148
100
AcDbEntity
  8
AM_4
100
AcDbLine
 10
-1.5425
 20
1.77375
 30
0.0
 11
-1.3325
 21
1.77375
 31
0.0
  0
LINE
  5
162
330
148
100
AcDbEntity
  8
AM_4
100
AcDbLine
 10
-1.5425
 20
1.77375
 30
0.0
 11
-1.556320090734898
 21
1.741503121618573
 31
0.0
  0
LINE
  5
163
330
148
100
AcDbEntity
  8
AM_4
100
AcDbLine
 10
-1.318679909265102
 20
1.741503121618573
 30
0.0
 11
-1.3325
 21
1.77375
 31
0.0
  0
LINE
  5
164
330
148
100
AcDbEntity
  8
AM_4
100
AcDbLine
 10
-1.540177901933187
 20
1.94375
 30
0.0
 11
-1.334822098066812
 21
1.94375
 31
0.0
  0
LINE
  5
165
330
148
100
AcDbEntity
  8
AM_4
100
AcDbLine
 10
-1.540177901933187
 20
1.94375
 30
0.0
 11
-1.5725
 21
1.86375
 31
0.0
  0
LINE
  5
166
330
148
100
AcDbEntity
  8
AM_4
100
AcDbLine
 10
-1.3025
 20
1.86375
 30
0.0
 11
-1.334822098066812
 21
1.94375
 31
0.0
  0
LINE
  5
167
330
148
100
AcDbEntity
  8
AM_4
100
AcDbLine
 10
-1.5725
 20
1.86375
 30
0.0
 11
-1.3025
 21
1.86375
 31
0.0
  0
LINE
  5
168
330
148
100
AcDbEntity
  8
AM_4
100
AcDbLine
 10
-1.5425
 20
1.80375
 30
0.0
 11
-1.3325
 21
1.80375
 31
0.0
  0
LINE
  5
169
330
148
100
AcDbEntity
  8
AM_4
100
AcDbLine
 10
-1.3325
 20
1.80375
 30
0.0
 11
-1.3025
 21
1.86375
 31
0.0
  0
LINE
  5
16A
330
148
100
AcDbEntity
  8
AM_4
100
AcDbLine
 10
-1.5725
 20
1.86375
 30
0.0
 11
-1.5425
 21
1.80375
 31
0.0
  0
LINE
  5
16B
330
148
100
AcDbEntity
  8
AM_4
100
AcDbLine
 10
-1.21875
 20
1.56875
 30
0.0
 11
-1.21875
 21
1.66875
 31
0.0
  0
LINE
  5
16C
330
148
100
AcDbEntity
  8
AM_4
100
AcDbLine
 10
-1.65625
 20
1.66875
 30
0.0
 11
-1.21875
 21
1.66875
 31
0.0
  0
LINE
  5
16D
330
148
100
AcDbEntity
  8
AM_4
100
AcDbLine
 10
-1.65625
 20
1.66875
 30
0.0
 11
-1.65625
 21
1.56875
 31
0.0
  0
LINE
  5
16E
330
148
100
AcDbEntity
  8
AM_4
100
AcDbLine
 10
-1.556320090734898
 20
1.741503121618573
 30
0.0
 11
-1.318679909265102
 21
1.741503121618573
 31
0.0
  0
LINE
  5
16F
330
148
100
AcDbEntity
  8
AM_4
100
AcDbLine
 10
-1.556320090734898
 20
1.741503121618573
 30
0.0
 11
-1.610034053283015
 21
1.687068198540882
 31
0.0
  0
LINE
  5
170
330
148
100
AcDbEntity
  8
AM_4
100
AcDbLine
 10
-1.264965946716984
 20
1.687068198540882
 30
0.0
 11
-1.318679909265102
 21
1.741503121618573
 31
0.0
  0
LWPOLYLINE
  5
171
330
148
100
AcDbEntity
  8
AM_4
100
AcDbPolyline
 90
        4
 70
     0
 43
0.0
 10
-1.328125
 20
1.66875
 10
-1.286209529757097
 20
1.667332439282863
 10
-1.244294059514195
 20
1.663267587482156
 10
-1.21875
 20
1.659682400303386
  0
LWPOLYLINE
  5
172
330
148
100
AcDbEntity
  8
AM_4
100
AcDbPolyline
 90
        4
 70
     0
 43
0.0
 10
-1.21875
 20
1.577817599696615
 10
-1.244294059514195
 20
1.574232412517844
 10
-1.286086012717731
 20
1.570175828243072
 10
-1.328125
 20
1.56875
  0
LWPOLYLINE
  5
173
330
148
100
AcDbEntity
  8
AM_4
100
AcDbPolyline
 90
        3
 70
     0
 43
0.0
 10
-1.328125
 20
1.56875
 10
-1.3828125
 20
1.571143380785035
 10
-1.4375
 20
1.577817599696615
  0
LWPOLYLINE
  5
174
330
148
100
AcDbEntity
  8
AM_4
100
AcDbPolyline
 90
        3
 70
     0
 43
0.0
 10
-1.4375
 20
1.659682400303386
 10
-1.38305838972585
 20
1.66633547505038
 10
-1.328125
 20
1.66875
  0
LINE
  5
175
330
148
100
AcDbEntity
  8
AM_4
100
AcDbLine
 10
-1.610034053283015
 20
1.687068198540882
 30
0.0
 11
-1.264965946716984
 21
1.687068198540882
 31
0.0
  0
LINE
  5
176
330
148
100
AcDbEntity
  8
AM_4
100
AcDbLine
 10
-1.610034053283015
 20
1.687068198540882
 30
0.0
 11
-1.65125
 21
1.66875
 31
0.0
  0
LINE
  5
177
330
148
100
AcDbEntity
  8
AM_4
100
AcDbLine
 10
-1.22375
 20
1.66875
 30
0.0
 11
-1.264965946716984
 21
1.687068198540882
 31
0.0
  0
LINE
  5
178
330
148
100
AcDbEntity
  8
AM_4
100
AcDbLine
 10
-1.4375
 20
1.659682400303386
 30
0.0
 11
-1.4375
 21
1.577817599696615
 31
0.0
  0
LWPOLYLINE
  5
179
330
148
100
AcDbEntity
  8
AM_4
100
AcDbPolyline
 90
        3
 70
     0
 43
0.0
 10
-1.546875
 20
1.66875
 10
-1.4921875
 20
1.666356619214965
 10
-1.4375
 20
1.659682400303386
  0
LWPOLYLINE
  5
17A
330
148
100
AcDbEntity
  8
AM_4
100
AcDbPolyline
 90
        3
 70
     0
 43
0.0
 10
-1.65625
 20
1.659682400303386
 10
-1.60180838972585
 20
1.66633547505038
 10
-1.546875
 20
1.66875
  0
LWPOLYLINE
  5
17B
330
148
100
AcDbEntity
  8
AM_4
100
AcDbPolyline
 90
        3
 70
     0
 43
0.0
 10
-1.546875
 20
1.56875
 10
-1.6015625
 20
1.571143380785035
 10
-1.65625
 20
1.577817599696615
  0
LWPOLYLINE
  5
17C
330
148
100
AcDbEntity
  8
AM_4
100
AcDbPolyline
 90
        3
 70
     0
 43
0.0
 10
-1.4375
 20
1.577817599696615
 10
-1.49194161027415
 20
1.57116452494962
 10
-1.546875
 20
1.56875
  0
ENDBLK
  5
14B
330
148
100
AcDbEntity
  8
0
100
AcDbBlockEnd
  0
BLOCK
  5
17F
330
17D
100
AcDbEntity
  8
0
100
AcDbBlockBegin
  2
6_023094H_0_in_023094_2
 70
     2
 10
0.0
 20
0.0
 30
0.0
  3
6_023094H_0_in_023094_2
  1

  0
ATTDEF
  5
181
330
17D
100
AcDbEntity
  8
AM_6
100
AcDbText
 10
5.140625
 20
2.019230769230769
 30
0.0
 40
0.5
  1
F4B-E-Housing
100
AcDbAttributeDefinition
  3

  2
NN
 70
     8
280
     0
  0
ATTDEF
  5
182
330
17D
100
AcDbEntity
  8
AM_6
100
AcDbText
 10
5.140625
 20
1.519230769230769
 30
0.0
 40
0.5
  1
Type E Flange Bearing -Inch (4-Bolt Flange)
100
AcDbAttributeDefinition
  3

  2
NT
 70
     8
280
     0
  0
ATTDEF
  5
183
330
17D
100
AcDbEntity
  8
AM_6
100
AcDbText
 10
5.140625
 20
1.019230769230769
 30
0.0
 40
0.5
  1
023094H
100
AcDbAttributeDefinition
  3

  2
NB
 70
     8
280
     0
  0
ATTDEF
  5
184
330
17D
100
AcDbEntity
  8
AM_6
100
AcDbText
 10
5.140625
 20
0.5192307692307692
 30
0.0
 40
0.5
  1
$PN.H
100
AcDbAttributeDefinition
  3

  2
NBSYN
 70
     8
280
     0
  0
ATTDEF
  5
185
330
17D
100
AcDbEntity
  8
AM_6
100
AcDbText
 10
5.140625
 20
0.0192307692307692
 30
0.0
 40
0.5
  1
023094
100
AcDbAttributeDefinition
  3

  2
LINA
 70
     8
280
     0
  0
ATTDEF
  5
186
330
17D
100
AcDbEntity
  8
AM_6
100
AcDbText
 10
5.140625
 20
-0.4807692307692308
 30
0.0
 40
0.5
  1
1-1/4
100
AcDbAttributeDefinition
  3

  2
SS
 70
     8
280
     0
  0
ATTDEF
  5
187
330
17D
100
AcDbEntity
  8
AM_6
100
AcDbText
 10
5.140625
 20
-0.9807692307692308
 30
0.0
 40
0.5
  1
023094
100
AcDbAttributeDefinition
  3

  2
PN
 70
     8
280
     0
  0
ATTDEF
  5
188
330
17D
100
AcDbEntity
  8
AM_6
100
AcDbText
 10
5.140625
 20
-1.480769230769231
 30
0.0
 40
0.5
  1
F4B-E-104R
100
AcDbAttributeDefinition
  3

  2
DESCRIPTION
 70
     8
280
     0
  0
ATTDEF
  5
189
330
17D
100
AcDbEntity
  8
AM_6
100
AcDbText
 10
5.140625
 20
-1.980769230769231
 30
0.0
 40
0.5
  1
2-13/16
100
AcDbAttributeDefinition
  3

  2
A
 70
     8
280
     0
  0
ATTDEF
  5
18A
330
17D
100
AcDbEntity
  8
AM_6
100
AcDbText
 10
5.140625
 20
-2.480769230769231
 30
0.0
 40
0.5
  1
3-3/4
100
AcDbAttributeDefinition
  3

  2
B
 70
     8
280
     0
  0
ATTDEF
  5
18B
330
17D
100
AcDbEntity
  8
AM_6
100
AcDbText
 10
5.140625
 20
-2.980769230769231
 30
0.0
 40
0.5
  1
2-11/32
100
AcDbAttributeDefinition
  3

  2
C
 70
     8
280
     0
  0
ATTDEF
  5
18C
330
17D
100
AcDbEntity
  8
AM_6
100
AcDbText
 10
5.140625
 20
-3.480769230769231
 30
0.0
 40
0.5
  1
1/16
100
AcDbAttributeDefinition
  3

  2
E
 70
     8
280
     0
  0
ATTDEF
  5
18D
330
17D
100
AcDbEntity
  8
AM_6
100
AcDbText
 10
5.140625
 20
-3.980769230769231
 30
0.0
 40
0.5
  1
0.062500
100
AcDbAttributeDefinition
  3

  2
E1
 70
     8
280
     0
  0
ATTDEF
  5
18E
330
17D
100
AcDbEntity
  8
AM_6
100
AcDbText
 10
5.140625
 20
-4.480769230769231
 30
0.0
 40
0.5
  1
3/8
100
AcDbAttributeDefinition
  3

  2
F
 70
     8
280
     0
  0
ATTDEF
  5
18F
330
17D
100
AcDbEntity
  8
AM_6
100
AcDbText
 10
5.140625
 20
-4.980769230769231
 30
0.0
 40
0.5
  1
0.375000
100
AcDbAttributeDefinition
  3

  2
F1
 70
     8
280
     0
  0
ATTDEF
  5
190
330
17D
100
AcDbEntity
  8
AM_6
100
AcDbText
 10
5.140625
 20
-5.480769230769231
 30
0.0
 40
0.5
  1
1
100
AcDbAttributeDefinition
  3

  2
H
 70
     8
280
     0
  0
ATTDEF
  5
191
330
17D
100
AcDbEntity
  8
AM_6
100
AcDbText
 10
5.140625
 20
-5.980769230769231
 30
0.0
 40
0.5
  1
2-15/16
100
AcDbAttributeDefinition
  3

  2
J
 70
     8
280
     0
  0
ATTDEF
  5
192
330
17D
100
AcDbEntity
  8
AM_6
100
AcDbText
 10
5.140625
 20
-6.480769230769231
 30
0.0
 40
0.5
  1
2.9375000
100
AcDbAttributeDefinition
  3

  2
J1
 70
     8
280
     0
  0
ATTDEF
  5
193
330
17D
100
AcDbEntity
  8
AM_6
100
AcDbText
 10
5.140625
 20
-6.980769230769231
 30
0.0
 40
0.5
  1
2-1/4
100
AcDbAttributeDefinition
  3

  2
L
 70
     8
280
     0
  0
ATTDEF
  5
194
330
17D
100
AcDbEntity
  8
AM_6
100
AcDbText
 10
5.140625
 20
-7.480769230769231
 30
0.0
 40
0.5
  1
2.75
100
AcDbAttributeDefinition
  3

  2
AINS
 70
     8
280
     0
  0
ATTDEF
  5
195
330
17D
100
AcDbEntity
  8
AM_6
100
AcDbText
 10
5.140625
 20
-7.980769230769231
 30
0.0
 40
0.5
  1
2.31
100
AcDbAttributeDefinition
  3

  2
BORE
 70
     8
280
     0
  0
ATTDEF
  5
196
330
17D
100
AcDbEntity
  8
AM_6
100
AcDbText
 10
5.140625
 20
-8.48076923076923
 30
0.0
 40
0.5
  1
baldor
100
AcDbAttributeDefinition
  3

  2
COMPANY
 70
     8
280
     0
  0
LINE
  5
197
330
17D
100
AcDbEntity
  8
AM_9
100
AcDbLine
 10
-0.7874999999999999
 20
1.46875
 30
0.0
 11
-0.7874999999999999
 21
1.875
 31
0.0
  0
ARC
  5
198
330
17D
100
AcDbEntity
  8
AM_9
100
AcDbCircle
 10
-1.037500000000001
 20
1.468749999999999
 30
0.0
 40
0.100000000000001
100
AcDbArc
 50
0.0
 51
67.97568716295758
  0
LINE
  5
199
330
17D
100
AcDbEntity
  8
AM_9
100
AcDbLine
 10
-1.0
 20
1.46875
 30
0.0
 11
-0.7874999999999999
 21
1.46875
 31
0.0
  0
LINE
  5
19A
330
17D
100
AcDbEntity
  8
AM_9
100
AcDbLine
 10
-0.5999999999999999
 20
1.875
 30
0.0
 11
-0.6
 21
1.09173945687679
 31
0.0
  0
LINE
  5
19B
330
17D
100
AcDbEntity
  8
AM_9
100
AcDbLine
 10
-0.5999999999999999
 20
1.214308093994778
 30
0.0
 11
-0.0000000000000001
 21
1.214308093994778
 31
0.0
  0
LINE
  5
19C
330
17D
100
AcDbEntity
  8
AM_9
100
AcDbLine
 10
-0.6
 20
-1.091739456876791
 30
0.0
 11
-0.5999999999999999
 21
-1.875
 31
0.0
  0
LINE
  5
19D
330
17D
100
AcDbEntity
  8
AM_9
100
AcDbLine
 10
-0.5999999999999999
 20
-1.214308093994778
 30
0.0
 11
-0.0000000000000001
 21
-1.214308093994778
 31
0.0
  0
LINE
  5
19E
330
17D
100
AcDbEntity
  8
AM_9
100
AcDbLine
 10
-2.34375
 20
-1.155
 30
0.0
 11
-0.5999999999999999
 21
-1.155
 31
0.0
  0
LINE
  5
19F
330
17D
100
AcDbEntity
  8
AM_9
100
AcDbLine
 10
-0.5999999999999999
 20
1.155
 30
0.0
 11
-2.34375
 21
1.155
 31
0.0
  0
LINE
  5
1A0
330
17D
100
AcDbEntity
  8
AM_9
100
AcDbLine
 10
-0.9062499999999998
 20
-1.804070539819324
 30
0.0
 11
-0.9999999999999999
 21
-1.804070539819324
 31
0.0
  0
LINE
  5
1A1
330
17D
100
AcDbEntity
  8
AM_9
100
AcDbLine
 10
-0.9062499999999998
 20
1.804070539819324
 30
0.0
 11
-0.9999999999999999
 21
1.804070539819324
 31
0.0
  0
LINE
  5
1A2
330
17D
100
AcDbEntity
  8
AM_9
100
AcDbLine
 10
-0.9062499999999998
 20
1.875
 30
0.0
 11
-0.9062499999999999
 21
1.362058614685711
 31
0.0
  0
LINE
  5
1A3
330
17D
100
AcDbEntity
  8
AM_9
100
AcDbLine
 10
-0.9062499999999999
 20
-1.362058614685712
 30
0.0
 11
-0.9062499999999998
 21
-1.875
 31
0.0
  0
LINE
  5
1A4
330
17D
100
AcDbEntity
  8
AM_9
100
AcDbLine
 10
-1.0
 20
-1.362058614685712
 30
0.0
 11
-0.9062499999999999
 21
-1.362058614685712
 31
0.0
  0
LINE
  5
1A5
330
17D
100
AcDbEntity
  8
AM_9
100
AcDbLine
 10
-0.9062499999999999
 20
1.362058614685711
 30
0.0
 11
-1.0
 21
1.362058614685711
 31
0.0
  0
LWPOLYLINE
  5
1A6
330
17D
100
AcDbEntity
  8
AM_9
100
AcDbPolyline
 90
        7
 70
     0
 43
0.0
 10
-0.9999984199547176
 20
1.448666350490035
 10
-0.9811933945654676
 20
1.454455493008222
 10
-0.9655675376276397
 20
1.45943372975303
 10
-0.9529554774729652
 20
1.463559809441581
 10
-0.9440198094191645
 20
1.466543303484659
 10
-0.9391457095321027
 20
1.468190573913265
 10
-0.9375000000000009
 20
1.46875
  0
LINE
  5
1A7
330
17D
100
AcDbEntity
  8
AM_9
100
AcDbLine
 10
-1.93605422128236
 20
1.468258449340054
 30
0.0
 11
-1.9375
 21
1.46875
 31
0.0
  0
LINE
  5
1A8
330
17D
100
AcDbEntity
  8
AM_9
100
AcDbLine
 10
-0.9375000000000009
 20
1.46875
 30
0.0
 11
-0.9390961873568141
 21
1.468207384178837
 31
0.0
  0
LINE
  5
1A9
330
17D
100
AcDbEntity
  8
AM_9
100
AcDbLine
 10
-0.9999999999999999
 20
-1.46875
 30
0.0
 11
-0.9062499999999999
 21
-1.46875
 31
0.0
  0
LWPOLYLINE
  5
1AA
330
17D
100
AcDbEntity
  8
AM_9
100
AcDbPolyline
 90
        9
 70
     0
 43
0.0
 10
-0.7874999999999999
 20
1.46875
 10
-0.7895236576068799
 20
1.467854456363272
 10
-0.795555526441693
 20
1.465202808362055
 10
-0.8059151278582761
 20
1.460692642794868
 10
-0.8203526687020294
 20
1.454509329990086
 10
-0.8369404133793945
 20
1.447548584227926
 10
-0.8566658974976675
 20
1.439477272182402
 10
-0.8799628880668116
 20
1.430235376808909
 10
-0.9062500000000002
 20
1.420194748969309
  0
LINE
  5
1AB
330
17D
100
AcDbEntity
  8
AM_9
100
AcDbLine
 10
-0.9999999999999999
 20
-1.625
 30
0.0
 11
0.0000000000000001
 21
-1.625
 31
0.0
  0
LINE
  5
1AC
330
17D
100
AcDbEntity
  8
AM_9
100
AcDbLine
 10
0.0000000000000001
 20
-1.25
 30
0.0
 11
-0.9999999999999999
 21
-1.25
 31
0.0
  0
LINE
  5
1AD
330
17D
100
AcDbEntity
  8
AM_9
100
AcDbLine
 10
-0.9999999999999999
 20
1.25
 30
0.0
 11
0.0000000000000001
 21
1.25
 31
0.0
  0
LINE
  5
1AE
330
17D
100
AcDbEntity
  8
AM_9
100
AcDbLine
 10
0.0000000000000001
 20
1.625
 30
0.0
 11
-0.9999999999999999
 21
1.625
 31
0.0
  0
LINE
  5
1AF
330
17D
100
AcDbEntity
  8
AM_9
100
AcDbLine
 10
-0.5999999999999999
 20
0.9471303251711293
 30
0.0
 11
-0.0000000000000001
 21
0.9471303251711293
 31
0.0
  0
LINE
  5
1B0
330
17D
100
AcDbEntity
  8
AM_9
100
AcDbLine
 10
-0.5999999999999999
 20
-0.9471303251711295
 30
0.0
 11
-0.0000000000000001
 21
-0.9471303251711295
 31
0.0
  0
LINE
  5
1B1
330
17D
100
AcDbEntity
  8
AM_7
100
AcDbLine
 10
0.0499999999999999
 20
1.4375
 30
0.0
 11
-1.05
 21
1.4375
 31
0.0
  0
LINE
  5
1B2
330
17D
100
AcDbEntity
  8
AM_7
100
AcDbLine
 10
0.0499999999999999
 20
-1.4375
 30
0.0
 11
-1.05
 21
-1.4375
 31
0.0
  0
LINE
  5
1B3
330
17D
100
AcDbEntity
  8
AM_7
100
AcDbLine
 10
-1.4375
 20
-0.0961538461538462
 30
0.0
 11
-1.4375
 21
2.019230769230769
 31
0.0
  0
LINE
  5
1B4
330
17D
100
AcDbEntity
  8
AM_7
100
AcDbLine
 10
0.140625
 20
0.0
 30
0.0
 11
-2.953125
 21
0.0
 31
0.0
  0
LINE
  5
1B5
330
17D
100
AcDbEntity
  8
AM_4
100
AcDbLine
 10
-1.8375
 20
1.56875
 30
0.0
 11
-1.037500000040065
 21
1.56875
 31
0.0
  0
ARC
  5
1B6
330
17D
100
AcDbEntity
  8
AM_4
100
AcDbCircle
 10
-1.037500000000002
 20
1.468749999999993
 30
0.0
 40
0.1000000000000075
100
AcDbArc
 50
67.97568716295855
 51
90.0
  0
ARC
  5
1B7
330
17D
100
AcDbEntity
  8
AM_4
100
AcDbCircle
 10
-1.837499999999999
 20
1.46875
 30
0.0
 40
0.1000000000000005
100
AcDbArc
 50
90.0
 51
180.0
  0
LINE
  5
1B8
330
17D
100
AcDbEntity
  8
AM_4
100
AcDbLine
 10
-1.9375
 20
1.46875
 30
0.0
 11
-1.0
 21
1.46875
 31
0.0
  0
LWPOLYLINE
  5
1B9
330
17D
100
AcDbEntity
  8
AM_4
100
AcDbPolyline
 90
       34
 70
     0
 43
0.0
 10
-1.9375
 20
1.46875
 10
-1.935876614135494
 20
1.468197380519458
 10
-1.93103436613455
 20
1.46656153401616
 10
-1.922715955474078
 20
1.463782415430733
 10
-1.911108152614933
 20
1.459976453482497
 10
-1.896784590476275
 20
1.455392603899996
 10
-1.879572646570316
 20
1.45005337396445
 10
-1.859007590224427
 20
1.4439164151425
 10
-1.835675456018346
 20
1.437278767767554
 10
-1.809584516216517
 20
1.430270525972596
 10
-1.781019392369973
 20
1.42310650881592
 10
-1.749269368809152
 20
1.415778358183028
 10
-1.715283826001348
 20
1.408683930655826
 10
-1.679224934639376
 20
1.402020287279615
 10
-1.64136041253006
 20
1.395989122556808
 10
-1.600679424791009
 20
1.390633040827727
 10
-1.55864171822454
 20
1.386326757440104
 10
-1.518384986748371
 20
1.383392647524513
 10
-1.477518122528017
 20
1.381603420895688
 10
-1.435020831614103
 20
1.381028784812929
 10
-1.392543713007862
 20
1.381755271471804
 10
-1.353613755965369
 20
1.383570966635486
 10
-1.31525901672361
 20
1.386423247241757
 10
-1.276691440235794
 20
1.39035620110929
 10
-1.239250431619792
 20
1.395180796120323
 10
-1.203533427074834
 20
1.400703276494612
 10
-1.169355245532632
 20
1.406814903193865
 10
-1.136087965750885
 20
1.413533655509718
 10
-1.104828949712843
 20
1.420526870636089
 10
-1.075010860193183
 20
1.427804424569472
 10
-1.047678120011948
 20
1.434986989703189
 10
-1.022351981967994
 20
1.442072767621363
 10
-1.000019447611481
 20
1.448660000213357
 10
-0.9999984199547176
 20
1.448666350490035
  0
LINE
  5
1BA
330
17D
100
AcDbEntity
  8
AM_4
100
AcDbLine
 10
-2.21875
 20
-1.46875
 30
0.0
 11
-0.9999999999999999
 21
-1.46875
 31
0.0
  0
LINE
  5
1BB
330
17D
100
AcDbEntity
  8
AM_4
100
AcDbLine
 10
-1.9375
 20
1.46875
 30
0.0
 11
-2.21875
 21
1.46875
 31
0.0
  0
LINE
  5
1BC
330
17D
100
AcDbEntity
  8
AM_4
100
AcDbLine
 10
-2.34375
 20
1.34375
 30
0.0
 11
-2.34375
 21
-1.34375
 31
0.0
  0
ARC
  5
1BD
330
17D
100
AcDbEntity
  8
AM_4
100
AcDbCircle
 10
-2.218749999999999
 20
-1.343749999999999
 30
0.0
 40
0.1250000000000009
100
AcDbArc
 50
180.0
 51
270.0
  0
ARC
  5
1BE
330
17D
100
AcDbEntity
  8
AM_4
100
AcDbCircle
 10
-2.218749999999999
 20
1.343749999999999
 30
0.0
 40
0.1250000000000007
100
AcDbArc
 50
90.0
 51
180.0
  0
LINE
  5
1BF
330
17D
100
AcDbEntity
  8
AM_4
100
AcDbLine
 10
-2.21875
 20
1.46875
 30
0.0
 11
-2.21875
 21
-1.46875
 31
0.0
  0
LINE
  5
1C0
330
17D
100
AcDbEntity
  8
AM_4
100
AcDbLine
 10
-0.9999999999999999
 20
0.5495660948970934
 30
0.0
 11
-0.9062499999999998
 21
0.5495660948970934
 31
0.0
  0
LINE
  5
1C1
330
17D
100
AcDbEntity
  8
AM_4
100
AcDbLine
 10
-0.9999999999999999
 20
-1.875
 30
0.0
 11
-0.9999999999999999
 21
-0.5495660948970937
 31
0.0
  0
LINE
  5
1C2
330
17D
100
AcDbEntity
  8
AM_4
100
AcDbLine
 10
-0.9062499999999998
 20
-0.5495660948970936
 30
0.0
 11
-0.9999999999999999
 21
-0.5495660948970937
 31
0.0
  0
LINE
  5
1C3
330
17D
100
AcDbEntity
  8
AM_4
100
AcDbLine
 10
-0.5999999999999999
 20
0.8027627095472158
 30
0.0
 11
0.0000000000000001
 21
0.8027627095472158
 31
0.0
  0
LINE
  5
1C4
330
17D
100
AcDbEntity
  8
AM_4
100
AcDbLine
 10
0.0000000000000001
 20
-0.8027627095472164
 30
0.0
 11
-0.5999999999999999
 21
-0.8027627095472164
 31
0.0
  0
LINE
  5
1C5
330
17D
100
AcDbEntity
  8
AM_4
100
AcDbLine
 10
0.0000000000000001
 20
-1.875
 30
0.0
 11
0.0000000000000001
 21
-0.8027627095472164
 31
0.0
  0
LINE
  5
1C6
330
17D
100
AcDbEntity
  8
AM_4
100
AcDbLine
 10
-0.9999999999999999
 20
-1.875
 30
0.0
 11
0.0000000000000001
 21
-1.875
 31
0.0
  0
LINE
  5
1C7
330
17D
100
AcDbEntity
  8
AM_4
100
AcDbLine
 10
-0.5999999999999999
 20
-1.091739456876791
 30
0.0
 11
-0.5999999999999999
 21
1.09173945687679
 31
0.0
  0
LINE
  5
1C8
330
17D
100
AcDbEntity
  8
AM_4
100
AcDbLine
 10
0.0000000000000001
 20
-1.091739456876791
 30
0.0
 11
-0.5999999999999999
 21
-1.091739456876791
 31
0.0
  0
LINE
  5
1C9
330
17D
100
AcDbEntity
  8
AM_4
100
AcDbLine
 10
-0.5999999999999999
 20
1.09173945687679
 30
0.0
 11
0.0000000000000001
 21
1.09173945687679
 31
0.0
  0
LINE
  5
1CA
330
17D
100
AcDbEntity
  8
AM_4
100
AcDbLine
 10
-0.9062499999999998
 20
-1.343425561388869
 30
0.0
 11
-0.9062499999999998
 21
1.343425561388869
 31
0.0
  0
LINE
  5
1CB
330
17D
100
AcDbEntity
  8
AM_4
100
AcDbLine
 10
-0.9999999999999999
 20
-1.437499993480741
 30
0.0
 11
0.0000000000000001
 21
-1.437499993480741
 31
0.0
  0
LINE
  5
1CC
330
17D
100
AcDbEntity
  8
AM_4
100
AcDbLine
 10
-0.9999999999999999
 20
-1.343425561388869
 30
0.0
 11
-0.9062499999999998
 21
-1.343425561388869
 31
0.0
  0
LINE
  5
1CD
330
17D
100
AcDbEntity
  8
AM_4
100
AcDbLine
 10
-0.9062499999999998
 20
-1.180824544732907
 30
0.0
 11
-0.9999999999999999
 21
-1.180824544732907
 31
0.0
  0
LINE
  5
1CE
330
17D
100
AcDbEntity
  8
AM_4
100
AcDbLine
 10
0.0000000000000001
 20
0.8027627095472158
 30
0.0
 11
0.0000000000000001
 21
1.875
 31
0.0
  0
LINE
  5
1CF
330
17D
100
AcDbEntity
  8
AM_4
100
AcDbLine
 10
-0.9999999999999999
 20
1.875
 30
0.0
 11
0.0000000000000001
 21
1.875
 31
0.0
  0
LINE
  5
1D0
330
17D
100
AcDbEntity
  8
AM_4
100
AcDbLine
 10
-0.9999999999999999
 20
0.5495660948970934
 30
0.0
 11
-0.9999999999999999
 21
1.875
 31
0.0
  0
LINE
  5
1D1
330
17D
100
AcDbEntity
  8
AM_4
100
AcDbLine
 10
-0.9999999999999999
 20
1.4375
 30
0.0
 11
0.0000000000000001
 21
1.4375
 31
0.0
  0
LINE
  5
1D2
330
17D
100
AcDbEntity
  8
AM_4
100
AcDbLine
 10
-0.9062499999999998
 20
1.343425561388869
 30
0.0
 11
-0.9999999999999999
 21
1.343425561388869
 31
0.0
  0
LINE
  5
1D3
330
17D
100
AcDbEntity
  8
AM_4
100
AcDbLine
 10
-0.9062499999999998
 20
1.180824544732907
 30
0.0
 11
-0.9999999999999999
 21
1.180824544732907
 31
0.0
  0
ENDBLK
  5
180
330
17D
100
AcDbEntity
  8
0
100
AcDbBlockEnd
  0
ENDSEC
  0
SECTION
  2
ENTITIES
  0
INSERT
  5
6F
330
1F
100
AcDbEntity
  8
0
100
AcDbBlockReference
  2
1_023094_2
 10
0.0
 20
0.0
 30
0.0
  0
POINT
  5
1D5
330
1F
100
AcDbEntity
  8
ConnectionPoints
100
AcDbPoint
 10
-2.8125
 20
0.0
 30
0.0000000000000002
  0
POINT
  5
1D6
330
1F
100
AcDbEntity
  8
ConnectionPoints
100
AcDbPoint
 10
-2.8125
 20
0.0
 30
0.0000000000000002
  0
POINT
  5
1D7
330
1F
100
AcDbEntity
  8
ConnectionPoints
100
AcDbPoint
 10
-0.0625
 20
0.0
 30
0.0
  0
POINT
  5
1D8
330
1F
100
AcDbEntity
  8
ConnectionPoints
100
AcDbPoint
 10
-1.4375
 20
0.0
 30
0.0000000000000001
  0
POINT
  5
1D9
330
1F
100
AcDbEntity
  8
ConnectionPoints
100
AcDbPoint
 10
-1.4375
 20
1.56875
 30
0.0000000000000001
  0
POINT
  5
1DA
330
1F
100
AcDbEntity
  8
ConnectionPoints
100
AcDbPoint
 10
-1.4375
 20
1.56875
 30
0.0000000000000001
  0
POINT
  5
1DB
330
1F
100
AcDbEntity
  8
ConnectionPoints
100
AcDbPoint
 10
-1.4375
 20
0.0
 30
0.0000000000000001
  0
ENDSEC
  0
SECTION
  2
OBJECTS
  0
DICTIONARY
  5
C
330
0
100
AcDbDictionary
281
     1
  3
ACAD_DETAILVIEWSTYLE
350
1E3
  3
ACAD_GROUP
350
D
  3
ACAD_LAYOUT
350
1A
  3
ACAD_MATERIAL
350
43
  3
ACAD_MLEADERSTYLE
350
6B
  3
ACAD_MLINESTYLE
350
17
  3
ACAD_PLOTSETTINGS
350
19
  3
ACAD_PLOTSTYLENAME
350
E
  3
ACAD_SCALELIST
350
47
  3
ACAD_SECTIONVIEWSTYLE
350
1E4
  3
ACAD_TABLESTYLE
350
69
  3
ACAD_VISUALSTYLE
350
2A
  3
ACDB_RECOMPOSE_DATA
350
1E0
  3
AcDbVariableDictionary
350
1DC
  0
SUN
  5
6D
330
29
100
AcDbSun
 90
        1
290
     0
 63
     7
421
 16777215
 40
1.0
291
     1
 91
  2455826
 92
 54000000
292
     0
 70
     2
 71
   256
280
     1
  0
DICTIONARY
  5
1E3
102
{ACAD_REACTORS
330
C
102
}
330
C
100
AcDbDictionary
281
     1
  0
DICTIONARY
  5
D
102
{ACAD_REACTORS
330
C
102
}
330
C
100
AcDbDictionary
281
     1
  0
DICTIONARY
  5
1A
102
{ACAD_REACTORS
330
C
102
}
330
C
100
AcDbDictionary
281
     1
  3
Layout1
350
1E
  3
Layout2
350
26
  3
Model
350
22
  0
DICTIONARY
  5
43
102
{ACAD_REACTORS
330
C
102
}
330
C
100
AcDbDictionary
281
     1
  3
ByBlock
350
45
  3
ByLayer
350
44
  3
Global
350
46
  0
DICTIONARY
  5
6B
102
{ACAD_REACTORS
330
C
102
}
330
C
100
AcDbDictionary
281
     1
  3
Standard
350
6C
  0
DICTIONARY
  5
17
102
{ACAD_REACTORS
330
C
102
}
330
C
100
AcDbDictionary
281
     1
  3
Standard
350
18
  0
DICTIONARY
  5
19
102
{ACAD_REACTORS
330
C
102
}
330
C
100
AcDbDictionary
281
     1
  0
ACDBDICTIONARYWDFLT
  5
E
102
{ACAD_REACTORS
330
C
102
}
330
C
100
AcDbDictionary
281
     1
  3
Normal
350
F
100
AcDbDictionaryWithDefault
340
F
  0
DICTIONARY
  5
47
102
{ACAD_REACTORS
330
C
102
}
330
C
100
AcDbDictionary
281
     1
  3
A0
350
48
  3
A1
350
49
  3
A2
350
4A
  3
A3
350
4B
  3
A4
350
4C
  3
A5
350
4D
  3
A6
350
4E
  3
A7
350
4F
  3
A8
350
50
  3
A9
350
51
  3
B0
350
52
  3
B1
350
53
  3
B2
350
54
  3
B3
350
55
  3
B4
350
56
  3
B5
350
57
  3
B6
350
58
  3
B7
350
59
  3
B8
350
5A
  3
B9
350
5B
  3
C0
350
5C
  3
C1
350
5D
  3
C2
350
5E
  3
C3
350
5F
  3
C4
350
60
  3
C5
350
61
  3
C6
350
62
  3
C7
350
63
  3
C8
350
64
  3
C9
350
65
  3
D0
350
66
  3
D1
350
67
  3
D2
350
68
  0
DICTIONARY
  5
1E4
102
{ACAD_REACTORS
330
C
102
}
330
C
100
AcDbDictionary
281
     1
  0
DICTIONARY
  5
69
102
{ACAD_REACTORS
330
C
102
}
330
C
100
AcDbDictionary
281
     1
  3
Standard
350
6A
  0
DICTIONARY
  5
2A
102
{ACAD_REACTORS
330
C
102
}
330
C
100
AcDbDictionary
281
     1
  3
2dWireframe
350
2F
  3
Basic
350
32
  3
Brighten
350
36
  3
ColorChange
350
3A
  3
Conceptual
350
34
  3
Dim
350
35
  3
EdgeColorOff
350
3D
  3
Facepattern
350
39
  3
Flat
350
2B
  3
FlatWithEdges
350
2C
  3
Gouraud
350
2D
  3
GouraudWithEdges
350
2E
  3
Hidden
350
31
  3
JitterOff
350
3B
  3
Linepattern
350
38
  3
OverhangOff
350
3C
  3
Realistic
350
33
  3
Shaded
350
42
  3
Shaded with edges
350
41
  3
Shades of Gray
350
3E
  3
Sketchy
350
3F
  3
Thicken
350
37
  3
Wireframe
350
30
  3
X-Ray
350
40
  0
XRECORD
  5
1E0
102
{ACAD_REACTORS
330
C
102
}
330
C
100
AcDbXrecord
280
     1
 90
        1
330
6A
  0
DICTIONARY
  5
1DC
102
{ACAD_REACTORS
330
C
102
}
330
C
100
AcDbDictionary
281
     1
  3
CANNOSCALE
350
1DD
  3
CMLEADERSTYLE
350
1E2
  3
CTABLESTYLE
350
1E1
  0
LAYOUT
  5
1E
102
{ACAD_REACTORS
330
1A
102
}
330
1A
100
AcDbPlotSettings
  1

  2
none_device
  4

  6

 40
0.0
 41
0.0
 42
0.0
 43
0.0
 44
0.0
 45
0.0
 46
0.0
 47
0.0
 48
0.0
 49
0.0
140
0.0
141
0.0
142
1.0
143
1.0
 70
   688
 72
     0
 73
     0
 74
     5
  7

 75
    16
 76
     0
 77
     2
 78
   300
147
1.0
148
0.0
149
0.0
100
AcDbLayout
  1
Layout1
 70
     1
 71
     1
 10
0.0
 20
0.0
 11
12.0
 21
9.0
 12
0.0
 22
0.0
 32
0.0
 14
1.000000000000000E+20
 24
1.000000000000000E+20
 34
1.000000000000000E+20
 15
-1.000000000000000E+20
 25
-1.000000000000000E+20
 35
-1.000000000000000E+20
146
0.0
 13
0.0
 23
0.0
 33
0.0
 16
1.0
 26
0.0
 36
0.0
 17
0.0
 27
1.0
 37
0.0
 76
     0
330
1B
  0
LAYOUT
  5
26
102
{ACAD_REACTORS
330
1A
102
}
330
1A
100
AcDbPlotSettings
  1

  2
none_device
  4

  6

 40
0.0
 41
0.0
 42
0.0
 43
0.0
 44
0.0
 45
0.0
 46
0.0
 47
0.0
 48
0.0
 49
0.0
140
0.0
141
0.0
142
1.0
143
1.0
 70
   688
 72
     0
 73
     0
 74
     5
  7

 75
    16
 76
     0
 77
     2
 78
   300
147
1.0
148
0.0
149
0.0
100
AcDbLayout
  1
Layout2
 70
     1
 71
     2
 10
0.0
 20
0.0
 11
0.0
 21
0.0
 12
0.0
 22
0.0
 32
0.0
 14
0.0
 24
0.0
 34
0.0
 15
0.0
 25
0.0
 35
0.0
146
0.0
 13
0.0
 23
0.0
 33
0.0
 16
1.0
 26
0.0
 36
0.0
 17
0.0
 27
1.0
 37
0.0
 76
     0
330
23
  0
LAYOUT
  5
22
102
{ACAD_REACTORS
330
1A
102
}
330
1A
100
AcDbPlotSettings
  1

  2
none_device
  4
Letter_(8.50_x_11.00_Inches)
  6

 40
6.35
 41
6.35
 42
6.35000508
 43
6.35000508
 44
215.9
 45
279.4
 46
0.0
 47
0.0
 48
0.0
 49
0.0
140
0.0
141
0.0
142
1.0
143
1.0
 70
  1712
 72
     0
 73
     0
 74
     0
  7

 75
     0
 76
     0
 77
     2
 78
   300
147
1.0
148
0.0
149
0.0
100
AcDbLayout
  1
Model
 70
     1
 71
     0
 10
0.0
 20
0.0
 11
12.0
 21
9.0
 12
0.0
 22
0.0
 32
0.0
 14
1.000000000000000E+20
 24
1.000000000000000E+20
 34
1.000000000000000E+20
 15
-1.000000000000000E+20
 25
-1.000000000000000E+20
 35
-1.000000000000000E+20
146
0.0
 13
0.0
 23
0.0
 33
0.0
 16
1.0
 26
0.0
 36
0.0
 17
0.0
 27
1.0
 37
0.0
 76
     0
330
1F
331
29
  0
MATERIAL
  5
45
102
{ACAD_REACTORS
330
43
102
}
330
43
100
AcDbMaterial
  1
ByBlock
 72
     1
 94
      127
  0
MATERIAL
  5
44
102
{ACAD_REACTORS
330
43
102
}
330
43
100
AcDbMaterial
  1
ByLayer
 72
     1
 94
      127
  0
MATERIAL
  5
46
102
{ACAD_REACTORS
330
43
102
}
330
43
100
AcDbMaterial
  1
Global
 72
     1
 94
      127
  0
MLEADERSTYLE
  5
6C
102
{ACAD_REACTORS
330
6B
102
}
330
6B
100
AcDbMLeaderStyle
179
     2
170
     2
171
     1
172
     0
 90
        2
 40
0.0
 41
0.0
173
     1
 91
-1056964608
340
14
 92
       -2
290
     1
 42
0.09
291
     1
 43
0.36
  3
Standard
341
0
 44
0.18
300

342
11
174
     1
178
     6
175
     1
176
     0
 93
-1056964608
 45
0.18
292
     0
297
     0
 46
0.18
343
0
 94
-1056964608
 47
1.0
 49
1.0
140
1.0
293
     1
141
0.0
294
     1
177
     0
142
1.0
295
     0
296
     0
143
0.125
271
     0
272
     9
273
     9
298
     0
  0
MLINESTYLE
  5
18
102
{ACAD_REACTORS
330
17
102
}
330
17
100
AcDbMlineStyle
  2
Standard
 70
     0
  3

 62
   256
 51
90.0
 52
90.0
 71
     2
 49
0.5
 62
   256
  6
BYLAYER
 49
-0.5
 62
   256
  6
BYLAYER
  0
ACDBPLACEHOLDER
  5
F
102
{ACAD_REACTORS
330
E
102
}
330
E
  0
SCALE
  5
48
102
{ACAD_REACTORS
330
47
102
}
330
47
100
AcDbScale
 70
     0
300
1:1
140
1.0
141
1.0
290
     1
  0
SCALE
  5
49
102
{ACAD_REACTORS
330
47
102
}
330
47
100
AcDbScale
 70
     0
300
1:2
140
1.0
141
2.0
290
     0
  0
SCALE
  5
4A
102
{ACAD_REACTORS
330
47
102
}
330
47
100
AcDbScale
 70
     0
300
1:4
140
1.0
141
4.0
290
     0
  0
SCALE
  5
4B
102
{ACAD_REACTORS
330
47
102
}
330
47
100
AcDbScale
 70
     0
300
1:5
140
1.0
141
5.0
290
     0
  0
SCALE
  5
4C
102
{ACAD_REACTORS
330
47
102
}
330
47
100
AcDbScale
 70
     0
300
1:8
140
1.0
141
8.0
290
     0
  0
SCALE
  5
4D
102
{ACAD_REACTORS
330
47
102
}
330
47
100
AcDbScale
 70
     0
300
1:10
140
1.0
141
10.0
290
     0
  0
SCALE
  5
4E
102
{ACAD_REACTORS
330
47
102
}
330
47
100
AcDbScale
 70
     0
300
1:16
140
1.0
141
16.0
290
     0
  0
SCALE
  5
4F
102
{ACAD_REACTORS
330
47
102
}
330
47
100
AcDbScale
 70
     0
300
1:20
140
1.0
141
20.0
290
     0
  0
SCALE
  5
50
102
{ACAD_REACTORS
330
47
102
}
330
47
100
AcDbScale
 70
     0
300
1:30
140
1.0
141
30.0
290
     0
  0
SCALE
  5
51
102
{ACAD_REACTORS
330
47
102
}
330
47
100
AcDbScale
 70
     0
300
1:40
140
1.0
141
40.0
290
     0
  0
SCALE
  5
52
102
{ACAD_REACTORS
330
47
102
}
330
47
100
AcDbScale
 70
     0
300
1:50
140
1.0
141
50.0
290
     0
  0
SCALE
  5
53
102
{ACAD_REACTORS
330
47
102
}
330
47
100
AcDbScale
 70
     0
300
1:100
140
1.0
141
100.0
290
     0
  0
SCALE
  5
54
102
{ACAD_REACTORS
330
47
102
}
330
47
100
AcDbScale
 70
     0
300
2:1
140
2.0
141
1.0
290
     0
  0
SCALE
  5
55
102
{ACAD_REACTORS
330
47
102
}
330
47
100
AcDbScale
 70
     0
300
4:1
140
4.0
141
1.0
290
     0
  0
SCALE
  5
56
102
{ACAD_REACTORS
330
47
102
}
330
47
100
AcDbScale
 70
     0
300
8:1
140
8.0
141
1.0
290
     0
  0
SCALE
  5
57
102
{ACAD_REACTORS
330
47
102
}
330
47
100
AcDbScale
 70
     0
300
10:1
140
10.0
141
1.0
290
     0
  0
SCALE
  5
58
102
{ACAD_REACTORS
330
47
102
}
330
47
100
AcDbScale
 70
     0
300
100:1
140
100.0
141
1.0
290
     0
  0
SCALE
  5
59
102
{ACAD_REACTORS
330
47
102
}
330
47
100
AcDbScale
 70
     0
300
1/128" = 1'-0"
140
0.0078125
141
12.0
290
     0
  0
SCALE
  5
5A
102
{ACAD_REACTORS
330
47
102
}
330
47
100
AcDbScale
 70
     0
300
1/64" = 1'-0"
140
0.015625
141
12.0
290
     0
  0
SCALE
  5
5B
102
{ACAD_REACTORS
330
47
102
}
330
47
100
AcDbScale
 70
     0
300
1/32" = 1'-0"
140
0.03125
141
12.0
290
     0
  0
SCALE
  5
5C
102
{ACAD_REACTORS
330
47
102
}
330
47
100
AcDbScale
 70
     0
300
1/16" = 1'-0"
140
0.0625
141
12.0
290
     0
  0
SCALE
  5
5D
102
{ACAD_REACTORS
330
47
102
}
330
47
100
AcDbScale
 70
     0
300
3/32" = 1'-0"
140
0.09375
141
12.0
290
     0
  0
SCALE
  5
5E
102
{ACAD_REACTORS
330
47
102
}
330
47
100
AcDbScale
 70
     0
300
1/8" = 1'-0"
140
0.125
141
12.0
290
     0
  0
SCALE
  5
5F
102
{ACAD_REACTORS
330
47
102
}
330
47
100
AcDbScale
 70
     0
300
3/16" = 1'-0"
140
0.1875
141
12.0
290
     0
  0
SCALE
  5
60
102
{ACAD_REACTORS
330
47
102
}
330
47
100
AcDbScale
 70
     0
300
1/4" = 1'-0"
140
0.25
141
12.0
290
     0
  0
SCALE
  5
61
102
{ACAD_REACTORS
330
47
102
}
330
47
100
AcDbScale
 70
     0
300
3/8" = 1'-0"
140
0.375
141
12.0
290
     0
  0
SCALE
  5
62
102
{ACAD_REACTORS
330
47
102
}
330
47
100
AcDbScale
 70
     0
300
1/2" = 1'-0"
140
0.5
141
12.0
290
     0
  0
SCALE
  5
63
102
{ACAD_REACTORS
330
47
102
}
330
47
100
AcDbScale
 70
     0
300
3/4" = 1'-0"
140
0.75
141
12.0
290
     0
  0
SCALE
  5
64
102
{ACAD_REACTORS
330
47
102
}
330
47
100
AcDbScale
 70
     0
300
1" = 1'-0"
140
1.0
141
12.0
290
     0
  0
SCALE
  5
65
102
{ACAD_REACTORS
330
47
102
}
330
47
100
AcDbScale
 70
     0
300
1-1/2" = 1'-0"
140
1.5
141
12.0
290
     0
  0
SCALE
  5
66
102
{ACAD_REACTORS
330
47
102
}
330
47
100
AcDbScale
 70
     0
300
3" = 1'-0"
140
3.0
141
12.0
290
     0
  0
SCALE
  5
67
102
{ACAD_REACTORS
330
47
102
}
330
47
100
AcDbScale
 70
     0
300
6" = 1'-0"
140
6.0
141
12.0
290
     0
  0
SCALE
  5
68
102
{ACAD_REACTORS
330
47
102
}
330
47
100
AcDbScale
 70
     0
300
1'-0" = 1'-0"
140
12.0
141
12.0
290
     0
  0
TABLESTYLE
  5
6A
102
{ACAD_REACTORS
330
69
102
}
102
{ACAD_XDICTIONARY
360
1DE
102
}
330
69
100
AcDbTableStyle
  3
Standard
 70
     0
 71
     0
 40
0.06
 41
0.06
280
     0
281
     0
  7
Standard
140
0.18
170
     2
 62
     0
 63
   257
283
     0
 90
        4
 91
        0
  1

274
    -2
284
     1
 64
     0
275
    -2
285
     1
 65
     0
276
    -2
286
     1
 66
     0
277
    -2
287
     1
 67
     0
278
    -2
288
     1
 68
     0
279
    -2
289
     1
 69
     0
  7
Standard
140
0.25
170
     5
 62
     0
 63
   257
283
     0
 90
        4
 91
        0
  1

274
    -2
284
     1
 64
     0
275
    -2
285
     1
 65
     0
276
    -2
286
     1
 66
     0
277
    -2
287
     1
 67
     0
278
    -2
288
     1
 68
     0
279
    -2
289
     1
 69
     0
  7
Standard
140
0.18
170
     5
 62
     0
 63
   257
283
     0
 90
        4
 91
        0
  1

274
    -2
284
     1
 64
     0
275
    -2
285
     1
 65
     0
276
    -2
286
     1
 66
     0
277
    -2
287
     1
 67
     0
278
    -2
288
     1
 68
     0
279
    -2
289
     1
 69
     0
  0
VISUALSTYLE
  5
2F
102
{ACAD_REACTORS
330
2A
102
}
330
2A
100
AcDbVisualStyle
  2
2dWireframe
 70
     4
177
     3
291
     0
 70
    58
 90
        0
176
     1
 90
        2
176
     1
 90
        0
176
     1
 90
        0
176
     1
 40
0.6
176
     1
 40
30.0
176
     1
 62
     7
420
 16777215
176
     1
 90
        1
176
     1
 90
        4
176
     1
 62
     7
176
     1
 62
   257
176
     1
 90
        1
176
     1
 90
        1
176
     1
 40
1.0
176
     1
 90
        0
176
     1
 62
   257
176
     1
 40
1.0
176
     1
 90
        1
176
     1
 90
        6
176
     1
 90
        2
176
     1
 62
     7
176
     1
 90
        5
176
     1
 90
        0
176
     1
 90
        0
176
     1
290
     0
176
     1
 90
        1
176
     1
 40
0.0
176
     1
 90
        0
176
     1
290
     1
176
     1
290
     1
176
     1
290
     0
176
     1
290
     0
176
     1
290
     0
176
     1
290
     0
176
     1
290
     0
176
     1
290
     0
176
     1
290
     0
176
     1
 90
       50
176
     1
 40
0.0
176
     1
 40
1.0
176
     1
 90
        0
176
     1
 62
    18
420
        0
176
     1
 90
       50
176
     1
 90
        3
176
     1
 62
     5
420
      255
176
     1
290
     0
176
     1
 90
       50
176
     1
 90
       50
176
     1
 90
       50
176
     1
290
     0
176
     1
 90
       50
176
     1
 62
   256
176
     0
 40
1.0
176
     0
 90
        2
176
     1
  1
strokes_ogs.tif
176
     1
290
     0
176
     1
 40
1.0
176
     1
 40
1.0
176
     1
  0
VISUALSTYLE
  5
32
102
{ACAD_REACTORS
330
2A
102
}
330
2A
100
AcDbVisualStyle
  2
Basic
 70
     7
177
     3
291
     1
 70
    58
 90
        1
176
     1
 90
        0
176
     1
 90
        1
176
     1
 90
        0
176
     1
 40
0.6
176
     1
 40
30.0
176
     1
 62
     7
420
 16777215
176
     1
 90
        0
176
     1
 90
        4
176
     1
 62
     7
176
     1
 62
   257
176
     1
 90
        1
176
     1
 90
        1
176
     1
 40
1.0
176
     1
 90
        8
176
     1
 62
     7
176
     1
 40
1.0
176
     1
 90
        1
176
     1
 90
        6
176
     1
 90
        2
176
     1
 62
     7
176
     1
 90
        5
176
     1
 90
        0
176
     1
 90
        0
176
     1
290
     0
176
     1
 90
        1
176
     1
 40
0.0
176
     1
 90
        0
176
     1
290
     0
176
     1
290
     1
176
     1
290
     1
176
     1
290
     0
176
     1
290
     0
176
     1
290
     0
176
     1
290
     0
176
     1
290
     0
176
     1
290
     0
176
     1
 90
       50
176
     1
 40
0.0
176
     1
 40
1.0
176
     1
 90
        0
176
     1
 62
    18
420
        0
176
     1
 90
       50
176
     1
 90
        3
176
     1
 62
     5
420
      255
176
     1
290
     0
176
     1
 90
       50
176
     1
 90
       50
176
     1
 90
       50
176
     1
290
     0
176
     1
 90
       50
176
     1
 62
   256
176
     0
 40
1.0
176
     0
 90
        2
176
     1
  1
strokes_ogs.tif
176
     1
290
     0
176
     1
 40
1.0
176
     1
 40
1.0
176
     1
  0
VISUALSTYLE
  5
36
102
{ACAD_REACTORS
330
2A
102
}
330
2A
100
AcDbVisualStyle
  2
Brighten
 70
    12
177
     3
291
     1
 70
    58
 90
        2
176
     1
 90
        2
176
     1
 90
        0
176
     1
 90
        0
176
     1
 40
0.6
176
     1
 40
30.0
176
     1
 62
     7
420
 16777215
176
     1
 90
        1
176
     1
 90
        4
176
     1
 62
     7
176
     1
 62
   257
176
     1
 90
        1
176
     1
 90
        1
176
     1
 40
1.0
176
     1
 90
        8
176
     1
 62
     7
176
     1
 40
1.0
176
     1
 90
        1
176
     1
 90
        6
176
     1
 90
        2
176
     1
 62
     7
176
     1
 90
        5
176
     1
 90
        0
176
     1
 90
        0
176
     1
290
     0
176
     1
 90
        1
176
     1
 40
50.0
176
     1
 90
        0
176
     1
290
     0
176
     1
290
     1
176
     1
290
     1
176
     1
290
     0
176
     1
290
     0
176
     1
290
     0
176
     1
290
     0
176
     1
290
     0
176
     1
290
     0
176
     1
 90
       50
176
     1
 40
0.0
176
     1
 40
1.0
176
     1
 90
        0
176
     1
 62
    18
420
        0
176
     1
 90
       50
176
     1
 90
        3
176
     1
 62
     5
420
      255
176
     1
290
     0
176
     1
 90
       50
176
     1
 90
       50
176
     1
 90
       50
176
     1
290
     0
176
     1
 90
       50
176
     1
 62
   256
176
     0
 40
1.0
176
     0
 90
        2
176
     1
  1
strokes_ogs.tif
176
     1
290
     0
176
     1
 40
1.0
176
     1
 40
1.0
176
     1
  0
VISUALSTYLE
  5
3A
102
{ACAD_REACTORS
330
2A
102
}
330
2A
100
AcDbVisualStyle
  2
ColorChange
 70
    16
177
     3
291
     1
 70
    58
 90
        2
176
     1
 90
        2
176
     1
 90
        3
176
     1
 90
        0
176
     1
 40
0.6
176
     1
 40
30.0
176
     1
 62
     8
420
  8421504
176
     1
 90
        1
176
     1
 90
        4
176
     1
 62
     7
176
     1
 62
   257
176
     1
 90
        1
176
     1
 90
        1
176
     1
 40
1.0
176
     1
 90
        8
176
     1
 62
     8
420
  8421504
176
     1
 40
1.0
176
     1
 90
        1
176
     1
 90
        6
176
     1
 90
        2
176
     1
 62
     7
176
     1
 90
        5
176
     1
 90
        0
176
     1
 90
        0
176
     1
290
     0
176
     1
 90
        1
176
     1
 40
0.0
176
     1
 90
        0
176
     1
290
     0
176
     1
290
     1
176
     1
290
     1
176
     1
290
     0
176
     1
290
     0
176
     1
290
     0
176
     1
290
     0
176
     1
290
     0
176
     1
290
     0
176
     1
 90
       50
176
     1
 40
0.0
176
     1
 40
1.0
176
     1
 90
        0
176
     1
 62
    18
420
        0
176
     1
 90
       50
176
     1
 90
        3
176
     1
 62
     5
420
      255
176
     1
290
     0
176
     1
 90
       50
176
     1
 90
       50
176
     1
 90
       50
176
     1
290
     0
176
     1
 90
       50
176
     1
 62
   256
176
     0
 40
1.0
176
     0
 90
        2
176
     1
  1
strokes_ogs.tif
176
     1
290
     0
176
     1
 40
1.0
176
     1
 40
1.0
176
     1
  0
VISUALSTYLE
  5
34
102
{ACAD_REACTORS
330
2A
102
}
330
2A
100
AcDbVisualStyle
  2
Conceptual
 70
     9
177
     3
291
     0
 70
    58
 90
        3
176
     1
 90
        2
176
     1
 90
        0
176
     1
 90
        0
176
     1
 40
0.6
176
     1
 40
30.0
176
     1
 62
     7
420
 16777215
176
     1
 90
        2
176
     1
 90
        2
176
     1
 62
     7
176
     1
 62
   257
176
     1
 90
        1
176
     1
 90
        1
176
     1
 40
179.0
176
     1
 90
        8
176
     1
 62
     7
176
     1
 40
1.0
176
     1
 90
        1
176
     1
 90
        6
176
     1
 90
        2
176
     1
 62
     7
176
     1
 90
        3
176
     1
 90
        0
176
     1
 90
        0
176
     1
290
     0
176
     1
 90
        1
176
     1
 40
0.0
176
     1
 90
        0
176
     1
290
     0
176
     1
290
     1
176
     1
290
     1
176
     1
290
     0
176
     1
290
     0
176
     1
290
     0
176
     1
290
     0
176
     1
290
     0
176
     1
290
     0
176
     1
 90
       50
176
     1
 40
0.0
176
     1
 40
1.0
176
     1
 90
        0
176
     1
 62
    18
420
        0
176
     1
 90
       50
176
     1
 90
        3
176
     1
 62
     5
420
      255
176
     1
290
     0
176
     1
 90
       50
176
     1
 90
       50
176
     1
 90
       50
176
     1
290
     0
176
     1
 90
       50
176
     1
 62
   256
176
     0
 40
1.0
176
     0
 90
        2
176
     1
  1
strokes_ogs.tif
176
     1
290
     0
176
     1
 40
1.0
176
     1
 40
1.0
176
     1
  0
VISUALSTYLE
  5
35
102
{ACAD_REACTORS
330
2A
102
}
330
2A
100
AcDbVisualStyle
  2
Dim
 70
    11
177
     3
291
     1
 70
    58
 90
        2
176
     1
 90
        2
176
     1
 90
        0
176
     1
 90
        0
176
     1
 40
0.6
176
     1
 40
30.0
176
     1
 62
     7
420
 16777215
176
     1
 90
        1
176
     1
 90
        4
176
     1
 62
     7
176
     1
 62
   257
176
     1
 90
        1
176
     1
 90
        1
176
     1
 40
1.0
176
     1
 90
        8
176
     1
 62
     7
176
     1
 40
1.0
176
     1
 90
        1
176
     1
 90
        6
176
     1
 90
        2
176
     1
 62
     7
176
     1
 90
        5
176
     1
 90
        0
176
     1
 90
        0
176
     1
290
     0
176
     1
 90
        1
176
     1
 40
-50.0
176
     1
 90
        0
176
     1
290
     0
176
     1
290
     1
176
     1
290
     1
176
     1
290
     0
176
     1
290
     0
176
     1
290
     0
176
     1
290
     0
176
     1
290
     0
176
     1
290
     0
176
     1
 90
       50
176
     1
 40
0.0
176
     1
 40
1.0
176
     1
 90
        0
176
     1
 62
    18
420
        0
176
     1
 90
       50
176
     1
 90
        3
176
     1
 62
     5
420
      255
176
     1
290
     0
176
     1
 90
       50
176
     1
 90
       50
176
     1
 90
       50
176
     1
290
     0
176
     1
 90
       50
176
     1
 62
   256
176
     0
 40
1.0
176
     0
 90
        2
176
     1
  1
strokes_ogs.tif
176
     1
290
     0
176
     1
 40
1.0
176
     1
 40
1.0
176
     1
  0
VISUALSTYLE
  5
3D
102
{ACAD_REACTORS
330
2A
102
}
330
2A
100
AcDbVisualStyle
  2
EdgeColorOff
 70
    22
177
     3
291
     1
 70
    58
 90
        2
176
     0
 90
        2
176
     0
 90
        0
176
     0
 90
        0
176
     0
 40
0.6
176
     0
 40
30.0
176
     0
 62
     7
420
 16777215
176
     0
 90
        1
176
     0
 90
        4
176
     0
 62
     7
176
     0
 62
   257
176
     0
 90
        1
176
     0
 90
        1
176
     0
 40
1.0
176
     0
 90
        8
176
     2
 62
     7
176
     0
 40
1.0
176
     0
 90
        1
176
     0
 90
        6
176
     0
 90
        2
176
     0
 62
     7
176
     0
 90
        5
176
     0
 90
        0
176
     0
 90
        0
176
     0
290
     0
176
     0
 90
        1
176
     0
 40
0.0
176
     0
 90
        0
176
     0
290
     0
176
     0
290
     1
176
     0
290
     1
176
     0
290
     0
176
     0
290
     0
176
     0
290
     0
176
     0
290
     0
176
     0
290
     0
176
     0
290
     0
176
     0
 90
       50
176
     0
 40
0.0
176
     0
 40
1.0
176
     0
 90
        0
176
     0
 62
    18
420
        0
176
     0
 90
       50
176
     0
 90
        3
176
     0
 62
     5
420
      255
176
     0
290
     0
176
     0
 90
       50
176
     0
 90
       50
176
     0
 90
       50
176
     0
290
     0
176
     0
 90
       50
176
     0
 62
   256
176
     0
 40
1.0
176
     0
 90
        2
176
     0
  1
strokes_ogs.tif
176
     0
290
     0
176
     0
 40
1.0
176
     0
 40
1.0
176
     0
  0
VISUALSTYLE
  5
39
102
{ACAD_REACTORS
330
2A
102
}
330
2A
100
AcDbVisualStyle
  2
Facepattern
 70
    15
177
     3
291
     1
 70
    58
 90
        2
176
     1
 90
        2
176
     1
 90
        0
176
     1
 90
        0
176
     1
 40
0.6
176
     1
 40
30.0
176
     1
 62
     7
420
 16777215
176
     1
 90
        1
176
     1
 90
        4
176
     1
 62
     7
176
     1
 62
   257
176
     1
 90
        1
176
     1
 90
        1
176
     1
 40
1.0
176
     1
 90
        8
176
     1
 62
     7
176
     1
 40
1.0
176
     1
 90
        1
176
     1
 90
        6
176
     1
 90
        2
176
     1
 62
     7
176
     1
 90
        5
176
     1
 90
        0
176
     1
 90
        0
176
     1
290
     0
176
     1
 90
        1
176
     1
 40
0.0
176
     1
 90
        0
176
     1
290
     0
176
     1
290
     1
176
     1
290
     1
176
     1
290
     0
176
     1
290
     0
176
     1
290
     0
176
     1
290
     0
176
     1
290
     0
176
     1
290
     0
176
     1
 90
       50
176
     1
 40
0.0
176
     1
 40
1.0
176
     1
 90
        0
176
     1
 62
    18
420
        0
176
     1
 90
       50
176
     1
 90
        3
176
     1
 62
     5
420
      255
176
     1
290
     0
176
     1
 90
       50
176
     1
 90
       50
176
     1
 90
       50
176
     1
290
     0
176
     1
 90
       50
176
     1
 62
   256
176
     0
 40
1.0
176
     0
 90
        2
176
     1
  1
strokes_ogs.tif
176
     1
290
     0
176
     1
 40
1.0
176
     1
 40
1.0
176
     1
  0
VISUALSTYLE
  5
2B
102
{ACAD_REACTORS
330
2A
102
}
330
2A
100
AcDbVisualStyle
  2
Flat
 70
     0
177
     3
291
     1
 70
    58
 90
        2
176
     1
 90
        1
176
     1
 90
        1
176
     1
 90
        2
176
     1
 40
0.6
176
     1
 40
30.0
176
     1
 62
     7
420
 16777215
176
     1
 90
        0
176
     1
 90
        0
176
     1
 62
     7
176
     1
 62
   257
176
     1
 90
        1
176
     1
 90
        1
176
     1
 40
1.0
176
     1
 90
        8
176
     1
 62
     7
176
     1
 40
1.0
176
     1
 90
        1
176
     1
 90
        6
176
     1
 90
        2
176
     1
 62
     7
176
     1
 90
        5
176
     1
 90
        0
176
     1
 90
        0
176
     1
290
     0
176
     1
 90
       13
176
     1
 40
0.0
176
     1
 90
        0
176
     1
290
     0
176
     1
290
     1
176
     1
290
     1
176
     1
290
     0
176
     1
290
     0
176
     1
290
     0
176
     1
290
     0
176
     1
290
     0
176
     1
290
     0
176
     1
 90
       50
176
     1
 40
0.0
176
     1
 40
1.0
176
     1
 90
        0
176
     1
 62
    18
420
        0
176
     1
 90
       50
176
     1
 90
        3
176
     1
 62
     5
420
      255
176
     1
290
     0
176
     1
 90
       50
176
     1
 90
       50
176
     1
 90
       50
176
     1
290
     0
176
     1
 90
       50
176
     1
 62
   256
176
     0
 40
1.0
176
     0
 90
        2
176
     1
  1
strokes_ogs.tif
176
     1
290
     0
176
     1
 40
1.0
176
     1
 40
1.0
176
     1
  0
VISUALSTYLE
  5
2C
102
{ACAD_REACTORS
330
2A
102
}
330
2A
100
AcDbVisualStyle
  2
FlatWithEdges
 70
     1
177
     3
291
     1
 70
    58
 90
        2
176
     1
 90
        1
176
     1
 90
        1
176
     1
 90
        2
176
     1
 40
0.6
176
     1
 40
30.0
176
     1
 62
     7
420
 16777215
176
     1
 90
        1
176
     1
 90
        0
176
     1
 62
     7
176
     1
 62
   257
176
     1
 90
        1
176
     1
 90
        1
176
     1
 40
1.0
176
     1
 90
        0
176
     1
 62
   257
176
     1
 40
1.0
176
     1
 90
        1
176
     1
 90
        6
176
     1
 90
        2
176
     1
 62
     7
176
     1
 90
        5
176
     1
 90
        0
176
     1
 90
        0
176
     1
290
     0
176
     1
 90
       13
176
     1
 40
0.0
176
     1
 90
        0
176
     1
290
     0
176
     1
290
     1
176
     1
290
     1
176
     1
290
     0
176
     1
290
     0
176
     1
290
     0
176
     1
290
     0
176
     1
290
     0
176
     1
290
     0
176
     1
 90
       50
176
     1
 40
0.0
176
     1
 40
1.0
176
     1
 90
        0
176
     1
 62
    18
420
        0
176
     1
 90
       50
176
     1
 90
        3
176
     1
 62
     5
420
      255
176
     1
290
     0
176
     1
 90
       50
176
     1
 90
       50
176
     1
 90
       50
176
     1
290
     0
176
     1
 90
       50
176
     1
 62
   256
176
     0
 40
1.0
176
     0
 90
        2
176
     1
  1
strokes_ogs.tif
176
     1
290
     0
176
     1
 40
1.0
176
     1
 40
1.0
176
     1
  0
VISUALSTYLE
  5
2D
102
{ACAD_REACTORS
330
2A
102
}
330
2A
100
AcDbVisualStyle
  2
Gouraud
 70
     2
177
     3
291
     1
 70
    58
 90
        2
176
     1
 90
        2
176
     1
 90
        1
176
     1
 90
        2
176
     1
 40
0.6
176
     1
 40
30.0
176
     1
 62
     7
420
 16777215
176
     1
 90
        0
176
     1
 90
        0
176
     1
 62
     7
176
     1
 62
   257
176
     1
 90
        1
176
     1
 90
        1
176
     1
 40
1.0
176
     1
 90
        0
176
     1
 62
     7
176
     1
 40
1.0
176
     1
 90
        1
176
     1
 90
        6
176
     1
 90
        2
176
     1
 62
     7
176
     1
 90
        5
176
     1
 90
        0
176
     1
 90
        0
176
     1
290
     0
176
     1
 90
       13
176
     1
 40
0.0
176
     1
 90
        0
176
     1
290
     0
176
     1
290
     1
176
     1
290
     1
176
     1
290
     0
176
     1
290
     0
176
     1
290
     0
176
     1
290
     0
176
     1
290
     0
176
     1
290
     0
176
     1
 90
       50
176
     1
 40
0.0
176
     1
 40
1.0
176
     1
 90
        0
176
     1
 62
    18
420
        0
176
     1
 90
       50
176
     1
 90
        3
176
     1
 62
     5
420
      255
176
     1
290
     0
176
     1
 90
       50
176
     1
 90
       50
176
     1
 90
       50
176
     1
290
     0
176
     1
 90
       50
176
     1
 62
   256
176
     0
 40
1.0
176
     0
 90
        2
176
     1
  1
strokes_ogs.tif
176
     1
290
     0
176
     1
 40
1.0
176
     1
 40
1.0
176
     1
  0
VISUALSTYLE
  5
2E
102
{ACAD_REACTORS
330
2A
102
}
330
2A
100
AcDbVisualStyle
  2
GouraudWithEdges
 70
     3
177
     3
291
     1
 70
    58
 90
        2
176
     1
 90
        2
176
     1
 90
        1
176
     1
 90
        2
176
     1
 40
0.6
176
     1
 40
30.0
176
     1
 62
     7
420
 16777215
176
     1
 90
        1
176
     1
 90
        0
176
     1
 62
     7
176
     1
 62
   257
176
     1
 90
        1
176
     1
 90
        1
176
     1
 40
1.0
176
     1
 90
        0
176
     1
 62
   257
176
     1
 40
1.0
176
     1
 90
        1
176
     1
 90
        6
176
     1
 90
        2
176
     1
 62
     7
176
     1
 90
        5
176
     1
 90
        0
176
     1
 90
        0
176
     1
290
     0
176
     1
 90
       13
176
     1
 40
0.0
176
     1
 90
        0
176
     1
290
     0
176
     1
290
     1
176
     1
290
     1
176
     1
290
     0
176
     1
290
     0
176
     1
290
     0
176
     1
290
     0
176
     1
290
     0
176
     1
290
     0
176
     1
 90
       50
176
     1
 40
0.0
176
     1
 40
1.0
176
     1
 90
        0
176
     1
 62
    18
420
        0
176
     1
 90
       50
176
     1
 90
        3
176
     1
 62
     5
420
      255
176
     1
290
     0
176
     1
 90
       50
176
     1
 90
       50
176
     1
 90
       50
176
     1
290
     0
176
     1
 90
       50
176
     1
 62
   256
176
     0
 40
1.0
176
     0
 90
        2
176
     1
  1
strokes_ogs.tif
176
     1
290
     0
176
     1
 40
1.0
176
     1
 40
1.0
176
     1
  0
VISUALSTYLE
  5
31
102
{ACAD_REACTORS
330
2A
102
}
330
2A
100
AcDbVisualStyle
  2
Hidden
 70
     6
177
     3
291
     0
 70
    58
 90
        1
176
     1
 90
        2
176
     1
 90
        2
176
     1
 90
        0
176
     1
 40
0.6
176
     1
 40
30.0
176
     1
 62
     7
420
 16777215
176
     1
 90
        2
176
     1
 90
        2
176
     1
 62
     7
176
     1
 62
   257
176
     1
 90
        2
176
     1
 90
        1
176
     1
 40
40.0
176
     1
 90
        0
176
     1
 62
   257
176
     1
 40
1.0
176
     1
 90
        1
176
     1
 90
        6
176
     1
 90
        2
176
     1
 62
     7
176
     1
 90
        3
176
     1
 90
        0
176
     1
 90
        0
176
     1
290
     0
176
     1
 90
        1
176
     1
 40
0.0
176
     1
 90
        0
176
     1
290
     0
176
     1
290
     1
176
     1
290
     1
176
     1
290
     0
176
     1
290
     0
176
     1
290
     0
176
     1
290
     0
176
     1
290
     0
176
     1
290
     0
176
     1
 90
       50
176
     1
 40
0.0
176
     1
 40
1.0
176
     1
 90
        0
176
     1
 62
    18
420
        0
176
     1
 90
       50
176
     1
 90
        3
176
     1
 62
     5
420
      255
176
     1
290
     0
176
     1
 90
       50
176
     1
 90
       50
176
     1
 90
       50
176
     1
290
     0
176
     1
 90
       50
176
     1
 62
   256
176
     0
 40
1.0
176
     0
 90
        2
176
     1
  1
strokes_ogs.tif
176
     1
290
     0
176
     1
 40
1.0
176
     1
 40
1.0
176
     1
  0
VISUALSTYLE
  5
3B
102
{ACAD_REACTORS
330
2A
102
}
330
2A
100
AcDbVisualStyle
  2
JitterOff
 70
    20
177
     3
291
     1
 70
    58
 90
        2
176
     0
 90
        2
176
     0
 90
        0
176
     0
 90
        0
176
     0
 40
0.6
176
     0
 40
30.0
176
     0
 62
     7
420
 16777215
176
     0
 90
        1
176
     0
 90
        4
176
     0
 62
     7
176
     0
 62
   257
176
     0
 90
        1
176
     0
 90
        1
176
     0
 40
1.0
176
     0
 90
       10
176
     2
 62
     7
176
     0
 40
1.0
176
     0
 90
        1
176
     0
 90
        6
176
     0
 90
        2
176
     0
 62
     7
176
     0
 90
        5
176
     0
 90
        0
176
     0
 90
        0
176
     0
290
     0
176
     0
 90
        1
176
     0
 40
0.0
176
     0
 90
        0
176
     0
290
     0
176
     0
290
     1
176
     0
290
     1
176
     0
290
     0
176
     0
290
     0
176
     0
290
     0
176
     0
290
     0
176
     0
290
     0
176
     0
290
     0
176
     0
 90
       50
176
     0
 40
0.0
176
     0
 40
1.0
176
     0
 90
        0
176
     0
 62
    18
420
        0
176
     0
 90
       50
176
     0
 90
        3
176
     0
 62
     5
420
      255
176
     0
290
     0
176
     0
 90
       50
176
     0
 90
       50
176
     0
 90
       50
176
     0
290
     0
176
     0
 90
       50
176
     0
 62
   256
176
     0
 40
1.0
176
     0
 90
        2
176
     0
  1
strokes_ogs.tif
176
     0
290
     0
176
     0
 40
1.0
176
     0
 40
1.0
176
     0
  0
VISUALSTYLE
  5
38
102
{ACAD_REACTORS
330
2A
102
}
330
2A
100
AcDbVisualStyle
  2
Linepattern
 70
    14
177
     3
291
     1
 70
    58
 90
        2
176
     1
 90
        2
176
     1
 90
        0
176
     1
 90
        0
176
     1
 40
0.6
176
     1
 40
30.0
176
     1
 62
     7
420
 16777215
176
     1
 90
        1
176
     1
 90
        4
176
     1
 62
     7
176
     1
 62
   257
176
     1
 90
        7
176
     1
 90
        7
176
     1
 40
1.0
176
     1
 90
        8
176
     1
 62
     7
176
     1
 40
1.0
176
     1
 90
        1
176
     1
 90
        6
176
     1
 90
        2
176
     1
 62
     7
176
     1
 90
        5
176
     1
 90
        0
176
     1
 90
        0
176
     1
290
     0
176
     1
 90
        1
176
     1
 40
0.0
176
     1
 90
        0
176
     1
290
     0
176
     1
290
     1
176
     1
290
     1
176
     1
290
     0
176
     1
290
     0
176
     1
290
     0
176
     1
290
     0
176
     1
290
     0
176
     1
290
     0
176
     1
 90
       50
176
     1
 40
0.0
176
     1
 40
1.0
176
     1
 90
        0
176
     1
 62
    18
420
        0
176
     1
 90
       50
176
     1
 90
        3
176
     1
 62
     5
420
      255
176
     1
290
     0
176
     1
 90
       50
176
     1
 90
       50
176
     1
 90
       50
176
     1
290
     0
176
     1
 90
       50
176
     1
 62
   256
176
     0
 40
1.0
176
     0
 90
        2
176
     1
  1
strokes_ogs.tif
176
     1
290
     0
176
     1
 40
1.0
176
     1
 40
1.0
176
     1
  0
VISUALSTYLE
  5
3C
102
{ACAD_REACTORS
330
2A
102
}
330
2A
100
AcDbVisualStyle
  2
OverhangOff
 70
    21
177
     3
291
     1
 70
    58
 90
        2
176
     0
 90
        2
176
     0
 90
        0
176
     0
 90
        0
176
     0
 40
0.6
176
     0
 40
30.0
176
     0
 62
     7
420
 16777215
176
     0
 90
        1
176
     0
 90
        4
176
     0
 62
     7
176
     0
 62
   257
176
     0
 90
        1
176
     0
 90
        1
176
     0
 40
1.0
176
     0
 90
        9
176
     2
 62
     7
176
     0
 40
1.0
176
     0
 90
        1
176
     0
 90
        6
176
     0
 90
        2
176
     0
 62
     7
176
     0
 90
        5
176
     0
 90
        0
176
     0
 90
        0
176
     0
290
     0
176
     0
 90
        1
176
     0
 40
0.0
176
     0
 90
        0
176
     0
290
     0
176
     0
290
     1
176
     0
290
     1
176
     0
290
     0
176
     0
290
     0
176
     0
290
     0
176
     0
290
     0
176
     0
290
     0
176
     0
290
     0
176
     0
 90
       50
176
     0
 40
0.0
176
     0
 40
1.0
176
     0
 90
        0
176
     0
 62
    18
420
        0
176
     0
 90
       50
176
     0
 90
        3
176
     0
 62
     5
420
      255
176
     0
290
     0
176
     0
 90
       50
176
     0
 90
       50
176
     0
 90
       50
176
     0
290
     0
176
     0
 90
       50
176
     0
 62
   256
176
     0
 40
1.0
176
     0
 90
        2
176
     0
  1
strokes_ogs.tif
176
     0
290
     0
176
     0
 40
1.0
176
     0
 40
1.0
176
     0
  0
VISUALSTYLE
  5
33
102
{ACAD_REACTORS
330
2A
102
}
330
2A
100
AcDbVisualStyle
  2
Realistic
 70
     8
177
     3
291
     0
 70
    58
 90
        2
176
     1
 90
        3
176
     1
 90
        0
176
     1
 90
        2
176
     1
 40
0.6
176
     1
 40
30.0
176
     1
 62
     7
420
 16777215
176
     1
 90
        0
176
     1
 90
        0
176
     1
 62
     7
176
     1
 62
   257
176
     1
 90
        1
176
     1
 90
        1
176
     1
 40
1.0
176
     1
 90
        8
176
     1
 62
   257
176
     1
 40
1.0
176
     1
 90
        1
176
     1
 90
        6
176
     1
 90
        2
176
     1
 62
     7
176
     1
 90
        3
176
     1
 90
        0
176
     1
 90
        0
176
     1
290
     0
176
     1
 90
       13
176
     1
 40
0.0
176
     1
 90
        0
176
     1
290
     0
176
     1
290
     1
176
     1
290
     1
176
     1
290
     0
176
     1
290
     0
176
     1
290
     0
176
     1
290
     0
176
     1
290
     0
176
     1
290
     0
176
     1
 90
       50
176
     1
 40
0.0
176
     1
 40
1.0
176
     1
 90
        0
176
     1
 62
    18
420
        0
176
     1
 90
       50
176
     1
 90
        3
176
     1
 62
     5
420
      255
176
     1
290
     0
176
     1
 90
       50
176
     1
 90
       50
176
     1
 90
       50
176
     1
290
     0
176
     1
 90
       50
176
     1
 62
   256
176
     0
 40
1.0
176
     0
 90
        2
176
     1
  1
strokes_ogs.tif
176
     1
290
     0
176
     1
 40
1.0
176
     1
 40
1.0
176
     1
  0
VISUALSTYLE
  5
42
102
{ACAD_REACTORS
330
2A
102
}
330
2A
100
AcDbVisualStyle
  2
Shaded
 70
    27
177
     3
291
     0
 70
    58
 90
        2
176
     1
 90
        2
176
     1
 90
        1
176
     1
 90
        2
176
     1
 40
0.6
176
     1
 40
30.0
176
     1
 62
     7
420
 16777215
176
     1
 90
        0
176
     1
 90
        4
176
     1
 62
     7
176
     1
 62
   257
176
     1
 90
        1
176
     1
 90
        1
176
     1
 40
1.0
176
     1
 90
        8
176
     1
 62
   257
176
     1
 40
1.0
176
     1
 90
        1
176
     1
 90
        6
176
     1
 90
        2
176
     1
 62
     8
420
  7895160
176
     1
 90
        3
176
     1
 90
        0
176
     1
 90
        0
176
     1
290
     0
176
     1
 90
        5
176
     1
 40
0.0
176
     1
 90
        0
176
     1
290
     0
176
     1
290
     1
176
     1
290
     1
176
     1
290
     0
176
     1
290
     0
176
     1
290
     0
176
     1
290
     0
176
     1
290
     0
176
     1
290
     0
176
     1
 90
       50
176
     1
 40
0.0
176
     1
 40
1.0
176
     1
 90
        0
176
     1
 62
    18
420
        0
176
     1
 90
       50
176
     1
 90
        3
176
     1
 62
     5
420
      255
176
     1
290
     0
176
     1
 90
       50
176
     1
 90
       50
176
     1
 90
       50
176
     1
290
     0
176
     1
 90
       50
176
     1
 62
   256
176
     0
 40
1.0
176
     0
 90
        2
176
     1
  1
strokes_ogs.tif
176
     1
290
     0
176
     1
 40
1.0
176
     1
 40
1.0
176
     1
  0
VISUALSTYLE
  5
41
102
{ACAD_REACTORS
330
2A
102
}
330
2A
100
AcDbVisualStyle
  2
Shaded with edges
 70
    26
177
     3
291
     0
 70
    58
 90
        2
176
     1
 90
        2
176
     1
 90
        1
176
     1
 90
        2
176
     1
 40
0.6
176
     1
 40
30.0
176
     1
 62
     7
420
 16777215
176
     1
 90
        1
176
     1
 90
       10
176
     1
 62
     7
176
     1
 62
   257
176
     1
 90
        2
176
     1
 90
        1
176
     1
 40
1.0
176
     1
 90
        8
176
     1
 62
   257
176
     1
 40
1.0
176
     1
 90
        1
176
     1
 90
        6
176
     1
 90
        2
176
     1
 62
     7
176
     1
 90
        3
176
     1
 90
        0
176
     1
 90
        0
176
     1
290
     0
176
     1
 90
        5
176
     1
 40
0.0
176
     1
 90
        0
176
     1
290
     0
176
     1
290
     1
176
     1
290
     1
176
     1
290
     0
176
     1
290
     0
176
     1
290
     0
176
     1
290
     0
176
     1
290
     0
176
     1
290
     0
176
     1
 90
       50
176
     1
 40
0.0
176
     1
 40
1.0
176
     1
 90
        0
176
     1
 62
    18
420
        0
176
     1
 90
       50
176
     1
 90
        3
176
     1
 62
     5
420
      255
176
     1
290
     0
176
     1
 90
       50
176
     1
 90
       50
176
     1
 90
       50
176
     1
290
     0
176
     1
 90
       50
176
     1
 62
   256
176
     0
 40
1.0
176
     0
 90
        2
176
     1
  1
strokes_ogs.tif
176
     1
290
     0
176
     1
 40
1.0
176
     1
 40
1.0
176
     1
  0
VISUALSTYLE
  5
3E
102
{ACAD_REACTORS
330
2A
102
}
330
2A
100
AcDbVisualStyle
  2
Shades of Gray
 70
    23
177
     3
291
     0
 70
    58
 90
        2
176
     1
 90
        2
176
     1
 90
        3
176
     1
 90
        0
176
     1
 40
0.6
176
     1
 40
30.0
176
     1
 62
     7
420
 16777215
176
     1
 90
        2
176
     1
 90
        2
176
     1
 62
     7
176
     1
 62
     7
176
     1
 90
        1
176
     1
 90
        1
176
     1
 40
40.0
176
     1
 90
        8
176
     1
 62
     7
176
     1
 40
1.0
176
     1
 90
        1
176
     1
 90
        6
176
     1
 90
        2
176
     1
 62
     7
176
     1
 90
        3
176
     1
 90
        0
176
     1
 90
        0
176
     1
290
     0
176
     1
 90
        1
176
     1
 40
0.0
176
     1
 90
        0
176
     1
290
     0
176
     1
290
     1
176
     1
290
     1
176
     1
290
     0
176
     1
290
     0
176
     1
290
     0
176
     1
290
     0
176
     1
290
     0
176
     1
290
     0
176
     1
 90
       50
176
     1
 40
0.0
176
     1
 40
1.0
176
     1
 90
        0
176
     1
 62
    18
420
        0
176
     1
 90
       50
176
     1
 90
        3
176
     1
 62
     5
420
      255
176
     1
290
     0
176
     1
 90
       50
176
     1
 90
       50
176
     1
 90
       50
176
     1
290
     0
176
     1
 90
       50
176
     1
 62
   256
176
     0
 40
1.0
176
     0
 90
        2
176
     1
  1
strokes_ogs.tif
176
     1
290
     0
176
     1
 40
1.0
176
     1
 40
1.0
176
     1
  0
VISUALSTYLE
  5
3F
102
{ACAD_REACTORS
330
2A
102
}
330
2A
100
AcDbVisualStyle
  2
Sketchy
 70
    24
177
     3
291
     0
 70
    58
 90
        1
176
     1
 90
        2
176
     1
 90
        2
176
     1
 90
        0
176
     1
 40
0.6
176
     1
 40
30.0
176
     1
 62
     7
420
 16777215
176
     1
 90
        2
176
     1
 90
        2
176
     1
 62
     7
176
     1
 62
     7
176
     1
 90
        1
176
     1
 90
        1
176
     1
 40
40.0
176
     1
 90
       11
176
     1
 62
     7
176
     1
 40
1.0
176
     1
 90
        1
176
     1
 90
        6
176
     1
 90
        2
176
     1
 62
     7
176
     1
 90
        6
176
     1
 90
        0
176
     1
 90
        0
176
     1
290
     0
176
     1
 90
        1
176
     1
 40
0.0
176
     1
 90
        0
176
     1
290
     0
176
     1
290
     1
176
     1
290
     1
176
     1
290
     0
176
     1
290
     0
176
     1
290
     0
176
     1
290
     0
176
     1
290
     0
176
     1
290
     0
176
     1
 90
       50
176
     1
 40
0.0
176
     1
 40
1.0
176
     1
 90
        0
176
     1
 62
    18
420
        0
176
     1
 90
       50
176
     1
 90
        3
176
     1
 62
     5
420
      255
176
     1
290
     0
176
     1
 90
       50
176
     1
 90
       50
176
     1
 90
       50
176
     1
290
     0
176
     1
 90
       50
176
     1
 62
   256
176
     0
 40
1.0
176
     0
 90
        2
176
     1
  1
strokes_ogs.tif
176
     1
290
     0
176
     1
 40
1.0
176
     1
 40
1.0
176
     1
  0
VISUALSTYLE
  5
37
102
{ACAD_REACTORS
330
2A
102
}
330
2A
100
AcDbVisualStyle
  2
Thicken
 70
    13
177
     3
291
     1
 70
    58
 90
        2
176
     1
 90
        2
176
     1
 90
        0
176
     1
 90
        0
176
     1
 40
0.6
176
     1
 40
30.0
176
     1
 62
     7
420
 16777215
176
     1
 90
        1
176
     1
 90
        4
176
     1
 62
     7
176
     1
 62
   257
176
     1
 90
        1
176
     1
 90
        1
176
     1
 40
1.0
176
     1
 90
       12
176
     1
 62
     7
176
     1
 40
1.0
176
     1
 90
        1
176
     1
 90
        6
176
     1
 90
        2
176
     1
 62
     7
176
     1
 90
        5
176
     1
 90
        0
176
     1
 90
        0
176
     1
290
     0
176
     1
 90
        1
176
     1
 40
0.0
176
     1
 90
        0
176
     1
290
     0
176
     1
290
     1
176
     1
290
     1
176
     1
290
     0
176
     1
290
     0
176
     1
290
     0
176
     1
290
     0
176
     1
290
     0
176
     1
290
     0
176
     1
 90
       50
176
     1
 40
0.0
176
     1
 40
1.0
176
     1
 90
        0
176
     1
 62
    18
420
        0
176
     1
 90
       50
176
     1
 90
        3
176
     1
 62
     5
420
      255
176
     1
290
     0
176
     1
 90
       50
176
     1
 90
       50
176
     1
 90
       50
176
     1
290
     0
176
     1
 90
       50
176
     1
 62
   256
176
     0
 40
1.0
176
     0
 90
        2
176
     1
  1
strokes_ogs.tif
176
     1
290
     0
176
     1
 40
1.0
176
     1
 40
1.0
176
     1
  0
VISUALSTYLE
  5
30
102
{ACAD_REACTORS
330
2A
102
}
330
2A
100
AcDbVisualStyle
  2
Wireframe
 70
     5
177
     3
291
     0
 70
    58
 90
        0
176
     1
 90
        2
176
     1
 90
        0
176
     1
 90
        0
176
     1
 40
0.6
176
     1
 40
30.0
176
     1
 62
     7
420
 16777215
176
     1
 90
        1
176
     1
 90
        4
176
     1
 62
     7
176
     1
 62
   257
176
     1
 90
        1
176
     1
 90
        1
176
     1
 40
1.0
176
     1
 90
        0
176
     1
 62
   257
176
     1
 40
1.0
176
     1
 90
        1
176
     1
 90
        6
176
     1
 90
        2
176
     1
 62
     7
176
     1
 90
        3
176
     1
 90
        0
176
     1
 90
        0
176
     1
290
     0
176
     1
 90
        1
176
     1
 40
0.0
176
     1
 90
        0
176
     1
290
     0
176
     1
290
     1
176
     1
290
     1
176
     1
290
     0
176
     1
290
     0
176
     1
290
     0
176
     1
290
     0
176
     1
290
     0
176
     1
290
     0
176
     1
 90
       50
176
     1
 40
0.0
176
     1
 40
1.0
176
     1
 90
        0
176
     1
 62
    18
420
        0
176
     1
 90
       50
176
     1
 90
        3
176
     1
 62
     5
420
      255
176
     1
290
     0
176
     1
 90
       50
176
     1
 90
       50
176
     1
 90
       50
176
     1
290
     0
176
     1
 90
       50
176
     1
 62
   256
176
     0
 40
1.0
176
     0
 90
        2
176
     1
  1
strokes_ogs.tif
176
     1
290
     0
176
     1
 40
1.0
176
     1
 40
1.0
176
     1
  0
VISUALSTYLE
  5
40
102
{ACAD_REACTORS
330
2A
102
}
330
2A
100
AcDbVisualStyle
  2
X-Ray
 70
    25
177
     3
291
     0
 70
    58
 90
        2
176
     1
 90
        2
176
     1
 90
        1
176
     1
 90
        1
176
     1
 40
0.5
176
     1
 40
30.0
176
     1
 62
     7
420
 16777215
176
     1
 90
        1
176
     1
 90
        0
176
     1
 62
     7
176
     1
 62
   257
176
     1
 90
        1
176
     1
 90
        1
176
     1
 40
1.0
176
     1
 90
        8
176
     1
 62
     7
176
     1
 40
1.0
176
     1
 90
        1
176
     1
 90
        6
176
     1
 90
        2
176
     1
 62
     7
176
     1
 90
        3
176
     1
 90
        0
176
     1
 90
        0
176
     1
290
     0
176
     1
 90
       13
176
     1
 40
0.0
176
     1
 90
        0
176
     1
290
     0
176
     1
290
     1
176
     1
290
     1
176
     1
290
     0
176
     1
290
     0
176
     1
290
     0
176
     1
290
     0
176
     1
290
     0
176
     1
290
     0
176
     1
 90
       50
176
     1
 40
0.0
176
     1
 40
1.0
176
     1
 90
        0
176
     1
 62
    18
420
        0
176
     1
 90
       50
176
     1
 90
        3
176
     1
 62
     5
420
      255
176
     1
290
     0
176
     1
 90
       50
176
     1
 90
       50
176
     1
 90
       50
176
     1
290
     0
176
     1
 90
       50
176
     1
 62
   256
176
     0
 40
1.0
176
     0
 90
        2
176
     1
  1
strokes_ogs.tif
176
     1
290
     0
176
     1
 40
1.0
176
     1
 40
1.0
176
     1
  0
DICTIONARYVAR
  5
1DD
102
{ACAD_REACTORS
330
1DC
102
}
330
1DC
100
DictionaryVariables
280
     0
  1
1:1
  0
DICTIONARYVAR
  5
1E2
102
{ACAD_REACTORS
330
1DC
102
}
330
1DC
100
DictionaryVariables
280
     0
  1
Standard
  0
DICTIONARYVAR
  5
1E1
102
{ACAD_REACTORS
330
1DC
102
}
330
1DC
100
DictionaryVariables
280
     0
  1
Standard
  0
DICTIONARY
  5
1DE
330
6A
100
AcDbDictionary
280
     1
281
     1
  3
ACAD_ROUNDTRIP_2008_TABLESTYLE_CELLSTYLEMAP
360
1DF
  0
CELLSTYLEMAP
  5
1DF
102
{ACAD_REACTORS
330
1DE
102
}
330
1DE
100
AcDbCellStyleMap
 90
        3
300
CELLSTYLE
  1
TABLEFORMAT_BEGIN
 90
        5
170
     1
 91
        0
 92
    32768
 62
   257
 93
        1
300
CONTENTFORMAT
  1
CONTENTFORMAT_BEGIN
 90
        0
 91
        0
 92
        4
 93
        0
300

 40
0.0
140
1.0
 94
        5
 62
     0
340
11
144
0.25
309
CONTENTFORMAT_END
171
     1
301
MARGIN
  1
CELLMARGIN_BEGIN
 40
0.06
 40
0.06
 40
0.06
 40
0.06
 40
0.06
 40
0.06
309
CELLMARGIN_END
 94
        6
 95
        1
302
GRIDFORMAT
  1
GRIDFORMAT_BEGIN
 90
        0
 91
        1
 62
     0
 92
       -2
340
14
 93
        0
 40
0.045
309
GRIDFORMAT_END
 95
        2
302
GRIDFORMAT
  1
GRIDFORMAT_BEGIN
 90
        0
 91
        1
 62
     0
 92
       -2
340
14
 93
        0
 40
0.045
309
GRIDFORMAT_END
 95
        4
302
GRIDFORMAT
  1
GRIDFORMAT_BEGIN
 90
        0
 91
        1
 62
     0
 92
       -2
340
14
 93
        0
 40
0.045
309
GRIDFORMAT_END
 95
        8
302
GRIDFORMAT
  1
GRIDFORMAT_BEGIN
 90
        0
 91
        1
 62
     0
 92
       -2
340
14
 93
        0
 40
0.045
309
GRIDFORMAT_END
 95
       16
302
GRIDFORMAT
  1
GRIDFORMAT_BEGIN
 90
        0
 91
        1
 62
     0
 92
       -2
340
14
 93
        0
 40
0.045
309
GRIDFORMAT_END
 95
       32
302
GRIDFORMAT
  1
GRIDFORMAT_BEGIN
 90
        0
 91
        1
 62
     0
 92
       -2
340
14
 93
        0
 40
0.045
309
GRIDFORMAT_END
309
TABLEFORMAT_END
  1
CELLSTYLE_BEGIN
 90
        1
 91
        1
300
_TITLE
309
CELLSTYLE_END
300
CELLSTYLE
  1
TABLEFORMAT_BEGIN
 90
        5
170
     1
 91
        0
 92
        0
 62
   257
 93
        1
300
CONTENTFORMAT
  1
CONTENTFORMAT_BEGIN
 90
        0
 91
        0
 92
        4
 93
        0
300

 40
0.0
140
1.0
 94
        5
 62
     0
340
11
144
0.18
309
CONTENTFORMAT_END
171
     1
301
MARGIN
  1
CELLMARGIN_BEGIN
 40
0.06
 40
0.06
 40
0.06
 40
0.06
 40
0.06
 40
0.06
309
CELLMARGIN_END
 94
        6
 95
        1
302
GRIDFORMAT
  1
GRIDFORMAT_BEGIN
 90
        0
 91
        1
 62
     0
 92
       -2
340
14
 93
        0
 40
0.045
309
GRIDFORMAT_END
 95
        2
302
GRIDFORMAT
  1
GRIDFORMAT_BEGIN
 90
        0
 91
        1
 62
     0
 92
       -2
340
14
 93
        0
 40
0.045
309
GRIDFORMAT_END
 95
        4
302
GRIDFORMAT
  1
GRIDFORMAT_BEGIN
 90
        0
 91
        1
 62
     0
 92
       -2
340
14
 93
        0
 40
0.045
309
GRIDFORMAT_END
 95
        8
302
GRIDFORMAT
  1
GRIDFORMAT_BEGIN
 90
        0
 91
        1
 62
     0
 92
       -2
340
14
 93
        0
 40
0.045
309
GRIDFORMAT_END
 95
       16
302
GRIDFORMAT
  1
GRIDFORMAT_BEGIN
 90
        0
 91
        1
 62
     0
 92
       -2
340
14
 93
        0
 40
0.045
309
GRIDFORMAT_END
 95
       32
302
GRIDFORMAT
  1
GRIDFORMAT_BEGIN
 90
        0
 91
        1
 62
     0
 92
       -2
340
14
 93
        0
 40
0.045
309
GRIDFORMAT_END
309
TABLEFORMAT_END
  1
CELLSTYLE_BEGIN
 90
        2
 91
        1
300
_HEADER
309
CELLSTYLE_END
300
CELLSTYLE
  1
TABLEFORMAT_BEGIN
 90
        5
170
     1
 91
        0
 92
        0
 62
   257
 93
        1
300
CONTENTFORMAT
  1
CONTENTFORMAT_BEGIN
 90
        0
 91
        0
 92
        4
 93
        0
300

 40
0.0
140
1.0
 94
        2
 62
     0
340
11
144
0.18
309
CONTENTFORMAT_END
171
     1
301
MARGIN
  1
CELLMARGIN_BEGIN
 40
0.06
 40
0.06
 40
0.06
 40
0.06
 40
0.06
 40
0.06
309
CELLMARGIN_END
 94
        6
 95
        1
302
GRIDFORMAT
  1
GRIDFORMAT_BEGIN
 90
        0
 91
        1
 62
     0
 92
       -2
340
14
 93
        0
 40
0.045
309
GRIDFORMAT_END
 95
        2
302
GRIDFORMAT
  1
GRIDFORMAT_BEGIN
 90
        0
 91
        1
 62
     0
 92
       -2
340
14
 93
        0
 40
0.045
309
GRIDFORMAT_END
 95
        4
302
GRIDFORMAT
  1
GRIDFORMAT_BEGIN
 90
        0
 91
        1
 62
     0
 92
       -2
340
14
 93
        0
 40
0.045
309
GRIDFORMAT_END
 95
        8
302
GRIDFORMAT
  1
GRIDFORMAT_BEGIN
 90
        0
 91
        1
 62
     0
 92
       -2
340
14
 93
        0
 40
0.045
309
GRIDFORMAT_END
 95
       16
302
GRIDFORMAT
  1
GRIDFORMAT_BEGIN
 90
        0
 91
        1
 62
     0
 92
       -2
340
14
 93
        0
 40
0.045
309
GRIDFORMAT_END
 95
       32
302
GRIDFORMAT
  1
GRIDFORMAT_BEGIN
 90
        0
 91
        1
 62
     0
 92
       -2
340
14
 93
        0
 40
0.045
309
GRIDFORMAT_END
309
TABLEFORMAT_END
  1
CELLSTYLE_BEGIN
 90
        3
 91
        2
300
_DATA
309
CELLSTYLE_END
  0
ENDSEC
  0
EOF