0
SECTION
  2
HEADER
  9
$ACADVER
  1
AC1027
  9
$ACADMAINTVER
 70
     8
  9
$DWGCODEPAGE
  3
ANSI_1252
  9
$REQUIREDVERSIONS
160
                 0
  9
$COMMENTS
  1
File was created by Cadenas
  9
$CUSTOMPROPERTYTAG
  1
NN
  9
$CUSTOMPROPERTY
  1
Wide Slot Take Up Expansion
  9
$CUSTOMPROPERTYTAG
  1
NT
  9
$CUSTOMPROPERTY
  1
Type E Wide Slot Take-Up Bearing -Inch
  9
$CUSTOMPROPERTYTAG
  1
NB
  9
$CUSTOMPROPERTY
  1
023078
  9
$CUSTOMPROPERTYTAG
  1
NBSYN
  9
$CUSTOMPROPERTY
  1
$PN.
  9
$CUSTOMPROPERTYTAG
  1
LINA
  9
$CUSTOMPROPERTY
  1
023078
  9
$CUSTOMPROPERTYTAG
  1
SS
  9
$CUSTOMPROPERTY
  1
1-1/2
  9
$CUSTOMPROPERTYTAG
  1
PN
  9
$CUSTOMPROPERTY
  1
023078
  9
$CUSTOMPROPERTYTAG
  1
DESCRIPTION
  9
$CUSTOMPROPERTY
  1
WSTU-E-108R
  9
$CUSTOMPROPERTYTAG
  1
A
  9
$CUSTOMPROPERTY
  1
3-3/8
  9
$CUSTOMPROPERTYTAG
  1
B
  9
$CUSTOMPROPERTY
  1
6
  9
$CUSTOMPROPERTYTAG
  1
C
  9
$CUSTOMPROPERTY
  1
11/16
  9
$CUSTOMPROPERTYTAG
  1
D
  9
$CUSTOMPROPERTY
  1
3-1/4
  9
$CUSTOMPROPERTYTAG
  1
E
  9
$CUSTOMPROPERTY
  1
3-13/16
  9
$CUSTOMPROPERTYTAG
  1
F
  9
$CUSTOMPROPERTY
  1
1
  9
$CUSTOMPROPERTYTAG
  1
G
  9
$CUSTOMPROPERTY
  1
15/16
  9
$CUSTOMPROPERTYTAG
  1
H
  9
$CUSTOMPROPERTY
  1
3/4
  9
$CUSTOMPROPERTYTAG
  1
J
  9
$CUSTOMPROPERTY
  1
3-5/16
  9
$CUSTOMPROPERTYTAG
  1
K
  9
$CUSTOMPROPERTY
  1
1-15/16
  9
$CUSTOMPROPERTYTAG
  1
L
  9
$CUSTOMPROPERTY
  1
3-3/16
  9
$CUSTOMPROPERTYTAG
  1
M
  9
$CUSTOMPROPERTY
  1
4
  9
$CUSTOMPROPERTYTAG
  1
N
  9
$CUSTOMPROPERTY
  1
4-3/4
  9
$CUSTOMPROPERTYTAG
  1
T
  9
$CUSTOMPROPERTY
  1
2-5/16
  9
$CUSTOMPROPERTYTAG
  1
COMPANY
  9
$CUSTOMPROPERTY
  1
baldor
  9
$INSBASE
 10
0.0
 20
0.0
 30
0.0
  9
$EXTMIN
 10
1.000000000000000E+20
 20
1.000000000000000E+20
 30
1.000000000000000E+20
  9
$EXTMAX
 10
-1.000000000000000E+20
 20
-1.000000000000000E+20
 30
-1.000000000000000E+20
  9
$LIMMIN
 10
0.0
 20
0.0
  9
$LIMMAX
 10
12.0
 20
9.0
  9
$ORTHOMODE
 70
     0
  9
$REGENMODE
 70
     1
  9
$FILLMODE
 70
     1
  9
$QTEXTMODE
 70
     0
  9
$MIRRTEXT
 70
     1
  9
$LTSCALE
 40
1.0
  9
$ATTMODE
 70
     1
  9
$TEXTSIZE
 40
0.2
  9
$TRACEWID
 40
0.05
  9
$TEXTSTYLE
  7
Standard
  9
$CLAYER
  8
0
  9
$CELTYPE
  6
ByLayer
  9
$CECOLOR
 62
   256
  9
$CELTSCALE
 40
1.0
  9
$DISPSILH
 70
     0
  9
$DIMSCALE
 40
1.0
  9
$DIMASZ
 40
0.18
  9
$DIMEXO
 40
0.0625
  9
$DIMDLI
 40
0.38
  9
$DIMRND
 40
0.0
  9
$DIMDLE
 40
0.0
  9
$DIMEXE
 40
0.18
  9
$DIMTP
 40
0.0
  9
$DIMTM
 40
0.0
  9
$DIMTXT
 40
0.18
  9
$DIMCEN
 40
0.09
  9
$DIMTSZ
 40
0.0
  9
$DIMTOL
 70
     0
  9
$DIMLIM
 70
     0
  9
$DIMTIH
 70
     1
  9
$DIMTOH
 70
     1
  9
$DIMSE1
 70
     0
  9
$DIMSE2
 70
     0
  9
$DIMTAD
 70
     0
  9
$DIMZIN
 70
     0
  9
$DIMBLK
  1

  9
$DIMASO
 70
     1
  9
$DIMSHO
 70
     1
  9
$DIMPOST
  1

  9
$DIMAPOST
  1

  9
$DIMALT
 70
     0
  9
$DIMALTD
 70
     2
  9
$DIMALTF
 40
25.4
  9
$DIMLFAC
 40
1.0
  9
$DIMTOFL
 70
     0
  9
$DIMTVP
 40
0.0
  9
$DIMTIX
 70
     0
  9
$DIMSOXD
 70
     0
  9
$DIMSAH
 70
     0
  9
$DIMBLK1
  1

  9
$DIMBLK2
  1

  9
$DIMSTYLE
  2
Standard
  9
$DIMCLRD
 70
     0
  9
$DIMCLRE
 70
     0
  9
$DIMCLRT
 70
     0
  9
$DIMTFAC
 40
1.0
  9
$DIMGAP
 40
0.09
  9
$DIMJUST
 70
     0
  9
$DIMSD1
 70
     0
  9
$DIMSD2
 70
     0
  9
$DIMTOLJ
 70
     1
  9
$DIMTZIN
 70
     0
  9
$DIMALTZ
 70
     0
  9
$DIMALTTZ
 70
     0
  9
$DIMUPT
 70
     0
  9
$DIMDEC
 70
     4
  9
$DIMTDEC
 70
     4
  9
$DIMALTU
 70
     2
  9
$DIMALTTD
 70
     2
  9
$DIMTXSTY
  7
Standard
  9
$DIMAUNIT
 70
     0
  9
$DIMADEC
 70
     0
  9
$DIMALTRND
 40
0.0
  9
$DIMAZIN
 70
     0
  9
$DIMDSEP
 70
    46
  9
$DIMATFIT
 70
     3
  9
$DIMFRAC
 70
     0
  9
$DIMLDRBLK
  1

  9
$DIMLUNIT
 70
     2
  9
$DIMLWD
 70
    -2
  9
$DIMLWE
 70
    -2
  9
$DIMTMOVE
 70
     0
  9
$DIMFXL
 40
1.0
  9
$DIMFXLON
 70
     0
  9
$DIMJOGANG
 40
0.7853981633974483
  9
$DIMTFILL
 70
     0
  9
$DIMTFILLCLR
 70
     0
  9
$DIMARCSYM
 70
     0
  9
$DIMLTYPE
  6

  9
$DIMLTEX1
  6

  9
$DIMLTEX2
  6

  9
$DIMTXTDIRECTION
 70
     0
  9
$LUNITS
 70
     2
  9
$LUPREC
 70
     4
  9
$SKETCHINC
 40
0.1
  9
$FILLETRAD
 40
0.5
  9
$AUNITS
 70
     0
  9
$AUPREC
 70
     0
  9
$MENU
  1
.
  9
$ELEVATION
 40
0.0
  9
$PELEVATION
 40
0.0
  9
$THICKNESS
 40
0.0
  9
$LIMCHECK
 70
     0
  9
$CHAMFERA
 40
0.0
  9
$CHAMFERB
 40
0.0
  9
$CHAMFERC
 40
0.0
  9
$CHAMFERD
 40
0.0
  9
$SKPOLY
 70
     0
  9
$TDCREATE
 40
2458168.970733704
  9
$TDUCREATE
 40
2458168.929067037
  9
$TDUPDATE
 40
2458168.970733877
  9
$TDUUPDATE
 40
2458168.929067211
  9
$TDINDWG
 40
0.0000000116
  9
$TDUSRTIMER
 40
0.0000000116
  9
$USRTIMER
 70
     1
  9
$ANGBASE
 50
0.0
  9
$ANGDIR
 70
     0
  9
$PDMODE
 70
     0
  9
$PDSIZE
 40
0.0
  9
$PLINEWID
 40
0.0
  9
$SPLFRAME
 70
     0
  9
$SPLINETYPE
 70
     6
  9
$SPLINESEGS
 70
     8
  9
$HANDSEED
  5
212
  9
$SURFTAB1
 70
     6
  9
$SURFTAB2
 70
     6
  9
$SURFTYPE
 70
     6
  9
$SURFU
 70
     6
  9
$SURFV
 70
     6
  9
$UCSBASE
  2

  9
$UCSNAME
  2

  9
$UCSORG
 10
0.0
 20
0.0
 30
0.0
  9
$UCSXDIR
 10
1.0
 20
0.0
 30
0.0
  9
$UCSYDIR
 10
0.0
 20
1.0
 30
0.0
  9
$UCSORTHOREF
  2

  9
$UCSORTHOVIEW
 70
     0
  9
$UCSORGTOP
 10
0.0
 20
0.0
 30
0.0
  9
$UCSORGBOTTOM
 10
0.0
 20
0.0
 30
0.0
  9
$UCSORGLEFT
 10
0.0
 20
0.0
 30
0.0
  9
$UCSORGRIGHT
 10
0.0
 20
0.0
 30
0.0
  9
$UCSORGFRONT
 10
0.0
 20
0.0
 30
0.0
  9
$UCSORGBACK
 10
0.0
 20
0.0
 30
0.0
  9
$PUCSBASE
  2

  9
$PUCSNAME
  2

  9
$PUCSORG
 10
0.0
 20
0.0
 30
0.0
  9
$PUCSXDIR
 10
1.0
 20
0.0
 30
0.0
  9
$PUCSYDIR
 10
0.0
 20
1.0
 30
0.0
  9
$PUCSORTHOREF
  2

  9
$PUCSORTHOVIEW
 70
     0
  9
$PUCSORGTOP
 10
0.0
 20
0.0
 30
0.0
  9
$PUCSORGBOTTOM
 10
0.0
 20
0.0
 30
0.0
  9
$PUCSORGLEFT
 10
0.0
 20
0.0
 30
0.0
  9
$PUCSORGRIGHT
 10
0.0
 20
0.0
 30
0.0
  9
$PUCSORGFRONT
 10
0.0
 20
0.0
 30
0.0
  9
$PUCSORGBACK
 10
0.0
 20
0.0
 30
0.0
  9
$USERI1
 70
     0
  9
$USERI2
 70
     0
  9
$USERI3
 70
     0
  9
$USERI4
 70
     0
  9
$USERI5
 70
     0
  9
$USERR1
 40
0.0
  9
$USERR2
 40
0.0
  9
$USERR3
 40
0.0
  9
$USERR4
 40
0.0
  9
$USERR5
 40
0.0
  9
$WORLDVIEW
 70
     1
  9
$SHADEDGE
 70
     3
  9
$SHADEDIF
 70
    70
  9
$TILEMODE
 70
     1
  9
$MAXACTVP
 70
    64
  9
$PINSBASE
 10
0.0
 20
0.0
 30
0.0
  9
$PLIMCHECK
 70
     0
  9
$PEXTMIN
 10
1.000000000000000E+20
 20
1.000000000000000E+20
 30
1.000000000000000E+20
  9
$PEXTMAX
 10
-1.000000000000000E+20
 20
-1.000000000000000E+20
 30
-1.000000000000000E+20
  9
$PLIMMIN
 10
0.0
 20
0.0
  9
$PLIMMAX
 10
12.0
 20
9.0
  9
$UNITMODE
 70
     0
  9
$VISRETAIN
 70
     1
  9
$PLINEGEN
 70
     0
  9
$PSLTSCALE
 70
     1
  9
$TREEDEPTH
 70
  3020
  9
$CMLSTYLE
  2
Standard
  9
$CMLJUST
 70
     0
  9
$CMLSCALE
 40
1.0
  9
$PROXYGRAPHICS
 70
     1
  9
$MEASUREMENT
 70
     0
  9
$CELWEIGHT
370
    -1
  9
$ENDCAPS
280
     0
  9
$JOINSTYLE
280
     0
  9
$LWDISPLAY
290
     0
  9
$INSUNITS
 70
     1
  9
$HYPERLINKBASE
  1

  9
$STYLESHEET
  1

  9
$XEDIT
290
     1
  9
$CEPSNTYPE
380
     0
  9
$PSTYLEMODE
290
     1
  9
$FINGERPRINTGUID
  2
{A5A9A23F-90BF-43B7-BABE-3BB57AA8F04E}
  9
$VERSIONGUID
  2
{FAEB1C32-E019-11D5-929B-00C0DF256EC4}
  9
$EXTNAMES
290
     1
  9
$PSVPSCALE
 40
0.0
  9
$OLESTARTUP
290
     0
  9
$SORTENTS
280
   127
  9
$INDEXCTL
280
     0
  9
$HIDETEXT
280
     1
  9
$XCLIPFRAME
280
     2
  9
$HALOGAP
280
     0
  9
$OBSCOLOR
 70
   257
  9
$OBSLTYPE
280
     0
  9
$INTERSECTIONDISPLAY
280
     0
  9
$INTERSECTIONCOLOR
 70
   257
  9
$DIMASSOC
280
     2
  9
$PROJECTNAME
  1

  9
$CAMERADISPLAY
290
     0
  9
$LENSLENGTH
 40
50.0
  9
$CAMERAHEIGHT
 40
0.0
  9
$STEPSPERSEC
 40
2.0
  9
$STEPSIZE
 40
6.0
  9
$3DDWFPREC
 40
2.0
  9
$PSOLWIDTH
 40
0.25
  9
$PSOLHEIGHT
 40
4.0
  9
$LOFTANG1
 40
1.570796326794897
  9
$LOFTANG2
 40
1.570796326794897
  9
$LOFTMAG1
 40
0.0
  9
$LOFTMAG2
 40
0.0
  9
$LOFTPARAM
 70
     7
  9
$LOFTNORMALS
280
     1
  9
$LATITUDE
 40
37.795
  9
$LONGITUDE
 40
-122.394
  9
$NORTHDIRECTION
 40
0.0
  9
$TIMEZONE
 70
 -8000
  9
$LIGHTGLYPHDISPLAY
280
     1
  9
$TILEMODELIGHTSYNCH
280
     1
  9
$CMATERIAL
347
44
  9
$SOLIDHIST
280
     0
  9
$SHOWHIST
280
     1
  9
$DWFFRAME
280
     2
  9
$DGNFRAME
280
     2
  9
$REALWORLDSCALE
290
     1
  9
$INTERFERECOLOR
 62
   256
  9
$CSHADOW
280
     0
  9
$SHADOWPLANELOCATION
 40
0.0
  0
ENDSEC
  0
SECTION
  2
CLASSES
  0
CLASS
  1
ACDBDICTIONARYWDFLT
  2
AcDbDictionaryWithDefault
  3
ObjectDBX Classes
 90
        0
 91
        4
280
     0
281
     0
  0
CLASS
  1
VISUALSTYLE
  2
AcDbVisualStyle
  3
ObjectDBX Classes
 90
     4095
 91
        4
280
     0
281
     0
  0
CLASS
  1
MATERIAL
  2
AcDbMaterial
  3
ObjectDBX Classes
 90
     1153
 91
        4
280
     0
281
     0
  0
CLASS
  1
SCALE
  2
AcDbScale
  3
ObjectDBX Classes
 90
     1153
 91
        4
280
     0
281
     0
  0
CLASS
  1
TABLESTYLE
  2
AcDbTableStyle
  3
ObjectDBX Classes
 90
     4095
 91
        4
280
     0
281
     0
  0
CLASS
  1
MLEADERSTYLE
  2
AcDbMLeaderStyle
  3
ACDB_MLEADERSTYLE_CLASS
 90
     4095
 91
        4
280
     0
281
     0
  0
CLASS
  1
SUN
  2
AcDbSun
  3
SCENEOE
 90
     1153
 91
        4
280
     0
281
     0
  0
CLASS
  1
DICTIONARYVAR
  2
AcDbDictionaryVar
  3
ObjectDBX Classes
 90
        0
 91
        4
280
     0
281
     0
  0
CLASS
  1
CELLSTYLEMAP
  2
AcDbCellStyleMap
  3
ObjectDBX Classes
 90
     1152
 91
        4
280
     0
281
     0
  0
ENDSEC
  0
SECTION
  2
TABLES
  0
TABLE
  2
VPORT
  5
8
330
0
100
AcDbSymbolTable
 70
     1
  0
VPORT
  5
29
330
8
100
AcDbSymbolTableRecord
100
AcDbViewportTableRecord
  2
*Active
 70
     0
 10
0.0
 20
0.0
 11
1.0
 21
1.0
 12
0.6073632381639662
 22
0.0
 13
0.0
 23
0.0
 14
0.5
 24
0.5
 15
0.5
 25
0.5
 16
0.0
 26
0.0
 36
1.0
 17
0.0
 27
0.0
 37
0.0
 40
3.79236
 41
1.749333922450798
 42
50.0
 43
0.0
 44
0.0
 50
0.0
 51
0.0
 71
     0
 72
   100
 73
     1
 74
     3
 75
     0
 76
     0
 77
     0
 78
     0
281
     0
 65
     1
110
0.0
120
0.0
130
0.0
111
1.0
121
0.0
131
0.0
112
0.0
122
1.0
132
0.0
 79
     0
146
0.0
348
2F
 60
     3
 61
     5
292
     1
282
     1
141
0.0
142
0.0
 63
   250
361
6D
  0
ENDTAB
  0
TABLE
  2
LTYPE
  5
5
330
0
100
AcDbSymbolTable
 70
     3
  0
LTYPE
  5
14
330
5
100
AcDbSymbolTableRecord
100
AcDbLinetypeTableRecord
  2
ByBlock
 70
     0
  3

 72
    65
 73
     0
 40
0.0
  0
LTYPE
  5
15
330
5
100
AcDbSymbolTableRecord
100
AcDbLinetypeTableRecord
  2
ByLayer
 70
     0
  3

 72
    65
 73
     0
 40
0.0
  0
LTYPE
  5
16
330
5
100
AcDbSymbolTableRecord
100
AcDbLinetypeTableRecord
  2
Continuous
 70
     0
  3
Solid line
 72
    65
 73
     0
 40
0.0
  0
LTYPE
  5
9B
330
5
100
AcDbSymbolTableRecord
100
AcDbLinetypeTableRecord
  2
Dashed
 70
     0
  3

 72
    65
 73
     2
 40
2.0
 49
1.0
 74
     0
 49
-1.0
 74
     0
  0
LTYPE
  5
13A
330
5
100
AcDbSymbolTableRecord
100
AcDbLinetypeTableRecord
  2
Center
 70
     0
  3

 72
    65
 73
     4
 40
1.5
 49
0.45
 74
     0
 49
-0.5
 74
     0
 49
0.05
 74
     0
 49
-0.5
 74
     0
  0
ENDTAB
  0
TABLE
  2
LAYER
  5
2
330
0
100
AcDbSymbolTable
 70
     7
  0
LAYER
  5
10
330
2
100
AcDbSymbolTableRecord
100
AcDbLayerTableRecord
  2
0
 70
     0
 62
     7
  6
Continuous
370
    -3
390
F
347
46
348
0
  0
LAYER
  5
72
330
2
100
AcDbSymbolTableRecord
100
AcDbLayerTableRecord
  2
AM_6
 70
     0
 62
    -2
  6
Continuous
370
    35
390
F
347
46
348
0
  0
LAYER
  5
9C
330
2
100
AcDbSymbolTableRecord
100
AcDbLayerTableRecord
  2
AM_9
 70
     0
 62
     6
  6
Dashed
370
    25
390
F
347
46
348
0
  0
LAYER
  5
D6
330
2
100
AcDbSymbolTableRecord
100
AcDbLayerTableRecord
  2
AM_4
 70
     0
 62
     7
  6
Continuous
370
    50
390
F
347
46
348
0
  0
LAYER
  5
13B
330
2
100
AcDbSymbolTableRecord
100
AcDbLayerTableRecord
  2
AM_7
 70
     0
 62
     7
  6
Center
370
    25
390
F
347
46
348
0
  0
LAYER
  5
149
330
2
100
AcDbSymbolTableRecord
100
AcDbLayerTableRecord
  2
AM_5
 70
     0
 62
     3
  6
Continuous
370
    25
390
F
347
46
348
0
  0
LAYER
  5
201
330
2
100
AcDbSymbolTableRecord
100
AcDbLayerTableRecord
  2
ConnectionPoints
 70
     0
 62
     7
  6
Continuous
370
    50
390
F
347
46
348
0
  0
ENDTAB
  0
TABLE
  2
STYLE
  5
3
330
0
100
AcDbSymbolTable
 70
     1
  0
STYLE
  5
11
330
3
100
AcDbSymbolTableRecord
100
AcDbTextStyleTableRecord
  2
Standard
 70
     0
 40
0.0
 41
1.0
 50
0.0
 71
     0
 42
0.2
  3
txt
  4

  0
ENDTAB
  0
TABLE
  2
VIEW
  5
6
330
0
100
AcDbSymbolTable
 70
     0
  0
ENDTAB
  0
TABLE
  2
UCS
  5
7
330
0
100
AcDbSymbolTable
 70
     0
  0
ENDTAB
  0
TABLE
  2
APPID
  5
9
330
0
100
AcDbSymbolTable
 70
     1
  0
APPID
  5
12
330
9
100
AcDbSymbolTableRecord
100
AcDbRegAppTableRecord
  2
ACAD
 70
     0
  0
ENDTAB
  0
TABLE
  2
DIMSTYLE
  5
A
330
0
100
AcDbSymbolTable
 70
     1
100
AcDbDimStyleTable
  0
DIMSTYLE
105
27
330
A
100
AcDbSymbolTableRecord
100
AcDbDimStyleTableRecord
  2
Standard
 70
     0
178
     0
340
11
  0
ENDTAB
  0
TABLE
  2
BLOCK_RECORD
  5
1
330
0
100
AcDbSymbolTable
 70
     7
  0
BLOCK_RECORD
  5
1F
330
1
100
AcDbSymbolTableRecord
100
AcDbBlockTableRecord
  2
*Model_Space
340
22
 70
     0
280
     1
281
     0
  0
BLOCK_RECORD
  5
1B
330
1
100
AcDbSymbolTableRecord
100
AcDbBlockTableRecord
  2
*Paper_Space
340
1E
 70
     0
280
     1
281
     0
  0
BLOCK_RECORD
  5
23
330
1
100
AcDbSymbolTableRecord
100
AcDbBlockTableRecord
  2
*Paper_Space0
340
26
 70
     0
280
     1
281
     0
  0
BLOCK_RECORD
  5
6E
330
1
100
AcDbSymbolTableRecord
100
AcDbBlockTableRecord
  2
1_023078_4
340
0
102
{BLKREFS
331
6F
102
}
 70
     0
280
     1
281
     0
  0
BLOCK_RECORD
  5
8A
330
1
100
AcDbSymbolTableRecord
100
AcDbBlockTableRecord
  2
2_405016_Inch_0_in_023078_4
340
0
102
{BLKREFS
331
8B
102
}
 70
     0
280
     1
281
     0
  0
BLOCK_RECORD
  5
112
330
1
100
AcDbSymbolTableRecord
100
AcDbBlockTableRecord
  2
3_1_1_2C_1_0_in_023078_4
340
0
102
{BLKREFS
331
113
102
}
 70
     0
280
     1
281
     0
  0
BLOCK_RECORD
  5
14C
330
1
100
AcDbSymbolTableRecord
100
AcDbBlockTableRecord
  2
4_1_1_2C_2_0_in_023078_4
340
0
102
{BLKREFS
331
14D
102
}
 70
     0
280
     1
281
     0
  0
BLOCK_RECORD
  5
184
330
1
100
AcDbSymbolTableRecord
100
AcDbBlockTableRecord
  2
5_1_1_2I_0_in_023078_4
340
0
102
{BLKREFS
331
185
102
}
 70
     0
280
     1
281
     0
  0
BLOCK_RECORD
  5
1B2
330
1
100
AcDbSymbolTableRecord
100
AcDbBlockTableRecord
  2
6_023078H_0_in_023078_4
340
0
102
{BLKREFS
331
1B3
102
}
 70
     0
280
     1
281
     0
  0
ENDTAB
  0
ENDSEC
  0
SECTION
  2
BLOCKS
  0
BLOCK
  5
20
330
1F
100
AcDbEntity
  8
0
100
AcDbBlockBegin
  2
*Model_Space
 70
     0
 10
0.0
 20
0.0
 30
0.0
  3
*Model_Space
  1

  0
ENDBLK
  5
21
330
1F
100
AcDbEntity
  8
0
100
AcDbBlockEnd
  0
BLOCK
  5
1C
330
1B
100
AcDbEntity
 67
     1
  8
0
100
AcDbBlockBegin
  2
*Paper_Space
 70
     0
 10
0.0
 20
0.0
 30
0.0
  3
*Paper_Space
  1

  0
ENDBLK
  5
1D
330
1B
100
AcDbEntity
 67
     1
  8
0
100
AcDbBlockEnd
  0
BLOCK
  5
24
330
23
100
AcDbEntity
  8
0
100
AcDbBlockBegin
  2
*Paper_Space0
 70
     0
 10
0.0
 20
0.0
 30
0.0
  3
*Paper_Space0
  1

  0
ENDBLK
  5
25
330
23
100
AcDbEntity
  8
0
100
AcDbBlockEnd
  0
BLOCK
  5
70
330
6E
100
AcDbEntity
  8
0
100
AcDbBlockBegin
  2
1_023078_4
 70
     2
 10
0.0
 20
0.0
 30
0.0
  3
1_023078_4
  1

  0
ATTDEF
  5
73
330
6E
100
AcDbEntity
  8
AM_6
100
AcDbText
 10
8.859375
 20
1.859
 30
0.0
 40
0.5
  1
Wide Slot Take Up Expansion
100
AcDbAttributeDefinition
  3

  2
NN
 70
     8
280
     0
  0
ATTDEF
  5
74
330
6E
100
AcDbEntity
  8
AM_6
100
AcDbText
 10
8.859375
 20
1.359
 30
0.0
 40
0.5
  1
Type E Wide Slot Take-Up Bearing -Inch
100
AcDbAttributeDefinition
  3

  2
NT
 70
     8
280
     0
  0
ATTDEF
  5
75
330
6E
100
AcDbEntity
  8
AM_6
100
AcDbText
 10
8.859375
 20
0.859
 30
0.0
 40
0.5
  1
023078
100
AcDbAttributeDefinition
  3

  2
NB
 70
     8
280
     0
  0
ATTDEF
  5
76
330
6E
100
AcDbEntity
  8
AM_6
100
AcDbText
 10
8.859375
 20
0.359
 30
0.0
 40
0.5
  1
$PN.
100
AcDbAttributeDefinition
  3

  2
NBSYN
 70
     8
280
     0
  0
ATTDEF
  5
77
330
6E
100
AcDbEntity
  8
AM_6
100
AcDbText
 10
8.859375
 20
-0.141
 30
0.0
 40
0.5
  1
023078
100
AcDbAttributeDefinition
  3

  2
LINA
 70
     8
280
     0
  0
ATTDEF
  5
78
330
6E
100
AcDbEntity
  8
AM_6
100
AcDbText
 10
8.859375
 20
-0.641
 30
0.0
 40
0.5
  1
1-1/2
100
AcDbAttributeDefinition
  3

  2
SS
 70
     8
280
     0
  0
ATTDEF
  5
79
330
6E
100
AcDbEntity
  8
AM_6
100
AcDbText
 10
8.859375
 20
-1.141
 30
0.0
 40
0.5
  1
023078
100
AcDbAttributeDefinition
  3

  2
PN
 70
     8
280
     0
  0
ATTDEF
  5
7A
330
6E
100
AcDbEntity
  8
AM_6
100
AcDbText
 10
8.859375
 20
-1.641
 30
0.0
 40
0.5
  1
WSTU-E-108R
100
AcDbAttributeDefinition
  3

  2
DESCRIPTION
 70
     8
280
     0
  0
ATTDEF
  5
7B
330
6E
100
AcDbEntity
  8
AM_6
100
AcDbText
 10
8.859375
 20
-2.141
 30
0.0
 40
0.5
  1
3-3/8
100
AcDbAttributeDefinition
  3

  2
A
 70
     8
280
     0
  0
ATTDEF
  5
7C
330
6E
100
AcDbEntity
  8
AM_6
100
AcDbText
 10
8.859375
 20
-2.641
 30
0.0
 40
0.5
  1
6
100
AcDbAttributeDefinition
  3

  2
B
 70
     8
280
     0
  0
ATTDEF
  5
7D
330
6E
100
AcDbEntity
  8
AM_6
100
AcDbText
 10
8.859375
 20
-3.141
 30
0.0
 40
0.5
  1
11/16
100
AcDbAttributeDefinition
  3

  2
C
 70
     8
280
     0
  0
ATTDEF
  5
7E
330
6E
100
AcDbEntity
  8
AM_6
100
AcDbText
 10
8.859375
 20
-3.641
 30
0.0
 40
0.5
  1
3-1/4
100
AcDbAttributeDefinition
  3

  2
D
 70
     8
280
     0
  0
ATTDEF
  5
7F
330
6E
100
AcDbEntity
  8
AM_6
100
AcDbText
 10
8.859375
 20
-4.141
 30
0.0
 40
0.5
  1
3-13/16
100
AcDbAttributeDefinition
  3

  2
E
 70
     8
280
     0
  0
ATTDEF
  5
80
330
6E
100
AcDbEntity
  8
AM_6
100
AcDbText
 10
8.859375
 20
-4.641
 30
0.0
 40
0.5
  1
1
100
AcDbAttributeDefinition
  3

  2
F
 70
     8
280
     0
  0
ATTDEF
  5
81
330
6E
100
AcDbEntity
  8
AM_6
100
AcDbText
 10
8.859375
 20
-5.141
 30
0.0
 40
0.5
  1
15/16
100
AcDbAttributeDefinition
  3

  2
G
 70
     8
280
     0
  0
ATTDEF
  5
82
330
6E
100
AcDbEntity
  8
AM_6
100
AcDbText
 10
8.859375
 20
-5.641
 30
0.0
 40
0.5
  1
3/4
100
AcDbAttributeDefinition
  3

  2
H
 70
     8
280
     0
  0
ATTDEF
  5
83
330
6E
100
AcDbEntity
  8
AM_6
100
AcDbText
 10
8.859375
 20
-6.141
 30
0.0
 40
0.5
  1
3-5/16
100
AcDbAttributeDefinition
  3

  2
J
 70
     8
280
     0
  0
ATTDEF
  5
84
330
6E
100
AcDbEntity
  8
AM_6
100
AcDbText
 10
8.859375
 20
-6.641
 30
0.0
 40
0.5
  1
1-15/16
100
AcDbAttributeDefinition
  3

  2
K
 70
     8
280
     0
  0
ATTDEF
  5
85
330
6E
100
AcDbEntity
  8
AM_6
100
AcDbText
 10
8.859375
 20
-7.141
 30
0.0
 40
0.5
  1
3-3/16
100
AcDbAttributeDefinition
  3

  2
L
 70
     8
280
     0
  0
ATTDEF
  5
86
330
6E
100
AcDbEntity
  8
AM_6
100
AcDbText
 10
8.859375
 20
-7.641
 30
0.0
 40
0.5
  1
4
100
AcDbAttributeDefinition
  3

  2
M
 70
     8
280
     0
  0
ATTDEF
  5
87
330
6E
100
AcDbEntity
  8
AM_6
100
AcDbText
 10
8.859375
 20
-8.141
 30
0.0
 40
0.5
  1
4-3/4
100
AcDbAttributeDefinition
  3

  2
N
 70
     8
280
     0
  0
ATTDEF
  5
88
330
6E
100
AcDbEntity
  8
AM_6
100
AcDbText
 10
8.859375
 20
-8.641
 30
0.0
 40
0.5
  1
2-5/16
100
AcDbAttributeDefinition
  3

  2
T
 70
     8
280
     0
  0
ATTDEF
  5
89
330
6E
100
AcDbEntity
  8
AM_6
100
AcDbText
 10
8.859375
 20
-9.141
 30
0.0
 40
0.5
  1
baldor
100
AcDbAttributeDefinition
  3

  2
COMPANY
 70
     8
280
     0
  0
INSERT
  5
8B
330
6E
100
AcDbEntity
  8
0
100
AcDbBlockReference
  2
2_405016_Inch_0_in_023078_4
 10
0.0
 20
0.0
 30
0.0
  0
INSERT
  5
113
330
6E
100
AcDbEntity
  8
0
100
AcDbBlockReference
  2
3_1_1_2C_1_0_in_023078_4
 10
0.0
 20
0.0
 30
0.0
  0
INSERT
  5
14D
330
6E
100
AcDbEntity
  8
0
100
AcDbBlockReference
  2
4_1_1_2C_2_0_in_023078_4
 10
0.0
 20
0.0
 30
0.0
  0
INSERT
  5
185
330
6E
100
AcDbEntity
  8
0
100
AcDbBlockReference
  2
5_1_1_2I_0_in_023078_4
 10
0.0
 20
0.0
 30
0.0
  0
INSERT
  5
1B3
330
6E
100
AcDbEntity
  8
0
100
AcDbBlockReference
  2
6_023078H_0_in_023078_4
 10
0.0
 20
0.0
 30
0.0
  0
ENDBLK
  5
71
330
6E
100
AcDbEntity
  8
0
100
AcDbBlockEnd
  0
BLOCK
  5
8C
330
8A
100
AcDbEntity
  8
0
100
AcDbBlockBegin
  2
2_405016_Inch_0_in_023078_4
 70
     2
 10
0.0
 20
0.0
 30
0.0
  3
2_405016_Inch_0_in_023078_4
  1

  0
ATTDEF
  5
8E
330
8A
100
AcDbEntity
  8
AM_6
100
AcDbText
 10
3.208332717406856
 20
0.2187500000000001
 30
0.0
 40
0.5
  1
405016 -Inch
100
AcDbAttributeDefinition
  3

  2
NN
 70
     8
280
     0
  0
ATTDEF
  5
8F
330
8A
100
AcDbEntity
  8
AM_6
100
AcDbText
 10
3.208332717406856
 20
-0.2812499999999999
 30
0.0
 40
0.5
  1
Grease Fitting
100
AcDbAttributeDefinition
  3

  2
NT
 70
     8
280
     0
  0
ATTDEF
  5
90
330
8A
100
AcDbEntity
  8
AM_6
100
AcDbText
 10
3.208332717406856
 20
-0.78125
 30
0.0
 40
0.5
  1
405016-Inch
100
AcDbAttributeDefinition
  3

  2
NB
 70
     8
280
     0
  0
ATTDEF
  5
91
330
8A
100
AcDbEntity
  8
AM_6
100
AcDbText
 10
3.208332717406856
 20
-1.28125
 30
0.0
 40
0.5
  1
$MN.-Inch
100
AcDbAttributeDefinition
  3

  2
NBSYN
 70
     8
280
     0
  0
ATTDEF
  5
92
330
8A
100
AcDbEntity
  8
AM_6
100
AcDbText
 10
3.208332717406856
 20
-1.78125
 30
0.0
 40
0.5
  1
405016
100
AcDbAttributeDefinition
  3

  2
LINA
 70
     8
280
     0
  0
ATTDEF
  5
93
330
8A
100
AcDbEntity
  8
AM_6
100
AcDbText
 10
3.208332717406856
 20
-2.28125
 30
0.0
 40
0.5
  1
405016
100
AcDbAttributeDefinition
  3

  2
MN
 70
     8
280
     0
  0
ATTDEF
  5
94
330
8A
100
AcDbEntity
  8
AM_6
100
AcDbText
 10
3.208332717406856
 20
-2.78125
 30
0.0
 40
0.5
  1
7/16 HEX
100
AcDbAttributeDefinition
  3

  2
H
 70
     8
280
     0
  0
ATTDEF
  5
95
330
8A
100
AcDbEntity
  8
AM_6
100
AcDbText
 10
3.208332717406856
 20
-3.28125
 30
0.0
 40
0.5
  1
0.383
100
AcDbAttributeDefinition
  3

  2
NDR
 70
     8
280
     0
  0
ATTDEF
  5
96
330
8A
100
AcDbEntity
  8
AM_6
100
AcDbText
 10
3.208332717406856
 20
-3.78125
 30
0.0
 40
0.5
  1
0.337
100
AcDbAttributeDefinition
  3

  2
KDR
 70
     8
280
     0
  0
ATTDEF
  5
97
330
8A
100
AcDbEntity
  8
AM_6
100
AcDbText
 10
3.208332717406856
 20
-4.28125
 30
0.0
 40
0.5
  1
0.1575
100
AcDbAttributeDefinition
  3

  2
BZE
 70
     8
280
     0
  0
ATTDEF
  5
98
330
8A
100
AcDbEntity
  8
AM_6
100
AcDbText
 10
3.208332717406856
 20
-4.78125
 30
0.0
 40
0.5
  1
0.4375
100
AcDbAttributeDefinition
  3

  2
HEX
 70
     8
280
     0
  0
ATTDEF
  5
99
330
8A
100
AcDbEntity
  8
AM_6
100
AcDbText
 10
3.208332717406856
 20
-5.28125
 30
0.0
 40
0.5
  1
0.281250
100
AcDbAttributeDefinition
  3

  2
HEX2
 70
     8
280
     0
  0
ATTDEF
  5
9A
330
8A
100
AcDbEntity
  8
AM_6
100
AcDbText
 10
3.208332717406856
 20
-5.78125
 30
0.0
 40
0.5
  1
baldor
100
AcDbAttributeDefinition
  3

  2
COMPANY
 70
     8
280
     0
  0
LWPOLYLINE
  5
9D
330
8A
100
AcDbEntity
  8
AM_9
100
AcDbPolyline
 90
        3
 70
     0
 43
0.0
 10
-2.232849710510812
 20
0.0
 10
-2.214674611832324
 20
0.0544416102741496
 10
-2.200306767635343
 20
0.109375
  0
LWPOLYLINE
  5
9E
330
8A
100
AcDbEntity
  8
AM_9
100
AcDbPolyline
 90
        3
 70
     0
 43
0.0
 10
-2.200306767635343
 20
-0.1093749999999999
 10
-2.214600749709523
 20
-0.0546875
 10
-2.232849710510812
 20
0.0
  0
LWPOLYLINE
  5
9F
330
8A
100
AcDbEntity
  8
AM_9
100
AcDbPolyline
 90
        3
 70
     0
 43
0.0
 10
-2.292694720886472
 20
0.109375
 10
-2.302566311919053
 20
0.0546875
 10
-2.308482924224526
 20
0.0
  0
LWPOLYLINE
  5
A0
330
8A
100
AcDbEntity
  8
AM_9
100
AcDbPolyline
 90
        3
 70
     0
 43
0.0
 10
-2.308482924224526
 20
0.0
 10
-2.30260110472007
 20
-0.0544416102741495
 10
-2.292694720886472
 20
-0.1093749999999999
  0
LWPOLYLINE
  5
A1
330
8A
100
AcDbEntity
  8
AM_9
100
AcDbPolyline
 90
        3
 70
     0
 43
0.0
 10
-2.184518564297289
 20
-0.2187499999999999
 10
-2.190400383801745
 20
-0.1643083897258503
 10
-2.200306767635343
 20
-0.1093749999999999
  0
LINE
  5
A2
330
8A
100
AcDbEntity
  8
AM_9
100
AcDbLine
 10
-2.308482924224526
 20
0.0
 30
0.0
 11
-2.232849710510812
 21
0.0
 31
0.0
  0
LWPOLYLINE
  5
A3
330
8A
100
AcDbEntity
  8
AM_9
100
AcDbPolyline
 90
        3
 70
     0
 43
0.0
 10
-2.200306767635343
 20
0.109375
 10
-2.190435176602761
 20
0.1640625
 10
-2.184518564297289
 20
0.2187500000000001
  0
LWPOLYLINE
  5
A4
330
8A
100
AcDbEntity
  8
AM_9
100
AcDbPolyline
 90
        3
 70
     0
 43
0.0
 10
-2.292694720886472
 20
-0.1093749999999999
 10
-2.278400738812292
 20
-0.1640624999999999
 10
-2.266780344836198
 20
-0.2000413016192557
  0
LWPOLYLINE
  5
A5
330
8A
100
AcDbEntity
  8
AM_9
100
AcDbPolyline
 90
        3
 70
     0
 43
0.0
 10
-2.266780448801219
 20
0.2000409996967266
 10
-2.27832687668949
 20
0.1643083897258505
 10
-2.292694720886472
 20
0.109375
  0
LINE
  5
A6
330
8A
100
AcDbEntity
  8
AM_9
100
AcDbLine
 10
-2.431837346435629
 20
-0.2258378743019628
 30
0.0
 11
-2.406199183882862
 21
-0.2360765106845276
 31
0.0
  0
LINE
  5
A7
330
8A
100
AcDbEntity
  8
AM_9
100
AcDbLine
 10
-2.349457449991083
 20
-0.2689146070947221
 30
0.0
 11
-2.362318467232466
 21
-0.2987675689889717
 31
0.0
  0
LINE
  5
A8
330
8A
100
AcDbEntity
  8
AM_9
100
AcDbLine
 10
-2.498496214919586
 20
-0.2099962668917052
 30
0.0
 11
-2.510964218198096
 21
-0.2389369657326275
 31
0.0
  0
LWPOLYLINE
  5
A9
330
8A
100
AcDbEntity
  8
AM_9
100
AcDbPolyline
 90
        3
 70
     0
 43
0.0
 10
-2.362318467232466
 20
-0.2987675689889717
 10
-2.394284148141344
 20
-0.2912216284034023
 10
-2.425721601987249
 20
-0.2813919000363598
  0
LWPOLYLINE
  5
AA
330
8A
100
AcDbEntity
  8
AM_9
100
AcDbPolyline
 90
        4
 70
     0
 43
0.0
 10
-2.406199183882862
 20
-0.2360765106845276
 10
-2.385907858544885
 20
-0.246209193863185
 10
-2.36738657174948
 20
-0.2570505402207572
 10
-2.349457449991083
 20
-0.2689146070947221
  0
LINE
  5
AB
330
8A
100
AcDbEntity
  8
AM_9
100
AcDbLine
 10
-1.827907563628536
 20
0.1471430449348715
 30
0.0
 11
-1.846087755082233
 21
0.1687630579637193
 31
0.0
  0
LINE
  5
AC
330
8A
100
AcDbEntity
  8
AM_9
100
AcDbLine
 10
-1.846087755082233
 20
-0.1687630579637192
 30
0.0
 11
-1.827907563628536
 21
-0.1471430449348714
 31
0.0
  0
ELLIPSE
  5
AD
330
8A
100
AcDbEntity
  8
AM_9
100
AcDbEllipse
 10
-2.431226397385168
 20
-0.2013892028241883
 30
0.0
 11
-0.1291497622730918
 21
0.05563928045727914
 31
0.0
210
0.0
220
0.0
230
1.0
 40
0.1617290069830978
 41
1.834899265912902
 42
2.64151072162366
  0
LWPOLYLINE
  5
AE
330
8A
100
AcDbEntity
  8
AM_9
100
AcDbPolyline
 90
        3
 70
     0
 43
0.0
 10
-2.349457449991083
 20
-0.2689146070947221
 10
-2.335453430768675
 20
-0.2634308483997527
 10
-2.32220664235074
 20
-0.2602304684431304
  0
LWPOLYLINE
  5
AF
330
8A
100
AcDbEntity
  8
AM_9
100
AcDbPolyline
 90
        3
 70
     0
 43
0.0
 10
-2.341729060455127
 20
-0.305545857794963
 10
-2.352439365714136
 20
-0.3030753670497807
 10
-2.362318467232466
 20
-0.2987675689889717
  0
LINE
  5
B0
330
8A
100
AcDbEntity
  8
AM_9
100
AcDbLine
 10
-1.874560230168843
 20
0.1854017550363391
 30
0.0
 11
-2.054683257535665
 21
0.1914951875640939
 31
0.0
  0
LINE
  5
B1
330
8A
100
AcDbEntity
  8
AM_9
100
AcDbLine
 10
-2.054683257535665
 20
-0.1914951875640938
 30
0.0
 11
-1.874560230168843
 21
-0.185401755036339
 31
0.0
  0
LINE
  5
B2
330
8A
100
AcDbEntity
  8
AM_9
100
AcDbLine
 10
-2.32220664235074
 20
-0.2602304684431304
 30
0.0
 11
-2.307085748460145
 21
-0.2602304684431208
 31
0.0
  0
ELLIPSE
  5
B3
330
8A
100
AcDbEntity
  8
AM_9
100
AcDbEllipse
 10
-2.055631959837613
 20
0.0
 30
0.0
 11
1.224646799147352E-17
 21
0.1999999999999998
 31
0.0
210
0.0
220
0.0
230
1.0
 40
0.3826834323650899
 41
0.0
 42
3.141592653589793
  0
LINE
  5
B4
330
8A
100
AcDbEntity
  8
AM_9
100
AcDbLine
 10
-2.081596664586298
 20
0.2
 30
0.0
 11
-2.127810048315057
 21
0.2
 31
0.0
  0
LINE
  5
B5
330
8A
100
AcDbEntity
  8
AM_9
100
AcDbLine
 10
-2.127810048315057
 20
-0.1999999999999999
 30
0.0
 11
-2.0815994853098
 21
-0.1999999999999999
 31
0.0
  0
ELLIPSE
  5
B6
330
8A
100
AcDbEntity
  8
AM_9
100
AcDbEllipse
 10
-2.431226397385172
 20
-0.2013892028241865
 30
0.0
 11
-0.1291497622730992
 21
0.05563928045727475
 31
0.0
210
0.0
220
0.0
230
1.0
 40
0.1617290069829734
 41
2.923423242787659
 42
3.500718324973924
  0
LWPOLYLINE
  5
B7
330
8A
100
AcDbEntity
  8
AM_9
100
AcDbPolyline
 90
        4
 70
     0
 43
0.0
 10
-2.307085748460145
 20
-0.2602304684431208
 10
-2.301088037416962
 20
-0.2616913382589202
 10
-2.293931763455443
 20
-0.2647402074337705
 10
-2.28731740485941
 20
-0.2689146070947221
  0
ELLIPSE
  5
B8
330
8A
100
AcDbEntity
  8
AM_9
100
AcDbEllipse
 10
-2.22019800156619
 20
-0.0000000000000002
 30
0.0
 11
1.339457436567415E-17
 21
0.2187499999999996
 31
0.0
210
0.0
220
0.0
230
1.0
 40
0.3826834323650769
 41
0.417055294285742
 42
2.724537359304049
  0
LINE
  5
B9
330
8A
100
AcDbEntity
  8
AM_9
100
AcDbLine
 10
-2.526644159283851
 20
-0.1448541666356853
 30
0.0
 11
-2.532250211429897
 21
-0.1578669212220493
 31
0.0
  0
LINE
  5
BA
330
8A
100
AcDbEntity
  8
AM_9
100
AcDbLine
 10
-2.330202583340438
 20
-0.2449114844263265
 30
0.0
 11
-2.324665096059833
 21
-0.2320578824386167
 31
0.0
  0
LWPOLYLINE
  5
BB
330
8A
100
AcDbEntity
  8
AM_9
100
AcDbPolyline
 90
        7
 70
     0
 43
0.0
 10
-2.390004520375424
 20
-0.1790373738501782
 10
-2.374298841974936
 20
-0.1842628795203939
 10
-2.360276960590135
 20
-0.1891729979031392
 10
-2.347267162690837
 20
-0.1936098952159722
 10
-2.335382215484593
 20
-0.197185674842037
 10
-2.325184354083472
 20
-0.1994144431868153
 10
-2.318493874988634
 20
-0.1999999999699527
  0
ELLIPSE
  5
BC
330
8A
100
AcDbEntity
  8
AM_9
100
AcDbEllipse
 10
-2.220198001566186
 20
-0.0000000000000001
 30
0.0
 11
1.224646799147353E-17
 21
0.1999999999999999
 31
0.0
210
0.0
220
0.0
230
1.0
 40
0.3826834323650875
 41
0.0
 42
3.141592653589793
  0
LINE
  5
BD
330
8A
100
AcDbEntity
  8
AM_9
100
AcDbLine
 10
-2.318654707730095
 20
-0.1999999999999999
 30
0.0
 11
-2.310854172365703
 21
-0.1999999999999999
 31
0.0
  0
LWPOLYLINE
  5
BE
330
8A
100
AcDbEntity
  8
AM_9
100
AcDbPolyline
 90
        4
 70
     0
 43
0.0
 10
-2.318493874988634
 20
-0.1999999999699527
 10
-2.317407805195137
 20
-0.1999786710855126
 10
-2.311912374024925
 20
-0.1988321115509051
 10
-2.309228932352933
 20
-0.1962274967827525
  0
LINE
  5
BF
330
8A
100
AcDbEntity
  8
AM_9
100
AcDbLine
 10
-2.425721601987249
 20
-0.2813919000363598
 30
0.0
 11
-2.451359764540015
 21
-0.2711532636537955
 31
0.0
  0
ELLIPSE
  5
C0
330
8A
100
AcDbEntity
  8
AM_9
100
AcDbEllipse
 10
-2.450748815489554
 20
-0.2467045921760202
 30
0.0
 11
-0.1291497622730925
 21
0.05563928045727982
 31
0.0
210
0.0
220
0.0
230
1.0
 40
0.1617290069830994
 41
1.834899265912899
 42
2.641510721623662
  0
LWPOLYLINE
  5
C1
330
8A
100
AcDbEntity
  8
AM_9
100
AcDbPolyline
 90
        3
 70
     0
 43
0.0
 10
-2.326608166564537
 20
-0.305545857794963
 10
-2.334529805799712
 20
-0.30647676226223
 10
-2.341729060455127
 20
-0.305545857794963
  0
ELLIPSE
  5
C2
330
8A
100
AcDbEntity
  8
AM_9
100
AcDbEllipse
 10
-2.505156792968367
 20
-0.3729962569746642
 30
0.0
 11
-0.1223250493979497
 21
0.05269911156329811
 31
0.0
210
0.0
220
0.0
230
1.0
 40
0.1617290069831015
 41
6.103059677796036
 42
9.613596520501092
  0
ELLIPSE
  5
C3
330
8A
100
AcDbEntity
  8
AM_9
100
AcDbEllipse
 10
-2.450748815489545
 20
-0.2467045921760345
 30
0.0
 11
-0.1291497622731015
 21
0.05563928045729392
 31
0.0
210
0.0
220
0.0
230
1.0
 40
0.1617290069830761
 41
0.2264488687472541
 42
1.635639596105127
  0
LWPOLYLINE
  5
C4
330
8A
100
AcDbEntity
  8
AM_9
100
AcDbPolyline
 90
        6
 70
     0
 43
0.0
 10
-2.585393298986225
 20
-0.1510741298357569
 10
-2.567570203319091
 20
-0.1564222384464441
 10
-2.550341140137331
 20
-0.1639940363880803
 10
-2.533718428045112
 20
-0.1744063212866121
 10
-2.518163926742187
 20
-0.1876759562813856
 10
-2.498496214919586
 20
-0.2099962668917052
  0
LINE
  5
C5
330
8A
100
AcDbEntity
  8
AM_9
100
AcDbLine
 10
-2.455932962005652
 20
-0.2185569142904591
 30
0.0
 11
-2.431837346435629
 21
-0.2258378743019628
 31
0.0
  0
LINE
  5
C6
330
8A
100
AcDbEntity
  8
AM_9
100
AcDbLine
 10
-2.465534118802552
 20
-0.216199046876166
 30
0.0
 11
-2.455932962005652
 21
-0.2185569142904591
 31
0.0
  0
LINE
  5
C7
330
8A
100
AcDbEntity
  8
AM_9
100
AcDbLine
 10
-2.498496214919586
 20
-0.2099962668917052
 30
0.0
 11
-2.465534118802552
 21
-0.216199046876166
 31
0.0
  0
ELLIPSE
  5
C8
330
8A
100
AcDbEntity
  8
AM_9
100
AcDbEllipse
 10
-2.431226397385168
 20
-0.201389202824188
 30
0.0
 11
-0.1291497622730921
 21
0.05563928045727951
 31
0.0
210
0.0
220
0.0
230
1.0
 40
0.1617290069830985
 41
5.924059635795444
 42
7.918824903284782
  0
ELLIPSE
  5
C9
330
8A
100
AcDbEntity
  8
AM_9
100
AcDbEllipse
 10
-2.516544907974878
 20
-0.399430321788976
 30
0.0
 11
-0.1277937986650351
 21
0.05505511492611077
 31
0.0
210
0.0
220
0.0
230
1.0
 40
0.1617290069830999
 41
0.082684832262796
 42
3.060147807557389
  0
LWPOLYLINE
  5
CA
330
8A
100
AcDbEntity
  8
AM_9
100
AcDbPolyline
 90
        4
 70
     0
 43
0.0
 10
-2.510964218198096
 20
-0.2389369657326275
 10
-2.534275270832139
 20
-0.2295338871417795
 10
-2.556541957293012
 20
-0.2166871171046319
 10
-2.573119072122536
 20
-0.2038121608993599
  0
LWPOLYLINE
  5
CB
330
8A
100
AcDbEntity
  8
AM_9
100
AcDbPolyline
 90
        3
 70
     0
 43
0.0
 10
-2.451359764540015
 20
-0.2711532636537955
 10
-2.481701067333105
 20
-0.2561815527589919
 10
-2.510964218198096
 20
-0.2389369657326275
  0
LINE
  5
CC
330
8A
100
AcDbEntity
  8
AM_9
100
AcDbLine
 10
-2.576712319303179
 20
-0.2006016827253521
 30
0.0
 11
-2.570117154963122
 21
-0.2064298300268801
 31
0.0
  0
LWPOLYLINE
  5
CD
330
8A
100
AcDbEntity
  8
AM_9
100
AcDbPolyline
 90
       11
 70
     0
 43
0.0
 10
-2.390004520375424
 20
-0.1790373738501777
 10
-2.407162913354448
 20
-0.1733931390117465
 10
-2.424935158749188
 20
-0.1670729780242509
 10
-2.441833047343939
 20
-0.1606047421316794
 10
-2.458338511831263
 20
-0.1538031670974775
 10
-2.473078341475411
 20
-0.1472336073736391
 10
-2.486463194782682
 20
-0.1407130262602575
 10
-2.497363768491787
 20
-0.1347930597680665
 10
-2.506098124741334
 20
-0.1293028157827815
 10
-2.511921464459482
 20
-0.1247141396218191
 10
-2.514003934185808
 20
-0.1224780064629398
  0
LINE
  5
CE
330
8A
100
AcDbEntity
  8
AM_9
100
AcDbLine
 10
-2.515920673316049
 20
-0.1199628371271413
 30
0.0
 11
-2.513804532985912
 21
-0.1227350279324748
 31
0.0
  0
LWPOLYLINE
  5
CF
330
8A
100
AcDbEntity
  8
AM_9
100
AcDbPolyline
 90
        3
 70
     0
 43
0.0
 10
-2.514003934185808
 20
-0.1224780064629398
 10
-2.515015797142675
 20
-0.120888088498178
 10
-2.515251119717717
 20
-0.1184086719906847
  0
ELLIPSE
  5
D0
330
8A
100
AcDbEntity
  8
AM_9
100
AcDbEllipse
 10
-1.853533312100769
 20
0.0000000000000001
 30
0.0
 11
9.899048221688862E-18
 21
0.1616637258772238
 31
0.0
210
0.0
220
0.0
230
1.0
 40
0.3826834323650912
 41
0.0
 42
6.283185307179586
  0
ELLIPSE
  5
D1
330
8A
100
AcDbEntity
  8
AM_9
100
AcDbEllipse
 10
-2.055631959837612
 20
0.0
 30
0.0
 11
1.172668097677219E-17
 21
0.1915112338502295
 31
0.0
210
0.0
220
0.0
230
1.0
 40
0.3826834323650919
 41
0.0
 42
6.283185307179586
  0
ELLIPSE
  5
D2
330
8A
100
AcDbEntity
  8
AM_9
100
AcDbEllipse
 10
-1.875478744487796
 20
0.0
 30
0.0
 11
1.135353457964640E-17
 21
0.1854172907249858
 31
0.0
210
0.0
220
0.0
230
1.0
 40
0.3826834323650884
 41
0.0
 42
6.283185307179586
  0
ELLIPSE
  5
D3
330
8A
100
AcDbEntity
  8
AM_9
100
AcDbEllipse
 10
-2.127810048315055
 20
0.0000000000000001
 30
0.0
 11
1.339457436567416E-17
 21
0.2187499999999997
 31
0.0
210
0.0
220
0.0
230
1.0
 40
0.3826834323650808
 41
0.0
 42
6.283185307179586
  0
ELLIPSE
  5
D4
330
8A
100
AcDbEntity
  8
AM_9
100
AcDbEllipse
 10
-2.127810048315057
 20
0.0000000000000004
 30
0.0
 11
1.224646799147355E-17
 21
0.2000000000000002
 31
0.0
210
0.0
220
0.0
230
1.0
 40
0.3826834323650892
 41
0.0
 42
6.283185307179586
  0
ELLIPSE
  5
D5
330
8A
100
AcDbEntity
  8
AM_9
100
AcDbEllipse
 10
-2.431226397385169
 20
-0.2013892028241872
 30
0.0
 11
-0.1010238140447313
 21
0.04352228160213945
 31
0.0
210
0.0
220
0.0
230
1.0
 40
0.1617290069830981
 41
0.0
 42
6.283185307179586
  0
LINE
  5
D7
330
8A
100
AcDbEntity
  8
AM_4
100
AcDbLine
 10
-2.266780344836198
 20
-0.2000413016192557
 30
0.0
 11
-2.260151778011002
 21
-0.2187499999999999
 31
0.0
  0
LINE
  5
D8
330
8A
100
AcDbEntity
  8
AM_4
100
AcDbLine
 10
-2.260151778011002
 20
0.2187500000000001
 30
0.0
 11
-2.266780448801219
 21
0.2000409996967266
 31
0.0
  0
LINE
  5
D9
330
8A
100
AcDbEntity
  8
AM_4
100
AcDbLine
 10
-2.055631959837613
 20
0.2
 30
0.0
 11
-2.081596664586298
 21
0.2
 31
0.0
  0
LINE
  5
DA
330
8A
100
AcDbEntity
  8
AM_4
100
AcDbLine
 10
-2.0815994853098
 20
-0.1999999999999999
 30
0.0
 11
-2.055631959837613
 21
-0.1999999999999999
 31
0.0
  0
ELLIPSE
  5
DB
330
8A
100
AcDbEntity
  8
AM_4
100
AcDbEllipse
 10
-2.055631959837613
 20
0.0000000000000001
 30
0.0
 11
1.224646799147353E-17
 21
0.2
 31
0.0
210
0.0
220
0.0
230
1.0
 40
0.3826834323650897
 41
3.141592653589793
 42
6.283185307179586
  0
LINE
  5
DC
330
8A
100
AcDbEntity
  8
AM_4
100
AcDbLine
 10
-2.302085716916337
 20
-0.2514993634622601
 30
0.0
 11
-2.307153242624912
 21
-0.246137995838848
 31
0.0
  0
LWPOLYLINE
  5
DD
330
8A
100
AcDbEntity
  8
AM_4
100
AcDbPolyline
 90
        3
 70
     0
 43
0.0
 10
-2.302089527720492
 20
-0.2514953316950236
 10
-2.302297557193574
 20
-0.2512755937295759
 10
-2.318804039945907
 20
-0.2360765106845273
  0
ELLIPSE
  5
DE
330
8A
100
AcDbEntity
  8
AM_4
100
AcDbEllipse
 10
-2.431226397385201
 20
-0.2013892028241586
 30
0.0
 11
-0.1291497622731299
 21
0.05563928045731292
 31
0.0
210
0.0
220
0.0
230
1.0
 40
0.1617290069830404
 41
3.500718324974002
 42
3.730034698498381
  0
LWPOLYLINE
  5
DF
330
8A
100
AcDbEntity
  8
AM_4
100
AcDbPolyline
 90
        3
 70
     0
 43
0.0
 10
-2.300178422100792
 20
-0.2987675689889717
 10
-2.313712725302506
 20
-0.3030606061861222
 10
-2.326608166564537
 20
-0.305545857794963
  0
ELLIPSE
  5
E0
330
8A
100
AcDbEntity
  8
AM_4
100
AcDbEllipse
 10
-2.220198001566196
 20
0.0000000000000003
 30
0.0
 11
1.339457436567419E-17
 21
0.2187500000000002
 31
0.0
210
0.0
220
0.0
230
1.0
 40
0.3826834323650778
 41
2.724537359304108
 42
6.700240601465273
  0
LINE
  5
E1
330
8A
100
AcDbEntity
  8
AM_4
100
AcDbLine
 10
-2.585393298986225
 20
-0.1510741298357569
 30
0.0
 11
-2.597471200779474
 21
-0.1791093260592886
 31
0.0
  0
LINE
  5
E2
330
8A
100
AcDbEntity
  8
AM_4
100
AcDbLine
 10
-2.515248147333139
 20
-0.1184017714537268
 30
0.0
 11
-2.526644159283851
 21
-0.1448541666356853
 31
0.0
  0
LINE
  5
E3
330
8A
100
AcDbEntity
  8
AM_4
100
AcDbLine
 10
-2.324665096059833
 20
-0.2320578824386167
 30
0.0
 11
-2.309228310776835
 21
-0.1962260540401403
 31
0.0
  0
LWPOLYLINE
  5
E4
330
8A
100
AcDbEntity
  8
AM_4
100
AcDbPolyline
 90
       17
 70
     0
 43
0.0
 10
-2.515251119717717
 20
-0.1184086719906847
 10
-2.51512094243502
 20
-0.1181545989145987
 10
-2.512247864513052
 20
-0.1164278875396126
 10
-2.506649453747546
 20
-0.1158549073091553
 10
-2.498161502377115
 20
-0.1164156227038166
 10
-2.487505650586843
 20
-0.11806096862335
 10
-2.474371072369158
 20
-0.120836767393381
 10
-2.459850219753789
 20
-0.1245107513506021
 10
-2.44353440196151
 20
-0.1291842652280561
 10
-2.426760249378474
 20
-0.1344729790611518
 10
-2.409073185117816
 20
-0.1405186270901958
 10
-2.391915915477968
 20
-0.1468270783017119
 10
-2.374832588356987
 20
-0.1535654953592163
 10
-2.359227711562494
 20
-0.1601799433259582
 10
-2.344681965243474
 20
-0.166849335898066
 10
-2.332233840469128
 20
-0.1731116383367604
 10
-2.321781095432134
 20
-0.1790373738502113
  0
LWPOLYLINE
  5
E5
330
8A
100
AcDbEntity
  8
AM_4
100
AcDbPolyline
 90
        6
 70
     0
 43
0.0
 10
-2.309228932352933
 20
-0.1962274967827525
 10
-2.309202556006709
 20
-0.1961649429984258
 10
-2.309214859839651
 20
-0.1920694300574957
 10
-2.312098288526791
 20
-0.1870948030566194
 10
-2.318122151523603
 20
-0.1815005947613929
 10
-2.321781095432138
 20
-0.1790373738501783
  0
LINE
  5
E6
330
8A
100
AcDbEntity
  8
AM_4
100
AcDbLine
 10
-2.260151778011002
 20
0.2187500000000001
 30
0.0
 11
-2.087856271870241
 21
0.2187500000000001
 31
0.0
  0
LWPOLYLINE
  5
E7
330
8A
100
AcDbEntity
  8
AM_4
100
AcDbPolyline
 90
        3
 70
     0
 43
0.0
 10
-2.1477012822459
 20
0.109375
 10
-2.157572873278482
 20
0.1640625
 10
-2.163489485583955
 20
0.2187500000000001
  0
LWPOLYLINE
  5
E8
330
8A
100
AcDbEntity
  8
AM_4
100
AcDbPolyline
 90
        3
 70
     0
 43
0.0
 10
-2.055313328994771
 20
0.109375
 10
-2.04544173796219
 20
0.0546875000000001
 10
-2.039525125656717
 20
0.0000000000000001
  0
LWPOLYLINE
  5
E9
330
8A
100
AcDbEntity
  8
AM_4
100
AcDbPolyline
 90
        3
 70
     0
 43
0.0
 10
-2.087856271870241
 20
0.2187500000000001
 10
-2.069681173191753
 20
0.1643083897258505
 10
-2.055313328994771
 20
0.109375
  0
LWPOLYLINE
  5
EA
330
8A
100
AcDbEntity
  8
AM_4
100
AcDbPolyline
 90
        3
 70
     0
 43
0.0
 10
-2.115158339370431
 20
0.0000000000000001
 10
-2.133333438048919
 20
0.0544416102741496
 10
-2.1477012822459
 20
0.109375
  0
LINE
  5
EB
330
8A
100
AcDbEntity
  8
AM_4
100
AcDbLine
 10
-2.115158339370431
 20
0.0000000000000001
 30
0.0
 11
-2.039525125656717
 21
0.0000000000000001
 31
0.0
  0
LWPOLYLINE
  5
EC
330
8A
100
AcDbEntity
  8
AM_4
100
AcDbPolyline
 90
        3
 70
     0
 43
0.0
 10
-2.1477012822459
 20
-0.1093749999999998
 10
-2.13340730017172
 20
-0.0546874999999999
 10
-2.115158339370431
 20
0.0000000000000001
  0
LWPOLYLINE
  5
ED
330
8A
100
AcDbEntity
  8
AM_4
100
AcDbPolyline
 90
        3
 70
     0
 43
0.0
 10
-2.163489485583955
 20
-0.2187499999999999
 10
-2.157607666079498
 20
-0.1643083897258503
 10
-2.1477012822459
 20
-0.1093749999999998
  0
LINE
  5
EE
330
8A
100
AcDbEntity
  8
AM_4
100
AcDbLine
 10
-2.260151778011002
 20
-0.2187499999999999
 30
0.0
 11
-2.087856271870241
 21
-0.2187499999999999
 31
0.0
  0
LWPOLYLINE
  5
EF
330
8A
100
AcDbEntity
  8
AM_4
100
AcDbPolyline
 90
        3
 70
     0
 43
0.0
 10
-2.055313328994771
 20
-0.1093749999999999
 10
-2.069607311068952
 20
-0.1640624999999999
 10
-2.087856271870241
 20
-0.2187499999999999
  0
LWPOLYLINE
  5
F0
330
8A
100
AcDbEntity
  8
AM_4
100
AcDbPolyline
 90
        3
 70
     0
 43
0.0
 10
-2.039525125656717
 20
0.0000000000000001
 10
-2.045406945161174
 20
-0.0544416102741495
 10
-2.055313328994771
 20
-0.1093749999999999
  0
LINE
  5
F1
330
8A
100
AcDbEntity
  8
AM_4
100
AcDbLine
 10
-2.220198001566186
 20
0.2
 30
0.0
 11
-2.355892807903781
 21
0.2
 31
0.0
  0
LINE
  5
F2
330
8A
100
AcDbEntity
  8
AM_4
100
AcDbLine
 10
-2.310854172365703
 20
-0.1999999999999999
 30
0.0
 11
-2.220198001566186
 21
-0.1999999999999999
 31
0.0
  0
ELLIPSE
  5
F3
330
8A
100
AcDbEntity
  8
AM_4
100
AcDbEllipse
 10
-2.220198001566186
 20
0.0000000000000001
 30
0.0
 11
1.224646799147353E-17
 21
0.2
 31
0.0
210
0.0
220
0.0
230
1.0
 40
0.3826834323650919
 41
3.141592653589793
 42
6.283185307179586
  0
LINE
  5
F4
330
8A
100
AcDbEntity
  8
AM_4
100
AcDbLine
 10
-2.318804039945907
 20
-0.2360765106845273
 30
0.0
 11
-2.3337368027436
 21
-0.2258378743019625
 31
0.0
  0
LINE
  5
F5
330
8A
100
AcDbEntity
  8
AM_4
100
AcDbLine
 10
-2.28731740485941
 20
-0.2689146070947221
 30
0.0
 11
-2.302089527720492
 21
-0.2514953316950236
 31
0.0
  0
LWPOLYLINE
  5
F6
330
8A
100
AcDbEntity
  8
AM_4
100
AcDbPolyline
 90
        3
 70
     0
 43
0.0
 10
-2.338326458050294
 20
-0.2813919000363598
 10
-2.319695524873024
 20
-0.2911775952746241
 10
-2.300178422100792
 20
-0.2987675689889717
  0
LINE
  5
F7
330
8A
100
AcDbEntity
  8
AM_4
100
AcDbLine
 10
-2.28731740485941
 20
-0.2689146070947221
 30
0.0
 11
-2.300178422100792
 21
-0.2987675689889717
 31
0.0
  0
LINE
  5
F8
330
8A
100
AcDbEntity
  8
AM_4
100
AcDbLine
 10
-2.523253253854552
 20
-0.1510741298357569
 30
0.0
 11
-2.535331155647801
 21
-0.1791093260592886
 31
0.0
  0
LINE
  5
F9
330
8A
100
AcDbEntity
  8
AM_4
100
AcDbLine
 10
-2.374216124656239
 20
-0.2099962668917052
 30
0.0
 11
-2.386684127934749
 21
-0.2389369657326275
 31
0.0
  0
LINE
  5
FA
330
8A
100
AcDbEntity
  8
AM_4
100
AcDbLine
 10
-2.353259220847986
 20
-0.2711532636537955
 30
0.0
 11
-2.338326458050294
 21
-0.2813919000363598
 31
0.0
  0
ELLIPSE
  5
FB
330
8A
100
AcDbEntity
  8
AM_4
100
AcDbEllipse
 10
-2.450748815489557
 20
-0.2467045921760191
 30
0.0
 11
-0.1291497622730944
 21
0.05563928045728074
 31
0.0
210
0.0
220
0.0
230
1.0
 40
0.1617290069830976
 41
2.923423242787639
 42
3.730034698498379
  0
LWPOLYLINE
  5
FC
330
8A
100
AcDbEntity
  8
AM_4
100
AcDbPolyline
 90
       15
 70
     0
 43
0.0
 10
-2.383315290057827
 20
-0.4212318284030391
 10
-2.384721723014604
 20
-0.4181206682772879
 10
-2.38803477599425
 20
-0.4086304675490365
 10
-2.390334048769483
 20
-0.3972108723520221
 10
-2.39096473172887
 20
-0.3845446151431306
 10
-2.389561541405183
 20
-0.371365942589741
 10
-2.386012342384891
 20
-0.3583080483572633
 10
-2.379899918501948
 20
-0.345051052784452
 10
-2.372099064580184
 20
-0.3336588475973796
 10
-2.363182608907402
 20
-0.3242765216381952
 10
-2.353714724058409
 20
-0.3169232759841035
 10
-2.344332921562786
 20
-0.3115549043585079
 10
-2.335739563472668
 20
-0.3080104075479184
 10
-2.328533305245778
 20
-0.3059591627834162
 10
-2.327026446337235
 20
-0.3056354863647789
  0
LWPOLYLINE
  5
FD
330
8A
100
AcDbEntity
  8
AM_4
100
AcDbPolyline
 90
       14
 70
     0
 43
0.0
 10
-2.578325324988807
 20
-0.1976542362838858
 10
-2.576647201374146
 20
-0.2005488780595827
 10
-2.573066861026494
 20
-0.2081057690410197
 10
-2.569840838278947
 20
-0.2178712355088664
 10
-2.567724905283777
 20
-0.2294937411516114
 10
-2.567341540114006
 20
-0.2422652703885982
 10
-2.569018781010878
 20
-0.2554616185217125
 10
-2.572842386165504
 20
-0.2684632619927299
 10
-2.579181709521422
 20
-0.2815129711011743
 10
-2.587141136444683
 20
-0.2926727035191652
 10
-2.596152226841517
 20
-0.3018176977093296
 10
-2.605644750172357
 20
-0.3089348351499154
 10
-2.614970833077495
 20
-0.3140785329427048
 10
-2.623185585140821
 20
-0.3173481086844884
  0
LWPOLYLINE
  5
FE
330
8A
100
AcDbEntity
  8
AM_4
100
AcDbPolyline
 90
        4
 70
     0
 43
0.0
 10
-2.523253253854551
 20
-0.1510741298357569
 10
-2.532125754972555
 20
-0.1458778226760519
 10
-2.542072384346773
 20
-0.1427138007556461
 10
-2.550398346436265
 20
-0.1419585098156048
  0
LWPOLYLINE
  5
FF
330
8A
100
AcDbEntity
  8
AM_4
100
AcDbPolyline
 90
        7
 70
     0
 43
0.0
 10
-2.374216124656239
 20
-0.2099962668917052
 10
-2.398399022149921
 20
-0.1943573015029057
 10
-2.423919973020879
 20
-0.1805491420332302
 10
-2.451297850486865
 20
-0.1688997677199807
 10
-2.480034093067069
 20
-0.1598729403210869
 10
-2.501477183377132
 20
-0.1549033058439654
 10
-2.523253253854552
 20
-0.1510741298357569
  0
LWPOLYLINE
  5
100
330
8A
100
AcDbEntity
  8
AM_4
100
AcDbPolyline
 90
        4
 70
     0
 43
0.0
 10
-2.3337368027436
 20
-0.2258378743019625
 10
-2.347302015942692
 20
-0.2189176876709013
 10
-2.360555967133517
 20
-0.2138633349839126
 10
-2.374216124656239
 20
-0.2099962668917052
  0
ELLIPSE
  5
101
330
8A
100
AcDbEntity
  8
AM_4
100
AcDbEllipse
 10
-2.431226397385168
 20
-0.201389202824188
 30
0.0
 11
-0.1291497622730921
 21
0.05563928045727964
 31
0.0
210
0.0
220
0.0
230
1.0
 40
0.1617290069830997
 41
3.929294368306097
 42
5.92405963579545
  0
LINE
  5
102
330
8A
100
AcDbEntity
  8
AM_4
100
AcDbLine
 10
-2.548974411938118
 20
-0.1419585097669022
 30
0.0
 11
-2.550508984858747
 21
-0.1419585097669022
 31
0.0
  0
LWPOLYLINE
  5
103
330
8A
100
AcDbEntity
  8
AM_4
100
AcDbPolyline
 90
        4
 70
     0
 43
0.0
 10
-2.550398346436265
 20
-0.1419585098156048
 10
-2.553431669413262
 20
-0.1420496512545705
 10
-2.566054933698887
 20
-0.1441228263802213
 10
-2.585393298986225
 20
-0.1510741298357568
  0
LINE
  5
104
330
8A
100
AcDbEntity
  8
AM_4
100
AcDbLine
 10
-2.452154358361259
 20
-0.5107485397621281
 30
0.0
 11
-2.389805287983656
 21
-0.455903911215076
 31
0.0
  0
LINE
  5
105
330
8A
100
AcDbEntity
  8
AM_4
100
AcDbLine
 10
-2.644645444283382
 20
-0.3461156880036768
 30
0.0
 11
-2.641675062571969
 21
-0.4291007269559114
 31
0.0
  0
ELLIPSE
  5
106
330
8A
100
AcDbEntity
  8
AM_4
100
AcDbEllipse
 10
-2.505156792968359
 20
-0.372996256974655
 30
0.0
 11
-0.122325049397959
 21
0.05269911156328853
 31
0.0
210
0.0
220
0.0
230
1.0
 40
0.1617290069830838
 41
3.330411213320449
 42
6.085071562019295
  0
ELLIPSE
  5
107
330
8A
100
AcDbEntity
  8
AM_4
100
AcDbEllipse
 10
-2.516544907974879
 20
-0.3994303217889752
 30
0.0
 11
-0.1277937986650337
 21
0.0550551149261105
 31
0.0
210
0.0
220
0.0
230
1.0
 40
0.1617290069831004
 41
3.060147807557397
 42
6.365870139442409
  0
LWPOLYLINE
  5
108
330
8A
100
AcDbEntity
  8
AM_4
100
AcDbPolyline
 90
        7
 70
     0
 43
0.0
 10
-2.622540448000043
 20
-0.3171736812028781
 10
-2.628482649380235
 20
-0.3194316987187991
 10
-2.634514537300569
 20
-0.3233594014127542
 10
-2.639653035356474
 20
-0.3289850543251653
 10
-2.643177700054707
 20
-0.3359924000399066
 10
-2.644636397396399
 20
-0.3438165153353809
 10
-2.644596753518474
 20
-0.3470533438454375
  0
LWPOLYLINE
  5
109
330
8A
100
AcDbEntity
  8
AM_4
100
AcDbPolyline
 90
        7
 70
     0
 43
0.0
 10
-2.390385562726323
 20
-0.4564010031276433
 10
-2.387159692176684
 20
-0.453253330890721
 10
-2.382888268485106
 20
-0.4467512645962928
 10
-2.380475158979015
 20
-0.4387691888411587
 10
-2.380355520309378
 20
-0.4313966945400438
 10
-2.381812003040287
 20
-0.4249107834086828
 10
-2.383573387894879
 20
-0.4207038078191214
  0
LWPOLYLINE
  5
10A
330
8A
100
AcDbEntity
  8
AM_4
100
AcDbPolyline
 90
        5
 70
     0
 43
0.0
 10
-2.597471200779474
 20
-0.1791093260592886
 10
-2.584545024692717
 20
-0.1842540823997053
 10
-2.570007951814301
 20
-0.186222067936495
 10
-2.553424775823741
 20
-0.184412496691938
 10
-2.535331155647801
 20
-0.1791093260592886
  0
ELLIPSE
  5
10B
330
8A
100
AcDbEntity
  8
AM_4
100
AcDbEllipse
 10
-2.450748815489554
 20
-0.2467045921760205
 30
0.0
 11
-0.1291497622730917
 21
0.05563928045727944
 31
0.0
210
0.0
220
0.0
230
1.0
 40
0.1617290069831003
 41
3.929294368306088
 42
6.509634175926819
  0
LWPOLYLINE
  5
10C
330
8A
100
AcDbEntity
  8
AM_4
100
AcDbPolyline
 90
        3
 70
     0
 43
0.0
 10
-2.386684127934749
 20
-0.2389369657326275
 10
-2.370583237117103
 20
-0.2560939713202351
 10
-2.353259220847986
 20
-0.2711532636537955
  0
LWPOLYLINE
  5
10D
330
8A
100
AcDbEntity
  8
AM_4
100
AcDbPolyline
 90
        5
 70
     0
 43
0.0
 10
-2.535331155647801
 20
-0.1791093260592886
 10
-2.501343180167469
 20
-0.1988355121406938
 10
-2.465406322772213
 20
-0.2156330920108723
 10
-2.426818256669407
 20
-0.2290462109660019
 10
-2.386684127934749
 20
-0.2389369657326275
  0
LWPOLYLINE
  5
10E
330
8A
100
AcDbEntity
  8
AM_4
100
AcDbPolyline
 90
        3
 70
     0
 43
0.0
 10
-2.576712319303179
 20
-0.2006016827253521
 10
-2.577756342678458
 20
-0.1996402057054677
 10
-2.597471200779474
 20
-0.1791093260592899
  0
ELLIPSE
  5
10F
330
8A
100
AcDbEntity
  8
AM_4
100
AcDbEllipse
 10
-2.355892807903781
 20
0.0000000000000001
 30
0.0
 11
1.224646799147353E-17
 21
0.2
 31
0.0
210
0.0
220
0.0
230
1.0
 40
0.3826834323650896
 41
3.603538674156759
 42
6.283185307179586
  0
ARC
  5
110
330
8A
100
AcDbEntity
  8
AM_4
100
AcDbCircle
 10
-2.355892807903783
 20
0.000000000000001
 30
0.0
 40
0.1999999999999991
100
AcDbArc
 50
90.0
 51
216.8565908310954
  0
ELLIPSE
  5
111
330
8A
100
AcDbEntity
  8
AM_4
100
AcDbEllipse
 10
-2.546408664201043
 20
-0.4687500000000042
 30
0.0
 11
-0.09503828230381026
 21
0.04094364209589996
 31
0.0
210
0.0
220
0.0
230
1.0
 40
0.1617290069831022
 41
0.0
 42
6.283185307179586
  0
ENDBLK
  5
8D
330
8A
100
AcDbEntity
  8
0
100
AcDbBlockEnd
  0
BLOCK
  5
114
330
112
100
AcDbEntity
  8
0
100
AcDbBlockBegin
  2
3_1_1_2C_1_0_in_023078_4
 70
     2
 10
0.0
 20
0.0
 30
0.0
  3
3_1_1_2C_1_0_in_023078_4
  1

  0
ATTDEF
  5
116
330
112
100
AcDbEntity
  8
AM_6
100
AcDbText
 10
6.59375
 20
1.69
 30
0.0
 40
0.5
  1
E-Type Collar -Inch
100
AcDbAttributeDefinition
  3

  2
NN
 70
     8
280
     0
  0
ATTDEF
  5
117
330
112
100
AcDbEntity
  8
AM_6
100
AcDbText
 10
6.59375
 20
1.19
 30
0.0
 40
0.5
  1
E-Type Bearings
100
AcDbAttributeDefinition
  3

  2
NT
 70
     8
280
     0
  0
ATTDEF
  5
118
330
112
100
AcDbEntity
  8
AM_6
100
AcDbText
 10
6.59375
 20
0.69
 30
0.0
 40
0.5
  1
1-1/2C
100
AcDbAttributeDefinition
  3

  2
NB
 70
     8
280
     0
  0
ATTDEF
  5
119
330
112
100
AcDbEntity
  8
AM_6
100
AcDbText
 10
6.59375
 20
0.1899999999999999
 30
0.0
 40
0.5
  1
$BORE.C
100
AcDbAttributeDefinition
  3

  2
NBSYN
 70
     8
280
     0
  0
ATTDEF
  5
11A
330
112
100
AcDbEntity
  8
AM_6
100
AcDbText
 10
6.59375
 20
-0.3100000000000001
 30
0.0
 40
0.5
  1
1-1/2C
100
AcDbAttributeDefinition
  3

  2
LINA
 70
     8
280
     0
  0
ATTDEF
  5
11B
330
112
100
AcDbEntity
  8
AM_6
100
AcDbText
 10
6.59375
 20
-0.81
 30
0.0
 40
0.5
  1
1-1/2
100
AcDbAttributeDefinition
  3

  2
BORE
 70
     8
280
     0
  0
ATTDEF
  5
11C
330
112
100
AcDbEntity
  8
AM_6
100
AcDbText
 10
6.59375
 20
-1.31
 30
0.0
 40
0.5
  1
3.18750
100
AcDbAttributeDefinition
  3

  2
L
 70
     8
280
     0
  0
ATTDEF
  5
11D
330
112
100
AcDbEntity
  8
AM_6
100
AcDbText
 10
6.59375
 20
-1.81
 30
0.0
 40
0.5
  1
3.38
100
AcDbAttributeDefinition
  3

  2
A
 70
     8
280
     0
  0
ATTDEF
  5
11E
330
112
100
AcDbEntity
  8
AM_6
100
AcDbText
 10
6.59375
 20
-2.31
 30
0.0
 40
0.5
  1
1.50
100
AcDbAttributeDefinition
  3

  2
B
 70
     8
280
     0
  0
ATTDEF
  5
11F
330
112
100
AcDbEntity
  8
AM_6
100
AcDbText
 10
6.59375
 20
-2.81
 30
0.0
 40
0.5
  1
2.06
100
AcDbAttributeDefinition
  3

  2
C
 70
     8
280
     0
  0
ATTDEF
  5
120
330
112
100
AcDbEntity
  8
AM_6
100
AcDbText
 10
6.59375
 20
-3.31
 30
0.0
 40
0.5
  1
3.25
100
AcDbAttributeDefinition
  3

  2
D
 70
     8
280
     0
  0
ATTDEF
  5
121
330
112
100
AcDbEntity
  8
AM_6
100
AcDbText
 10
6.59375
 20
-3.81
 30
0.0
 40
0.5
  1
0.35
100
AcDbAttributeDefinition
  3

  2
E
 70
     8
280
     0
  0
ATTDEF
  5
122
330
112
100
AcDbEntity
  8
AM_6
100
AcDbText
 10
6.59375
 20
-4.31
 30
0.0
 40
0.5
  1
0.28
100
AcDbAttributeDefinition
  3

  2
F
 70
     8
280
     0
  0
ATTDEF
  5
123
330
112
100
AcDbEntity
  8
AM_6
100
AcDbText
 10
6.59375
 20
-4.81
 30
0.0
 40
0.5
  1
5/16-18
100
AcDbAttributeDefinition
  3

  2
CS
 70
     8
280
     0
  0
ATTDEF
  5
124
330
112
100
AcDbEntity
  8
AM_6
100
AcDbText
 10
6.59375
 20
-5.31
 30
0.0
 40
0.5
  1
0.3125
100
AcDbAttributeDefinition
  3

  2
NDM
 70
     8
280
     0
  0
ATTDEF
  5
125
330
112
100
AcDbEntity
  8
AM_6
100
AcDbText
 10
6.59375
 20
-5.81
 30
0.0
 40
0.5
  1
0.2520
100
AcDbAttributeDefinition
  3

  2
KDM
 70
     8
280
     0
  0
ATTDEF
  5
126
330
112
100
AcDbEntity
  8
AM_6
100
AcDbText
 10
6.59375
 20
-6.31
 30
0.0
 40
0.5
  1
baldor
100
AcDbAttributeDefinition
  3

  2
COMPANY
 70
     8
280
     0
  0
LINE
  5
127
330
112
100
AcDbEntity
  8
AM_9
100
AcDbLine
 10
0.9667204080673119
 20
1.521639373797339
 30
0.0
 11
0.9588245816941877
 21
1.531487732115532
 31
0.0
  0
LINE
  5
128
330
112
100
AcDbEntity
  8
AM_9
100
AcDbLine
 10
0.9587910524499942
 20
1.288470447307957
 30
0.0
 11
0.9667204080673119
 21
1.298360626202661
 31
0.0
  0
LWPOLYLINE
  5
129
330
112
100
AcDbEntity
  8
AM_9
100
AcDbPolyline
 90
       25
 70
     0
 43
0.0
 10
0.9587679794893136
 20
1.53155833126918
 10
0.9510655309076276
 20
1.539196442012869
 10
0.9413932364365533
 20
1.544246449480167
 10
0.9308418471890717
 20
1.545291658032939
 10
0.9194848227458929
 20
1.542075427349383
 10
0.9081847212094737
 20
1.534747146372806
 10
0.8968193741520503
 20
1.523033245786089
 10
0.8866885349176952
 20
1.508147654098444
 10
0.8774732371763143
 20
1.489328395851474
 10
0.870593198466014
 20
1.469403331636061
 10
0.8655035928933515
 20
1.446688340667502
 10
0.8630035182561093
 20
1.425267540522129
 10
0.8626064319130807
 20
1.402656395295419
 10
0.8642121520897913
 20
1.382171739643921
 10
0.8677277332777317
 20
1.361898058575516
 10
0.8728225013389842
 20
1.343302805808238
 10
0.8794753698877835
 20
1.326005404729403
 10
0.8875740211006018
 20
1.31034745347145
 10
0.8967931362996574
 20
1.296999373010244
 10
0.9070729448273568
 20
1.286198321888069
 10
0.917891436375343
 20
1.278710214943634
 10
0.9288787874364755
 20
1.274958311504049
 10
0.9397288270277425
 20
1.275304761947525
 10
0.9497465444100318
 20
1.279846552164755
 10
0.9587686382731576
 20
1.288442490405857
  0
LWPOLYLINE
  5
12A
330
112
100
AcDbEntity
  8
AM_9
100
AcDbPolyline
 90
        3
 70
     0
 43
0.0
 10
0.9623004179770875
 20
1.293336317517563
 10
0.9657844097838679
 20
1.299250141863335
 10
0.9717438702273611
 20
1.312667359787584
  0
LWPOLYLINE
  5
12B
330
112
100
AcDbEntity
  8
AM_9
100
AcDbPolyline
 90
        3
 70
     0
 43
0.0
 10
0.9587686382731576
 20
1.288442490405857
 10
0.9590479468264476
 20
1.288793764097206
 10
0.9623004179770875
 20
1.293336317517563
  0
LINE
  5
12C
330
112
100
AcDbEntity
  8
AM_9
100
AcDbLine
 10
0.9418501574182706
 20
1.2838
 30
0.0
 11
1.41719348658921
 21
1.2838
 31
0.0
  0
LINE
  5
12D
330
112
100
AcDbEntity
  8
AM_9
100
AcDbLine
 10
1.41719348658921
 20
1.5362
 30
0.0
 11
0.9418501574182706
 21
1.5362
 31
0.0
  0
LINE
  5
12E
330
112
100
AcDbEntity
  8
AM_9
100
AcDbLine
 10
1.392323235940168
 20
1.298360626202661
 30
0.0
 11
1.41237470218813
 21
1.273350701328017
 31
0.0
  0
LINE
  5
12F
330
112
100
AcDbEntity
  8
AM_9
100
AcDbLine
 10
1.412306858099848
 20
1.54656467765075
 30
0.0
 11
1.392323235940168
 21
1.521639373797338
 31
0.0
  0
ELLIPSE
  5
130
330
112
100
AcDbEntity
  8
AM_9
100
AcDbEllipse
 10
1.417193486589224
 20
1.409999999999998
 30
0.0
 11
-2.318256390785900E-17
 21
-0.1261999999999979
 31
0.0
210
0.0
220
0.0
230
1.0
 40
0.4226182617407487
 41
3.42304533494381
 42
5.979590701741799
  0
LWPOLYLINE
  5
131
330
112
100
AcDbEntity
  8
AM_9
100
AcDbPolyline
 90
        3
 70
     0
 43
0.0
 10
0.9624801175387153
 20
1.526386853247065
 10
0.9595721478697872
 20
1.530531134445214
 10
0.9587679794893136
 20
1.53155833126918
  0
LWPOLYLINE
  5
132
330
112
100
AcDbEntity
  8
AM_9
100
AcDbPolyline
 90
       13
 70
     0
 43
0.0
 10
0.9717438702273611
 20
1.312667359787584
 10
0.9764041690326177
 20
1.327477477419787
 10
0.9802289229709282
 20
1.344654393636444
 10
0.9832735232795118
 20
1.365322012062167
 10
0.9851491517460844
 20
1.388214106283163
 10
0.9857106606760219
 20
1.409487530474031
 10
0.9851670937811039
 20
1.431438395267772
 10
0.9836335210814259
 20
1.451369843428373
 10
0.9810428477835368
 20
1.470703936932307
 10
0.9774348959803723
 20
1.488475561672248
 10
0.9727220662516906
 20
1.504611883531862
 10
0.9667454101022331
 20
1.518897243092783
 10
0.9624801175387153
 20
1.526386853247065
  0
LWPOLYLINE
  5
133
330
112
100
AcDbEntity
  8
AM_9
100
AcDbPolyline
 90
       38
 70
     0
 43
0.0
 10
-0.1005665254018351
 20
1.312116833062568
 10
-0.084078186994805
 20
1.299502989187923
 10
-0.0659694526793192
 20
1.289323037174168
 10
-0.0428191912479211
 20
1.280605260310257
 10
-0.0185524795690411
 20
1.275691538561014
 10
0.0071203958177589
 20
1.274759337983454
 10
0.0325960033688433
 20
1.278033471004588
 10
0.0573996321957055
 20
1.285600752480754
 10
0.0805419140967045
 20
1.297240121137571
 10
0.1009460764581396
 20
1.31247660116828
 10
0.1183260913052832
 20
1.331069779287331
 10
0.1313253864009437
 20
1.351401886865825
 10
0.1404348769214452
 20
1.3737605724102
 10
0.1449284950377283
 20
1.395539899785714
 10
0.1455440181786176
 20
1.41777526370562
 10
0.142478790061096
 20
1.438528298899274
 10
0.1360603249944997
 20
1.458490383472098
 10
0.1264001563020502
 20
1.477283698131492
 10
0.113921672099591
 20
1.494326636269272
 10
0.0979695810295429
 20
1.510118201389453
 10
0.0797491640515969
 20
1.523246269160134
 10
0.0581650024440898
 20
1.534094504743316
 10
0.035115453006145
 20
1.54140434658858
 10
0.0099438318529136
 20
1.545086372368504
 10
-0.01549816068208
 20
1.5446442526852
 10
-0.0409915787772803
 20
1.539904798856063
 10
-0.0653143833122697
 20
1.53098522440442
 10
-0.0875690272892905
 20
1.518116433877429
 10
-0.1072252535345293
 20
1.501582906120251
 10
-0.1229487261698202
 20
1.48256210281257
 10
-0.1349825250177814
 20
1.461011188780094
 10
-0.1422807540910798
 20
1.43933959565837
 10
-0.1456061530746962
 20
1.416704484274784
 10
-0.1449220803926889
 20
1.395458653744419
 10
-0.1406937144262211
 20
1.374632304702638
 10
-0.1331838768528588
 20
1.355104663110747
 10
-0.1226840930862125
 20
1.337020782964523
 10
-0.1005665254018351
 20
1.312116833062568
  0
LINE
  5
134
330
112
100
AcDbEntity
  8
AM_9
100
AcDbLine
 10
-1.03
 20
1.69
 30
0.0
 11
-1.03
 21
1.13
 31
0.0
  0
LINE
  5
135
330
112
100
AcDbEntity
  8
AM_9
100
AcDbLine
 10
1.03
 20
1.13
 30
0.0
 11
1.03
 21
1.69
 31
0.0
  0
LINE
  5
136
330
112
100
AcDbEntity
  8
AM_9
100
AcDbLine
 10
-1.59375
 20
1.15625
 30
0.0
 11
-1.59375
 21
1.13
 31
0.0
  0
LINE
  5
137
330
112
100
AcDbEntity
  8
AM_9
100
AcDbLine
 10
1.59375
 20
1.13
 30
0.0
 11
1.59375
 21
1.15625
 31
0.0
  0
LINE
  5
138
330
112
100
AcDbEntity
  8
AM_9
100
AcDbLine
 10
1.59375
 20
1.13
 30
0.0
 11
-1.59375
 21
1.13
 31
0.0
  0
ELLIPSE
  5
139
330
112
100
AcDbEntity
  8
AM_9
100
AcDbEllipse
 10
0.9418501574182707
 20
1.41
 30
0.0
 11
-2.318256390785941E-17
 21
-0.1262000000000001
 31
0.0
210
0.0
220
0.0
230
1.0
 40
0.4226182617406999
 41
0.0
 42
6.283185307179586
  0
LINE
  5
13C
330
112
100
AcDbEntity
  8
AM_7
100
AcDbLine
 10
-0.13251
 20
1.41
 30
0.0
 11
0.13251
 21
1.41
 31
0.0
  0
ELLIPSE
  5
13D
330
112
100
AcDbEntity
  8
AM_4
100
AcDbEllipse
 10
1.417193486589209
 20
1.41
 30
0.0
 11
-2.318256390785941E-17
 21
-0.1262000000000001
 31
0.0
210
0.0
220
0.0
230
1.0
 40
0.4226182617406991
 41
5.979590701742038
 42
9.706230642123161
  0
LWPOLYLINE
  5
13E
330
112
100
AcDbEntity
  8
AM_4
100
AcDbPolyline
 90
       14
 70
     0
 43
0.0
 10
1.412476675118783
 20
1.273223511940657
 10
1.404794798259134
 20
1.284229446524596
 10
1.396101977693651
 20
1.300782669028555
 10
1.388543717920262
 20
1.320314577097021
 10
1.382355436562904
 20
1.342667852795879
 10
1.377908735999207
 20
1.36714403571168
 10
1.37543367306172
 20
1.393444257258941
 10
1.375168948551684
 20
1.42021832858838
 10
1.37721552498281
 20
1.447461597008439
 10
1.381422384651358
 20
1.473084275756936
 10
1.387870101753345
 20
1.497609886466756
 10
1.395806592424484
 20
1.518559562986879
 10
1.405496311353163
 20
1.536901400593611
 10
1.412473886426267
 20
1.546773009345225
  0
LWPOLYLINE
  5
13F
330
112
100
AcDbEntity
  8
AM_4
100
AcDbPolyline
 90
       19
 70
     0
 43
0.0
 10
1.412473886426267
 20
1.546773009345225
 10
1.415580120068481
 20
1.550433912963624
 10
1.426651634957507
 20
1.560247651097061
 10
1.437119704487881
 20
1.565219618922951
 10
1.447789844423847
 20
1.566025087232003
 10
1.457417597671735
 20
1.56274676590925
 10
1.466643708286826
 20
1.555412890510342
 10
1.474795936901688
 20
1.544618204764219
 10
1.482136041851303
 20
1.530163171163254
 10
1.488379146200941
 20
1.512589660610772
 10
1.493521490693757
 20
1.491949076791517
 10
1.497409490529425
 20
1.468825438722636
 10
1.499977412644613
 20
1.443516886619148
 10
1.501102494286342
 20
1.417129486913697
 10
1.500731480738563
 20
1.389804746460742
 10
1.498848059071854
 20
1.363416711546491
 10
1.495334029965689
 20
1.337614756628621
 10
1.491532934021673
 20
1.319149312092224
 10
1.486693082419853
 20
1.302035741290261
  0
CIRCLE
  5
140
330
112
100
AcDbEntity
  8
AM_4
100
AcDbCircle
 10
0.0
 20
1.41
 30
0.0
 40
0.1262
  0
LWPOLYLINE
  5
141
330
112
100
AcDbEntity
  8
AM_4
100
AcDbPolyline
 90
       10
 70
     0
 43
0.0
 10
1.486693082419853
 20
1.302035741290261
 10
1.480742039187235
 20
1.286660374216307
 10
1.473671921307599
 20
1.273605643806728
 10
1.464907623586901
 20
1.262850842838766
 10
1.454914443947591
 20
1.256004892053767
 10
1.444979510905796
 20
1.253755993704051
 10
1.434388715647599
 20
1.255683727619192
 10
1.424277573039832
 20
1.261451722489891
 10
1.414174581428974
 20
1.271170150415564
 10
1.412476675118783
 20
1.273223511940657
  0
LWPOLYLINE
  5
142
330
112
100
AcDbEntity
  8
AM_4
100
AcDbPolyline
 90
       38
 70
     0
 43
0.0
 10
-0.0964986771101055
 20
1.29084951027333
 10
-0.1123223843186948
 20
1.307178609735321
 10
-0.1255957553610621
 20
1.325647004987602
 10
-0.1373242201343504
 20
1.348887287332711
 10
-0.1451613521084078
 20
1.37372381104208
 10
-0.1489491489177956
 20
1.400387277666545
 10
-0.1483257617244295
 20
1.427313924642639
 10
-0.143132138524081
 20
1.454171625897947
 10
-0.1335172143723115
 20
1.47976960305444
 10
-0.1197443357254279
 20
1.503179726787317
 10
-0.1021563857944162
 20
1.52386260766042
 10
-0.081815119764605
 20
1.540622498636584
 10
-0.0588564234266718
 20
1.553566828964734
 10
-0.0350956796402769
 20
1.561841925913577
 10
-0.0102575546369877
 20
1.565879859576699
 10
0.0139029880414995
 20
1.565553023449874
 10
0.0376655852208615
 20
1.561183521067353
 10
0.0601332186896359
 20
1.552969767863824
 10
0.0809679975655645
 20
1.541222479355883
 10
0.1000756660920381
 20
1.525853208639566
 10
0.1164862124681036
 20
1.507627433708658
 10
0.130321745567999
 20
1.486071226220943
 10
0.1405320648812928
 20
1.462567664558427
 10
0.1470339450252398
 20
1.436697724623305
 10
0.1492464899529848
 20
1.410108152414684
 10
0.1469683879501731
 20
1.382917962225475
 10
0.1402071568872694
 20
1.356491165259019
 10
0.1290437536169856
 20
1.331587030362224
 10
0.1138022209065181
 20
1.308963648093419
 10
0.0952603927005365
 20
1.289785863312418
 10
0.07366152151135
 20
1.274137214481603
 10
0.0506342390805147
 20
1.263052410748302
 10
0.0260240987155973
 20
1.256147953907423
 10
0.0017196448083355
 20
1.253777463179809
 10
-0.0226351676017755
 20
1.25556067689302
 10
-0.045829977051927
 20
1.261327242269759
 10
-0.0677645720922511
 20
1.270810563615015
 10
-0.0964986771222808
 20
1.29084951024452
  0
LINE
  5
143
330
112
100
AcDbEntity
  8
AM_4
100
AcDbLine
 10
-1.59375
 20
1.596666666666667
 30
0.0
 11
-1.59375
 21
1.15625
 31
0.0
  0
LINE
  5
144
330
112
100
AcDbEntity
  8
AM_4
100
AcDbLine
 10
1.59375
 20
1.15625
 30
0.0
 11
1.59375
 21
1.596666666666667
 31
0.0
  0
LINE
  5
145
330
112
100
AcDbEntity
  8
AM_4
100
AcDbLine
 10
1.500416666666667
 20
1.69
 30
0.0
 11
-1.500416666666667
 21
1.69
 31
0.0
  0
ARC
  5
146
330
112
100
AcDbEntity
  8
AM_4
100
AcDbCircle
 10
-1.500416666666667
 20
1.596666666666666
 30
0.0
 40
0.0933333333333335
100
AcDbArc
 50
90.0
 51
180.0
  0
ARC
  5
147
330
112
100
AcDbEntity
  8
AM_4
100
AcDbCircle
 10
1.500416666666667
 20
1.596666666666666
 30
0.0
 40
0.0933333333333335
100
AcDbArc
 50
0.0
 51
90.0
  0
LINE
  5
148
330
112
100
AcDbEntity
  8
AM_4
100
AcDbLine
 10
1.59375
 20
1.596666666666667
 30
0.0
 11
-1.59375
 21
1.596666666666667
 31
0.0
  0
ARC
  5
14A
330
112
100
AcDbEntity
  8
AM_5
100
AcDbCircle
 10
0.0
 20
1.41
 30
0.0
 40
0.1562500000000001
100
AcDbArc
 50
75.00000000000004
 51
14.99999999999997
  0
ARC
  5
14B
330
112
100
AcDbEntity
  8
AM_5
100
AcDbCircle
 10
0.0000000000000188
 20
1.410000000000058
 30
0.0
 40
0.1562499999999397
100
AcDbArc
 50
63.85157066747871
 51
75.00000000000124
  0
ENDBLK
  5
115
330
112
100
AcDbEntity
  8
0
100
AcDbBlockEnd
  0
BLOCK
  5
14E
330
14C
100
AcDbEntity
  8
0
100
AcDbBlockBegin
  2
4_1_1_2C_2_0_in_023078_4
 70
     2
 10
0.0
 20
0.0
 30
0.0
  3
4_1_1_2C_2_0_in_023078_4
  1

  0
ATTDEF
  5
150
330
14C
100
AcDbEntity
  8
AM_6
100
AcDbText
 10
6.59375
 20
-1.13
 30
0.0
 40
0.5
  1
E-Type Collar -Inch
100
AcDbAttributeDefinition
  3

  2
NN
 70
     8
280
     0
  0
ATTDEF
  5
151
330
14C
100
AcDbEntity
  8
AM_6
100
AcDbText
 10
6.59375
 20
-1.63
 30
0.0
 40
0.5
  1
E-Type Bearings
100
AcDbAttributeDefinition
  3

  2
NT
 70
     8
280
     0
  0
ATTDEF
  5
152
330
14C
100
AcDbEntity
  8
AM_6
100
AcDbText
 10
6.59375
 20
-2.13
 30
0.0
 40
0.5
  1
1-1/2C
100
AcDbAttributeDefinition
  3

  2
NB
 70
     8
280
     0
  0
ATTDEF
  5
153
330
14C
100
AcDbEntity
  8
AM_6
100
AcDbText
 10
6.59375
 20
-2.63
 30
0.0
 40
0.5
  1
$BORE.C
100
AcDbAttributeDefinition
  3

  2
NBSYN
 70
     8
280
     0
  0
ATTDEF
  5
154
330
14C
100
AcDbEntity
  8
AM_6
100
AcDbText
 10
6.59375
 20
-3.13
 30
0.0
 40
0.5
  1
1-1/2C
100
AcDbAttributeDefinition
  3

  2
LINA
 70
     8
280
     0
  0
ATTDEF
  5
155
330
14C
100
AcDbEntity
  8
AM_6
100
AcDbText
 10
6.59375
 20
-3.63
 30
0.0
 40
0.5
  1
1-1/2
100
AcDbAttributeDefinition
  3

  2
BORE
 70
     8
280
     0
  0
ATTDEF
  5
156
330
14C
100
AcDbEntity
  8
AM_6
100
AcDbText
 10
6.59375
 20
-4.13
 30
0.0
 40
0.5
  1
3.18750
100
AcDbAttributeDefinition
  3

  2
L
 70
     8
280
     0
  0
ATTDEF
  5
157
330
14C
100
AcDbEntity
  8
AM_6
100
AcDbText
 10
6.59375
 20
-4.63
 30
0.0
 40
0.5
  1
3.38
100
AcDbAttributeDefinition
  3

  2
A
 70
     8
280
     0
  0
ATTDEF
  5
158
330
14C
100
AcDbEntity
  8
AM_6
100
AcDbText
 10
6.59375
 20
-5.13
 30
0.0
 40
0.5
  1
1.50
100
AcDbAttributeDefinition
  3

  2
B
 70
     8
280
     0
  0
ATTDEF
  5
159
330
14C
100
AcDbEntity
  8
AM_6
100
AcDbText
 10
6.59375
 20
-5.63
 30
0.0
 40
0.5
  1
2.06
100
AcDbAttributeDefinition
  3

  2
C
 70
     8
280
     0
  0
ATTDEF
  5
15A
330
14C
100
AcDbEntity
  8
AM_6
100
AcDbText
 10
6.59375
 20
-6.13
 30
0.0
 40
0.5
  1
3.25
100
AcDbAttributeDefinition
  3

  2
D
 70
     8
280
     0
  0
ATTDEF
  5
15B
330
14C
100
AcDbEntity
  8
AM_6
100
AcDbText
 10
6.59375
 20
-6.63
 30
0.0
 40
0.5
  1
0.35
100
AcDbAttributeDefinition
  3

  2
E
 70
     8
280
     0
  0
ATTDEF
  5
15C
330
14C
100
AcDbEntity
  8
AM_6
100
AcDbText
 10
6.59375
 20
-7.13
 30
0.0
 40
0.5
  1
0.28
100
AcDbAttributeDefinition
  3

  2
F
 70
     8
280
     0
  0
ATTDEF
  5
15D
330
14C
100
AcDbEntity
  8
AM_6
100
AcDbText
 10
6.59375
 20
-7.63
 30
0.0
 40
0.5
  1
5/16-18
100
AcDbAttributeDefinition
  3

  2
CS
 70
     8
280
     0
  0
ATTDEF
  5
15E
330
14C
100
AcDbEntity
  8
AM_6
100
AcDbText
 10
6.59375
 20
-8.129999999999999
 30
0.0
 40
0.5
  1
0.3125
100
AcDbAttributeDefinition
  3

  2
NDM
 70
     8
280
     0
  0
ATTDEF
  5
15F
330
14C
100
AcDbEntity
  8
AM_6
100
AcDbText
 10
6.59375
 20
-8.629999999999999
 30
0.0
 40
0.5
  1
0.2520
100
AcDbAttributeDefinition
  3

  2
KDM
 70
     8
280
     0
  0
ATTDEF
  5
160
330
14C
100
AcDbEntity
  8
AM_6
100
AcDbText
 10
6.59375
 20
-9.129999999999999
 30
0.0
 40
0.5
  1
baldor
100
AcDbAttributeDefinition
  3

  2
COMPANY
 70
     8
280
     0
  0
LINE
  5
161
330
14C
100
AcDbEntity
  8
AM_9
100
AcDbLine
 10
0.9667204080673119
 20
-1.298360626202661
 30
0.0
 11
0.9588186057002646
 21
-1.288504814107412
 31
0.0
  0
LINE
  5
162
330
14C
100
AcDbEntity
  8
AM_9
100
AcDbLine
 10
0.9588039485709549
 20
-1.531513467533361
 30
0.0
 11
0.9667204080673119
 21
-1.521639373797338
 31
0.0
  0
LWPOLYLINE
  5
163
330
14C
100
AcDbEntity
  8
AM_9
100
AcDbPolyline
 90
       25
 70
     0
 43
0.0
 10
0.9587681927256397
 20
-1.288441934688553
 10
0.9507830359024683
 20
-1.280605260310257
 10
0.9411861948580283
 20
-1.275691538561014
 10
0.9304615446755484
 20
-1.274759337983454
 10
0.9192537850760364
 20
-1.278033471004588
 10
0.9077846982770169
 20
-1.285600752480754
 10
0.8966001711739581
 20
-1.29724012113757
 10
0.8863394900795762
 20
-1.31247660116828
 10
0.8773099536379885
 20
-1.331069779287331
 10
0.8703783002532647
 20
-1.351401886865825
 10
0.8654291956609248
 20
-1.3737605724102
 10
0.8629620940377312
 20
-1.395539899785714
 10
0.8626208703802716
 20
-1.41777526370562
 10
0.8643096398213262
 20
-1.438528298899274
 10
0.8678149661738616
 20
-1.458490383472098
 10
0.8730221968277878
 20
-1.477283698131492
 10
0.8796242678615747
 20
-1.494326636269272
 10
0.8878597638570163
 20
-1.510118201389453
 10
0.8969912772847339
 20
-1.523246269160134
 10
0.9074231362706907
 20
-1.534094504743316
 10
0.9181139245863295
 20
-1.54140434658858
 10
0.9292472675127308
 20
-1.545086372368504
 10
0.9399411462321278
 20
-1.5446442526852
 10
0.9500774323464596
 20
-1.539904798856063
 10
0.9587685337061687
 20
-1.531557640018555
  0
LWPOLYLINE
  5
164
330
14C
100
AcDbEntity
  8
AM_9
100
AcDbPolyline
 90
       12
 70
     0
 43
0.0
 10
0.963211097536533
 20
-1.525230731823716
 10
0.9671228985571823
 20
-1.518116433877429
 10
0.9737403141308678
 20
-1.501582906120251
 10
0.9787827345822123
 20
-1.48256210281257
 10
0.9824922755808618
 20
-1.461011188780093
 10
0.9846796929994062
 20
-1.43933959565837
 10
0.985658209908501
 20
-1.416704484274784
 10
0.98545879621318
 20
-1.395458653744419
 10
0.9842069558582295
 20
-1.374632304702638
 10
0.9819465546978772
 20
-1.355104663110747
 10
0.9786999673425223
 20
-1.337020782964523
 10
0.971538072778752
 20
-1.312116833062567
  0
LWPOLYLINE
  5
165
330
14C
100
AcDbEntity
  8
AM_9
100
AcDbPolyline
 90
        3
 70
     0
 43
0.0
 10
0.9587685337061687
 20
-1.531557640018555
 10
0.9592213460049213
 20
-1.53098522440442
 10
0.963211097536533
 20
-1.525230731823716
  0
LINE
  5
166
330
14C
100
AcDbEntity
  8
AM_9
100
AcDbLine
 10
0.9418501574182705
 20
-1.5362
 30
0.0
 11
1.41719348658921
 21
-1.5362
 31
0.0
  0
LINE
  5
167
330
14C
100
AcDbEntity
  8
AM_9
100
AcDbLine
 10
1.41719348658921
 20
-1.2838
 30
0.0
 11
0.9418501574182705
 21
-1.2838
 31
0.0
  0
ELLIPSE
  5
168
330
14C
100
AcDbEntity
  8
AM_9
100
AcDbEllipse
 10
1.417193486589209
 20
-1.41
 30
0.0
 11
-2.318256390785929E-17
 21
-0.1261999999999994
 31
0.0
210
0.0
220
0.0
230
1.0
 40
0.4226182617406943
 41
3.440988769986284
 42
5.977300048589891
  0
LINE
  5
169
330
14C
100
AcDbEntity
  8
AM_9
100
AcDbLine
 10
1.392323235940168
 20
-1.521639373797338
 30
0.0
 11
1.412298093225979
 21
-1.546553745341149
 31
0.0
  0
LINE
  5
16A
330
14C
100
AcDbEntity
  8
AM_9
100
AcDbLine
 10
1.412423210362353
 20
-1.273290197733011
 30
0.0
 11
1.392323235940168
 21
-1.298360626202661
 31
0.0
  0
LWPOLYLINE
  5
16B
330
14C
100
AcDbEntity
  8
AM_9
100
AcDbPolyline
 90
       39
 70
     0
 43
0.0
 10
-0.1011837417154408
 20
-1.312667359787584
 10
-0.1154451229961465
 20
-1.327477477419786
 10
-0.1275895126737132
 20
-1.344654393636444
 10
-0.1375725029473159
 20
-1.365322012062167
 10
-0.1438745639902258
 20
-1.388214106283163
 10
-0.1457850944573374
 20
-1.409487530474031
 10
-0.1439354379935644
 20
-1.431438395267772
 10
-0.1387727767224051
 20
-1.451369843428373
 10
-0.130229636918921
 20
-1.470703936932307
 10
-0.1186768172277754
 20
-1.488475561672248
 10
-0.1041315660981357
 20
-1.504611883531862
 10
-0.0864699337885847
 20
-1.518897243092783
 10
-0.0662765237808752
 20
-1.530531134445214
 10
-0.0435455198347378
 20
-1.539196442012869
 10
-0.0190623504813151
 20
-1.544246449480167
 10
0.006242112885366
 20
-1.545291658032939
 10
0.0320838252594817
 20
-1.542075427349383
 10
0.0565610929496598
 20
-1.534747146372806
 10
0.0800977413472436
 20
-1.523033245786089
 10
0.1002674196002241
 20
-1.508147654098444
 10
0.1180164255137941
 20
-1.489328395851474
 10
0.1309257165826895
 20
-1.469403331636061
 10
0.1402989398493221
 20
-1.446688340667502
 10
0.1448503976764756
 20
-1.425267540522129
 10
0.1455701751135889
 20
-1.402656395295419
 10
0.1426543100415953
 20
-1.382171739643921
 10
0.1362208359348283
 20
-1.361898058575515
 10
0.126773481698521
 20
-1.343302805808238
 10
0.1142060426877189
 20
-1.326005404729403
 10
0.0985328443793694
 20
-1.31034745347145
 10
0.0801509260258044
 20
-1.296999373010244
 10
0.0589090895114281
 20
-1.286198321888069
 10
0.0356057842945722
 20
-1.278710214943634
 10
0.0108061051736483
 20
-1.274958311504049
 10
-0.0149793067815122
 20
-1.275304761947525
 10
-0.0401264711674594
 20
-1.279846552164755
 10
-0.0648396314262634
 20
-1.288793764097206
 10
-0.0837044041666546
 20
-1.299250141863335
 10
-0.1011837417154407
 20
-1.312667359787584
  0
LWPOLYLINE
  5
16C
330
14C
100
AcDbEntity
  8
AM_9
100
AcDbPolyline
 90
        3
 70
     0
 43
0.0
 10
0.9644247942636391
 20
-1.296799792370671
 10
0.9594602770504526
 20
-1.289323037174168
 10
0.9587681927256397
 20
-1.288441934688553
  0
LWPOLYLINE
  5
16D
330
14C
100
AcDbEntity
  8
AM_9
100
AcDbPolyline
 90
        3
 70
     0
 43
0.0
 10
0.971538072778752
 20
-1.312116833062567
 10
0.9659135475690981
 20
-1.299502989187923
 10
0.9644247942636391
 20
-1.296799792370671
  0
LINE
  5
16E
330
14C
100
AcDbEntity
  8
AM_9
100
AcDbLine
 10
1.03
 20
-1.69
 30
0.0
 11
1.03
 21
-1.13
 31
0.0
  0
LINE
  5
16F
330
14C
100
AcDbEntity
  8
AM_9
100
AcDbLine
 10
-1.03
 20
-1.13
 30
0.0
 11
-1.03
 21
-1.69
 31
0.0
  0
LINE
  5
170
330
14C
100
AcDbEntity
  8
AM_9
100
AcDbLine
 10
-1.59375
 20
-1.13
 30
0.0
 11
1.59375
 21
-1.13
 31
0.0
  0
LINE
  5
171
330
14C
100
AcDbEntity
  8
AM_9
100
AcDbLine
 10
1.59375
 20
-1.15625
 30
0.0
 11
1.59375
 21
-1.13
 31
0.0
  0
LINE
  5
172
330
14C
100
AcDbEntity
  8
AM_9
100
AcDbLine
 10
-1.59375
 20
-1.13
 30
0.0
 11
-1.59375
 21
-1.15625
 31
0.0
  0
ARC
  5
173
330
14C
100
AcDbEntity
  8
AM_5
100
AcDbCircle
 10
0.0000000000000001
 20
-1.41
 30
0.0
 40
0.1562499999999999
100
AcDbArc
 50
75.00000000000001
 51
14.99999999999994
  0
ELLIPSE
  5
174
330
14C
100
AcDbEntity
  8
AM_9
100
AcDbEllipse
 10
0.9418501574182703
 20
-1.41
 30
0.0
 11
-2.318256390785929E-17
 21
-0.1261999999999994
 31
0.0
210
0.0
220
0.0
230
1.0
 40
0.4226182617407004
 41
0.0
 42
6.283185307179586
  0
LINE
  5
175
330
14C
100
AcDbEntity
  8
AM_7
100
AcDbLine
 10
-0.13251
 20
-1.41
 30
0.0
 11
0.13251
 21
-1.41
 31
0.0
  0
ELLIPSE
  5
176
330
14C
100
AcDbEntity
  8
AM_4
100
AcDbEllipse
 10
1.41719348658921
 20
-1.41
 30
0.0
 11
-2.318256390785941E-17
 21
-0.1262000000000001
 31
0.0
210
0.0
220
0.0
230
1.0
 40
0.4226182617406991
 41
5.977300048589879
 42
9.724174077165882
  0
LWPOLYLINE
  5
177
330
14C
100
AcDbEntity
  8
AM_4
100
AcDbPolyline
 90
       15
 70
     0
 43
0.0
 10
1.412469598125106
 20
-1.546767659278356
 10
1.408344249386117
 20
-1.541222479355882
 10
1.399283240159242
 20
-1.525853208639566
 10
1.391335558933705
 20
-1.507627433708658
 10
1.38451502484477
 20
-1.486071226220943
 10
1.379410316808001
 20
-1.462567664558427
 10
1.376129964065041
 20
-1.436697724623304
 10
1.375006443257807
 20
-1.410108152414684
 10
1.376163287507714
 20
-1.382917962225475
 10
1.379573665205638
 20
-1.356491165259019
 10
1.385149757490721
 20
-1.331587030362224
 10
1.392646066615423
 20
-1.308963648093419
 10
1.401585776636542
 20
-1.289785863312418
 10
1.411753716344935
 20
-1.274137214481603
 10
1.412474108674615
 20
-1.273226713401366
  0
LWPOLYLINE
  5
178
330
14C
100
AcDbEntity
  8
AM_4
100
AcDbPolyline
 90
        8
 70
     0
 43
0.0
 10
1.412474108674615
 20
-1.273226713401366
 10
1.422297646823276
 20
-1.263052410748302
 10
1.433237198584817
 20
-1.256147953907423
 10
1.443697960952229
 20
-1.253777463179808
 10
1.453848385772074
 20
-1.25556067689302
 10
1.463197458824012
 20
-1.261327242269759
 10
1.471760328143888
 20
-1.270810563615015
 10
1.482560010928953
 20
-1.290849510248892
  0
CIRCLE
  5
179
330
14C
100
AcDbEntity
  8
AM_4
100
AcDbCircle
 10
0.0
 20
-1.41
 30
0.0
 40
0.1262
  0
LINE
  5
17A
330
14C
100
AcDbEntity
  8
AM_4
100
AcDbLine
 10
-1.500416666666667
 20
-1.69
 30
0.0
 11
1.500416661090452
 21
-1.69
 31
0.0
  0
ARC
  5
17B
330
14C
100
AcDbEntity
  8
AM_4
100
AcDbCircle
 10
1.500416666666667
 20
-1.596666666666667
 30
0.0
 40
0.0933333333333333
100
AcDbArc
 50
270.0
 51
0.0
  0
ARC
  5
17C
330
14C
100
AcDbEntity
  8
AM_4
100
AcDbCircle
 10
-1.500416666666667
 20
-1.596666666666667
 30
0.0
 40
0.0933333333333335
100
AcDbArc
 50
180.0
 51
270.0
  0
LINE
  5
17D
330
14C
100
AcDbEntity
  8
AM_4
100
AcDbLine
 10
-1.59375
 20
-1.596666666666667
 30
0.0
 11
1.59375
 21
-1.596666666666667
 31
0.0
  0
LWPOLYLINE
  5
17E
330
14C
100
AcDbEntity
  8
AM_4
100
AcDbPolyline
 90
       39
 70
     0
 43
0.0
 10
-0.1078408707958413
 20
-1.302035741360839
 10
-0.0915725948497263
 20
-1.286660374216307
 10
-0.0727605875675605
 20
-1.273605643806728
 10
-0.0501514217363862
 20
-1.262850842838766
 10
-0.0252416424697722
 20
-1.256004892053767
 10
-0.0013060493819306
 20
-1.25375599370405
 10
0.0233870515485721
 20
-1.255683727619192
 10
0.0462411705893544
 20
-1.26145172248989
 10
0.0684335563721543
 20
-1.271170150415564
 10
0.0885060115918031
 20
-1.284229446524596
 10
0.1066833832645648
 20
-1.300782669028555
 10
0.1221760824480097
 20
-1.320314577097021
 10
0.134655414533221
 20
-1.342667852795879
 10
0.143513142731111
 20
-1.36714403571168
 10
0.148404859236843
 20
-1.393444257258941
 10
0.1489264538258834
 20
-1.42021832858838
 10
0.1448859546051897
 20
-1.447461597008439
 10
0.1365215069072493
 20
-1.473084275756936
 10
0.1235432962336687
 20
-1.497609886466756
 10
0.1072941926797266
 20
-1.518559562986879
 10
0.0870216489086261
 20
-1.536901400593611
 10
0.0653826807023177
 20
-1.550433912963624
 10
0.0409349908565591
 20
-1.560247651097061
 10
0.0170963338170844
 20
-1.565219618922951
 10
-0.0079977517940663
 20
-1.566025087232003
 10
-0.0313992976286342
 20
-1.56274676590925
 10
-0.0545708938468402
 20
-1.555412890510342
 10
-0.0757157562579924
 20
-1.544618204764219
 10
-0.0953464980001579
 20
-1.530163171163254
 10
-0.1125268499456319
 20
-1.512589660610772
 10
-0.1270406324693655
 20
-1.491949076791517
 10
-0.1382476566515119
 20
-1.468825438722636
 10
-0.1457662842297963
 20
-1.443516886619148
 10
-0.1490907977091018
 20
-1.417129486913697
 10
-0.1479924054864416
 20
-1.389804746460742
 10
-0.1424479029791917
 20
-1.363416711546491
 10
-0.1322393461045042
 20
-1.337614756628621
 10
-0.1213875750378428
 20
-1.319149312092224
 10
-0.107840870875632
 20
-1.302035741310885
  0
LWPOLYLINE
  5
17F
330
14C
100
AcDbEntity
  8
AM_4
100
AcDbPolyline
 90
       19
 70
     0
 43
0.0
 10
1.482560010928953
 20
-1.290849510248892
 10
1.488305712360381
 20
-1.307178609735321
 10
1.49301497603373
 20
-1.325647004987601
 10
1.497092622412375
 20
-1.348887287332711
 10
1.49977200700529
 20
-1.37372381104208
 10
1.50105607980982
 20
-1.400387277666545
 10
1.500844154857959
 20
-1.427313924642639
 10
1.499082651914847
 20
-1.454171625897947
 10
1.495777183424114
 20
-1.47976960305444
 10
1.490951543836946
 20
-1.503179726787317
 10
1.484630869172296
 20
-1.523862607660419
 10
1.477098626506997
 20
-1.540622498636584
 10
1.468316551018665
 20
-1.553566828964733
 10
1.458907386571153
 20
-1.561841925913577
 10
1.448733148524026
 20
-1.565879859576699
 10
1.438495084868227
 20
-1.565553023449874
 10
1.428106434541907
 20
-1.561183521067353
 10
1.417984585061841
 20
-1.552969767863824
 10
1.412469598125106
 20
-1.546767659278356
  0
LINE
  5
180
330
14C
100
AcDbEntity
  8
AM_4
100
AcDbLine
 10
1.59375
 20
-1.596666666666667
 30
0.0
 11
1.59375
 21
-1.15625
 31
0.0
  0
LINE
  5
181
330
14C
100
AcDbEntity
  8
AM_4
100
AcDbLine
 10
-1.59375
 20
-1.15625
 30
0.0
 11
-1.59375
 21
-1.596666666666667
 31
0.0
  0
ARC
  5
182
330
14C
100
AcDbEntity
  8
AM_5
100
AcDbCircle
 10
0.0
 20
-1.41
 30
0.0
 40
0.15625
100
AcDbArc
 50
165.0
 51
105.0
  0
ARC
  5
183
330
14C
100
AcDbEntity
  8
AM_5
100
AcDbCircle
 10
-0.0000000000000001
 20
-1.41
 30
0.0
 40
0.1562500000000001
100
AcDbArc
 50
105.0
 51
285.0
  0
ENDBLK
  5
14F
330
14C
100
AcDbEntity
  8
0
100
AcDbBlockEnd
  0
BLOCK
  5
186
330
184
100
AcDbEntity
  8
0
100
AcDbBlockBegin
  2
5_1_1_2I_0_in_023078_4
 70
     2
 10
0.0
 20
0.0
 30
0.0
  3
5_1_1_2I_0_in_023078_4
  1

  0
ATTDEF
  5
188
330
184
100
AcDbEntity
  8
AM_6
100
AcDbText
 10
6.625
 20
1.859
 30
0.0
 40
0.5
  1
E-Type Insert -Inch
100
AcDbAttributeDefinition
  3

  2
NN
 70
     8
280
     0
  0
ATTDEF
  5
189
330
184
100
AcDbEntity
  8
AM_6
100
AcDbText
 10
6.625
 20
1.359
 30
0.0
 40
0.5
  1
E-Type Bearings
100
AcDbAttributeDefinition
  3

  2
NT
 70
     8
280
     0
  0
ATTDEF
  5
18A
330
184
100
AcDbEntity
  8
AM_6
100
AcDbText
 10
6.625
 20
0.859
 30
0.0
 40
0.5
  1
1-1/2I
100
AcDbAttributeDefinition
  3

  2
NB
 70
     8
280
     0
  0
ATTDEF
  5
18B
330
184
100
AcDbEntity
  8
AM_6
100
AcDbText
 10
6.625
 20
0.359
 30
0.0
 40
0.5
  1
$BORE.I
100
AcDbAttributeDefinition
  3

  2
NBSYN
 70
     8
280
     0
  0
ATTDEF
  5
18C
330
184
100
AcDbEntity
  8
AM_6
100
AcDbText
 10
6.625
 20
-0.141
 30
0.0
 40
0.5
  1
1-1/2I
100
AcDbAttributeDefinition
  3

  2
LINA
 70
     8
280
     0
  0
ATTDEF
  5
18D
330
184
100
AcDbEntity
  8
AM_6
100
AcDbText
 10
6.625
 20
-0.641
 30
0.0
 40
0.5
  1
1-1/2
100
AcDbAttributeDefinition
  3

  2
BORE
 70
     8
280
     0
  0
ATTDEF
  5
18E
330
184
100
AcDbEntity
  8
AM_6
100
AcDbText
 10
6.625
 20
-1.141
 30
0.0
 40
0.5
  1
3.38
100
AcDbAttributeDefinition
  3

  2
A
 70
     8
280
     0
  0
ATTDEF
  5
18F
330
184
100
AcDbEntity
  8
AM_6
100
AcDbText
 10
6.625
 20
-1.641
 30
0.0
 40
0.5
  1
1.50
100
AcDbAttributeDefinition
  3

  2
B
 70
     8
280
     0
  0
ATTDEF
  5
190
330
184
100
AcDbEntity
  8
AM_6
100
AcDbText
 10
6.625
 20
-2.141
 30
0.0
 40
0.5
  1
2.06
100
AcDbAttributeDefinition
  3

  2
C
 70
     8
280
     0
  0
ATTDEF
  5
191
330
184
100
AcDbEntity
  8
AM_6
100
AcDbText
 10
6.625
 20
-2.641
 30
0.0
 40
0.5
  1
3.25
100
AcDbAttributeDefinition
  3

  2
D
 70
     8
280
     0
  0
ATTDEF
  5
192
330
184
100
AcDbEntity
  8
AM_6
100
AcDbText
 10
6.625
 20
-3.141
 30
0.0
 40
0.5
  1
0.35
100
AcDbAttributeDefinition
  3

  2
E
 70
     8
280
     0
  0
ATTDEF
  5
193
330
184
100
AcDbEntity
  8
AM_6
100
AcDbText
 10
6.625
 20
-3.641
 30
0.0
 40
0.5
  1
0.28
100
AcDbAttributeDefinition
  3

  2
F
 70
     8
280
     0
  0
ATTDEF
  5
194
330
184
100
AcDbEntity
  8
AM_6
100
AcDbText
 10
6.625
 20
-4.141
 30
0.0
 40
0.5
  1
baldor
100
AcDbAttributeDefinition
  3

  2
COMPANY
 70
     8
280
     0
  0
LINE
  5
195
330
184
100
AcDbEntity
  8
AM_9
100
AcDbLine
 10
0.933406967096689
 20
-1.234999985
 30
0.0
 11
0.6796541858512003
 21
-1.234999985
 31
0.0
  0
LINE
  5
196
330
184
100
AcDbEntity
  8
AM_9
100
AcDbLine
 10
0.679602909062073
 20
-1.584999995
 30
0.0
 11
0.9334721012774542
 21
-1.584999995
 31
0.0
  0
LWPOLYLINE
  5
197
330
184
100
AcDbEntity
  8
AM_9
100
AcDbPolyline
 90
       21
 70
     0
 43
0.0
 10
0.6797262414713107
 20
-1.584999994661692
 10
0.6871427111979862
 20
-1.584071681814277
 10
0.6978397207380774
 20
-1.578884509316211
 10
0.7074218813777559
 20
-1.568954370965558
 10
0.7153203977851745
 20
-1.554984558806358
 10
0.7218947335651005
 20
-1.536665836157191
 10
0.7269635193341919
 20
-1.514927843909674
 10
0.7307678158870816
 20
-1.489516382732051
 10
0.7332343929079523
 20
-1.462437028318491
 10
0.7346149147084587
 20
-1.432943799996805
 10
0.734907250336281
 20
-1.404301012894502
 10
0.7341918401138489
 20
-1.374978456542062
 10
0.732500472843307
 20
-1.347845622622069
 10
0.7296485216338761
 20
-1.321700803934825
 10
0.72559746560272
 20
-1.298247108148109
 10
0.7200280878398941
 20
-1.277277006780867
 10
0.712974633357948
 20
-1.260147287932799
 10
0.7040681142954232
 20
-1.246861584377884
 10
0.6939332213758539
 20
-1.2386174486388
 10
0.6820567307894896
 20
-1.235087935752909
 10
0.6797385217456282
 20
-1.234999985943944
  0
LWPOLYLINE
  5
198
330
184
100
AcDbEntity
  8
AM_9
100
AcDbPolyline
 90
       11
 70
     0
 43
0.0
 10
0.6797385217456282
 20
-1.234999985943944
 10
0.6697261495976154
 20
-1.236507644903477
 10
0.6563360791299707
 20
-1.242765637173634
 10
0.6431577064547035
 20
-1.25327021916189
 10
0.6299239618471525
 20
-1.268305601233219
 10
0.6176459143760902
 20
-1.287084522416478
 10
0.60651583249238
 20
-1.309863478305437
 10
0.597574612237242
 20
-1.335196784225271
 10
0.591004615313079
 20
-1.363535111595707
 10
0.5880381658266838
 20
-1.386323188092311
 10
0.5870099015497076
 20
-1.40999999
  0
LWPOLYLINE
  5
199
330
184
100
AcDbEntity
  8
AM_9
100
AcDbPolyline
 90
       11
 70
     0
 43
0.0
 10
0.9930334456599413
 20
-1.443167447026607
 10
0.9927961127968477
 20
-1.447439832916952
 10
0.9904517085347827
 20
-1.475189392959298
 10
0.986764272738104
 20
-1.501128414503806
 10
0.981620023083993
 20
-1.524735947406816
 10
0.9750265886903533
 20
-1.545151782990281
 10
0.9668591854601607
 20
-1.561931204251621
 10
0.9572524579673861
 20
-1.57440907163009
 10
0.9463564324889124
 20
-1.582128049136432
 10
0.9343731424105852
 20
-1.584987662239814
 10
0.9335019628891394
 20
-1.584999994609254
  0
LWPOLYLINE
  5
19A
330
184
100
AcDbEntity
  8
AM_9
100
AcDbPolyline
 90
       10
 70
     0
 43
0.0
 10
0.9334910682432999
 20
-1.234999985566771
 10
0.9413906078551408
 20
-1.236040582583733
 10
0.9526098264372277
 20
-1.241614353994253
 10
0.9626452492260287
 20
-1.2517929839953
 10
0.9713534976058056
 20
-1.266420967717919
 10
0.978631853256608
 20
-1.284992807105194
 10
0.9845091840343067
 20
-1.307350544529248
 10
0.9889297833757936
 20
-1.332622801815771
 10
0.99192683880771
 20
-1.360179780743919
 10
0.9931440961666184
 20
-1.379038767394484
  0
LWPOLYLINE
  5
19B
330
184
100
AcDbEntity
  8
AM_9
100
AcDbPolyline
 90
       10
 70
     0
 43
0.0
 10
0.9335019628891394
 20
-1.584999994609254
 10
0.921756740980353
 20
-1.582885424062273
 10
0.9087646734514537
 20
-1.576022135288609
 10
0.895851361884348
 20
-1.564554491115448
 10
0.8834879434300219
 20
-1.548867174374054
 10
0.8720518127680634
 20
-1.529085393668289
 10
0.8621811596876167
 20
-1.505966529185131
 10
0.8543161662586588
 20
-1.47990986657823
 10
0.8488916617276124
 20
-1.451833074720056
 10
0.8459665277242596
 20
-1.40999999
  0
LINE
  5
19C
330
184
100
AcDbEntity
  8
AM_9
100
AcDbLine
 10
0.9334069670966894
 20
1.584999995
 30
0.0
 11
0.6796541858512004
 21
1.584999995
 31
0.0
  0
LINE
  5
19D
330
184
100
AcDbEntity
  8
AM_9
100
AcDbLine
 10
0.679602909062073
 20
1.234999985
 30
0.0
 11
0.9334721012774547
 21
1.234999985
 31
0.0
  0
LWPOLYLINE
  5
19E
330
184
100
AcDbEntity
  8
AM_9
100
AcDbPolyline
 90
       21
 70
     0
 43
0.0
 10
0.6797262414713107
 20
1.234999985338308
 10
0.6871427111979862
 20
1.235928298185723
 10
0.6978397207380774
 20
1.241115470683789
 10
0.7074218813777559
 20
1.251045609034442
 10
0.7153203977851745
 20
1.265015421193642
 10
0.7218947335651005
 20
1.283334143842809
 10
0.7269635193341919
 20
1.305072136090326
 10
0.7307678158870816
 20
1.330483597267949
 10
0.7332343929079523
 20
1.357562951681509
 10
0.7346149147084587
 20
1.387056180003195
 10
0.734907250336281
 20
1.415698967105498
 10
0.7341918401138489
 20
1.445021523457938
 10
0.732500472843307
 20
1.472154357377931
 10
0.7296485216338761
 20
1.498299176065174
 10
0.72559746560272
 20
1.521752871851891
 10
0.7200280878398941
 20
1.542722973219133
 10
0.712974633357948
 20
1.559852692067201
 10
0.7040681142954232
 20
1.573138395622116
 10
0.6939332213758539
 20
1.5813825313612
 10
0.6820567307894897
 20
1.584912044247091
 10
0.6797385217456281
 20
1.584999994056056
  0
LWPOLYLINE
  5
19F
330
184
100
AcDbEntity
  8
AM_9
100
AcDbPolyline
 90
       11
 70
     0
 43
0.0
 10
0.6797385217456281
 20
1.584999994056056
 10
0.6697261495976154
 20
1.583492335096523
 10
0.6563360791299708
 20
1.577234342826366
 10
0.6431577064547036
 20
1.56672976083811
 10
0.6299239618471525
 20
1.551694378766781
 10
0.6176459143760902
 20
1.532915457583522
 10
0.60651583249238
 20
1.510136501694563
 10
0.597574612237242
 20
1.484803195774729
 10
0.591004615313079
 20
1.456464868404293
 10
0.5880381658266838
 20
1.433676791907689
 10
0.5870099015497076
 20
1.40999999
  0
LWPOLYLINE
  5
1A0
330
184
100
AcDbEntity
  8
AM_9
100
AcDbPolyline
 90
       11
 70
     0
 43
0.0
 10
0.9929917442317191
 20
1.376040270787494
 10
0.9927961127968481
 20
1.372560147083048
 10
0.9904517085347833
 20
1.344810587040702
 10
0.9867642727381044
 20
1.318871565496194
 10
0.9816200230839934
 20
1.295264032593184
 10
0.9750265886903537
 20
1.274848197009719
 10
0.9668591854601613
 20
1.258068775748378
 10
0.9572524579673867
 20
1.245590908369909
 10
0.946356432488913
 20
1.237871930863567
 10
0.9343731424105857
 20
1.235012317760186
 10
0.93350196288914
 20
1.234999985390745
  0
LWPOLYLINE
  5
1A1
330
184
100
AcDbEntity
  8
AM_9
100
AcDbPolyline
 90
       10
 70
     0
 43
0.0
 10
0.9334910682433003
 20
1.584999994433229
 10
0.9413906078551412
 20
1.583959397416267
 10
0.9526098264372282
 20
1.578385626005747
 10
0.9626452492260292
 20
1.5682069960047
 10
0.9713534976058061
 20
1.553579012282081
 10
0.9786318532566084
 20
1.535007172894806
 10
0.9845091840343072
 20
1.512649435470752
 10
0.9889297833757942
 20
1.487377178184229
 10
0.9919268388077105
 20
1.459820199256081
 10
0.9928248398315936
 20
1.446950750273159
  0
LWPOLYLINE
  5
1A2
330
184
100
AcDbEntity
  8
AM_9
100
AcDbPolyline
 90
       10
 70
     0
 43
0.0
 10
0.93350196288914
 20
1.234999985390745
 10
0.9217567409803534
 20
1.237114555937727
 10
0.9087646734514542
 20
1.243977844711391
 10
0.8958513618843487
 20
1.255445488884552
 10
0.8834879434300225
 20
1.271132805625946
 10
0.872051812768064
 20
1.290914586331711
 10
0.8621811596876171
 20
1.314033450814869
 10
0.8543161662586595
 20
1.34009011342177
 10
0.8488916617276129
 20
1.368166905279944
 10
0.8459665277242601
 20
1.40999999
  0
LWPOLYLINE
  5
1A3
330
184
100
AcDbEntity
  8
AM_9
100
AcDbPolyline
 90
       11
 70
     0
 43
0.0
 10
0.5870099015497076
 20
1.40999999
 10
0.588503125392364
 20
1.381487130915419
 10
0.5930642475376299
 20
1.352974271830838
 10
0.6001655760248306
 20
1.326874788605863
 10
0.6098001857483396
 20
1.302393102020101
 10
0.6211623351241884
 20
1.281145300516965
 10
0.6341670921310523
 20
1.26295862262079
 10
0.6476696065332775
 20
1.249192220673035
 10
0.6617064379307459
 20
1.239708919597886
 10
0.6746752673340198
 20
1.235395879127337
 10
0.6797262414713107
 20
1.234999985338308
  0
LWPOLYLINE
  5
1A4
330
184
100
AcDbEntity
  8
AM_9
100
AcDbPolyline
 90
       11
 70
     0
 43
0.0
 10
0.5870099015497076
 20
-1.40999999
 10
0.588503125392364
 20
-1.438512849084581
 10
0.5930642475376299
 20
-1.467025708169162
 10
0.6001655760248306
 20
-1.493125191394136
 10
0.6098001857483396
 20
-1.517606877979899
 10
0.6211623351241884
 20
-1.538854679483035
 10
0.6341670921310523
 20
-1.55704135737921
 10
0.6476696065332775
 20
-1.570807759326964
 10
0.6617064379307459
 20
-1.580291060402114
 10
0.6746752673340198
 20
-1.584604100872663
 10
0.6797262414713107
 20
-1.584999994661692
  0
LINE
  5
1A5
330
184
100
AcDbEntity
  8
AM_9
100
AcDbLine
 10
0.7499999999999999
 20
-1.69
 30
0.0
 11
0.7499999999999999
 21
1.69
 31
0.0
  0
LINE
  5
1A6
330
184
100
AcDbEntity
  8
AM_9
100
AcDbLine
 10
-0.7499999999999999
 20
1.69
 30
0.0
 11
-0.7499999999999999
 21
-1.69
 31
0.0
  0
LWPOLYLINE
  5
1A7
330
184
100
AcDbEntity
  8
AM_9
100
AcDbPolyline
 90
       38
 70
     0
 43
0.0
 10
-0.175000005
 20
-1.40999999
 10
-0.1726263690378035
 20
-1.38127476654005
 10
-0.1653010825696664
 20
-1.352549543080099
 10
-0.1536562773408699
 20
-1.326245884526025
 10
-0.1373710428496999
 20
-1.301583209304455
 10
-0.1175946500573113
 20
-1.280398678170611
 10
-0.0938853115346675
 20
-1.262316036816052
 10
-0.0680387490798641
 20
-1.248768075126898
 10
-0.0394227875046923
 20
-1.239498243453638
 10
-0.0107628719445046
 20
-1.235331268308032
 10
0.0190558736714258
 20
-1.236040582583733
 10
0.0472026512568565
 20
-1.241486158329351
 10
0.0748033755991585
 20
-1.2517929839953
 10
0.0996967156193428
 20
-1.266175212424243
 10
0.1224671628425539
 20
-1.284992807105194
 10
0.1414768910395146
 20
-1.306998577136907
 10
0.156964239553799
 20
-1.332622801815771
 10
0.1676323623797339
 20
-1.35975665379519
 10
0.1737572550922732
 20
-1.38918129520905
 10
0.1748167443500403
 20
-1.418006714976709
 10
0.1709481205288727
 20
-1.447439832916952
 10
0.162553860381262
 20
-1.474816995678674
 10
0.1494008433625933
 20
-1.501128414503806
 10
0.132398191321982
 20
-1.524436525619827
 10
0.1111710151141572
 20
-1.545151782990281
 10
0.0871896010224024
 20
-1.561733227043023
 10
0.0599554470215204
 20
-1.57440907163009
 10
0.0319026262633967
 20
-1.582067488928467
 10
0.0020775740881093
 20
-1.584987662239814
 10
-0.0265972567671944
 20
-1.582967003278428
 10
-0.0553321698812544
 20
-1.576022135288609
 10
-0.0816982224249434
 20
-1.564759164857598
 10
-0.1064936939636448
 20
-1.548867174374054
 10
-0.1279391838386944
 20
-1.529400856783658
 10
-0.1463401008159712
 20
-1.505966529185131
 10
-0.1602526325185529
 20
-1.480314252570788
 10
-0.1699264392989056
 20
-1.451833074720056
 10
-0.175000005
 20
-1.40999999
  0
LWPOLYLINE
  5
1A8
330
184
100
AcDbEntity
  8
AM_9
100
AcDbPolyline
 90
       11
 70
     0
 43
0.0
 10
0.8459665277242596
 20
-1.40999999
 10
0.8473908169837009
 20
-1.380861189372001
 10
0.851537810960157
 20
-1.352549543080099
 10
0.858232032272148
 20
-1.325893991257417
 10
0.8671019490617243
 20
-1.301583209304455
 10
0.8778622293213704
 20
-1.28013155653054
 10
0.8899333206720896
 20
-1.262316036816052
 10
0.9028958023103453
 20
-1.248616531941367
 10
0.9161522209719506
 20
-1.239498243453638
 10
0.9290782495408496
 20
-1.235323628800678
 10
0.9334910682432999
 20
-1.234999985566771
  0
LINE
  5
1A9
330
184
100
AcDbEntity
  8
AM_9
100
AcDbLine
 10
1.03
 20
-1.69
 30
0.0
 11
1.03
 21
-0.7499999999999999
 31
0.0
  0
LINE
  5
1AA
330
184
100
AcDbEntity
  8
AM_9
100
AcDbLine
 10
-1.03
 20
-0.7499999999999999
 30
0.0
 11
-1.03
 21
-1.69
 31
0.0
  0
LWPOLYLINE
  5
1AB
330
184
100
AcDbEntity
  8
AM_9
100
AcDbPolyline
 90
       38
 70
     0
 43
0.0
 10
-0.175000005
 20
1.40999999
 10
-0.1726263690378035
 20
1.43872521345995
 10
-0.1653010825696664
 20
1.467450436919901
 10
-0.1536562773408699
 20
1.493754095473975
 10
-0.1373710428496999
 20
1.518416770695545
 10
-0.1175946500573113
 20
1.539601301829389
 10
-0.0938853115346675
 20
1.557683943183948
 10
-0.0680387490798641
 20
1.571231904873102
 10
-0.0394227875046923
 20
1.580501736546362
 10
-0.0107628719445046
 20
1.584668711691968
 10
0.0190558736714258
 20
1.583959397416267
 10
0.0472026512568565
 20
1.578513821670648
 10
0.0748033755991585
 20
1.5682069960047
 10
0.0996967156193428
 20
1.553824767575757
 10
0.1224671628425539
 20
1.535007172894806
 10
0.1414768910395146
 20
1.513001402863093
 10
0.1569642395537992
 20
1.487377178184229
 10
0.167632362379734
 20
1.46024332620481
 10
0.1737572550922732
 20
1.430818684790949
 10
0.1748167443500403
 20
1.401993265023291
 10
0.1709481205288726
 20
1.372560147083048
 10
0.1625538603812618
 20
1.345182984321326
 10
0.1494008433625931
 20
1.318871565496194
 10
0.132398191321982
 20
1.295563454380173
 10
0.1111710151141572
 20
1.274848197009719
 10
0.0871896010224024
 20
1.258266752956976
 10
0.0599554470215202
 20
1.245590908369909
 10
0.0319026262633966
 20
1.237932491071533
 10
0.0020775740881092
 20
1.235012317760186
 10
-0.0265972567671945
 20
1.237032976721572
 10
-0.0553321698812545
 20
1.243977844711391
 10
-0.0816982224249435
 20
1.255240815142402
 10
-0.1064936939636449
 20
1.271132805625946
 10
-0.1279391838386944
 20
1.290599123216342
 10
-0.1463401008159713
 20
1.314033450814869
 10
-0.1602526325185529
 20
1.339685727429212
 10
-0.1699264392989056
 20
1.368166905279944
 10
-0.175000005
 20
1.40999999
  0
LWPOLYLINE
  5
1AC
330
184
100
AcDbEntity
  8
AM_9
100
AcDbPolyline
 90
       11
 70
     0
 43
0.0
 10
0.8459665277242601
 20
1.40999999
 10
0.8473908169837013
 20
1.439138790627999
 10
0.8515378109601575
 20
1.467450436919901
 10
0.8582320322721483
 20
1.494105988742582
 10
0.8671019490617248
 20
1.518416770695545
 10
0.8778622293213709
 20
1.53986842346946
 10
0.8899333206720903
 20
1.557683943183948
 10
0.9028958023103457
 20
1.571383448058633
 10
0.9161522209719511
 20
1.580501736546362
 10
0.9290782495408499
 20
1.584676351199322
 10
0.9334910682433003
 20
1.584999994433229
  0
LINE
  5
1AD
330
184
100
AcDbEntity
  8
AM_9
100
AcDbLine
 10
1.03
 20
0.7500000000000002
 30
0.0
 11
1.03
 21
1.69
 31
0.0
  0
LINE
  5
1AE
330
184
100
AcDbEntity
  8
AM_9
100
AcDbLine
 10
-1.03
 20
1.69
 30
0.0
 11
-1.03
 21
0.7500000000000002
 31
0.0
  0
LINE
  5
1AF
330
184
100
AcDbEntity
  8
AM_9
100
AcDbLine
 10
-1.625
 20
0.7500000000000002
 30
0.0
 11
1.625
 21
0.7500000000000002
 31
0.0
  0
LINE
  5
1B0
330
184
100
AcDbEntity
  8
AM_9
100
AcDbLine
 10
-1.625
 20
-0.7499999999999997
 30
0.0
 11
1.625
 21
-0.7499999999999997
 31
0.0
  0
LINE
  5
1B1
330
184
100
AcDbEntity
  8
AM_7
100
AcDbLine
 10
0.0
 20
-1.859
 30
0.0
 11
0.0
 21
1.859
 31
0.0
  0
ENDBLK
  5
187
330
184
100
AcDbEntity
  8
0
100
AcDbBlockEnd
  0
BLOCK
  5
1B4
330
1B2
100
AcDbEntity
  8
0
100
AcDbBlockBegin
  2
6_023078H_0_in_023078_4
 70
     2
 10
0.0
 20
0.0
 30
0.0
  3
6_023078H_0_in_023078_4
  1

  0
ATTDEF
  5
1B6
330
1B2
100
AcDbEntity
  8
AM_6
100
AcDbText
 10
8.859375
 20
1.2510625
 30
0.0
 40
0.5
  1
WSTU-E-Housing
100
AcDbAttributeDefinition
  3

  2
NN
 70
     8
280
     0
  0
ATTDEF
  5
1B7
330
1B2
100
AcDbEntity
  8
AM_6
100
AcDbText
 10
8.859375
 20
0.7510625000000002
 30
0.0
 40
0.5
  1
Type E Wide Slot Take-Up Bearing -Inch
100
AcDbAttributeDefinition
  3

  2
NT
 70
     8
280
     0
  0
ATTDEF
  5
1B8
330
1B2
100
AcDbEntity
  8
AM_6
100
AcDbText
 10
8.859375
 20
0.2510625000000002
 30
0.0
 40
0.5
  1
023078H
100
AcDbAttributeDefinition
  3

  2
NB
 70
     8
280
     0
  0
ATTDEF
  5
1B9
330
1B2
100
AcDbEntity
  8
AM_6
100
AcDbText
 10
8.859375
 20
-0.2489374999999998
 30
0.0
 40
0.5
  1
$PN.H
100
AcDbAttributeDefinition
  3

  2
NBSYN
 70
     8
280
     0
  0
ATTDEF
  5
1BA
330
1B2
100
AcDbEntity
  8
AM_6
100
AcDbText
 10
8.859375
 20
-0.7489374999999998
 30
0.0
 40
0.5
  1
023078
100
AcDbAttributeDefinition
  3

  2
LINA
 70
     8
280
     0
  0
ATTDEF
  5
1BB
330
1B2
100
AcDbEntity
  8
AM_6
100
AcDbText
 10
8.859375
 20
-1.2489375
 30
0.0
 40
0.5
  1
1-1/2
100
AcDbAttributeDefinition
  3

  2
SS
 70
     8
280
     0
  0
ATTDEF
  5
1BC
330
1B2
100
AcDbEntity
  8
AM_6
100
AcDbText
 10
8.859375
 20
-1.7489375
 30
0.0
 40
0.5
  1
023078
100
AcDbAttributeDefinition
  3

  2
PN
 70
     8
280
     0
  0
ATTDEF
  5
1BD
330
1B2
100
AcDbEntity
  8
AM_6
100
AcDbText
 10
8.859375
 20
-2.2489375
 30
0.0
 40
0.5
  1
WSTU-E-108R
100
AcDbAttributeDefinition
  3

  2
DESCRIPTION
 70
     8
280
     0
  0
ATTDEF
  5
1BE
330
1B2
100
AcDbEntity
  8
AM_6
100
AcDbText
 10
8.859375
 20
-2.7489375
 30
0.0
 40
0.5
  1
3-3/8
100
AcDbAttributeDefinition
  3

  2
A
 70
     8
280
     0
  0
ATTDEF
  5
1BF
330
1B2
100
AcDbEntity
  8
AM_6
100
AcDbText
 10
8.859375
 20
-3.2489375
 30
0.0
 40
0.5
  1
6
100
AcDbAttributeDefinition
  3

  2
B
 70
     8
280
     0
  0
ATTDEF
  5
1C0
330
1B2
100
AcDbEntity
  8
AM_6
100
AcDbText
 10
8.859375
 20
-3.7489375
 30
0.0
 40
0.5
  1
11/16
100
AcDbAttributeDefinition
  3

  2
C
 70
     8
280
     0
  0
ATTDEF
  5
1C1
330
1B2
100
AcDbEntity
  8
AM_6
100
AcDbText
 10
8.859375
 20
-4.2489375
 30
0.0
 40
0.5
  1
3-1/4
100
AcDbAttributeDefinition
  3

  2
D
 70
     8
280
     0
  0
ATTDEF
  5
1C2
330
1B2
100
AcDbEntity
  8
AM_6
100
AcDbText
 10
8.859375
 20
-4.7489375
 30
0.0
 40
0.5
  1
3-13/16
100
AcDbAttributeDefinition
  3

  2
E
 70
     8
280
     0
  0
ATTDEF
  5
1C3
330
1B2
100
AcDbEntity
  8
AM_6
100
AcDbText
 10
8.859375
 20
-5.2489375
 30
0.0
 40
0.5
  1
1
100
AcDbAttributeDefinition
  3

  2
F
 70
     8
280
     0
  0
ATTDEF
  5
1C4
330
1B2
100
AcDbEntity
  8
AM_6
100
AcDbText
 10
8.859375
 20
-5.7489375
 30
0.0
 40
0.5
  1
15/16
100
AcDbAttributeDefinition
  3

  2
G
 70
     8
280
     0
  0
ATTDEF
  5
1C5
330
1B2
100
AcDbEntity
  8
AM_6
100
AcDbText
 10
8.859375
 20
-6.2489375
 30
0.0
 40
0.5
  1
3/4
100
AcDbAttributeDefinition
  3

  2
H
 70
     8
280
     0
  0
ATTDEF
  5
1C6
330
1B2
100
AcDbEntity
  8
AM_6
100
AcDbText
 10
8.859375
 20
-6.7489375
 30
0.0
 40
0.5
  1
3-5/16
100
AcDbAttributeDefinition
  3

  2
J
 70
     8
280
     0
  0
ATTDEF
  5
1C7
330
1B2
100
AcDbEntity
  8
AM_6
100
AcDbText
 10
8.859375
 20
-7.2489375
 30
0.0
 40
0.5
  1
1-15/16
100
AcDbAttributeDefinition
  3

  2
K
 70
     8
280
     0
  0
ATTDEF
  5
1C8
330
1B2
100
AcDbEntity
  8
AM_6
100
AcDbText
 10
8.859375
 20
-7.7489375
 30
0.0
 40
0.5
  1
3-3/16
100
AcDbAttributeDefinition
  3

  2
L
 70
     8
280
     0
  0
ATTDEF
  5
1C9
330
1B2
100
AcDbEntity
  8
AM_6
100
AcDbText
 10
8.859375
 20
-8.2489375
 30
0.0
 40
0.5
  1
4
100
AcDbAttributeDefinition
  3

  2
M
 70
     8
280
     0
  0
ATTDEF
  5
1CA
330
1B2
100
AcDbEntity
  8
AM_6
100
AcDbText
 10
8.859375
 20
-8.7489375
 30
0.0
 40
0.5
  1
4-3/4
100
AcDbAttributeDefinition
  3

  2
N
 70
     8
280
     0
  0
ATTDEF
  5
1CB
330
1B2
100
AcDbEntity
  8
AM_6
100
AcDbText
 10
8.859375
 20
-9.2489375
 30
0.0
 40
0.5
  1
2-5/16
100
AcDbAttributeDefinition
  3

  2
T
 70
     8
280
     0
  0
ATTDEF
  5
1CC
330
1B2
100
AcDbEntity
  8
AM_6
100
AcDbText
 10
8.859375
 20
-9.7489375
 30
0.0
 40
0.5
  1
baldor
100
AcDbAttributeDefinition
  3

  2
COMPANY
 70
     8
280
     0
  0
LINE
  5
1CD
330
1B2
100
AcDbEntity
  8
AM_9
100
AcDbLine
 10
2.875
 20
-0.5
 30
0.0
 11
3.8125
 21
-0.5
 31
0.0
  0
LINE
  5
1CE
330
1B2
100
AcDbEntity
  8
AM_9
100
AcDbLine
 10
3.8125
 20
0.5
 30
0.0
 11
2.875
 21
0.5
 31
0.0
  0
LINE
  5
1CF
330
1B2
100
AcDbEntity
  8
AM_9
100
AcDbLine
 10
2.225
 20
-0.84059375
 30
0.0
 11
2.225
 21
0.84059375
 31
0.0
  0
LINE
  5
1D0
330
1B2
100
AcDbEntity
  8
AM_9
100
AcDbLine
 10
2.125
 20
-0.84059375
 30
0.0
 11
2.125
 21
0.84059375
 31
0.0
  0
LINE
  5
1D1
330
1B2
100
AcDbEntity
  8
AM_9
100
AcDbLine
 10
2.775
 20
-0.84059375
 30
0.0
 11
2.775
 21
0.84059375
 31
0.0
  0
LINE
  5
1D2
330
1B2
100
AcDbEntity
  8
AM_9
100
AcDbLine
 10
2.875
 20
-0.84059375
 30
0.0
 11
2.875
 21
0.84059375
 31
0.0
  0
ELLIPSE
  5
1D3
330
1B2
100
AcDbEntity
  8
AM_9
100
AcDbEllipse
 10
-2.055631959837982
 20
-0.0000000000000124
 30
0.0
 11
-7.347880794883679E-17
 21
-0.399999999999976
 31
0.0
210
0.0
220
0.0
230
1.0
 40
0.3826834323643298
 41
4.131739943987366
 42
5.29321620034933
  0
ELLIPSE
  5
1D4
330
1B2
100
AcDbEntity
  8
AM_9
100
AcDbEllipse
 10
-1.963244006586484
 20
0.0
 30
0.0
 11
-9.184850993605151E-17
 21
-0.5000000000000001
 31
0.0
210
0.0
220
0.0
230
1.0
 40
0.3826834323650904
 41
3.141592653589793
 42
6.283185307179586
  0
LWPOLYLINE
  5
1D5
330
1B2
100
AcDbEntity
  8
AM_9
100
AcDbPolyline
 90
       16
 70
     0
 43
0.0
 10
-2.194066909781032
 20
0.2187794789667759
 10
-2.194479618281336
 20
0.2168698724094147
 10
-2.200666955070985
 20
0.1852270789537865
 10
-2.205809332876274
 20
0.1528847689724288
 10
-2.209922499381777
 20
0.1199569862123756
 10
-2.213015749883814
 20
0.0865654892991969
 10
-2.215094328047863
 20
0.0528389214227603
 10
-2.216161173846857
 20
0.0189112413901296
 10
-2.216218068052638
 20
-0.0150801423410221
 10
-2.215266246009028
 20
-0.0489963525998275
 10
-2.21330735263863
 20
-0.0826878327720081
 10
-2.210342566829029
 20
-0.1160182435639126
 10
-2.206371539134083
 20
-0.1488564701764398
 10
-2.201390997604443
 20
-0.18107804252596
 10
-2.195392575179866
 20
-0.2125672058941852
 10
-2.194055864781599
 20
-0.2188302897578477
  0
LINE
  5
1D6
330
1B2
100
AcDbEntity
  8
AM_9
100
AcDbLine
 10
1.625
 20
0.9250000000000002
 30
0.0
 11
1.625
 21
1.15625
 31
0.0
  0
LINE
  5
1D7
330
1B2
100
AcDbEntity
  8
AM_9
100
AcDbLine
 10
1.625
 20
-1.15625
 30
0.0
 11
1.625
 21
-0.9249999999999998
 31
0.0
  0
LINE
  5
1D8
330
1B2
100
AcDbEntity
  8
AM_9
100
AcDbLine
 10
-1.625
 20
-0.9250000000000002
 30
0.0
 11
-1.625
 21
-1.15625
 31
0.0
  0
LINE
  5
1D9
330
1B2
100
AcDbEntity
  8
AM_9
100
AcDbLine
 10
-1.625
 20
1.15625
 30
0.0
 11
-1.625
 21
0.9250000000000004
 31
0.0
  0
LWPOLYLINE
  5
1DA
330
1B2
100
AcDbEntity
  8
AM_9
100
AcDbPolyline
 90
       29
 70
     0
 43
0.0
 10
-1.963244006586484
 20
0.5000000000000001
 10
-1.98187543230269
 20
0.4974745584234422
 10
-1.999239623371673
 20
0.4899566431423723
 10
-2.016541760815228
 20
0.4761247739321083
 10
-2.032127762235838
 20
0.4566089359495864
 10
-2.045858666575948
 20
0.431783168594628
 10
-2.057929467438729
 20
0.4012934021200199
 10
-2.068236180661326
 20
0.3658460710090755
 10
-2.076813935965131
 20
0.3260709654261153
 10
-2.083925290156945
 20
0.2812662814823611
 10
-2.089547986274455
 20
0.2326921998525605
 10
-2.093785847536518
 20
0.1812426435892264
 10
-2.09676522668151
 20
0.1276840136560663
 10
-2.098625922477351
 20
0.0722580843560728
 10
-2.0994250960812
 20
0.0160535571132477
 10
-2.099225682551158
 20
-0.0389383935555409
 10
-2.098042933307549
 20
-0.0936092694194547
 10
-2.09584066814388
 20
-0.1469269999413678
 10
-2.092557780767373
 20
-0.1981394881309538
 10
-2.08807226985159
 20
-0.2470769035860553
 10
-2.082292659020083
 20
-0.2928885547874596
 10
-2.074874683083807
 20
-0.3360943327388317
 10
-2.065794605043723
 20
-0.3752612738441361
 10
-2.054988910303136
 20
-0.4096926189685027
 10
-2.042089899323221
 20
-0.4394180820705574
 10
-2.027191593921898
 20
-0.4636493643816063
 10
-2.01039601112406
 20
-0.4818978599328382
 10
-1.988004615374204
 20
-0.4954272751917917
 10
-1.963244006586484
 20
-0.4999999999999999
  0
LINE
  5
1DB
330
1B2
100
AcDbEntity
  8
AM_9
100
AcDbLine
 10
-2.125
 20
0.3983699734861539
 30
0.0
 11
-2.125
 21
-0.398400954024185
 31
0.0
  0
LINE
  5
1DC
330
1B2
100
AcDbEntity
  8
AM_7
100
AcDbLine
 10
3.859375
 20
0.0
 30
0.0
 11
2.828125
 21
0.0
 31
0.0
  0
LINE
  5
1DD
330
1B2
100
AcDbEntity
  8
AM_4
100
AcDbLine
 10
2.875
 20
0.84059375
 30
0.0
 11
2.875
 21
1.2510625
 31
0.0
  0
LINE
  5
1DE
330
1B2
100
AcDbEntity
  8
AM_4
100
AcDbLine
 10
3.8125
 20
1.2510625
 30
0.0
 11
2.875
 21
1.2510625
 31
0.0
  0
LINE
  5
1DF
330
1B2
100
AcDbEntity
  8
AM_4
100
AcDbLine
 10
3.8125
 20
1.2510625
 30
0.0
 11
3.8125
 21
-1.2510625
 31
0.0
  0
LINE
  5
1E0
330
1B2
100
AcDbEntity
  8
AM_4
100
AcDbLine
 10
2.875
 20
-1.2510625
 30
0.0
 11
3.8125
 21
-1.2510625
 31
0.0
  0
LINE
  5
1E1
330
1B2
100
AcDbEntity
  8
AM_4
100
AcDbLine
 10
2.875
 20
-1.2510625
 30
0.0
 11
2.875
 21
-0.8405937499999998
 31
0.0
  0
ELLIPSE
  5
1E2
330
1B2
100
AcDbEntity
  8
AM_4
100
AcDbEllipse
 10
-2.055631959837613
 20
0.0000000000000001
 30
0.0
 11
-7.347880794884117E-17
 21
-0.3999999999999999
 31
0.0
210
0.0
220
0.0
230
1.0
 40
0.3826834323650897
 41
5.293216200348945
 42
10.41492525116739
  0
ELLIPSE
  5
1E3
330
1B2
100
AcDbEntity
  8
AM_4
100
AcDbEllipse
 10
-1.963244006586484
 20
0.0000000000000001
 30
0.0
 11
-9.184850993605147E-17
 21
-0.4999999999999999
 31
0.0
210
0.0
220
0.0
230
1.0
 40
0.3826834323650896
 41
0.0
 42
3.141592653589793
  0
LWPOLYLINE
  5
1E4
330
1B2
100
AcDbEntity
  8
AM_4
100
AcDbPolyline
 90
       17
 70
     0
 43
0.0
 10
-2.194055864781599
 20
-0.2188302897578477
 10
-2.188359627860821
 20
-0.2432188160654113
 10
-2.180262731455894
 20
-0.2729396972776711
 10
-2.171053560333418
 20
-0.3016486048586089
 10
-2.160657227297822
 20
-0.3292728391623317
 10
-2.14896470501641
 20
-0.3557372777870045
 10
-2.135831688624967
 20
-0.3809376040649185
 10
-2.121101493735588
 20
-0.4046863063428338
 10
-2.104755461389697
 20
-0.4265471128714425
 10
-2.089297519044832
 20
-0.4436544123438058
 10
-2.073287269885595
 20
-0.458314302264455
 10
-2.056767679341619
 20
-0.470648005284042
 10
-2.039737348912576
 20
-0.4807774942305768
 10
-2.022205839988806
 20
-0.4887711731957729
 10
-2.002186500206671
 20
-0.4951683889210142
 10
-1.98207946799536
 20
-0.4988786825378086
 10
-1.96323376167902
 20
-0.4999999996690659
  0
LWPOLYLINE
  5
1E5
330
1B2
100
AcDbEntity
  8
AM_4
100
AcDbPolyline
 90
       18
 70
     0
 43
0.0
 10
-1.963265760816402
 20
0.4999999985078493
 10
-1.966067151185653
 20
0.4999748686908094
 10
-1.985645474901522
 20
0.4984123099911456
 10
-2.004682651636366
 20
0.4945215353295981
 10
-2.023057575488429
 20
0.4884361575000148
 10
-2.040726147079114
 20
0.4802555684530107
 10
-2.057695344045503
 20
0.470023880855386
 10
-2.074013548082974
 20
0.4577099757320621
 10
-2.089748640646827
 20
0.4431986052239821
 10
-2.104950810706528
 20
0.4263101580320666
 10
-2.11960157378024
 20
0.4068747198626816
 10
-2.133572180127752
 20
0.3848652565718814
 10
-2.146645278455639
 20
0.360505102747354
 10
-2.158607087581803
 20
0.3342315000463189
 10
-2.169336381112137
 20
0.3065242931052309
 10
-2.178857507823051
 20
0.2776297288985452
 10
-2.187222198571576
 20
0.2477058925752239
 10
-2.194066909781032
 20
0.2187794789667759
  0
LINE
  5
1E6
330
1B2
100
AcDbEntity
  8
AM_4
100
AcDbLine
 10
1.625
 20
0.8405937500000001
 30
0.0
 11
3.8125
 21
0.8405937500000001
 31
0.0
  0
LINE
  5
1E7
330
1B2
100
AcDbEntity
  8
AM_4
100
AcDbLine
 10
1.625
 20
0.7405937500000002
 30
0.0
 11
3.8125
 21
0.7405937500000002
 31
0.0
  0
LINE
  5
1E8
330
1B2
100
AcDbEntity
  8
AM_4
100
AcDbLine
 10
1.625
 20
-0.7405937499999996
 30
0.0
 11
3.8125
 21
-0.7405937499999996
 31
0.0
  0
LINE
  5
1E9
330
1B2
100
AcDbEntity
  8
AM_4
100
AcDbLine
 10
1.625
 20
-0.8405937499999999
 30
0.0
 11
3.8125
 21
-0.8405937499999999
 31
0.0
  0
LINE
  5
1EA
330
1B2
100
AcDbEntity
  8
AM_4
100
AcDbLine
 10
2.009375
 20
1.15625
 30
0.0
 11
-2.009375
 21
1.15625
 31
0.0
  0
LINE
  5
1EB
330
1B2
100
AcDbEntity
  8
AM_4
100
AcDbLine
 10
-2.009375
 20
1.15625
 30
0.0
 11
-2.125
 21
1.040625
 31
0.0
  0
LINE
  5
1EC
330
1B2
100
AcDbEntity
  8
AM_4
100
AcDbLine
 10
2.125
 20
1.040625
 30
0.0
 11
2.009375
 21
1.15625
 31
0.0
  0
LINE
  5
1ED
330
1B2
100
AcDbEntity
  8
AM_4
100
AcDbLine
 10
2.125
 20
1.040625
 30
0.0
 11
-2.125
 21
1.040625
 31
0.0
  0
LWPOLYLINE
  5
1EE
330
1B2
100
AcDbEntity
  8
AM_4
100
AcDbPolyline
 90
       29
 70
     0
 43
0.0
 10
-1.963244006586484
 20
-0.4999999999999999
 10
-1.941442935160193
 20
-0.4969032307741835
 10
-1.918560320488485
 20
-0.4877394183255306
 10
-1.895100088507173
 20
-0.4726983054972365
 10
-1.871391247984056
 20
-0.4518823904553568
 10
-1.847793390513504
 20
-0.4255719362181873
 10
-1.824900962013276
 20
-0.3942572540264068
 10
-1.802765600710679
 20
-0.3575268254076741
 10
-1.782177985475749
 20
-0.3162440390041958
 10
-1.763733294082152
 20
-0.2711428308919453
 10
-1.747674240475672
 20
-0.2219118021006822
 10
-1.73458087761667
 20
-0.1696041275259447
 10
-1.724898574678394
 20
-0.1152148639343193
 10
-1.719024560973407
 20
-0.0602598667148153
 10
-1.716829211483073
 20
-0.0043350130815114
 10
-1.718391177482883
 20
0.0514634218254179
 10
-1.723596173932483
 20
0.1054110291356761
 10
-1.73223375037305
 20
0.1582102295609291
 10
-1.744018927843346
 20
0.2089011846364505
 10
-1.758881266212305
 20
0.25743374770115
 10
-1.776349377133459
 20
0.3029576808405487
 10
-1.795906756065234
 20
0.3446883235634571
 10
-1.817748483769144
 20
0.3831154958688127
 10
-1.840963468322502
 20
0.4168486200119405
 10
-1.864912583687713
 20
0.4452588933510976
 10
-1.889240459780434
 20
0.4680435359049873
 10
-1.913495824997981
 20
0.4849545836634998
 10
-1.937076115943177
 20
0.4956366223044416
 10
-1.963244006586484
 20
0.5000000000000001
  0
LINE
  5
1EF
330
1B2
100
AcDbEntity
  8
AM_4
100
AcDbLine
 10
-2.125
 20
-0.398400954024185
 30
0.0
 11
-2.125
 21
-1.040625
 31
0.0
  0
LINE
  5
1F0
330
1B2
100
AcDbEntity
  8
AM_4
100
AcDbLine
 10
-2.125
 20
1.040625
 30
0.0
 11
-2.125
 21
0.3983699734861539
 31
0.0
  0
LINE
  5
1F1
330
1B2
100
AcDbEntity
  8
AM_4
100
AcDbLine
 10
2.125
 20
-1.040625
 30
0.0
 11
2.125
 21
-0.84059375
 31
0.0
  0
LINE
  5
1F2
330
1B2
100
AcDbEntity
  8
AM_4
100
AcDbLine
 10
2.125
 20
0.84059375
 30
0.0
 11
2.125
 21
1.040625
 31
0.0
  0
LINE
  5
1F3
330
1B2
100
AcDbEntity
  8
AM_4
100
AcDbLine
 10
2.009375
 20
-1.15625
 30
0.0
 11
-2.009375
 21
-1.15625
 31
0.0
  0
LINE
  5
1F4
330
1B2
100
AcDbEntity
  8
AM_4
100
AcDbLine
 10
2.125
 20
-1.040625
 30
0.0
 11
-2.125
 21
-1.040625
 31
0.0
  0
LINE
  5
1F5
330
1B2
100
AcDbEntity
  8
AM_4
100
AcDbLine
 10
2.009375
 20
-1.15625
 30
0.0
 11
2.125
 21
-1.040625
 31
0.0
  0
LINE
  5
1F6
330
1B2
100
AcDbEntity
  8
AM_4
100
AcDbLine
 10
-2.125
 20
-1.040625
 30
0.0
 11
-2.009375
 21
-1.15625
 31
0.0
  0
LINE
  5
1F7
330
1B2
100
AcDbEntity
  8
AM_4
100
AcDbLine
 10
-1.625
 20
-0.9249999999999998
 30
0.0
 11
-1.625
 21
0.9250000000000002
 31
0.0
  0
LINE
  5
1F8
330
1B2
100
AcDbEntity
  8
AM_4
100
AcDbLine
 10
-1.524999999999999
 20
0.3437499999999996
 30
0.0
 11
-1.524999999999999
 21
0.9250000000000002
 31
0.0
  0
LINE
  5
1F9
330
1B2
100
AcDbEntity
  8
AM_4
100
AcDbLine
 10
-1.524999999999999
 20
-0.9249999999999998
 30
0.0
 11
-1.525000000000001
 21
-0.3437499999999998
 31
0.0
  0
LINE
  5
1FA
330
1B2
100
AcDbEntity
  8
AM_4
100
AcDbLine
 10
1.625
 20
-0.3437499999999998
 30
0.0
 11
-1.625
 21
-0.3437499999999998
 31
0.0
  0
LINE
  5
1FB
330
1B2
100
AcDbEntity
  8
AM_4
100
AcDbLine
 10
1.525000000000001
 20
-0.9249999999999998
 30
0.0
 11
1.525000000000001
 21
-0.3437499999999998
 31
0.0
  0
LINE
  5
1FC
330
1B2
100
AcDbEntity
  8
AM_4
100
AcDbLine
 10
1.625
 20
-0.9249999999999998
 30
0.0
 11
-1.625
 21
-0.9249999999999998
 31
0.0
  0
LINE
  5
1FD
330
1B2
100
AcDbEntity
  8
AM_4
100
AcDbLine
 10
1.625
 20
0.3437500000000001
 30
0.0
 11
-1.625
 21
0.3437500000000001
 31
0.0
  0
LINE
  5
1FE
330
1B2
100
AcDbEntity
  8
AM_4
100
AcDbLine
 10
1.625
 20
-0.9249999999999998
 30
0.0
 11
1.625
 21
0.9250000000000002
 31
0.0
  0
LINE
  5
1FF
330
1B2
100
AcDbEntity
  8
AM_4
100
AcDbLine
 10
1.625
 20
0.9250000000000002
 30
0.0
 11
-1.625
 21
0.9250000000000002
 31
0.0
  0
LINE
  5
200
330
1B2
100
AcDbEntity
  8
AM_4
100
AcDbLine
 10
1.525000000000001
 20
0.3437500000000001
 30
0.0
 11
1.525000000000001
 21
0.9250000000000002
 31
0.0
  0
ENDBLK
  5
1B5
330
1B2
100
AcDbEntity
  8
0
100
AcDbBlockEnd
  0
ENDSEC
  0
SECTION
  2
ENTITIES
  0
INSERT
  5
6F
330
1F
100
AcDbEntity
  8
0
100
AcDbBlockReference
  2
1_023078_4
 10
0.0
 20
0.0
 30
0.0
  0
POINT
  5
202
330
1F
100
AcDbEntity
  8
ConnectionPoints
100
AcDbPoint
 10
0.0
 20
1.69
 30
-0.0000000000000001
  0
POINT
  5
203
330
1F
100
AcDbEntity
  8
ConnectionPoints
100
AcDbPoint
 10
0.0
 20
-1.69
 30
0.0000000000000001
  0
POINT
  5
204
330
1F
100
AcDbEntity
  8
ConnectionPoints
100
AcDbPoint
 10
0.0
 20
-1.69
 30
0.0000000000000001
  0
POINT
  5
205
330
1F
100
AcDbEntity
  8
ConnectionPoints
100
AcDbPoint
 10
0.0
 20
1.69
 30
-0.0000000000000001
  0
POINT
  5
206
330
1F
100
AcDbEntity
  8
ConnectionPoints
100
AcDbPoint
 10
0.0
 20
0.0
 30
0.0
  0
POINT
  5
207
330
1F
100
AcDbEntity
  8
ConnectionPoints
100
AcDbPoint
 10
-2.055631959837613
 20
0.0000000000000001
 30
0.8514706370123248
  0
POINT
  5
208
330
1F
100
AcDbEntity
  8
ConnectionPoints
100
AcDbPoint
 10
0.0
 20
0.0
 30
0.0
  0
ENDSEC
  0
SECTION
  2
OBJECTS
  0
DICTIONARY
  5
C
330
0
100
AcDbDictionary
281
     1
  3
ACAD_DETAILVIEWSTYLE
350
210
  3
ACAD_GROUP
350
D
  3
ACAD_LAYOUT
350
1A
  3
ACAD_MATERIAL
350
43
  3
ACAD_MLEADERSTYLE
350
6B
  3
ACAD_MLINESTYLE
350
17
  3
ACAD_PLOTSETTINGS
350
19
  3
ACAD_PLOTSTYLENAME
350
E
  3
ACAD_SCALELIST
350
47
  3
ACAD_SECTIONVIEWSTYLE
350
211
  3
ACAD_TABLESTYLE
350
69
  3
ACAD_VISUALSTYLE
350
2A
  3
ACDB_RECOMPOSE_DATA
350
20D
  3
AcDbVariableDictionary
350
209
  0
SUN
  5
6D
330
29
100
AcDbSun
 90
        1
290
     0
 63
     7
421
 16777215
 40
1.0
291
     1
 91
  2455826
 92
 54000000
292
     0
 70
     2
 71
   256
280
     1
  0
DICTIONARY
  5
210
102
{ACAD_REACTORS
330
C
102
}
330
C
100
AcDbDictionary
281
     1
  0
DICTIONARY
  5
D
102
{ACAD_REACTORS
330
C
102
}
330
C
100
AcDbDictionary
281
     1
  0
DICTIONARY
  5
1A
102
{ACAD_REACTORS
330
C
102
}
330
C
100
AcDbDictionary
281
     1
  3
Layout1
350
1E
  3
Layout2
350
26
  3
Model
350
22
  0
DICTIONARY
  5
43
102
{ACAD_REACTORS
330
C
102
}
330
C
100
AcDbDictionary
281
     1
  3
ByBlock
350
45
  3
ByLayer
350
44
  3
Global
350
46
  0
DICTIONARY
  5
6B
102
{ACAD_REACTORS
330
C
102
}
330
C
100
AcDbDictionary
281
     1
  3
Standard
350
6C
  0
DICTIONARY
  5
17
102
{ACAD_REACTORS
330
C
102
}
330
C
100
AcDbDictionary
281
     1
  3
Standard
350
18
  0
DICTIONARY
  5
19
102
{ACAD_REACTORS
330
C
102
}
330
C
100
AcDbDictionary
281
     1
  0
ACDBDICTIONARYWDFLT
  5
E
102
{ACAD_REACTORS
330
C
102
}
330
C
100
AcDbDictionary
281
     1
  3
Normal
350
F
100
AcDbDictionaryWithDefault
340
F
  0
DICTIONARY
  5
47
102
{ACAD_REACTORS
330
C
102
}
330
C
100
AcDbDictionary
281
     1
  3
A0
350
48
  3
A1
350
49
  3
A2
350
4A
  3
A3
350
4B
  3
A4
350
4C
  3
A5
350
4D
  3
A6
350
4E
  3
A7
350
4F
  3
A8
350
50
  3
A9
350
51
  3
B0
350
52
  3
B1
350
53
  3
B2
350
54
  3
B3
350
55
  3
B4
350
56
  3
B5
350
57
  3
B6
350
58
  3
B7
350
59
  3
B8
350
5A
  3
B9
350
5B
  3
C0
350
5C
  3
C1
350
5D
  3
C2
350
5E
  3
C3
350
5F
  3
C4
350
60
  3
C5
350
61
  3
C6
350
62
  3
C7
350
63
  3
C8
350
64
  3
C9
350
65
  3
D0
350
66
  3
D1
350
67
  3
D2
350
68
  0
DICTIONARY
  5
211
102
{ACAD_REACTORS
330
C
102
}
330
C
100
AcDbDictionary
281
     1
  0
DICTIONARY
  5
69
102
{ACAD_REACTORS
330
C
102
}
330
C
100
AcDbDictionary
281
     1
  3
Standard
350
6A
  0
DICTIONARY
  5
2A
102
{ACAD_REACTORS
330
C
102
}
330
C
100
AcDbDictionary
281
     1
  3
2dWireframe
350
2F
  3
Basic
350
32
  3
Brighten
350
36
  3
ColorChange
350
3A
  3
Conceptual
350
34
  3
Dim
350
35
  3
EdgeColorOff
350
3D
  3
Facepattern
350
39
  3
Flat
350
2B
  3
FlatWithEdges
350
2C
  3
Gouraud
350
2D
  3
GouraudWithEdges
350
2E
  3
Hidden
350
31
  3
JitterOff
350
3B
  3
Linepattern
350
38
  3
OverhangOff
350
3C
  3
Realistic
350
33
  3
Shaded
350
42
  3
Shaded with edges
350
41
  3
Shades of Gray
350
3E
  3
Sketchy
350
3F
  3
Thicken
350
37
  3
Wireframe
350
30
  3
X-Ray
350
40
  0
XRECORD
  5
20D
102
{ACAD_REACTORS
330
C
102
}
330
C
100
AcDbXrecord
280
     1
 90
        1
330
6A
  0
DICTIONARY
  5
209
102
{ACAD_REACTORS
330
C
102
}
330
C
100
AcDbDictionary
281
     1
  3
CANNOSCALE
350
20A
  3
CMLEADERSTYLE
350
20F
  3
CTABLESTYLE
350
20E
  0
LAYOUT
  5
1E
102
{ACAD_REACTORS
330
1A
102
}
330
1A
100
AcDbPlotSettings
  1

  2
none_device
  4

  6

 40
0.0
 41
0.0
 42
0.0
 43
0.0
 44
0.0
 45
0.0
 46
0.0
 47
0.0
 48
0.0
 49
0.0
140
0.0
141
0.0
142
1.0
143
1.0
 70
   688
 72
     0
 73
     0
 74
     5
  7

 75
    16
 76
     0
 77
     2
 78
   300
147
1.0
148
0.0
149
0.0
100
AcDbLayout
  1
Layout1
 70
     1
 71
     1
 10
0.0
 20
0.0
 11
12.0
 21
9.0
 12
0.0
 22
0.0
 32
0.0
 14
1.000000000000000E+20
 24
1.000000000000000E+20
 34
1.000000000000000E+20
 15
-1.000000000000000E+20
 25
-1.000000000000000E+20
 35
-1.000000000000000E+20
146
0.0
 13
0.0
 23
0.0
 33
0.0
 16
1.0
 26
0.0
 36
0.0
 17
0.0
 27
1.0
 37
0.0
 76
     0
330
1B
  0
LAYOUT
  5
26
102
{ACAD_REACTORS
330
1A
102
}
330
1A
100
AcDbPlotSettings
  1

  2
none_device
  4

  6

 40
0.0
 41
0.0
 42
0.0
 43
0.0
 44
0.0
 45
0.0
 46
0.0
 47
0.0
 48
0.0
 49
0.0
140
0.0
141
0.0
142
1.0
143
1.0
 70
   688
 72
     0
 73
     0
 74
     5
  7

 75
    16
 76
     0
 77
     2
 78
   300
147
1.0
148
0.0
149
0.0
100
AcDbLayout
  1
Layout2
 70
     1
 71
     2
 10
0.0
 20
0.0
 11
0.0
 21
0.0
 12
0.0
 22
0.0
 32
0.0
 14
0.0
 24
0.0
 34
0.0
 15
0.0
 25
0.0
 35
0.0
146
0.0
 13
0.0
 23
0.0
 33
0.0
 16
1.0
 26
0.0
 36
0.0
 17
0.0
 27
1.0
 37
0.0
 76
     0
330
23
  0
LAYOUT
  5
22
102
{ACAD_REACTORS
330
1A
102
}
330
1A
100
AcDbPlotSettings
  1

  2
none_device
  4
Letter_(8.50_x_11.00_Inches)
  6

 40
6.35
 41
6.35
 42
6.35000508
 43
6.35000508
 44
215.9
 45
279.4
 46
0.0
 47
0.0
 48
0.0
 49
0.0
140
0.0
141
0.0
142
1.0
143
1.0
 70
  1712
 72
     0
 73
     0
 74
     0
  7

 75
     0
 76
     0
 77
     2
 78
   300
147
1.0
148
0.0
149
0.0
100
AcDbLayout
  1
Model
 70
     1
 71
     0
 10
0.0
 20
0.0
 11
12.0
 21
9.0
 12
0.0
 22
0.0
 32
0.0
 14
1.000000000000000E+20
 24
1.000000000000000E+20
 34
1.000000000000000E+20
 15
-1.000000000000000E+20
 25
-1.000000000000000E+20
 35
-1.000000000000000E+20
146
0.0
 13
0.0
 23
0.0
 33
0.0
 16
1.0
 26
0.0
 36
0.0
 17
0.0
 27
1.0
 37
0.0
 76
     0
330
1F
331
29
  0
MATERIAL
  5
45
102
{ACAD_REACTORS
330
43
102
}
330
43
100
AcDbMaterial
  1
ByBlock
 72
     1
 94
      127
  0
MATERIAL
  5
44
102
{ACAD_REACTORS
330
43
102
}
330
43
100
AcDbMaterial
  1
ByLayer
 72
     1
 94
      127
  0
MATERIAL
  5
46
102
{ACAD_REACTORS
330
43
102
}
330
43
100
AcDbMaterial
  1
Global
 72
     1
 94
      127
  0
MLEADERSTYLE
  5
6C
102
{ACAD_REACTORS
330
6B
102
}
330
6B
100
AcDbMLeaderStyle
179
     2
170
     2
171
     1
172
     0
 90
        2
 40
0.0
 41
0.0
173
     1
 91
-1056964608
340
14
 92
       -2
290
     1
 42
0.09
291
     1
 43
0.36
  3
Standard
341
0
 44
0.18
300

342
11
174
     1
178
     6
175
     1
176
     0
 93
-1056964608
 45
0.18
292
     0
297
     0
 46
0.18
343
0
 94
-1056964608
 47
1.0
 49
1.0
140
1.0
293
     1
141
0.0
294
     1
177
     0
142
1.0
295
     0
296
     0
143
0.125
271
     0
272
     9
273
     9
298
     0
  0
MLINESTYLE
  5
18
102
{ACAD_REACTORS
330
17
102
}
330
17
100
AcDbMlineStyle
  2
Standard
 70
     0
  3

 62
   256
 51
90.0
 52
90.0
 71
     2
 49
0.5
 62
   256
  6
BYLAYER
 49
-0.5
 62
   256
  6
BYLAYER
  0
ACDBPLACEHOLDER
  5
F
102
{ACAD_REACTORS
330
E
102
}
330
E
  0
SCALE
  5
48
102
{ACAD_REACTORS
330
47
102
}
330
47
100
AcDbScale
 70
     0
300
1:1
140
1.0
141
1.0
290
     1
  0
SCALE
  5
49
102
{ACAD_REACTORS
330
47
102
}
330
47
100
AcDbScale
 70
     0
300
1:2
140
1.0
141
2.0
290
     0
  0
SCALE
  5
4A
102
{ACAD_REACTORS
330
47
102
}
330
47
100
AcDbScale
 70
     0
300
1:4
140
1.0
141
4.0
290
     0
  0
SCALE
  5
4B
102
{ACAD_REACTORS
330
47
102
}
330
47
100
AcDbScale
 70
     0
300
1:5
140
1.0
141
5.0
290
     0
  0
SCALE
  5
4C
102
{ACAD_REACTORS
330
47
102
}
330
47
100
AcDbScale
 70
     0
300
1:8
140
1.0
141
8.0
290
     0
  0
SCALE
  5
4D
102
{ACAD_REACTORS
330
47
102
}
330
47
100
AcDbScale
 70
     0
300
1:10
140
1.0
141
10.0
290
     0
  0
SCALE
  5
4E
102
{ACAD_REACTORS
330
47
102
}
330
47
100
AcDbScale
 70
     0
300
1:16
140
1.0
141
16.0
290
     0
  0
SCALE
  5
4F
102
{ACAD_REACTORS
330
47
102
}
330
47
100
AcDbScale
 70
     0
300
1:20
140
1.0
141
20.0
290
     0
  0
SCALE
  5
50
102
{ACAD_REACTORS
330
47
102
}
330
47
100
AcDbScale
 70
     0
300
1:30
140
1.0
141
30.0
290
     0
  0
SCALE
  5
51
102
{ACAD_REACTORS
330
47
102
}
330
47
100
AcDbScale
 70
     0
300
1:40
140
1.0
141
40.0
290
     0
  0
SCALE
  5
52
102
{ACAD_REACTORS
330
47
102
}
330
47
100
AcDbScale
 70
     0
300
1:50
140
1.0
141
50.0
290
     0
  0
SCALE
  5
53
102
{ACAD_REACTORS
330
47
102
}
330
47
100
AcDbScale
 70
     0
300
1:100
140
1.0
141
100.0
290
     0
  0
SCALE
  5
54
102
{ACAD_REACTORS
330
47
102
}
330
47
100
AcDbScale
 70
     0
300
2:1
140
2.0
141
1.0
290
     0
  0
SCALE
  5
55
102
{ACAD_REACTORS
330
47
102
}
330
47
100
AcDbScale
 70
     0
300
4:1
140
4.0
141
1.0
290
     0
  0
SCALE
  5
56
102
{ACAD_REACTORS
330
47
102
}
330
47
100
AcDbScale
 70
     0
300
8:1
140
8.0
141
1.0
290
     0
  0
SCALE
  5
57
102
{ACAD_REACTORS
330
47
102
}
330
47
100
AcDbScale
 70
     0
300
10:1
140
10.0
141
1.0
290
     0
  0
SCALE
  5
58
102
{ACAD_REACTORS
330
47
102
}
330
47
100
AcDbScale
 70
     0
300
100:1
140
100.0
141
1.0
290
     0
  0
SCALE
  5
59
102
{ACAD_REACTORS
330
47
102
}
330
47
100
AcDbScale
 70
     0
300
1/128" = 1'-0"
140
0.0078125
141
12.0
290
     0
  0
SCALE
  5
5A
102
{ACAD_REACTORS
330
47
102
}
330
47
100
AcDbScale
 70
     0
300
1/64" = 1'-0"
140
0.015625
141
12.0
290
     0
  0
SCALE
  5
5B
102
{ACAD_REACTORS
330
47
102
}
330
47
100
AcDbScale
 70
     0
300
1/32" = 1'-0"
140
0.03125
141
12.0
290
     0
  0
SCALE
  5
5C
102
{ACAD_REACTORS
330
47
102
}
330
47
100
AcDbScale
 70
     0
300
1/16" = 1'-0"
140
0.0625
141
12.0
290
     0
  0
SCALE
  5
5D
102
{ACAD_REACTORS
330
47
102
}
330
47
100
AcDbScale
 70
     0
300
3/32" = 1'-0"
140
0.09375
141
12.0
290
     0
  0
SCALE
  5
5E
102
{ACAD_REACTORS
330
47
102
}
330
47
100
AcDbScale
 70
     0
300
1/8" = 1'-0"
140
0.125
141
12.0
290
     0
  0
SCALE
  5
5F
102
{ACAD_REACTORS
330
47
102
}
330
47
100
AcDbScale
 70
     0
300
3/16" = 1'-0"
140
0.1875
141
12.0
290
     0
  0
SCALE
  5
60
102
{ACAD_REACTORS
330
47
102
}
330
47
100
AcDbScale
 70
     0
300
1/4" = 1'-0"
140
0.25
141
12.0
290
     0
  0
SCALE
  5
61
102
{ACAD_REACTORS
330
47
102
}
330
47
100
AcDbScale
 70
     0
300
3/8" = 1'-0"
140
0.375
141
12.0
290
     0
  0
SCALE
  5
62
102
{ACAD_REACTORS
330
47
102
}
330
47
100
AcDbScale
 70
     0
300
1/2" = 1'-0"
140
0.5
141
12.0
290
     0
  0
SCALE
  5
63
102
{ACAD_REACTORS
330
47
102
}
330
47
100
AcDbScale
 70
     0
300
3/4" = 1'-0"
140
0.75
141
12.0
290
     0
  0
SCALE
  5
64
102
{ACAD_REACTORS
330
47
102
}
330
47
100
AcDbScale
 70
     0
300
1" = 1'-0"
140
1.0
141
12.0
290
     0
  0
SCALE
  5
65
102
{ACAD_REACTORS
330
47
102
}
330
47
100
AcDbScale
 70
     0
300
1-1/2" = 1'-0"
140
1.5
141
12.0
290
     0
  0
SCALE
  5
66
102
{ACAD_REACTORS
330
47
102
}
330
47
100
AcDbScale
 70
     0
300
3" = 1'-0"
140
3.0
141
12.0
290
     0
  0
SCALE
  5
67
102
{ACAD_REACTORS
330
47
102
}
330
47
100
AcDbScale
 70
     0
300
6" = 1'-0"
140
6.0
141
12.0
290
     0
  0
SCALE
  5
68
102
{ACAD_REACTORS
330
47
102
}
330
47
100
AcDbScale
 70
     0
300
1'-0" = 1'-0"
140
12.0
141
12.0
290
     0
  0
TABLESTYLE
  5
6A
102
{ACAD_REACTORS
330
69
102
}
102
{ACAD_XDICTIONARY
360
20B
102
}
330
69
100
AcDbTableStyle
  3
Standard
 70
     0
 71
     0
 40
0.06
 41
0.06
280
     0
281
     0
  7
Standard
140
0.18
170
     2
 62
     0
 63
   257
283
     0
 90
        4
 91
        0
  1

274
    -2
284
     1
 64
     0
275
    -2
285
     1
 65
     0
276
    -2
286
     1
 66
     0
277
    -2
287
     1
 67
     0
278
    -2
288
     1
 68
     0
279
    -2
289
     1
 69
     0
  7
Standard
140
0.25
170
     5
 62
     0
 63
   257
283
     0
 90
        4
 91
        0
  1

274
    -2
284
     1
 64
     0
275
    -2
285
     1
 65
     0
276
    -2
286
     1
 66
     0
277
    -2
287
     1
 67
     0
278
    -2
288
     1
 68
     0
279
    -2
289
     1
 69
     0
  7
Standard
140
0.18
170
     5
 62
     0
 63
   257
283
     0
 90
        4
 91
        0
  1

274
    -2
284
     1
 64
     0
275
    -2
285
     1
 65
     0
276
    -2
286
     1
 66
     0
277
    -2
287
     1
 67
     0
278
    -2
288
     1
 68
     0
279
    -2
289
     1
 69
     0
  0
VISUALSTYLE
  5
2F
102
{ACAD_REACTORS
330
2A
102
}
330
2A
100
AcDbVisualStyle
  2
2dWireframe
 70
     4
177
     3
291
     0
 70
    58
 90
        0
176
     1
 90
        2
176
     1
 90
        0
176
     1
 90
        0
176
     1
 40
0.6
176
     1
 40
30.0
176
     1
 62
     7
420
 16777215
176
     1
 90
        1
176
     1
 90
        4
176
     1
 62
     7
176
     1
 62
   257
176
     1
 90
        1
176
     1
 90
        1
176
     1
 40
1.0
176
     1
 90
        0
176
     1
 62
   257
176
     1
 40
1.0
176
     1
 90
        1
176
     1
 90
        6
176
     1
 90
        2
176
     1
 62
     7
176
     1
 90
        5
176
     1
 90
        0
176
     1
 90
        0
176
     1
290
     0
176
     1
 90
        1
176
     1
 40
0.0
176
     1
 90
        0
176
     1
290
     1
176
     1
290
     1
176
     1
290
     0
176
     1
290
     0
176
     1
290
     0
176
     1
290
     0
176
     1
290
     0
176
     1
290
     0
176
     1
290
     0
176
     1
 90
       50
176
     1
 40
0.0
176
     1
 40
1.0
176
     1
 90
        0
176
     1
 62
    18
420
        0
176
     1
 90
       50
176
     1
 90
        3
176
     1
 62
     5
420
      255
176
     1
290
     0
176
     1
 90
       50
176
     1
 90
       50
176
     1
 90
       50
176
     1
290
     0
176
     1
 90
       50
176
     1
 62
   256
176
     0
 40
1.0
176
     0
 90
        2
176
     1
  1
strokes_ogs.tif
176
     1
290
     0
176
     1
 40
1.0
176
     1
 40
1.0
176
     1
  0
VISUALSTYLE
  5
32
102
{ACAD_REACTORS
330
2A
102
}
330
2A
100
AcDbVisualStyle
  2
Basic
 70
     7
177
     3
291
     1
 70
    58
 90
        1
176
     1
 90
        0
176
     1
 90
        1
176
     1
 90
        0
176
     1
 40
0.6
176
     1
 40
30.0
176
     1
 62
     7
420
 16777215
176
     1
 90
        0
176
     1
 90
        4
176
     1
 62
     7
176
     1
 62
   257
176
     1
 90
        1
176
     1
 90
        1
176
     1
 40
1.0
176
     1
 90
        8
176
     1
 62
     7
176
     1
 40
1.0
176
     1
 90
        1
176
     1
 90
        6
176
     1
 90
        2
176
     1
 62
     7
176
     1
 90
        5
176
     1
 90
        0
176
     1
 90
        0
176
     1
290
     0
176
     1
 90
        1
176
     1
 40
0.0
176
     1
 90
        0
176
     1
290
     0
176
     1
290
     1
176
     1
290
     1
176
     1
290
     0
176
     1
290
     0
176
     1
290
     0
176
     1
290
     0
176
     1
290
     0
176
     1
290
     0
176
     1
 90
       50
176
     1
 40
0.0
176
     1
 40
1.0
176
     1
 90
        0
176
     1
 62
    18
420
        0
176
     1
 90
       50
176
     1
 90
        3
176
     1
 62
     5
420
      255
176
     1
290
     0
176
     1
 90
       50
176
     1
 90
       50
176
     1
 90
       50
176
     1
290
     0
176
     1
 90
       50
176
     1
 62
   256
176
     0
 40
1.0
176
     0
 90
        2
176
     1
  1
strokes_ogs.tif
176
     1
290
     0
176
     1
 40
1.0
176
     1
 40
1.0
176
     1
  0
VISUALSTYLE
  5
36
102
{ACAD_REACTORS
330
2A
102
}
330
2A
100
AcDbVisualStyle
  2
Brighten
 70
    12
177
     3
291
     1
 70
    58
 90
        2
176
     1
 90
        2
176
     1
 90
        0
176
     1
 90
        0
176
     1
 40
0.6
176
     1
 40
30.0
176
     1
 62
     7
420
 16777215
176
     1
 90
        1
176
     1
 90
        4
176
     1
 62
     7
176
     1
 62
   257
176
     1
 90
        1
176
     1
 90
        1
176
     1
 40
1.0
176
     1
 90
        8
176
     1
 62
     7
176
     1
 40
1.0
176
     1
 90
        1
176
     1
 90
        6
176
     1
 90
        2
176
     1
 62
     7
176
     1
 90
        5
176
     1
 90
        0
176
     1
 90
        0
176
     1
290
     0
176
     1
 90
        1
176
     1
 40
50.0
176
     1
 90
        0
176
     1
290
     0
176
     1
290
     1
176
     1
290
     1
176
     1
290
     0
176
     1
290
     0
176
     1
290
     0
176
     1
290
     0
176
     1
290
     0
176
     1
290
     0
176
     1
 90
       50
176
     1
 40
0.0
176
     1
 40
1.0
176
     1
 90
        0
176
     1
 62
    18
420
        0
176
     1
 90
       50
176
     1
 90
        3
176
     1
 62
     5
420
      255
176
     1
290
     0
176
     1
 90
       50
176
     1
 90
       50
176
     1
 90
       50
176
     1
290
     0
176
     1
 90
       50
176
     1
 62
   256
176
     0
 40
1.0
176
     0
 90
        2
176
     1
  1
strokes_ogs.tif
176
     1
290
     0
176
     1
 40
1.0
176
     1
 40
1.0
176
     1
  0
VISUALSTYLE
  5
3A
102
{ACAD_REACTORS
330
2A
102
}
330
2A
100
AcDbVisualStyle
  2
ColorChange
 70
    16
177
     3
291
     1
 70
    58
 90
        2
176
     1
 90
        2
176
     1
 90
        3
176
     1
 90
        0
176
     1
 40
0.6
176
     1
 40
30.0
176
     1
 62
     8
420
  8421504
176
     1
 90
        1
176
     1
 90
        4
176
     1
 62
     7
176
     1
 62
   257
176
     1
 90
        1
176
     1
 90
        1
176
     1
 40
1.0
176
     1
 90
        8
176
     1
 62
     8
420
  8421504
176
     1
 40
1.0
176
     1
 90
        1
176
     1
 90
        6
176
     1
 90
        2
176
     1
 62
     7
176
     1
 90
        5
176
     1
 90
        0
176
     1
 90
        0
176
     1
290
     0
176
     1
 90
        1
176
     1
 40
0.0
176
     1
 90
        0
176
     1
290
     0
176
     1
290
     1
176
     1
290
     1
176
     1
290
     0
176
     1
290
     0
176
     1
290
     0
176
     1
290
     0
176
     1
290
     0
176
     1
290
     0
176
     1
 90
       50
176
     1
 40
0.0
176
     1
 40
1.0
176
     1
 90
        0
176
     1
 62
    18
420
        0
176
     1
 90
       50
176
     1
 90
        3
176
     1
 62
     5
420
      255
176
     1
290
     0
176
     1
 90
       50
176
     1
 90
       50
176
     1
 90
       50
176
     1
290
     0
176
     1
 90
       50
176
     1
 62
   256
176
     0
 40
1.0
176
     0
 90
        2
176
     1
  1
strokes_ogs.tif
176
     1
290
     0
176
     1
 40
1.0
176
     1
 40
1.0
176
     1
  0
VISUALSTYLE
  5
34
102
{ACAD_REACTORS
330
2A
102
}
330
2A
100
AcDbVisualStyle
  2
Conceptual
 70
     9
177
     3
291
     0
 70
    58
 90
        3
176
     1
 90
        2
176
     1
 90
        0
176
     1
 90
        0
176
     1
 40
0.6
176
     1
 40
30.0
176
     1
 62
     7
420
 16777215
176
     1
 90
        2
176
     1
 90
        2
176
     1
 62
     7
176
     1
 62
   257
176
     1
 90
        1
176
     1
 90
        1
176
     1
 40
179.0
176
     1
 90
        8
176
     1
 62
     7
176
     1
 40
1.0
176
     1
 90
        1
176
     1
 90
        6
176
     1
 90
        2
176
     1
 62
     7
176
     1
 90
        3
176
     1
 90
        0
176
     1
 90
        0
176
     1
290
     0
176
     1
 90
        1
176
     1
 40
0.0
176
     1
 90
        0
176
     1
290
     0
176
     1
290
     1
176
     1
290
     1
176
     1
290
     0
176
     1
290
     0
176
     1
290
     0
176
     1
290
     0
176
     1
290
     0
176
     1
290
     0
176
     1
 90
       50
176
     1
 40
0.0
176
     1
 40
1.0
176
     1
 90
        0
176
     1
 62
    18
420
        0
176
     1
 90
       50
176
     1
 90
        3
176
     1
 62
     5
420
      255
176
     1
290
     0
176
     1
 90
       50
176
     1
 90
       50
176
     1
 90
       50
176
     1
290
     0
176
     1
 90
       50
176
     1
 62
   256
176
     0
 40
1.0
176
     0
 90
        2
176
     1
  1
strokes_ogs.tif
176
     1
290
     0
176
     1
 40
1.0
176
     1
 40
1.0
176
     1
  0
VISUALSTYLE
  5
35
102
{ACAD_REACTORS
330
2A
102
}
330
2A
100
AcDbVisualStyle
  2
Dim
 70
    11
177
     3
291
     1
 70
    58
 90
        2
176
     1
 90
        2
176
     1
 90
        0
176
     1
 90
        0
176
     1
 40
0.6
176
     1
 40
30.0
176
     1
 62
     7
420
 16777215
176
     1
 90
        1
176
     1
 90
        4
176
     1
 62
     7
176
     1
 62
   257
176
     1
 90
        1
176
     1
 90
        1
176
     1
 40
1.0
176
     1
 90
        8
176
     1
 62
     7
176
     1
 40
1.0
176
     1
 90
        1
176
     1
 90
        6
176
     1
 90
        2
176
     1
 62
     7
176
     1
 90
        5
176
     1
 90
        0
176
     1
 90
        0
176
     1
290
     0
176
     1
 90
        1
176
     1
 40
-50.0
176
     1
 90
        0
176
     1
290
     0
176
     1
290
     1
176
     1
290
     1
176
     1
290
     0
176
     1
290
     0
176
     1
290
     0
176
     1
290
     0
176
     1
290
     0
176
     1
290
     0
176
     1
 90
       50
176
     1
 40
0.0
176
     1
 40
1.0
176
     1
 90
        0
176
     1
 62
    18
420
        0
176
     1
 90
       50
176
     1
 90
        3
176
     1
 62
     5
420
      255
176
     1
290
     0
176
     1
 90
       50
176
     1
 90
       50
176
     1
 90
       50
176
     1
290
     0
176
     1
 90
       50
176
     1
 62
   256
176
     0
 40
1.0
176
     0
 90
        2
176
     1
  1
strokes_ogs.tif
176
     1
290
     0
176
     1
 40
1.0
176
     1
 40
1.0
176
     1
  0
VISUALSTYLE
  5
3D
102
{ACAD_REACTORS
330
2A
102
}
330
2A
100
AcDbVisualStyle
  2
EdgeColorOff
 70
    22
177
     3
291
     1
 70
    58
 90
        2
176
     0
 90
        2
176
     0
 90
        0
176
     0
 90
        0
176
     0
 40
0.6
176
     0
 40
30.0
176
     0
 62
     7
420
 16777215
176
     0
 90
        1
176
     0
 90
        4
176
     0
 62
     7
176
     0
 62
   257
176
     0
 90
        1
176
     0
 90
        1
176
     0
 40
1.0
176
     0
 90
        8
176
     2
 62
     7
176
     0
 40
1.0
176
     0
 90
        1
176
     0
 90
        6
176
     0
 90
        2
176
     0
 62
     7
176
     0
 90
        5
176
     0
 90
        0
176
     0
 90
        0
176
     0
290
     0
176
     0
 90
        1
176
     0
 40
0.0
176
     0
 90
        0
176
     0
290
     0
176
     0
290
     1
176
     0
290
     1
176
     0
290
     0
176
     0
290
     0
176
     0
290
     0
176
     0
290
     0
176
     0
290
     0
176
     0
290
     0
176
     0
 90
       50
176
     0
 40
0.0
176
     0
 40
1.0
176
     0
 90
        0
176
     0
 62
    18
420
        0
176
     0
 90
       50
176
     0
 90
        3
176
     0
 62
     5
420
      255
176
     0
290
     0
176
     0
 90
       50
176
     0
 90
       50
176
     0
 90
       50
176
     0
290
     0
176
     0
 90
       50
176
     0
 62
   256
176
     0
 40
1.0
176
     0
 90
        2
176
     0
  1
strokes_ogs.tif
176
     0
290
     0
176
     0
 40
1.0
176
     0
 40
1.0
176
     0
  0
VISUALSTYLE
  5
39
102
{ACAD_REACTORS
330
2A
102
}
330
2A
100
AcDbVisualStyle
  2
Facepattern
 70
    15
177
     3
291
     1
 70
    58
 90
        2
176
     1
 90
        2
176
     1
 90
        0
176
     1
 90
        0
176
     1
 40
0.6
176
     1
 40
30.0
176
     1
 62
     7
420
 16777215
176
     1
 90
        1
176
     1
 90
        4
176
     1
 62
     7
176
     1
 62
   257
176
     1
 90
        1
176
     1
 90
        1
176
     1
 40
1.0
176
     1
 90
        8
176
     1
 62
     7
176
     1
 40
1.0
176
     1
 90
        1
176
     1
 90
        6
176
     1
 90
        2
176
     1
 62
     7
176
     1
 90
        5
176
     1
 90
        0
176
     1
 90
        0
176
     1
290
     0
176
     1
 90
        1
176
     1
 40
0.0
176
     1
 90
        0
176
     1
290
     0
176
     1
290
     1
176
     1
290
     1
176
     1
290
     0
176
     1
290
     0
176
     1
290
     0
176
     1
290
     0
176
     1
290
     0
176
     1
290
     0
176
     1
 90
       50
176
     1
 40
0.0
176
     1
 40
1.0
176
     1
 90
        0
176
     1
 62
    18
420
        0
176
     1
 90
       50
176
     1
 90
        3
176
     1
 62
     5
420
      255
176
     1
290
     0
176
     1
 90
       50
176
     1
 90
       50
176
     1
 90
       50
176
     1
290
     0
176
     1
 90
       50
176
     1
 62
   256
176
     0
 40
1.0
176
     0
 90
        2
176
     1
  1
strokes_ogs.tif
176
     1
290
     0
176
     1
 40
1.0
176
     1
 40
1.0
176
     1
  0
VISUALSTYLE
  5
2B
102
{ACAD_REACTORS
330
2A
102
}
330
2A
100
AcDbVisualStyle
  2
Flat
 70
     0
177
     3
291
     1
 70
    58
 90
        2
176
     1
 90
        1
176
     1
 90
        1
176
     1
 90
        2
176
     1
 40
0.6
176
     1
 40
30.0
176
     1
 62
     7
420
 16777215
176
     1
 90
        0
176
     1
 90
        0
176
     1
 62
     7
176
     1
 62
   257
176
     1
 90
        1
176
     1
 90
        1
176
     1
 40
1.0
176
     1
 90
        8
176
     1
 62
     7
176
     1
 40
1.0
176
     1
 90
        1
176
     1
 90
        6
176
     1
 90
        2
176
     1
 62
     7
176
     1
 90
        5
176
     1
 90
        0
176
     1
 90
        0
176
     1
290
     0
176
     1
 90
       13
176
     1
 40
0.0
176
     1
 90
        0
176
     1
290
     0
176
     1
290
     1
176
     1
290
     1
176
     1
290
     0
176
     1
290
     0
176
     1
290
     0
176
     1
290
     0
176
     1
290
     0
176
     1
290
     0
176
     1
 90
       50
176
     1
 40
0.0
176
     1
 40
1.0
176
     1
 90
        0
176
     1
 62
    18
420
        0
176
     1
 90
       50
176
     1
 90
        3
176
     1
 62
     5
420
      255
176
     1
290
     0
176
     1
 90
       50
176
     1
 90
       50
176
     1
 90
       50
176
     1
290
     0
176
     1
 90
       50
176
     1
 62
   256
176
     0
 40
1.0
176
     0
 90
        2
176
     1
  1
strokes_ogs.tif
176
     1
290
     0
176
     1
 40
1.0
176
     1
 40
1.0
176
     1
  0
VISUALSTYLE
  5
2C
102
{ACAD_REACTORS
330
2A
102
}
330
2A
100
AcDbVisualStyle
  2
FlatWithEdges
 70
     1
177
     3
291
     1
 70
    58
 90
        2
176
     1
 90
        1
176
     1
 90
        1
176
     1
 90
        2
176
     1
 40
0.6
176
     1
 40
30.0
176
     1
 62
     7
420
 16777215
176
     1
 90
        1
176
     1
 90
        0
176
     1
 62
     7
176
     1
 62
   257
176
     1
 90
        1
176
     1
 90
        1
176
     1
 40
1.0
176
     1
 90
        0
176
     1
 62
   257
176
     1
 40
1.0
176
     1
 90
        1
176
     1
 90
        6
176
     1
 90
        2
176
     1
 62
     7
176
     1
 90
        5
176
     1
 90
        0
176
     1
 90
        0
176
     1
290
     0
176
     1
 90
       13
176
     1
 40
0.0
176
     1
 90
        0
176
     1
290
     0
176
     1
290
     1
176
     1
290
     1
176
     1
290
     0
176
     1
290
     0
176
     1
290
     0
176
     1
290
     0
176
     1
290
     0
176
     1
290
     0
176
     1
 90
       50
176
     1
 40
0.0
176
     1
 40
1.0
176
     1
 90
        0
176
     1
 62
    18
420
        0
176
     1
 90
       50
176
     1
 90
        3
176
     1
 62
     5
420
      255
176
     1
290
     0
176
     1
 90
       50
176
     1
 90
       50
176
     1
 90
       50
176
     1
290
     0
176
     1
 90
       50
176
     1
 62
   256
176
     0
 40
1.0
176
     0
 90
        2
176
     1
  1
strokes_ogs.tif
176
     1
290
     0
176
     1
 40
1.0
176
     1
 40
1.0
176
     1
  0
VISUALSTYLE
  5
2D
102
{ACAD_REACTORS
330
2A
102
}
330
2A
100
AcDbVisualStyle
  2
Gouraud
 70
     2
177
     3
291
     1
 70
    58
 90
        2
176
     1
 90
        2
176
     1
 90
        1
176
     1
 90
        2
176
     1
 40
0.6
176
     1
 40
30.0
176
     1
 62
     7
420
 16777215
176
     1
 90
        0
176
     1
 90
        0
176
     1
 62
     7
176
     1
 62
   257
176
     1
 90
        1
176
     1
 90
        1
176
     1
 40
1.0
176
     1
 90
        0
176
     1
 62
     7
176
     1
 40
1.0
176
     1
 90
        1
176
     1
 90
        6
176
     1
 90
        2
176
     1
 62
     7
176
     1
 90
        5
176
     1
 90
        0
176
     1
 90
        0
176
     1
290
     0
176
     1
 90
       13
176
     1
 40
0.0
176
     1
 90
        0
176
     1
290
     0
176
     1
290
     1
176
     1
290
     1
176
     1
290
     0
176
     1
290
     0
176
     1
290
     0
176
     1
290
     0
176
     1
290
     0
176
     1
290
     0
176
     1
 90
       50
176
     1
 40
0.0
176
     1
 40
1.0
176
     1
 90
        0
176
     1
 62
    18
420
        0
176
     1
 90
       50
176
     1
 90
        3
176
     1
 62
     5
420
      255
176
     1
290
     0
176
     1
 90
       50
176
     1
 90
       50
176
     1
 90
       50
176
     1
290
     0
176
     1
 90
       50
176
     1
 62
   256
176
     0
 40
1.0
176
     0
 90
        2
176
     1
  1
strokes_ogs.tif
176
     1
290
     0
176
     1
 40
1.0
176
     1
 40
1.0
176
     1
  0
VISUALSTYLE
  5
2E
102
{ACAD_REACTORS
330
2A
102
}
330
2A
100
AcDbVisualStyle
  2
GouraudWithEdges
 70
     3
177
     3
291
     1
 70
    58
 90
        2
176
     1
 90
        2
176
     1
 90
        1
176
     1
 90
        2
176
     1
 40
0.6
176
     1
 40
30.0
176
     1
 62
     7
420
 16777215
176
     1
 90
        1
176
     1
 90
        0
176
     1
 62
     7
176
     1
 62
   257
176
     1
 90
        1
176
     1
 90
        1
176
     1
 40
1.0
176
     1
 90
        0
176
     1
 62
   257
176
     1
 40
1.0
176
     1
 90
        1
176
     1
 90
        6
176
     1
 90
        2
176
     1
 62
     7
176
     1
 90
        5
176
     1
 90
        0
176
     1
 90
        0
176
     1
290
     0
176
     1
 90
       13
176
     1
 40
0.0
176
     1
 90
        0
176
     1
290
     0
176
     1
290
     1
176
     1
290
     1
176
     1
290
     0
176
     1
290
     0
176
     1
290
     0
176
     1
290
     0
176
     1
290
     0
176
     1
290
     0
176
     1
 90
       50
176
     1
 40
0.0
176
     1
 40
1.0
176
     1
 90
        0
176
     1
 62
    18
420
        0
176
     1
 90
       50
176
     1
 90
        3
176
     1
 62
     5
420
      255
176
     1
290
     0
176
     1
 90
       50
176
     1
 90
       50
176
     1
 90
       50
176
     1
290
     0
176
     1
 90
       50
176
     1
 62
   256
176
     0
 40
1.0
176
     0
 90
        2
176
     1
  1
strokes_ogs.tif
176
     1
290
     0
176
     1
 40
1.0
176
     1
 40
1.0
176
     1
  0
VISUALSTYLE
  5
31
102
{ACAD_REACTORS
330
2A
102
}
330
2A
100
AcDbVisualStyle
  2
Hidden
 70
     6
177
     3
291
     0
 70
    58
 90
        1
176
     1
 90
        2
176
     1
 90
        2
176
     1
 90
        0
176
     1
 40
0.6
176
     1
 40
30.0
176
     1
 62
     7
420
 16777215
176
     1
 90
        2
176
     1
 90
        2
176
     1
 62
     7
176
     1
 62
   257
176
     1
 90
        2
176
     1
 90
        1
176
     1
 40
40.0
176
     1
 90
        0
176
     1
 62
   257
176
     1
 40
1.0
176
     1
 90
        1
176
     1
 90
        6
176
     1
 90
        2
176
     1
 62
     7
176
     1
 90
        3
176
     1
 90
        0
176
     1
 90
        0
176
     1
290
     0
176
     1
 90
        1
176
     1
 40
0.0
176
     1
 90
        0
176
     1
290
     0
176
     1
290
     1
176
     1
290
     1
176
     1
290
     0
176
     1
290
     0
176
     1
290
     0
176
     1
290
     0
176
     1
290
     0
176
     1
290
     0
176
     1
 90
       50
176
     1
 40
0.0
176
     1
 40
1.0
176
     1
 90
        0
176
     1
 62
    18
420
        0
176
     1
 90
       50
176
     1
 90
        3
176
     1
 62
     5
420
      255
176
     1
290
     0
176
     1
 90
       50
176
     1
 90
       50
176
     1
 90
       50
176
     1
290
     0
176
     1
 90
       50
176
     1
 62
   256
176
     0
 40
1.0
176
     0
 90
        2
176
     1
  1
strokes_ogs.tif
176
     1
290
     0
176
     1
 40
1.0
176
     1
 40
1.0
176
     1
  0
VISUALSTYLE
  5
3B
102
{ACAD_REACTORS
330
2A
102
}
330
2A
100
AcDbVisualStyle
  2
JitterOff
 70
    20
177
     3
291
     1
 70
    58
 90
        2
176
     0
 90
        2
176
     0
 90
        0
176
     0
 90
        0
176
     0
 40
0.6
176
     0
 40
30.0
176
     0
 62
     7
420
 16777215
176
     0
 90
        1
176
     0
 90
        4
176
     0
 62
     7
176
     0
 62
   257
176
     0
 90
        1
176
     0
 90
        1
176
     0
 40
1.0
176
     0
 90
       10
176
     2
 62
     7
176
     0
 40
1.0
176
     0
 90
        1
176
     0
 90
        6
176
     0
 90
        2
176
     0
 62
     7
176
     0
 90
        5
176
     0
 90
        0
176
     0
 90
        0
176
     0
290
     0
176
     0
 90
        1
176
     0
 40
0.0
176
     0
 90
        0
176
     0
290
     0
176
     0
290
     1
176
     0
290
     1
176
     0
290
     0
176
     0
290
     0
176
     0
290
     0
176
     0
290
     0
176
     0
290
     0
176
     0
290
     0
176
     0
 90
       50
176
     0
 40
0.0
176
     0
 40
1.0
176
     0
 90
        0
176
     0
 62
    18
420
        0
176
     0
 90
       50
176
     0
 90
        3
176
     0
 62
     5
420
      255
176
     0
290
     0
176
     0
 90
       50
176
     0
 90
       50
176
     0
 90
       50
176
     0
290
     0
176
     0
 90
       50
176
     0
 62
   256
176
     0
 40
1.0
176
     0
 90
        2
176
     0
  1
strokes_ogs.tif
176
     0
290
     0
176
     0
 40
1.0
176
     0
 40
1.0
176
     0
  0
VISUALSTYLE
  5
38
102
{ACAD_REACTORS
330
2A
102
}
330
2A
100
AcDbVisualStyle
  2
Linepattern
 70
    14
177
     3
291
     1
 70
    58
 90
        2
176
     1
 90
        2
176
     1
 90
        0
176
     1
 90
        0
176
     1
 40
0.6
176
     1
 40
30.0
176
     1
 62
     7
420
 16777215
176
     1
 90
        1
176
     1
 90
        4
176
     1
 62
     7
176
     1
 62
   257
176
     1
 90
        7
176
     1
 90
        7
176
     1
 40
1.0
176
     1
 90
        8
176
     1
 62
     7
176
     1
 40
1.0
176
     1
 90
        1
176
     1
 90
        6
176
     1
 90
        2
176
     1
 62
     7
176
     1
 90
        5
176
     1
 90
        0
176
     1
 90
        0
176
     1
290
     0
176
     1
 90
        1
176
     1
 40
0.0
176
     1
 90
        0
176
     1
290
     0
176
     1
290
     1
176
     1
290
     1
176
     1
290
     0
176
     1
290
     0
176
     1
290
     0
176
     1
290
     0
176
     1
290
     0
176
     1
290
     0
176
     1
 90
       50
176
     1
 40
0.0
176
     1
 40
1.0
176
     1
 90
        0
176
     1
 62
    18
420
        0
176
     1
 90
       50
176
     1
 90
        3
176
     1
 62
     5
420
      255
176
     1
290
     0
176
     1
 90
       50
176
     1
 90
       50
176
     1
 90
       50
176
     1
290
     0
176
     1
 90
       50
176
     1
 62
   256
176
     0
 40
1.0
176
     0
 90
        2
176
     1
  1
strokes_ogs.tif
176
     1
290
     0
176
     1
 40
1.0
176
     1
 40
1.0
176
     1
  0
VISUALSTYLE
  5
3C
102
{ACAD_REACTORS
330
2A
102
}
330
2A
100
AcDbVisualStyle
  2
OverhangOff
 70
    21
177
     3
291
     1
 70
    58
 90
        2
176
     0
 90
        2
176
     0
 90
        0
176
     0
 90
        0
176
     0
 40
0.6
176
     0
 40
30.0
176
     0
 62
     7
420
 16777215
176
     0
 90
        1
176
     0
 90
        4
176
     0
 62
     7
176
     0
 62
   257
176
     0
 90
        1
176
     0
 90
        1
176
     0
 40
1.0
176
     0
 90
        9
176
     2
 62
     7
176
     0
 40
1.0
176
     0
 90
        1
176
     0
 90
        6
176
     0
 90
        2
176
     0
 62
     7
176
     0
 90
        5
176
     0
 90
        0
176
     0
 90
        0
176
     0
290
     0
176
     0
 90
        1
176
     0
 40
0.0
176
     0
 90
        0
176
     0
290
     0
176
     0
290
     1
176
     0
290
     1
176
     0
290
     0
176
     0
290
     0
176
     0
290
     0
176
     0
290
     0
176
     0
290
     0
176
     0
290
     0
176
     0
 90
       50
176
     0
 40
0.0
176
     0
 40
1.0
176
     0
 90
        0
176
     0
 62
    18
420
        0
176
     0
 90
       50
176
     0
 90
        3
176
     0
 62
     5
420
      255
176
     0
290
     0
176
     0
 90
       50
176
     0
 90
       50
176
     0
 90
       50
176
     0
290
     0
176
     0
 90
       50
176
     0
 62
   256
176
     0
 40
1.0
176
     0
 90
        2
176
     0
  1
strokes_ogs.tif
176
     0
290
     0
176
     0
 40
1.0
176
     0
 40
1.0
176
     0
  0
VISUALSTYLE
  5
33
102
{ACAD_REACTORS
330
2A
102
}
330
2A
100
AcDbVisualStyle
  2
Realistic
 70
     8
177
     3
291
     0
 70
    58
 90
        2
176
     1
 90
        3
176
     1
 90
        0
176
     1
 90
        2
176
     1
 40
0.6
176
     1
 40
30.0
176
     1
 62
     7
420
 16777215
176
     1
 90
        0
176
     1
 90
        0
176
     1
 62
     7
176
     1
 62
   257
176
     1
 90
        1
176
     1
 90
        1
176
     1
 40
1.0
176
     1
 90
        8
176
     1
 62
   257
176
     1
 40
1.0
176
     1
 90
        1
176
     1
 90
        6
176
     1
 90
        2
176
     1
 62
     7
176
     1
 90
        3
176
     1
 90
        0
176
     1
 90
        0
176
     1
290
     0
176
     1
 90
       13
176
     1
 40
0.0
176
     1
 90
        0
176
     1
290
     0
176
     1
290
     1
176
     1
290
     1
176
     1
290
     0
176
     1
290
     0
176
     1
290
     0
176
     1
290
     0
176
     1
290
     0
176
     1
290
     0
176
     1
 90
       50
176
     1
 40
0.0
176
     1
 40
1.0
176
     1
 90
        0
176
     1
 62
    18
420
        0
176
     1
 90
       50
176
     1
 90
        3
176
     1
 62
     5
420
      255
176
     1
290
     0
176
     1
 90
       50
176
     1
 90
       50
176
     1
 90
       50
176
     1
290
     0
176
     1
 90
       50
176
     1
 62
   256
176
     0
 40
1.0
176
     0
 90
        2
176
     1
  1
strokes_ogs.tif
176
     1
290
     0
176
     1
 40
1.0
176
     1
 40
1.0
176
     1
  0
VISUALSTYLE
  5
42
102
{ACAD_REACTORS
330
2A
102
}
330
2A
100
AcDbVisualStyle
  2
Shaded
 70
    27
177
     3
291
     0
 70
    58
 90
        2
176
     1
 90
        2
176
     1
 90
        1
176
     1
 90
        2
176
     1
 40
0.6
176
     1
 40
30.0
176
     1
 62
     7
420
 16777215
176
     1
 90
        0
176
     1
 90
        4
176
     1
 62
     7
176
     1
 62
   257
176
     1
 90
        1
176
     1
 90
        1
176
     1
 40
1.0
176
     1
 90
        8
176
     1
 62
   257
176
     1
 40
1.0
176
     1
 90
        1
176
     1
 90
        6
176
     1
 90
        2
176
     1
 62
     8
420
  7895160
176
     1
 90
        3
176
     1
 90
        0
176
     1
 90
        0
176
     1
290
     0
176
     1
 90
        5
176
     1
 40
0.0
176
     1
 90
        0
176
     1
290
     0
176
     1
290
     1
176
     1
290
     1
176
     1
290
     0
176
     1
290
     0
176
     1
290
     0
176
     1
290
     0
176
     1
290
     0
176
     1
290
     0
176
     1
 90
       50
176
     1
 40
0.0
176
     1
 40
1.0
176
     1
 90
        0
176
     1
 62
    18
420
        0
176
     1
 90
       50
176
     1
 90
        3
176
     1
 62
     5
420
      255
176
     1
290
     0
176
     1
 90
       50
176
     1
 90
       50
176
     1
 90
       50
176
     1
290
     0
176
     1
 90
       50
176
     1
 62
   256
176
     0
 40
1.0
176
     0
 90
        2
176
     1
  1
strokes_ogs.tif
176
     1
290
     0
176
     1
 40
1.0
176
     1
 40
1.0
176
     1
  0
VISUALSTYLE
  5
41
102
{ACAD_REACTORS
330
2A
102
}
330
2A
100
AcDbVisualStyle
  2
Shaded with edges
 70
    26
177
     3
291
     0
 70
    58
 90
        2
176
     1
 90
        2
176
     1
 90
        1
176
     1
 90
        2
176
     1
 40
0.6
176
     1
 40
30.0
176
     1
 62
     7
420
 16777215
176
     1
 90
        1
176
     1
 90
       10
176
     1
 62
     7
176
     1
 62
   257
176
     1
 90
        2
176
     1
 90
        1
176
     1
 40
1.0
176
     1
 90
        8
176
     1
 62
   257
176
     1
 40
1.0
176
     1
 90
        1
176
     1
 90
        6
176
     1
 90
        2
176
     1
 62
     7
176
     1
 90
        3
176
     1
 90
        0
176
     1
 90
        0
176
     1
290
     0
176
     1
 90
        5
176
     1
 40
0.0
176
     1
 90
        0
176
     1
290
     0
176
     1
290
     1
176
     1
290
     1
176
     1
290
     0
176
     1
290
     0
176
     1
290
     0
176
     1
290
     0
176
     1
290
     0
176
     1
290
     0
176
     1
 90
       50
176
     1
 40
0.0
176
     1
 40
1.0
176
     1
 90
        0
176
     1
 62
    18
420
        0
176
     1
 90
       50
176
     1
 90
        3
176
     1
 62
     5
420
      255
176
     1
290
     0
176
     1
 90
       50
176
     1
 90
       50
176
     1
 90
       50
176
     1
290
     0
176
     1
 90
       50
176
     1
 62
   256
176
     0
 40
1.0
176
     0
 90
        2
176
     1
  1
strokes_ogs.tif
176
     1
290
     0
176
     1
 40
1.0
176
     1
 40
1.0
176
     1
  0
VISUALSTYLE
  5
3E
102
{ACAD_REACTORS
330
2A
102
}
330
2A
100
AcDbVisualStyle
  2
Shades of Gray
 70
    23
177
     3
291
     0
 70
    58
 90
        2
176
     1
 90
        2
176
     1
 90
        3
176
     1
 90
        0
176
     1
 40
0.6
176
     1
 40
30.0
176
     1
 62
     7
420
 16777215
176
     1
 90
        2
176
     1
 90
        2
176
     1
 62
     7
176
     1
 62
     7
176
     1
 90
        1
176
     1
 90
        1
176
     1
 40
40.0
176
     1
 90
        8
176
     1
 62
     7
176
     1
 40
1.0
176
     1
 90
        1
176
     1
 90
        6
176
     1
 90
        2
176
     1
 62
     7
176
     1
 90
        3
176
     1
 90
        0
176
     1
 90
        0
176
     1
290
     0
176
     1
 90
        1
176
     1
 40
0.0
176
     1
 90
        0
176
     1
290
     0
176
     1
290
     1
176
     1
290
     1
176
     1
290
     0
176
     1
290
     0
176
     1
290
     0
176
     1
290
     0
176
     1
290
     0
176
     1
290
     0
176
     1
 90
       50
176
     1
 40
0.0
176
     1
 40
1.0
176
     1
 90
        0
176
     1
 62
    18
420
        0
176
     1
 90
       50
176
     1
 90
        3
176
     1
 62
     5
420
      255
176
     1
290
     0
176
     1
 90
       50
176
     1
 90
       50
176
     1
 90
       50
176
     1
290
     0
176
     1
 90
       50
176
     1
 62
   256
176
     0
 40
1.0
176
     0
 90
        2
176
     1
  1
strokes_ogs.tif
176
     1
290
     0
176
     1
 40
1.0
176
     1
 40
1.0
176
     1
  0
VISUALSTYLE
  5
3F
102
{ACAD_REACTORS
330
2A
102
}
330
2A
100
AcDbVisualStyle
  2
Sketchy
 70
    24
177
     3
291
     0
 70
    58
 90
        1
176
     1
 90
        2
176
     1
 90
        2
176
     1
 90
        0
176
     1
 40
0.6
176
     1
 40
30.0
176
     1
 62
     7
420
 16777215
176
     1
 90
        2
176
     1
 90
        2
176
     1
 62
     7
176
     1
 62
     7
176
     1
 90
        1
176
     1
 90
        1
176
     1
 40
40.0
176
     1
 90
       11
176
     1
 62
     7
176
     1
 40
1.0
176
     1
 90
        1
176
     1
 90
        6
176
     1
 90
        2
176
     1
 62
     7
176
     1
 90
        6
176
     1
 90
        0
176
     1
 90
        0
176
     1
290
     0
176
     1
 90
        1
176
     1
 40
0.0
176
     1
 90
        0
176
     1
290
     0
176
     1
290
     1
176
     1
290
     1
176
     1
290
     0
176
     1
290
     0
176
     1
290
     0
176
     1
290
     0
176
     1
290
     0
176
     1
290
     0
176
     1
 90
       50
176
     1
 40
0.0
176
     1
 40
1.0
176
     1
 90
        0
176
     1
 62
    18
420
        0
176
     1
 90
       50
176
     1
 90
        3
176
     1
 62
     5
420
      255
176
     1
290
     0
176
     1
 90
       50
176
     1
 90
       50
176
     1
 90
       50
176
     1
290
     0
176
     1
 90
       50
176
     1
 62
   256
176
     0
 40
1.0
176
     0
 90
        2
176
     1
  1
strokes_ogs.tif
176
     1
290
     0
176
     1
 40
1.0
176
     1
 40
1.0
176
     1
  0
VISUALSTYLE
  5
37
102
{ACAD_REACTORS
330
2A
102
}
330
2A
100
AcDbVisualStyle
  2
Thicken
 70
    13
177
     3
291
     1
 70
    58
 90
        2
176
     1
 90
        2
176
     1
 90
        0
176
     1
 90
        0
176
     1
 40
0.6
176
     1
 40
30.0
176
     1
 62
     7
420
 16777215
176
     1
 90
        1
176
     1
 90
        4
176
     1
 62
     7
176
     1
 62
   257
176
     1
 90
        1
176
     1
 90
        1
176
     1
 40
1.0
176
     1
 90
       12
176
     1
 62
     7
176
     1
 40
1.0
176
     1
 90
        1
176
     1
 90
        6
176
     1
 90
        2
176
     1
 62
     7
176
     1
 90
        5
176
     1
 90
        0
176
     1
 90
        0
176
     1
290
     0
176
     1
 90
        1
176
     1
 40
0.0
176
     1
 90
        0
176
     1
290
     0
176
     1
290
     1
176
     1
290
     1
176
     1
290
     0
176
     1
290
     0
176
     1
290
     0
176
     1
290
     0
176
     1
290
     0
176
     1
290
     0
176
     1
 90
       50
176
     1
 40
0.0
176
     1
 40
1.0
176
     1
 90
        0
176
     1
 62
    18
420
        0
176
     1
 90
       50
176
     1
 90
        3
176
     1
 62
     5
420
      255
176
     1
290
     0
176
     1
 90
       50
176
     1
 90
       50
176
     1
 90
       50
176
     1
290
     0
176
     1
 90
       50
176
     1
 62
   256
176
     0
 40
1.0
176
     0
 90
        2
176
     1
  1
strokes_ogs.tif
176
     1
290
     0
176
     1
 40
1.0
176
     1
 40
1.0
176
     1
  0
VISUALSTYLE
  5
30
102
{ACAD_REACTORS
330
2A
102
}
330
2A
100
AcDbVisualStyle
  2
Wireframe
 70
     5
177
     3
291
     0
 70
    58
 90
        0
176
     1
 90
        2
176
     1
 90
        0
176
     1
 90
        0
176
     1
 40
0.6
176
     1
 40
30.0
176
     1
 62
     7
420
 16777215
176
     1
 90
        1
176
     1
 90
        4
176
     1
 62
     7
176
     1
 62
   257
176
     1
 90
        1
176
     1
 90
        1
176
     1
 40
1.0
176
     1
 90
        0
176
     1
 62
   257
176
     1
 40
1.0
176
     1
 90
        1
176
     1
 90
        6
176
     1
 90
        2
176
     1
 62
     7
176
     1
 90
        3
176
     1
 90
        0
176
     1
 90
        0
176
     1
290
     0
176
     1
 90
        1
176
     1
 40
0.0
176
     1
 90
        0
176
     1
290
     0
176
     1
290
     1
176
     1
290
     1
176
     1
290
     0
176
     1
290
     0
176
     1
290
     0
176
     1
290
     0
176
     1
290
     0
176
     1
290
     0
176
     1
 90
       50
176
     1
 40
0.0
176
     1
 40
1.0
176
     1
 90
        0
176
     1
 62
    18
420
        0
176
     1
 90
       50
176
     1
 90
        3
176
     1
 62
     5
420
      255
176
     1
290
     0
176
     1
 90
       50
176
     1
 90
       50
176
     1
 90
       50
176
     1
290
     0
176
     1
 90
       50
176
     1
 62
   256
176
     0
 40
1.0
176
     0
 90
        2
176
     1
  1
strokes_ogs.tif
176
     1
290
     0
176
     1
 40
1.0
176
     1
 40
1.0
176
     1
  0
VISUALSTYLE
  5
40
102
{ACAD_REACTORS
330
2A
102
}
330
2A
100
AcDbVisualStyle
  2
X-Ray
 70
    25
177
     3
291
     0
 70
    58
 90
        2
176
     1
 90
        2
176
     1
 90
        1
176
     1
 90
        1
176
     1
 40
0.5
176
     1
 40
30.0
176
     1
 62
     7
420
 16777215
176
     1
 90
        1
176
     1
 90
        0
176
     1
 62
     7
176
     1
 62
   257
176
     1
 90
        1
176
     1
 90
        1
176
     1
 40
1.0
176
     1
 90
        8
176
     1
 62
     7
176
     1
 40
1.0
176
     1
 90
        1
176
     1
 90
        6
176
     1
 90
        2
176
     1
 62
     7
176
     1
 90
        3
176
     1
 90
        0
176
     1
 90
        0
176
     1
290
     0
176
     1
 90
       13
176
     1
 40
0.0
176
     1
 90
        0
176
     1
290
     0
176
     1
290
     1
176
     1
290
     1
176
     1
290
     0
176
     1
290
     0
176
     1
290
     0
176
     1
290
     0
176
     1
290
     0
176
     1
290
     0
176
     1
 90
       50
176
     1
 40
0.0
176
     1
 40
1.0
176
     1
 90
        0
176
     1
 62
    18
420
        0
176
     1
 90
       50
176
     1
 90
        3
176
     1
 62
     5
420
      255
176
     1
290
     0
176
     1
 90
       50
176
     1
 90
       50
176
     1
 90
       50
176
     1
290
     0
176
     1
 90
       50
176
     1
 62
   256
176
     0
 40
1.0
176
     0
 90
        2
176
     1
  1
strokes_ogs.tif
176
     1
290
     0
176
     1
 40
1.0
176
     1
 40
1.0
176
     1
  0
DICTIONARYVAR
  5
20A
102
{ACAD_REACTORS
330
209
102
}
330
209
100
DictionaryVariables
280
     0
  1
1:1
  0
DICTIONARYVAR
  5
20F
102
{ACAD_REACTORS
330
209
102
}
330
209
100
DictionaryVariables
280
     0
  1
Standard
  0
DICTIONARYVAR
  5
20E
102
{ACAD_REACTORS
330
209
102
}
330
209
100
DictionaryVariables
280
     0
  1
Standard
  0
DICTIONARY
  5
20B
330
6A
100
AcDbDictionary
280
     1
281
     1
  3
ACAD_ROUNDTRIP_2008_TABLESTYLE_CELLSTYLEMAP
360
20C
  0
CELLSTYLEMAP
  5
20C
102
{ACAD_REACTORS
330
20B
102
}
330
20B
100
AcDbCellStyleMap
 90
        3
300
CELLSTYLE
  1
TABLEFORMAT_BEGIN
 90
        5
170
     1
 91
        0
 92
    32768
 62
   257
 93
        1
300
CONTENTFORMAT
  1
CONTENTFORMAT_BEGIN
 90
        0
 91
        0
 92
        4
 93
        0
300

 40
0.0
140
1.0
 94
        5
 62
     0
340
11
144
0.25
309
CONTENTFORMAT_END
171
     1
301
MARGIN
  1
CELLMARGIN_BEGIN
 40
0.06
 40
0.06
 40
0.06
 40
0.06
 40
0.06
 40
0.06
309
CELLMARGIN_END
 94
        6
 95
        1
302
GRIDFORMAT
  1
GRIDFORMAT_BEGIN
 90
        0
 91
        1
 62
     0
 92
       -2
340
14
 93
        0
 40
0.045
309
GRIDFORMAT_END
 95
        2
302
GRIDFORMAT
  1
GRIDFORMAT_BEGIN
 90
        0
 91
        1
 62
     0
 92
       -2
340
14
 93
        0
 40
0.045
309
GRIDFORMAT_END
 95
        4
302
GRIDFORMAT
  1
GRIDFORMAT_BEGIN
 90
        0
 91
        1
 62
     0
 92
       -2
340
14
 93
        0
 40
0.045
309
GRIDFORMAT_END
 95
        8
302
GRIDFORMAT
  1
GRIDFORMAT_BEGIN
 90
        0
 91
        1
 62
     0
 92
       -2
340
14
 93
        0
 40
0.045
309
GRIDFORMAT_END
 95
       16
302
GRIDFORMAT
  1
GRIDFORMAT_BEGIN
 90
        0
 91
        1
 62
     0
 92
       -2
340
14
 93
        0
 40
0.045
309
GRIDFORMAT_END
 95
       32
302
GRIDFORMAT
  1
GRIDFORMAT_BEGIN
 90
        0
 91
        1
 62
     0
 92
       -2
340
14
 93
        0
 40
0.045
309
GRIDFORMAT_END
309
TABLEFORMAT_END
  1
CELLSTYLE_BEGIN
 90
        1
 91
        1
300
_TITLE
309
CELLSTYLE_END
300
CELLSTYLE
  1
TABLEFORMAT_BEGIN
 90
        5
170
     1
 91
        0
 92
        0
 62
   257
 93
        1
300
CONTENTFORMAT
  1
CONTENTFORMAT_BEGIN
 90
        0
 91
        0
 92
        4
 93
        0
300

 40
0.0
140
1.0
 94
        5
 62
     0
340
11
144
0.18
309
CONTENTFORMAT_END
171
     1
301
MARGIN
  1
CELLMARGIN_BEGIN
 40
0.06
 40
0.06
 40
0.06
 40
0.06
 40
0.06
 40
0.06
309
CELLMARGIN_END
 94
        6
 95
        1
302
GRIDFORMAT
  1
GRIDFORMAT_BEGIN
 90
        0
 91
        1
 62
     0
 92
       -2
340
14
 93
        0
 40
0.045
309
GRIDFORMAT_END
 95
        2
302
GRIDFORMAT
  1
GRIDFORMAT_BEGIN
 90
        0
 91
        1
 62
     0
 92
       -2
340
14
 93
        0
 40
0.045
309
GRIDFORMAT_END
 95
        4
302
GRIDFORMAT
  1
GRIDFORMAT_BEGIN
 90
        0
 91
        1
 62
     0
 92
       -2
340
14
 93
        0
 40
0.045
309
GRIDFORMAT_END
 95
        8
302
GRIDFORMAT
  1
GRIDFORMAT_BEGIN
 90
        0
 91
        1
 62
     0
 92
       -2
340
14
 93
        0
 40
0.045
309
GRIDFORMAT_END
 95
       16
302
GRIDFORMAT
  1
GRIDFORMAT_BEGIN
 90
        0
 91
        1
 62
     0
 92
       -2
340
14
 93
        0
 40
0.045
309
GRIDFORMAT_END
 95
       32
302
GRIDFORMAT
  1
GRIDFORMAT_BEGIN
 90
        0
 91
        1
 62
     0
 92
       -2
340
14
 93
        0
 40
0.045
309
GRIDFORMAT_END
309
TABLEFORMAT_END
  1
CELLSTYLE_BEGIN
 90
        2
 91
        1
300
_HEADER
309
CELLSTYLE_END
300
CELLSTYLE
  1
TABLEFORMAT_BEGIN
 90
        5
170
     1
 91
        0
 92
        0
 62
   257
 93
        1
300
CONTENTFORMAT
  1
CONTENTFORMAT_BEGIN
 90
        0
 91
        0
 92
        4
 93
        0
300

 40
0.0
140
1.0
 94
        2
 62
     0
340
11
144
0.18
309
CONTENTFORMAT_END
171
     1
301
MARGIN
  1
CELLMARGIN_BEGIN
 40
0.06
 40
0.06
 40
0.06
 40
0.06
 40
0.06
 40
0.06
309
CELLMARGIN_END
 94
        6
 95
        1
302
GRIDFORMAT
  1
GRIDFORMAT_BEGIN
 90
        0
 91
        1
 62
     0
 92
       -2
340
14
 93
        0
 40
0.045
309
GRIDFORMAT_END
 95
        2
302
GRIDFORMAT
  1
GRIDFORMAT_BEGIN
 90
        0
 91
        1
 62
     0
 92
       -2
340
14
 93
        0
 40
0.045
309
GRIDFORMAT_END
 95
        4
302
GRIDFORMAT
  1
GRIDFORMAT_BEGIN
 90
        0
 91
        1
 62
     0
 92
       -2
340
14
 93
        0
 40
0.045
309
GRIDFORMAT_END
 95
        8
302
GRIDFORMAT
  1
GRIDFORMAT_BEGIN
 90
        0
 91
        1
 62
     0
 92
       -2
340
14
 93
        0
 40
0.045
309
GRIDFORMAT_END
 95
       16
302
GRIDFORMAT
  1
GRIDFORMAT_BEGIN
 90
        0
 91
        1
 62
     0
 92
       -2
340
14
 93
        0
 40
0.045
309
GRIDFORMAT_END
 95
       32
302
GRIDFORMAT
  1
GRIDFORMAT_BEGIN
 90
        0
 91
        1
 62
     0
 92
       -2
340
14
 93
        0
 40
0.045
309
GRIDFORMAT_END
309
TABLEFORMAT_END
  1
CELLSTYLE_BEGIN
 90
        3
 91
        2
300
_DATA
309
CELLSTYLE_END
  0
ENDSEC
  0
EOF