0
SECTION
  2
HEADER
  9
$ACADVER
  1
AC1027
  9
$ACADMAINTVER
 70
     8
  9
$DWGCODEPAGE
  3
ANSI_1252
  9
$REQUIREDVERSIONS
160
                 0
  9
$COMMENTS
  1
File was created by Cadenas
  9
$CUSTOMPROPERTYTAG
  1
NN
  9
$CUSTOMPROPERTY
  1
Wide Slot Take Up Expansion
  9
$CUSTOMPROPERTYTAG
  1
NT
  9
$CUSTOMPROPERTY
  1
Type E Wide Slot Take-Up Bearing -Inch
  9
$CUSTOMPROPERTYTAG
  1
NB
  9
$CUSTOMPROPERTY
  1
023078
  9
$CUSTOMPROPERTYTAG
  1
NBSYN
  9
$CUSTOMPROPERTY
  1
$PN.
  9
$CUSTOMPROPERTYTAG
  1
LINA
  9
$CUSTOMPROPERTY
  1
023078
  9
$CUSTOMPROPERTYTAG
  1
SS
  9
$CUSTOMPROPERTY
  1
1-1/2
  9
$CUSTOMPROPERTYTAG
  1
PN
  9
$CUSTOMPROPERTY
  1
023078
  9
$CUSTOMPROPERTYTAG
  1
DESCRIPTION
  9
$CUSTOMPROPERTY
  1
WSTU-E-108R
  9
$CUSTOMPROPERTYTAG
  1
A
  9
$CUSTOMPROPERTY
  1
3-3/8
  9
$CUSTOMPROPERTYTAG
  1
B
  9
$CUSTOMPROPERTY
  1
6
  9
$CUSTOMPROPERTYTAG
  1
C
  9
$CUSTOMPROPERTY
  1
11/16
  9
$CUSTOMPROPERTYTAG
  1
D
  9
$CUSTOMPROPERTY
  1
3-1/4
  9
$CUSTOMPROPERTYTAG
  1
E
  9
$CUSTOMPROPERTY
  1
3-13/16
  9
$CUSTOMPROPERTYTAG
  1
F
  9
$CUSTOMPROPERTY
  1
1
  9
$CUSTOMPROPERTYTAG
  1
G
  9
$CUSTOMPROPERTY
  1
15/16
  9
$CUSTOMPROPERTYTAG
  1
H
  9
$CUSTOMPROPERTY
  1
3/4
  9
$CUSTOMPROPERTYTAG
  1
J
  9
$CUSTOMPROPERTY
  1
3-5/16
  9
$CUSTOMPROPERTYTAG
  1
K
  9
$CUSTOMPROPERTY
  1
1-15/16
  9
$CUSTOMPROPERTYTAG
  1
L
  9
$CUSTOMPROPERTY
  1
3-3/16
  9
$CUSTOMPROPERTYTAG
  1
M
  9
$CUSTOMPROPERTY
  1
4
  9
$CUSTOMPROPERTYTAG
  1
N
  9
$CUSTOMPROPERTY
  1
4-3/4
  9
$CUSTOMPROPERTYTAG
  1
T
  9
$CUSTOMPROPERTY
  1
2-5/16
  9
$CUSTOMPROPERTYTAG
  1
COMPANY
  9
$CUSTOMPROPERTY
  1
baldor
  9
$INSBASE
 10
0.0
 20
0.0
 30
0.0
  9
$EXTMIN
 10
1.000000000000000E+20
 20
1.000000000000000E+20
 30
1.000000000000000E+20
  9
$EXTMAX
 10
-1.000000000000000E+20
 20
-1.000000000000000E+20
 30
-1.000000000000000E+20
  9
$LIMMIN
 10
0.0
 20
0.0
  9
$LIMMAX
 10
12.0
 20
9.0
  9
$ORTHOMODE
 70
     0
  9
$REGENMODE
 70
     1
  9
$FILLMODE
 70
     1
  9
$QTEXTMODE
 70
     0
  9
$MIRRTEXT
 70
     1
  9
$LTSCALE
 40
1.0
  9
$ATTMODE
 70
     1
  9
$TEXTSIZE
 40
0.2
  9
$TRACEWID
 40
0.05
  9
$TEXTSTYLE
  7
Standard
  9
$CLAYER
  8
0
  9
$CELTYPE
  6
ByLayer
  9
$CECOLOR
 62
   256
  9
$CELTSCALE
 40
1.0
  9
$DISPSILH
 70
     0
  9
$DIMSCALE
 40
1.0
  9
$DIMASZ
 40
0.18
  9
$DIMEXO
 40
0.0625
  9
$DIMDLI
 40
0.38
  9
$DIMRND
 40
0.0
  9
$DIMDLE
 40
0.0
  9
$DIMEXE
 40
0.18
  9
$DIMTP
 40
0.0
  9
$DIMTM
 40
0.0
  9
$DIMTXT
 40
0.18
  9
$DIMCEN
 40
0.09
  9
$DIMTSZ
 40
0.0
  9
$DIMTOL
 70
     0
  9
$DIMLIM
 70
     0
  9
$DIMTIH
 70
     1
  9
$DIMTOH
 70
     1
  9
$DIMSE1
 70
     0
  9
$DIMSE2
 70
     0
  9
$DIMTAD
 70
     0
  9
$DIMZIN
 70
     0
  9
$DIMBLK
  1

  9
$DIMASO
 70
     1
  9
$DIMSHO
 70
     1
  9
$DIMPOST
  1

  9
$DIMAPOST
  1

  9
$DIMALT
 70
     0
  9
$DIMALTD
 70
     2
  9
$DIMALTF
 40
25.4
  9
$DIMLFAC
 40
1.0
  9
$DIMTOFL
 70
     0
  9
$DIMTVP
 40
0.0
  9
$DIMTIX
 70
     0
  9
$DIMSOXD
 70
     0
  9
$DIMSAH
 70
     0
  9
$DIMBLK1
  1

  9
$DIMBLK2
  1

  9
$DIMSTYLE
  2
Standard
  9
$DIMCLRD
 70
     0
  9
$DIMCLRE
 70
     0
  9
$DIMCLRT
 70
     0
  9
$DIMTFAC
 40
1.0
  9
$DIMGAP
 40
0.09
  9
$DIMJUST
 70
     0
  9
$DIMSD1
 70
     0
  9
$DIMSD2
 70
     0
  9
$DIMTOLJ
 70
     1
  9
$DIMTZIN
 70
     0
  9
$DIMALTZ
 70
     0
  9
$DIMALTTZ
 70
     0
  9
$DIMUPT
 70
     0
  9
$DIMDEC
 70
     4
  9
$DIMTDEC
 70
     4
  9
$DIMALTU
 70
     2
  9
$DIMALTTD
 70
     2
  9
$DIMTXSTY
  7
Standard
  9
$DIMAUNIT
 70
     0
  9
$DIMADEC
 70
     0
  9
$DIMALTRND
 40
0.0
  9
$DIMAZIN
 70
     0
  9
$DIMDSEP
 70
    46
  9
$DIMATFIT
 70
     3
  9
$DIMFRAC
 70
     0
  9
$DIMLDRBLK
  1

  9
$DIMLUNIT
 70
     2
  9
$DIMLWD
 70
    -2
  9
$DIMLWE
 70
    -2
  9
$DIMTMOVE
 70
     0
  9
$DIMFXL
 40
1.0
  9
$DIMFXLON
 70
     0
  9
$DIMJOGANG
 40
0.7853981633974483
  9
$DIMTFILL
 70
     0
  9
$DIMTFILLCLR
 70
     0
  9
$DIMARCSYM
 70
     0
  9
$DIMLTYPE
  6

  9
$DIMLTEX1
  6

  9
$DIMLTEX2
  6

  9
$DIMTXTDIRECTION
 70
     0
  9
$LUNITS
 70
     2
  9
$LUPREC
 70
     4
  9
$SKETCHINC
 40
0.1
  9
$FILLETRAD
 40
0.5
  9
$AUNITS
 70
     0
  9
$AUPREC
 70
     0
  9
$MENU
  1
.
  9
$ELEVATION
 40
0.0
  9
$PELEVATION
 40
0.0
  9
$THICKNESS
 40
0.0
  9
$LIMCHECK
 70
     0
  9
$CHAMFERA
 40
0.0
  9
$CHAMFERB
 40
0.0
  9
$CHAMFERC
 40
0.0
  9
$CHAMFERD
 40
0.0
  9
$SKPOLY
 70
     0
  9
$TDCREATE
 40
2458168.970726099
  9
$TDUCREATE
 40
2458168.929059433
  9
$TDUPDATE
 40
2458168.970726285
  9
$TDUUPDATE
 40
2458168.929059618
  9
$TDINDWG
 40
0.0000000116
  9
$TDUSRTIMER
 40
0.0000000116
  9
$USRTIMER
 70
     1
  9
$ANGBASE
 50
0.0
  9
$ANGDIR
 70
     0
  9
$PDMODE
 70
     0
  9
$PDSIZE
 40
0.0
  9
$PLINEWID
 40
0.0
  9
$SPLFRAME
 70
     0
  9
$SPLINETYPE
 70
     6
  9
$SPLINESEGS
 70
     8
  9
$HANDSEED
  5
244
  9
$SURFTAB1
 70
     6
  9
$SURFTAB2
 70
     6
  9
$SURFTYPE
 70
     6
  9
$SURFU
 70
     6
  9
$SURFV
 70
     6
  9
$UCSBASE
  2

  9
$UCSNAME
  2

  9
$UCSORG
 10
0.0
 20
0.0
 30
0.0
  9
$UCSXDIR
 10
1.0
 20
0.0
 30
0.0
  9
$UCSYDIR
 10
0.0
 20
1.0
 30
0.0
  9
$UCSORTHOREF
  2

  9
$UCSORTHOVIEW
 70
     0
  9
$UCSORGTOP
 10
0.0
 20
0.0
 30
0.0
  9
$UCSORGBOTTOM
 10
0.0
 20
0.0
 30
0.0
  9
$UCSORGLEFT
 10
0.0
 20
0.0
 30
0.0
  9
$UCSORGRIGHT
 10
0.0
 20
0.0
 30
0.0
  9
$UCSORGFRONT
 10
0.0
 20
0.0
 30
0.0
  9
$UCSORGBACK
 10
0.0
 20
0.0
 30
0.0
  9
$PUCSBASE
  2

  9
$PUCSNAME
  2

  9
$PUCSORG
 10
0.0
 20
0.0
 30
0.0
  9
$PUCSXDIR
 10
1.0
 20
0.0
 30
0.0
  9
$PUCSYDIR
 10
0.0
 20
1.0
 30
0.0
  9
$PUCSORTHOREF
  2

  9
$PUCSORTHOVIEW
 70
     0
  9
$PUCSORGTOP
 10
0.0
 20
0.0
 30
0.0
  9
$PUCSORGBOTTOM
 10
0.0
 20
0.0
 30
0.0
  9
$PUCSORGLEFT
 10
0.0
 20
0.0
 30
0.0
  9
$PUCSORGRIGHT
 10
0.0
 20
0.0
 30
0.0
  9
$PUCSORGFRONT
 10
0.0
 20
0.0
 30
0.0
  9
$PUCSORGBACK
 10
0.0
 20
0.0
 30
0.0
  9
$USERI1
 70
     0
  9
$USERI2
 70
     0
  9
$USERI3
 70
     0
  9
$USERI4
 70
     0
  9
$USERI5
 70
     0
  9
$USERR1
 40
0.0
  9
$USERR2
 40
0.0
  9
$USERR3
 40
0.0
  9
$USERR4
 40
0.0
  9
$USERR5
 40
0.0
  9
$WORLDVIEW
 70
     1
  9
$SHADEDGE
 70
     3
  9
$SHADEDIF
 70
    70
  9
$TILEMODE
 70
     1
  9
$MAXACTVP
 70
    64
  9
$PINSBASE
 10
0.0
 20
0.0
 30
0.0
  9
$PLIMCHECK
 70
     0
  9
$PEXTMIN
 10
1.000000000000000E+20
 20
1.000000000000000E+20
 30
1.000000000000000E+20
  9
$PEXTMAX
 10
-1.000000000000000E+20
 20
-1.000000000000000E+20
 30
-1.000000000000000E+20
  9
$PLIMMIN
 10
0.0
 20
0.0
  9
$PLIMMAX
 10
12.0
 20
9.0
  9
$UNITMODE
 70
     0
  9
$VISRETAIN
 70
     1
  9
$PLINEGEN
 70
     0
  9
$PSLTSCALE
 70
     1
  9
$TREEDEPTH
 70
  3020
  9
$CMLSTYLE
  2
Standard
  9
$CMLJUST
 70
     0
  9
$CMLSCALE
 40
1.0
  9
$PROXYGRAPHICS
 70
     1
  9
$MEASUREMENT
 70
     0
  9
$CELWEIGHT
370
    -1
  9
$ENDCAPS
280
     0
  9
$JOINSTYLE
280
     0
  9
$LWDISPLAY
290
     0
  9
$INSUNITS
 70
     1
  9
$HYPERLINKBASE
  1

  9
$STYLESHEET
  1

  9
$XEDIT
290
     1
  9
$CEPSNTYPE
380
     0
  9
$PSTYLEMODE
290
     1
  9
$FINGERPRINTGUID
  2
{6B41FA07-E9B9-49EE-8737-FAD52CAEB403}
  9
$VERSIONGUID
  2
{FAEB1C32-E019-11D5-929B-00C0DF256EC4}
  9
$EXTNAMES
290
     1
  9
$PSVPSCALE
 40
0.0
  9
$OLESTARTUP
290
     0
  9
$SORTENTS
280
   127
  9
$INDEXCTL
280
     0
  9
$HIDETEXT
280
     1
  9
$XCLIPFRAME
280
     2
  9
$HALOGAP
280
     0
  9
$OBSCOLOR
 70
   257
  9
$OBSLTYPE
280
     0
  9
$INTERSECTIONDISPLAY
280
     0
  9
$INTERSECTIONCOLOR
 70
   257
  9
$DIMASSOC
280
     2
  9
$PROJECTNAME
  1

  9
$CAMERADISPLAY
290
     0
  9
$LENSLENGTH
 40
50.0
  9
$CAMERAHEIGHT
 40
0.0
  9
$STEPSPERSEC
 40
2.0
  9
$STEPSIZE
 40
6.0
  9
$3DDWFPREC
 40
2.0
  9
$PSOLWIDTH
 40
0.25
  9
$PSOLHEIGHT
 40
4.0
  9
$LOFTANG1
 40
1.570796326794897
  9
$LOFTANG2
 40
1.570796326794897
  9
$LOFTMAG1
 40
0.0
  9
$LOFTMAG2
 40
0.0
  9
$LOFTPARAM
 70
     7
  9
$LOFTNORMALS
280
     1
  9
$LATITUDE
 40
37.795
  9
$LONGITUDE
 40
-122.394
  9
$NORTHDIRECTION
 40
0.0
  9
$TIMEZONE
 70
 -8000
  9
$LIGHTGLYPHDISPLAY
280
     1
  9
$TILEMODELIGHTSYNCH
280
     1
  9
$CMATERIAL
347
44
  9
$SOLIDHIST
280
     0
  9
$SHOWHIST
280
     1
  9
$DWFFRAME
280
     2
  9
$DGNFRAME
280
     2
  9
$REALWORLDSCALE
290
     1
  9
$INTERFERECOLOR
 62
   256
  9
$CSHADOW
280
     0
  9
$SHADOWPLANELOCATION
 40
0.0
  0
ENDSEC
  0
SECTION
  2
CLASSES
  0
CLASS
  1
ACDBDICTIONARYWDFLT
  2
AcDbDictionaryWithDefault
  3
ObjectDBX Classes
 90
        0
 91
        4
280
     0
281
     0
  0
CLASS
  1
VISUALSTYLE
  2
AcDbVisualStyle
  3
ObjectDBX Classes
 90
     4095
 91
        4
280
     0
281
     0
  0
CLASS
  1
MATERIAL
  2
AcDbMaterial
  3
ObjectDBX Classes
 90
     1153
 91
        4
280
     0
281
     0
  0
CLASS
  1
SCALE
  2
AcDbScale
  3
ObjectDBX Classes
 90
     1153
 91
        4
280
     0
281
     0
  0
CLASS
  1
TABLESTYLE
  2
AcDbTableStyle
  3
ObjectDBX Classes
 90
     4095
 91
        4
280
     0
281
     0
  0
CLASS
  1
MLEADERSTYLE
  2
AcDbMLeaderStyle
  3
ACDB_MLEADERSTYLE_CLASS
 90
     4095
 91
        4
280
     0
281
     0
  0
CLASS
  1
SUN
  2
AcDbSun
  3
SCENEOE
 90
     1153
 91
        4
280
     0
281
     0
  0
CLASS
  1
DICTIONARYVAR
  2
AcDbDictionaryVar
  3
ObjectDBX Classes
 90
        0
 91
        4
280
     0
281
     0
  0
CLASS
  1
CELLSTYLEMAP
  2
AcDbCellStyleMap
  3
ObjectDBX Classes
 90
     1152
 91
        4
280
     0
281
     0
  0
ENDSEC
  0
SECTION
  2
TABLES
  0
TABLE
  2
VPORT
  5
8
330
0
100
AcDbSymbolTable
 70
     1
  0
VPORT
  5
29
330
8
100
AcDbSymbolTableRecord
100
AcDbViewportTableRecord
  2
*Active
 70
     0
 10
0.0
 20
0.0
 11
1.0
 21
1.0
 12
0.0
 22
0.0
 13
0.0
 23
0.0
 14
0.5
 24
0.5
 15
0.5
 25
0.5
 16
0.0
 26
0.0
 36
1.0
 17
0.0
 27
0.0
 37
0.0
 40
4.845
 41
0.7827368421052632
 42
50.0
 43
0.0
 44
0.0
 50
0.0
 51
0.0
 71
     0
 72
   100
 73
     1
 74
     3
 75
     0
 76
     0
 77
     0
 78
     0
281
     0
 65
     1
110
0.0
120
0.0
130
0.0
111
1.0
121
0.0
131
0.0
112
0.0
122
1.0
132
0.0
 79
     0
146
0.0
348
2F
 60
     3
 61
     5
292
     1
282
     1
141
0.0
142
0.0
 63
   250
361
6D
  0
ENDTAB
  0
TABLE
  2
LTYPE
  5
5
330
0
100
AcDbSymbolTable
 70
     3
  0
LTYPE
  5
14
330
5
100
AcDbSymbolTableRecord
100
AcDbLinetypeTableRecord
  2
ByBlock
 70
     0
  3

 72
    65
 73
     0
 40
0.0
  0
LTYPE
  5
15
330
5
100
AcDbSymbolTableRecord
100
AcDbLinetypeTableRecord
  2
ByLayer
 70
     0
  3

 72
    65
 73
     0
 40
0.0
  0
LTYPE
  5
16
330
5
100
AcDbSymbolTableRecord
100
AcDbLinetypeTableRecord
  2
Continuous
 70
     0
  3
Solid line
 72
    65
 73
     0
 40
0.0
  0
LTYPE
  5
9B
330
5
100
AcDbSymbolTableRecord
100
AcDbLinetypeTableRecord
  2
Dashed
 70
     0
  3

 72
    65
 73
     2
 40
2.0
 49
1.0
 74
     0
 49
-1.0
 74
     0
  0
LTYPE
  5
1C6
330
5
100
AcDbSymbolTableRecord
100
AcDbLinetypeTableRecord
  2
Center
 70
     0
  3

 72
    65
 73
     4
 40
1.5
 49
0.45
 74
     0
 49
-0.5
 74
     0
 49
0.05
 74
     0
 49
-0.5
 74
     0
  0
ENDTAB
  0
TABLE
  2
LAYER
  5
2
330
0
100
AcDbSymbolTable
 70
     7
  0
LAYER
  5
10
330
2
100
AcDbSymbolTableRecord
100
AcDbLayerTableRecord
  2
0
 70
     0
 62
     7
  6
Continuous
370
    -3
390
F
347
46
348
0
  0
LAYER
  5
72
330
2
100
AcDbSymbolTableRecord
100
AcDbLayerTableRecord
  2
AM_6
 70
     0
 62
    -2
  6
Continuous
370
    35
390
F
347
46
348
0
  0
LAYER
  5
9C
330
2
100
AcDbSymbolTableRecord
100
AcDbLayerTableRecord
  2
AM_9
 70
     0
 62
     6
  6
Dashed
370
    25
390
F
347
46
348
0
  0
LAYER
  5
139
330
2
100
AcDbSymbolTableRecord
100
AcDbLayerTableRecord
  2
AM_5
 70
     0
 62
     3
  6
Continuous
370
    25
390
F
347
46
348
0
  0
LAYER
  5
13C
330
2
100
AcDbSymbolTableRecord
100
AcDbLayerTableRecord
  2
AM_4
 70
     0
 62
     7
  6
Continuous
370
    50
390
F
347
46
348
0
  0
LAYER
  5
1C7
330
2
100
AcDbSymbolTableRecord
100
AcDbLayerTableRecord
  2
AM_7
 70
     0
 62
     7
  6
Center
370
    25
390
F
347
46
348
0
  0
LAYER
  5
233
330
2
100
AcDbSymbolTableRecord
100
AcDbLayerTableRecord
  2
ConnectionPoints
 70
     0
 62
     7
  6
Continuous
370
    50
390
F
347
46
348
0
  0
ENDTAB
  0
TABLE
  2
STYLE
  5
3
330
0
100
AcDbSymbolTable
 70
     1
  0
STYLE
  5
11
330
3
100
AcDbSymbolTableRecord
100
AcDbTextStyleTableRecord
  2
Standard
 70
     0
 40
0.0
 41
1.0
 50
0.0
 71
     0
 42
0.2
  3
txt
  4

  0
ENDTAB
  0
TABLE
  2
VIEW
  5
6
330
0
100
AcDbSymbolTable
 70
     0
  0
ENDTAB
  0
TABLE
  2
UCS
  5
7
330
0
100
AcDbSymbolTable
 70
     0
  0
ENDTAB
  0
TABLE
  2
APPID
  5
9
330
0
100
AcDbSymbolTable
 70
     1
  0
APPID
  5
12
330
9
100
AcDbSymbolTableRecord
100
AcDbRegAppTableRecord
  2
ACAD
 70
     0
  0
ENDTAB
  0
TABLE
  2
DIMSTYLE
  5
A
330
0
100
AcDbSymbolTable
 70
     1
100
AcDbDimStyleTable
  0
DIMSTYLE
105
27
330
A
100
AcDbSymbolTableRecord
100
AcDbDimStyleTableRecord
  2
Standard
 70
     0
178
     0
340
11
  0
ENDTAB
  0
TABLE
  2
BLOCK_RECORD
  5
1
330
0
100
AcDbSymbolTable
 70
     7
  0
BLOCK_RECORD
  5
1F
330
1
100
AcDbSymbolTableRecord
100
AcDbBlockTableRecord
  2
*Model_Space
340
22
 70
     0
280
     1
281
     0
  0
BLOCK_RECORD
  5
1B
330
1
100
AcDbSymbolTableRecord
100
AcDbBlockTableRecord
  2
*Paper_Space
340
1E
 70
     0
280
     1
281
     0
  0
BLOCK_RECORD
  5
23
330
1
100
AcDbSymbolTableRecord
100
AcDbBlockTableRecord
  2
*Paper_Space0
340
26
 70
     0
280
     1
281
     0
  0
BLOCK_RECORD
  5
6E
330
1
100
AcDbSymbolTableRecord
100
AcDbBlockTableRecord
  2
1_023078_2
340
0
102
{BLKREFS
331
6F
102
}
 70
     0
280
     1
281
     0
  0
BLOCK_RECORD
  5
8A
330
1
100
AcDbSymbolTableRecord
100
AcDbBlockTableRecord
  2
2_405016_Inch_0_in_023078_2
340
0
102
{BLKREFS
331
8B
102
}
 70
     0
280
     1
281
     0
  0
BLOCK_RECORD
  5
111
330
1
100
AcDbSymbolTableRecord
100
AcDbBlockTableRecord
  2
3_1_1_2C_1_0_in_023078_2
340
0
102
{BLKREFS
331
112
102
}
 70
     0
280
     1
281
     0
  0
BLOCK_RECORD
  5
148
330
1
100
AcDbSymbolTableRecord
100
AcDbBlockTableRecord
  2
4_1_1_2C_2_0_in_023078_2
340
0
102
{BLKREFS
331
149
102
}
 70
     0
280
     1
281
     0
  0
BLOCK_RECORD
  5
181
330
1
100
AcDbSymbolTableRecord
100
AcDbBlockTableRecord
  2
5_1_1_2I_0_in_023078_2
340
0
102
{BLKREFS
331
182
102
}
 70
     0
280
     1
281
     0
  0
BLOCK_RECORD
  5
1CB
330
1
100
AcDbSymbolTableRecord
100
AcDbBlockTableRecord
  2
6_023078H_0_in_023078_2
340
0
102
{BLKREFS
331
1CC
102
}
 70
     0
280
     1
281
     0
  0
ENDTAB
  0
ENDSEC
  0
SECTION
  2
BLOCKS
  0
BLOCK
  5
20
330
1F
100
AcDbEntity
  8
0
100
AcDbBlockBegin
  2
*Model_Space
 70
     0
 10
0.0
 20
0.0
 30
0.0
  3
*Model_Space
  1

  0
ENDBLK
  5
21
330
1F
100
AcDbEntity
  8
0
100
AcDbBlockEnd
  0
BLOCK
  5
1C
330
1B
100
AcDbEntity
 67
     1
  8
0
100
AcDbBlockBegin
  2
*Paper_Space
 70
     0
 10
0.0
 20
0.0
 30
0.0
  3
*Paper_Space
  1

  0
ENDBLK
  5
1D
330
1B
100
AcDbEntity
 67
     1
  8
0
100
AcDbBlockEnd
  0
BLOCK
  5
24
330
23
100
AcDbEntity
  8
0
100
AcDbBlockBegin
  2
*Paper_Space0
 70
     0
 10
0.0
 20
0.0
 30
0.0
  3
*Paper_Space0
  1

  0
ENDBLK
  5
25
330
23
100
AcDbEntity
  8
0
100
AcDbBlockEnd
  0
BLOCK
  5
70
330
6E
100
AcDbEntity
  8
0
100
AcDbBlockBegin
  2
1_023078_2
 70
     2
 10
0.0
 20
0.0
 30
0.0
  3
1_023078_2
  1

  0
ATTDEF
  5
73
330
6E
100
AcDbEntity
  8
AM_6
100
AcDbText
 10
6.859
 20
2.375
 30
0.0
 40
0.5
  1
Wide Slot Take Up Expansion
100
AcDbAttributeDefinition
  3

  2
NN
 70
     8
280
     0
  0
ATTDEF
  5
74
330
6E
100
AcDbEntity
  8
AM_6
100
AcDbText
 10
6.859
 20
1.875
 30
0.0
 40
0.5
  1
Type E Wide Slot Take-Up Bearing -Inch
100
AcDbAttributeDefinition
  3

  2
NT
 70
     8
280
     0
  0
ATTDEF
  5
75
330
6E
100
AcDbEntity
  8
AM_6
100
AcDbText
 10
6.859
 20
1.375
 30
0.0
 40
0.5
  1
023078
100
AcDbAttributeDefinition
  3

  2
NB
 70
     8
280
     0
  0
ATTDEF
  5
76
330
6E
100
AcDbEntity
  8
AM_6
100
AcDbText
 10
6.859
 20
0.875
 30
0.0
 40
0.5
  1
$PN.
100
AcDbAttributeDefinition
  3

  2
NBSYN
 70
     8
280
     0
  0
ATTDEF
  5
77
330
6E
100
AcDbEntity
  8
AM_6
100
AcDbText
 10
6.859
 20
0.375
 30
0.0
 40
0.5
  1
023078
100
AcDbAttributeDefinition
  3

  2
LINA
 70
     8
280
     0
  0
ATTDEF
  5
78
330
6E
100
AcDbEntity
  8
AM_6
100
AcDbText
 10
6.859
 20
-0.125
 30
0.0
 40
0.5
  1
1-1/2
100
AcDbAttributeDefinition
  3

  2
SS
 70
     8
280
     0
  0
ATTDEF
  5
79
330
6E
100
AcDbEntity
  8
AM_6
100
AcDbText
 10
6.859
 20
-0.625
 30
0.0
 40
0.5
  1
023078
100
AcDbAttributeDefinition
  3

  2
PN
 70
     8
280
     0
  0
ATTDEF
  5
7A
330
6E
100
AcDbEntity
  8
AM_6
100
AcDbText
 10
6.859
 20
-1.125
 30
0.0
 40
0.5
  1
WSTU-E-108R
100
AcDbAttributeDefinition
  3

  2
DESCRIPTION
 70
     8
280
     0
  0
ATTDEF
  5
7B
330
6E
100
AcDbEntity
  8
AM_6
100
AcDbText
 10
6.859
 20
-1.625
 30
0.0
 40
0.5
  1
3-3/8
100
AcDbAttributeDefinition
  3

  2
A
 70
     8
280
     0
  0
ATTDEF
  5
7C
330
6E
100
AcDbEntity
  8
AM_6
100
AcDbText
 10
6.859
 20
-2.125
 30
0.0
 40
0.5
  1
6
100
AcDbAttributeDefinition
  3

  2
B
 70
     8
280
     0
  0
ATTDEF
  5
7D
330
6E
100
AcDbEntity
  8
AM_6
100
AcDbText
 10
6.859
 20
-2.625
 30
0.0
 40
0.5
  1
11/16
100
AcDbAttributeDefinition
  3

  2
C
 70
     8
280
     0
  0
ATTDEF
  5
7E
330
6E
100
AcDbEntity
  8
AM_6
100
AcDbText
 10
6.859
 20
-3.125
 30
0.0
 40
0.5
  1
3-1/4
100
AcDbAttributeDefinition
  3

  2
D
 70
     8
280
     0
  0
ATTDEF
  5
7F
330
6E
100
AcDbEntity
  8
AM_6
100
AcDbText
 10
6.859
 20
-3.625
 30
0.0
 40
0.5
  1
3-13/16
100
AcDbAttributeDefinition
  3

  2
E
 70
     8
280
     0
  0
ATTDEF
  5
80
330
6E
100
AcDbEntity
  8
AM_6
100
AcDbText
 10
6.859
 20
-4.125
 30
0.0
 40
0.5
  1
1
100
AcDbAttributeDefinition
  3

  2
F
 70
     8
280
     0
  0
ATTDEF
  5
81
330
6E
100
AcDbEntity
  8
AM_6
100
AcDbText
 10
6.859
 20
-4.625
 30
0.0
 40
0.5
  1
15/16
100
AcDbAttributeDefinition
  3

  2
G
 70
     8
280
     0
  0
ATTDEF
  5
82
330
6E
100
AcDbEntity
  8
AM_6
100
AcDbText
 10
6.859
 20
-5.125
 30
0.0
 40
0.5
  1
3/4
100
AcDbAttributeDefinition
  3

  2
H
 70
     8
280
     0
  0
ATTDEF
  5
83
330
6E
100
AcDbEntity
  8
AM_6
100
AcDbText
 10
6.859
 20
-5.625
 30
0.0
 40
0.5
  1
3-5/16
100
AcDbAttributeDefinition
  3

  2
J
 70
     8
280
     0
  0
ATTDEF
  5
84
330
6E
100
AcDbEntity
  8
AM_6
100
AcDbText
 10
6.859
 20
-6.125
 30
0.0
 40
0.5
  1
1-15/16
100
AcDbAttributeDefinition
  3

  2
K
 70
     8
280
     0
  0
ATTDEF
  5
85
330
6E
100
AcDbEntity
  8
AM_6
100
AcDbText
 10
6.859
 20
-6.625
 30
0.0
 40
0.5
  1
3-3/16
100
AcDbAttributeDefinition
  3

  2
L
 70
     8
280
     0
  0
ATTDEF
  5
86
330
6E
100
AcDbEntity
  8
AM_6
100
AcDbText
 10
6.859
 20
-7.125
 30
0.0
 40
0.5
  1
4
100
AcDbAttributeDefinition
  3

  2
M
 70
     8
280
     0
  0
ATTDEF
  5
87
330
6E
100
AcDbEntity
  8
AM_6
100
AcDbText
 10
6.859
 20
-7.625
 30
0.0
 40
0.5
  1
4-3/4
100
AcDbAttributeDefinition
  3

  2
N
 70
     8
280
     0
  0
ATTDEF
  5
88
330
6E
100
AcDbEntity
  8
AM_6
100
AcDbText
 10
6.859
 20
-8.125
 30
0.0
 40
0.5
  1
2-5/16
100
AcDbAttributeDefinition
  3

  2
T
 70
     8
280
     0
  0
ATTDEF
  5
89
330
6E
100
AcDbEntity
  8
AM_6
100
AcDbText
 10
6.859
 20
-8.625
 30
0.0
 40
0.5
  1
baldor
100
AcDbAttributeDefinition
  3

  2
COMPANY
 70
     8
280
     0
  0
INSERT
  5
8B
330
6E
100
AcDbEntity
  8
0
100
AcDbBlockReference
  2
2_405016_Inch_0_in_023078_2
 10
0.0
 20
0.0
 30
0.0
  0
INSERT
  5
112
330
6E
100
AcDbEntity
  8
0
100
AcDbBlockReference
  2
3_1_1_2C_1_0_in_023078_2
 10
0.0
 20
0.0
 30
0.0
  0
INSERT
  5
149
330
6E
100
AcDbEntity
  8
0
100
AcDbBlockReference
  2
4_1_1_2C_2_0_in_023078_2
 10
0.0
 20
0.0
 30
0.0
  0
INSERT
  5
182
330
6E
100
AcDbEntity
  8
0
100
AcDbBlockReference
  2
5_1_1_2I_0_in_023078_2
 10
0.0
 20
0.0
 30
0.0
  0
INSERT
  5
1CC
330
6E
100
AcDbEntity
  8
0
100
AcDbBlockReference
  2
6_023078H_0_in_023078_2
 10
0.0
 20
0.0
 30
0.0
  0
ENDBLK
  5
71
330
6E
100
AcDbEntity
  8
0
100
AcDbBlockEnd
  0
BLOCK
  5
8C
330
8A
100
AcDbEntity
  8
0
100
AcDbBlockBegin
  2
2_405016_Inch_0_in_023078_2
 70
     2
 10
0.0
 20
0.0
 30
0.0
  3
2_405016_Inch_0_in_023078_2
  1

  0
ATTDEF
  5
8E
330
8A
100
AcDbEntity
  8
AM_6
100
AcDbText
 10
5.21875
 20
1.180518696216854
 30
0.0
 40
0.5
  1
405016 -Inch
100
AcDbAttributeDefinition
  3

  2
NN
 70
     8
280
     0
  0
ATTDEF
  5
8F
330
8A
100
AcDbEntity
  8
AM_6
100
AcDbText
 10
5.21875
 20
0.6805186962168541
 30
0.0
 40
0.5
  1
Grease Fitting
100
AcDbAttributeDefinition
  3

  2
NT
 70
     8
280
     0
  0
ATTDEF
  5
90
330
8A
100
AcDbEntity
  8
AM_6
100
AcDbText
 10
5.21875
 20
0.1805186962168541
 30
0.0
 40
0.5
  1
405016-Inch
100
AcDbAttributeDefinition
  3

  2
NB
 70
     8
280
     0
  0
ATTDEF
  5
91
330
8A
100
AcDbEntity
  8
AM_6
100
AcDbText
 10
5.21875
 20
-0.3194813037831459
 30
0.0
 40
0.5
  1
$MN.-Inch
100
AcDbAttributeDefinition
  3

  2
NBSYN
 70
     8
280
     0
  0
ATTDEF
  5
92
330
8A
100
AcDbEntity
  8
AM_6
100
AcDbText
 10
5.21875
 20
-0.8194813037831459
 30
0.0
 40
0.5
  1
405016
100
AcDbAttributeDefinition
  3

  2
LINA
 70
     8
280
     0
  0
ATTDEF
  5
93
330
8A
100
AcDbEntity
  8
AM_6
100
AcDbText
 10
5.21875
 20
-1.319481303783146
 30
0.0
 40
0.5
  1
405016
100
AcDbAttributeDefinition
  3

  2
MN
 70
     8
280
     0
  0
ATTDEF
  5
94
330
8A
100
AcDbEntity
  8
AM_6
100
AcDbText
 10
5.21875
 20
-1.819481303783146
 30
0.0
 40
0.5
  1
7/16 HEX
100
AcDbAttributeDefinition
  3

  2
H
 70
     8
280
     0
  0
ATTDEF
  5
95
330
8A
100
AcDbEntity
  8
AM_6
100
AcDbText
 10
5.21875
 20
-2.319481303783146
 30
0.0
 40
0.5
  1
0.383
100
AcDbAttributeDefinition
  3

  2
NDR
 70
     8
280
     0
  0
ATTDEF
  5
96
330
8A
100
AcDbEntity
  8
AM_6
100
AcDbText
 10
5.21875
 20
-2.819481303783146
 30
0.0
 40
0.5
  1
0.337
100
AcDbAttributeDefinition
  3

  2
KDR
 70
     8
280
     0
  0
ATTDEF
  5
97
330
8A
100
AcDbEntity
  8
AM_6
100
AcDbText
 10
5.21875
 20
-3.319481303783146
 30
0.0
 40
0.5
  1
0.1575
100
AcDbAttributeDefinition
  3

  2
BZE
 70
     8
280
     0
  0
ATTDEF
  5
98
330
8A
100
AcDbEntity
  8
AM_6
100
AcDbText
 10
5.21875
 20
-3.819481303783146
 30
0.0
 40
0.5
  1
0.4375
100
AcDbAttributeDefinition
  3

  2
HEX
 70
     8
280
     0
  0
ATTDEF
  5
99
330
8A
100
AcDbEntity
  8
AM_6
100
AcDbText
 10
5.21875
 20
-4.319481303783146
 30
0.0
 40
0.5
  1
0.281250
100
AcDbAttributeDefinition
  3

  2
HEX2
 70
     8
280
     0
  0
ATTDEF
  5
9A
330
8A
100
AcDbEntity
  8
AM_6
100
AcDbText
 10
5.21875
 20
-4.819481303783146
 30
0.0
 40
0.5
  1
baldor
100
AcDbAttributeDefinition
  3

  2
COMPANY
 70
     8
280
     0
  0
LWPOLYLINE
  5
9D
330
8A
100
AcDbEntity
  8
AM_9
100
AcDbPolyline
 90
        5
 70
     0
 43
0.0
 10
-0.1791093260592888
 20
0.9880285046446983
 10
-0.1842540823997055
 20
1.025504046014329
 10
-0.1862220679364952
 20
1.062997675496171
 10
-0.1844124966919382
 20
1.100828003981848
 10
-0.1791093260592888
 20
1.138047844368061
  0
LINE
  5
9E
330
8A
100
AcDbEntity
  8
AM_9
100
AcDbLine
 10
-0.1510741298357571
 20
1.133045013640286
 30
0.0
 11
-0.1791093260592888
 21
1.138047844368061
 31
0.0
  0
LINE
  5
9F
330
8A
100
AcDbEntity
  8
AM_9
100
AcDbLine
 10
-0.1510741298357571
 20
0.9830256739169241
 30
0.0
 11
-0.1791093260592888
 21
0.9880285046446983
 31
0.0
  0
LWPOLYLINE
  5
A0
330
8A
100
AcDbEntity
  8
AM_9
100
AcDbPolyline
 90
        3
 70
     0
 43
0.0
 10
-0.2060368105350898
 20
0.9466951752007734
 10
-0.1996402057054679
 20
0.9575094447726735
 10
-0.1791093260592888
 20
0.9880285046446983
  0
LWPOLYLINE
  5
A1
330
8A
100
AcDbEntity
  8
AM_9
100
AcDbPolyline
 90
        4
 70
     0
 43
0.0
 10
-0.2389369657326277
 20
0.8643168446278293
 10
-0.2295338871417797
 20
0.8953880177386431
 10
-0.2166871171046321
 20
0.9263703626717162
 10
-0.2060368105350898
 20
0.9466951752007734
  0
LWPOLYLINE
  5
A2
330
8A
100
AcDbEntity
  8
AM_9
100
AcDbPolyline
 90
        5
 70
     0
 43
0.0
 10
-0.1791093260592888
 20
1.138047844368061
 10
-0.198835512140694
 20
1.145375538327615
 10
-0.2156330920108726
 20
1.152242214425991
 10
-0.2290462109660022
 20
1.158611868143717
 10
-0.2389369657326277
 20
1.164355524074554
  0
LWPOLYLINE
  5
A3
330
8A
100
AcDbEntity
  8
AM_9
100
AcDbPolyline
 90
        3
 70
     0
 43
0.0
 10
-0.2987675689889719
 20
0.8906250531804205
 10
-0.2912216284034025
 20
0.8861224074552282
 10
-0.28139190003636
 20
0.8811713882433186
  0
LWPOLYLINE
  5
A4
330
8A
100
AcDbEntity
  8
AM_9
100
AcDbPolyline
 90
        3
 70
     0
 43
0.0
 10
-0.2711532636537957
 20
0.876651341362749
 10
-0.2561815527589922
 20
0.8706824535529409
 10
-0.2389369657326277
 20
0.8643168446278293
  0
LINE
  5
A5
330
8A
100
AcDbEntity
  8
AM_9
100
AcDbLine
 10
-0.2099962668917054
 20
0.8591524285741582
 30
0.0
 11
-0.2389369657326277
 21
0.8643168446278293
 31
0.0
  0
LINE
  5
A6
330
8A
100
AcDbEntity
  8
AM_9
100
AcDbLine
 10
-0.4944364896180873
 20
0.9562995087532401
 30
0.0
 11
-0.4339698147500554
 21
0.9099955671873796
 31
0.0
  0
LINE
  5
A7
330
8A
100
AcDbEntity
  8
AM_9
100
AcDbLine
 10
-0.3860461100240276
 20
1.17855361739159
 30
0.0
 11
-0.4587963675904557
 21
1.156021999647866
 31
0.0
  0
LWPOLYLINE
  5
A8
330
8A
100
AcDbEntity
  8
AM_9
100
AcDbPolyline
 90
        9
 70
     0
 43
0.0
 10
-0.3271569451200348
 20
1.146727601030938
 10
-0.3287197297427462
 20
1.149996532983346
 10
-0.3350070276620674
 20
1.160301270554137
 10
-0.3421795778600584
 20
1.168361032464977
 10
-0.3502134947448137
 20
1.174401591401801
 10
-0.3590629656921625
 20
1.178465008787691
 10
-0.3693729815400641
 20
1.180518696216854
 10
-0.3794400322740969
 20
1.180093436184322
 10
-0.3866546368671589
 20
1.178360795468921
  0
LWPOLYLINE
  5
A9
330
8A
100
AcDbEntity
  8
AM_9
100
AcDbPolyline
 90
        9
 70
     0
 43
0.0
 10
-0.434528132876503
 20
0.9104295404639065
 10
-0.4323879066437483
 20
0.9088342247943412
 10
-0.4238083343087266
 20
0.9040754678180782
 10
-0.4134834762045673
 20
0.9011871559047556
 10
-0.4033049503722633
 20
0.9008909154416733
 10
-0.3935947881688028
 20
0.9028242756044238
 10
-0.384336290251442
 20
0.9067393251207936
 10
-0.3753268568113469
 20
0.9126623049215921
 10
-0.3675010852312384
 20
0.9196984174865691
  0
ELLIPSE
  5
AA
330
8A
100
AcDbEntity
  8
AM_9
100
AcDbEllipse
 10
-0.3729962569746604
 20
1.037669919518589
 30
0.0
 11
0.02339858314893634
 21
0.1311225395437139
 31
0.0
210
0.0
220
0.0
230
1.0
 40
0.3904483620877197
 41
5.799275034252417
 42
12.05013655390743
  0
LINE
  5
AB
330
8A
100
AcDbEntity
  8
AM_9
100
AcDbLine
 10
-0.1610252118924109
 20
0.944921183237875
 30
0.0
 11
-0.1629734038119741
 21
0.9394343494800645
 31
0.0
  0
LINE
  5
AC
330
8A
100
AcDbEntity
  8
AM_9
100
AcDbLine
 10
-0.1510741298357571
 20
0.983025673916924
 30
0.0
 11
-0.1551285941138645
 21
0.9647715352719033
 31
0.0
  0
LWPOLYLINE
  5
AD
330
8A
100
AcDbEntity
  8
AM_9
100
AcDbPolyline
 90
        4
 70
     0
 43
0.0
 10
-0.1510741298357571
 20
1.133045013640286
 10
-0.1458778226760521
 20
1.105293093620735
 10
-0.1427138007556463
 20
1.077424380093059
 10
-0.1421513059324396
 20
1.066968229295407
  0
LWPOLYLINE
  5
AE
330
8A
100
AcDbEntity
  8
AM_9
100
AcDbPolyline
 90
        7
 70
     0
 43
0.0
 10
-0.2099962668917054
 20
1.159191108020883
 10
-0.1943573015029059
 20
1.153629300117136
 10
-0.1805491420332304
 20
1.148344966548796
 10
-0.168899767719981
 20
1.143362796522057
 10
-0.1598729403210872
 20
1.138828133686386
 10
-0.1549033058439657
 20
1.135827721968197
 10
-0.1510741298357571
 20
1.133045013640286
  0
LWPOLYLINE
  5
AF
330
8A
100
AcDbEntity
  8
AM_9
100
AcDbPolyline
 90
        3
 70
     0
 43
0.0
 10
-0.2099962668917054
 20
0.8591524285741582
 10
-0.2163479371246914
 20
0.863542654187171
 10
-0.225837874301963
 20
0.868564891013594
  0
LINE
  5
B0
330
8A
100
AcDbEntity
  8
AM_9
100
AcDbLine
 10
-0.1629832986330853
 20
0.9394075074426562
 30
0.0
 11
-0.1624963487307805
 21
0.9407284609287514
 31
0.0
  0
LWPOLYLINE
  5
B1
330
8A
100
AcDbEntity
  8
AM_9
100
AcDbPolyline
 90
        3
 70
     0
 43
0.0
 10
-0.1837264921404196
 20
0.8965722024957032
 10
-0.1876759562813859
 20
0.8902184266083214
 10
-0.2099962668917055
 20
0.8591524285741582
  0
LWPOLYLINE
  5
B2
330
8A
100
AcDbEntity
  8
AM_9
100
AcDbPolyline
 90
        3
 70
     0
 43
0.0
 10
-0.1728406778618701
 20
0.9164367274215819
 10
-0.1744063212866123
 20
0.9133096524239958
 10
-0.1837264921404196
 20
0.8965722024957032
  0
LWPOLYLINE
  5
B3
330
8A
100
AcDbEntity
  8
AM_9
100
AcDbPolyline
 90
        3
 70
     0
 43
0.0
 10
-0.1629734038119741
 20
0.9394343494800645
 10
-0.1639940363880806
 20
0.936715950320784
 10
-0.1701262867766654
 20
0.9221399919506234
  0
LWPOLYLINE
  5
B4
330
8A
100
AcDbEntity
  8
AM_9
100
AcDbPolyline
 90
        3
 70
     0
 43
0.0
 10
-0.1427629594537347
 20
1.034998109226673
 10
-0.1441228263802215
 20
1.021242310982545
 10
-0.151074129835757
 20
0.9830256739169241
  0
LWPOLYLINE
  5
B5
330
8A
100
AcDbEntity
  8
AM_9
100
AcDbPolyline
 90
        3
 70
     0
 43
0.0
 10
-0.1419585098156051
 20
1.056403391902622
 10
-0.1420496512545707
 20
1.049191360156375
 10
-0.1427629594537347
 20
1.034998109226673
  0
ELLIPSE
  5
B6
330
8A
100
AcDbEntity
  8
AM_9
100
AcDbEllipse
 10
-0.2013892028241885
 20
1.007046946996417
 30
0.0
 11
0.02470402804728607
 21
0.1384380786606014
 31
0.0
210
0.0
220
0.0
230
1.0
 40
0.3904483620877313
 41
3.146311777567083
 42
7.135842312545794
  0
LWPOLYLINE
  5
B7
330
8A
100
AcDbEntity
  8
AM_9
100
AcDbPolyline
 90
        4
 70
     0
 43
0.0
 10
-0.2360765106845278
 20
0.8730849378941637
 10
-0.2462091938631852
 20
0.8771028066933295
 10
-0.2570505402207575
 20
0.8811158662923425
 10
-0.2689146070947223
 20
0.8852978454131258
  0
LWPOLYLINE
  5
B8
330
8A
100
AcDbEntity
  8
AM_9
100
AcDbPolyline
 90
        3
 70
     0
 43
0.0
 10
-0.2689146070947223
 20
0.8852978454131258
 10
-0.2634308483997529
 20
0.9124244654326623
 10
-0.2602304684431306
 20
0.9405053126792876
  0
LWPOLYLINE
  5
B9
330
8A
100
AcDbEntity
  8
AM_9
100
AcDbPolyline
 90
        3
 70
     0
 43
0.0
 10
-0.2987675689889719
 20
1.040644392903783
 10
-0.3030606061861224
 20
1.013200848958899
 10
-0.3055458577949632
 20
0.9850968301343085
  0
LWPOLYLINE
  5
BA
330
8A
100
AcDbEntity
  8
AM_9
100
AcDbPolyline
 90
        3
 70
     0
 43
0.0
 10
-0.3055458577949632
 20
0.948591763028443
 10
-0.3030753670497809
 20
0.9197244548689227
 10
-0.2987675689889719
 20
0.8906250531804205
  0
LINE
  5
BB
330
8A
100
AcDbEntity
  8
AM_9
100
AcDbLine
 10
-0.2689146070947223
 20
0.8852978454131258
 30
0.0
 11
-0.2987675689889719
 21
0.8906250531804205
 31
0.0
  0
ELLIPSE
  5
BC
330
8A
100
AcDbEntity
  8
AM_9
100
AcDbEllipse
 10
-0.2467045921760319
 20
1.015133397345583
 30
0.0
 11
0.02470402804729102
 21
0.1384380786605864
 31
0.0
210
0.0
220
0.0
230
1.0
 40
0.3904483620876842
 41
4.833969017577582
 42
7.13584231254583
  0
LINE
  5
BD
330
8A
100
AcDbEntity
  8
AM_9
100
AcDbLine
 10
-0.28139190003636
 20
0.8811713882433186
 30
0.0
 11
-0.2711532636537957
 21
0.876651341362749
 31
0.0
  0
ELLIPSE
  5
BE
330
8A
100
AcDbEntity
  8
AM_9
100
AcDbEllipse
 10
-0.2467045921760163
 20
1.015133397345575
 30
0.0
 11
0.02470402804728993
 21
0.1384380786606057
 31
0.0
210
0.0
220
0.0
230
1.0
 40
0.3904483620877398
 41
2.140440652048673
 42
2.947052107759414
  0
LWPOLYLINE
  5
BF
330
8A
100
AcDbEntity
  8
AM_9
100
AcDbPolyline
 90
        3
 70
     0
 43
0.0
 10
-0.3055458577949632
 20
0.9850968301343085
 10
-0.3064767622622303
 20
0.9671066275570231
 10
-0.3055458577949632
 20
0.948591763028443
  0
ELLIPSE
  5
C0
330
8A
100
AcDbEntity
  8
AM_9
100
AcDbEllipse
 10
-0.2467045921760196
 20
1.015133397345571
 30
0.0
 11
0.02470402804728636
 21
0.1384380786606045
 31
0.0
210
0.0
220
0.0
230
1.0
 40
0.3904483620877295
 41
1.051916675173922
 42
1.858528130884668
  0
LWPOLYLINE
  5
C1
330
8A
100
AcDbEntity
  8
AM_9
100
AcDbPolyline
 90
       13
 70
     0
 43
0.0
 10
-0.3695573133102579
 20
0.9176692937655591
 10
-0.3695234083515899
 20
0.9176987279022474
 10
-0.3680500620452115
 20
0.9187867655875956
 10
-0.3641811517375177
 20
0.9209892198616478
 10
-0.35772475108113
 20
0.92353564868935
 10
-0.3486794861299614
 20
0.9254987526415754
 10
-0.337559593172115
 20
0.9258608955139059
 10
-0.3257175259660361
 20
0.923923061487314
 10
-0.3149528588937524
 20
0.9198779216951425
 10
-0.3066944520540388
 20
0.9148638006879136
 10
-0.301254076487203
 20
0.9101784672472518
 10
-0.2982246646831154
 20
0.9067137657163603
 10
-0.2969854489564951
 20
0.9049063230312967
  0
LWPOLYLINE
  5
C2
330
8A
100
AcDbEntity
  8
AM_9
100
AcDbPolyline
 90
        4
 70
     0
 43
0.0
 10
-0.2968658303513039
 20
0.9046976283741361
 10
-0.2970075532703695
 20
0.904987144408416
 10
-0.2978818602703348
 20
0.9071288643651493
 10
-0.2982357521962825
 20
0.9081277470344459
  0
LWPOLYLINE
  5
C3
330
8A
100
AcDbEntity
  8
AM_9
100
AcDbPolyline
 90
        4
 70
     0
 43
0.0
 10
-0.2582327007232197
 20
1.133124467572759
 10
-0.2565222215121623
 20
1.135130810761574
 10
-0.2555720156014867
 20
1.136102713346502
 10
-0.2555720041333047
 20
1.136102723576519
  0
LWPOLYLINE
  5
C4
330
8A
100
AcDbEntity
  8
AM_9
100
AcDbPolyline
 90
       12
 70
     0
 43
0.0
 10
-0.2566320190448877
 20
1.135292091644915
 10
-0.260039249363307
 20
1.133242347092864
 10
-0.2660068697200856
 20
1.130694614226953
 10
-0.2745893384871037
 20
1.128546241113172
 10
-0.2854005756232537
 20
1.12781597462788
 10
-0.2972442634863313
 20
1.129310241800384
 10
-0.3083326432623584
 20
1.133024965429651
 10
-0.3171111267091304
 20
1.137962083214356
 10
-0.3230612832697398
 20
1.142792731959374
 10
-0.3264934769039161
 20
1.146528760821488
 10
-0.3280223344918328
 20
1.148665985123662
 10
-0.3282634870922588
 20
1.149074388967942
  0
ELLIPSE
  5
C5
330
8A
100
AcDbEntity
  8
AM_9
100
AcDbEllipse
 10
-0.2467045921760213
 20
1.015133397345572
 30
0.0
 11
0.02470402804728574
 21
0.1384380786606021
 31
0.0
210
0.0
220
0.0
230
1.0
 40
0.390448362087732
 41
3.146311777567107
 42
4.516220951028594
  0
LWPOLYLINE
  5
C6
330
8A
100
AcDbEntity
  8
AM_9
100
AcDbPolyline
 90
        3
 70
     0
 43
0.0
 10
-0.0000000000000001
 20
0.6828026858796911
 10
-0.0544416102741497
 20
0.714387976432735
 10
-0.109375
 20
0.7446135603917672
  0
LWPOLYLINE
  5
C7
330
8A
100
AcDbEntity
  8
AM_9
100
AcDbPolyline
 90
        3
 70
     0
 43
0.0
 10
0.1093749999999998
 20
0.7446135603917672
 10
0.0546874999999998
 20
0.714527226049562
 10
-0.0000000000000001
 20
0.6828026858796911
  0
ARC
  5
C8
330
8A
100
AcDbEntity
  8
AM_9
100
AcDbCircle
 10
0.0000000000000003
 20
0.9758427525309794
 30
0.0
 40
0.1999999999999995
100
AcDbArc
 50
0.0
 51
144.0167947069197
  0
LWPOLYLINE
  5
C9
330
8A
100
AcDbEntity
  8
AM_9
100
AcDbPolyline
 90
        4
 70
     0
 43
0.0
 10
-0.1617225000861133
 20
1.093510988737136
 10
-0.1668493358980662
 20
1.085549708177465
 10
-0.1731116383367607
 20
1.073170107022347
 10
-0.1790373738502116
 20
1.058195711415772
  0
LWPOLYLINE
  5
CA
330
8A
100
AcDbEntity
  8
AM_9
100
AcDbPolyline
 90
        3
 70
     0
 43
0.0
 10
-0.179037373850178
 20
0.8934897936461675
 10
-0.1733931390117468
 20
0.8903664655811446
 10
-0.1722940188314144
 20
0.8901172821599348
  0
LINE
  5
CB
330
8A
100
AcDbEntity
  8
AM_9
100
AcDbLine
 10
-0.1392098202231725
 20
1.107688829078725
 30
0.0
 11
-0.1820651631071999
 21
1.115336288526487
 31
0.0
  0
LINE
  5
CC
330
8A
100
AcDbEntity
  8
AM_9
100
AcDbLine
 10
-0.2207132425411764
 20
0.8987576054663459
 30
0.0
 11
-0.1722946686494312
 21
0.8901173973747288
 31
0.0
  0
LWPOLYLINE
  5
CD
330
8A
100
AcDbEntity
  8
AM_9
100
AcDbPolyline
 90
       20
 70
     0
 43
0.0
 10
-0.1722940188314144
 20
0.8901172821599348
 10
-0.1670729780242512
 20
0.8902870758996309
 10
-0.1606047421316796
 20
0.8932570876139669
 10
-0.1538031670974778
 20
0.8993609668719874
 10
-0.1472336073736394
 20
0.9080945748338829
 10
-0.1407130262602577
 20
0.9197070392018154
 10
-0.1347930597680668
 20
0.9332188349650251
 10
-0.1293028157827818
 20
0.9490258805214719
 10
-0.1247141396218193
 20
0.9657709249007828
 10
-0.1208880884981782
 20
0.983963365496493
 10
-0.118154598914599
 20
1.002032291072768
 10
-0.1164278875396129
 20
1.020537755336382
 10
-0.1158549073091555
 20
1.037891718568495
 10
-0.1164156227038168
 20
1.054627404356927
 10
-0.1180609686233502
 20
1.069328940433791
 10
-0.1208367673933813
 20
1.082432510459168
 10
-0.1245107513506023
 20
1.092846723914673
 10
-0.1291842652280563
 20
1.10086425711522
 10
-0.134472979061152
 20
1.105822841934125
 10
-0.1392221533641521
 20
1.107691029041947
  0
LWPOLYLINE
  5
CE
330
8A
100
AcDbEntity
  8
AM_9
100
AcDbPolyline
 90
        6
 70
     0
 43
0.0
 10
-0.1392221533641521
 20
1.107691029041947
 10
-0.140518627090196
 20
1.10785170268232
 10
-0.1468270783017121
 20
1.106778403894851
 10
-0.1535654953592165
 20
1.102566559889592
 10
-0.1601799433259584
 20
1.095556010667577
 10
-0.1617225000861133
 20
1.093510988737136
  0
LWPOLYLINE
  5
CF
330
8A
100
AcDbEntity
  8
AM_9
100
AcDbPolyline
 90
        4
 70
     0
 43
0.0
 10
-0.2602304684431209
 20
0.9770103797851557
 10
-0.2616913382589204
 20
0.9932702351411414
 10
-0.2647402074337707
 20
1.014262118791259
 10
-0.2689146070947223
 20
1.035317185136488
  0
ELLIPSE
  5
D0
330
8A
100
AcDbEntity
  8
AM_9
100
AcDbEllipse
 10
-0.2013892028241865
 20
1.007046946996415
 30
0.0
 11
0.02470402804727297
 21
0.138438078660607
 31
0.0
210
0.0
220
0.0
230
1.0
 40
0.390448362087687
 41
1.051916675173887
 42
1.858528130884602
  0
LINE
  5
D1
330
8A
100
AcDbEntity
  8
AM_9
100
AcDbLine
 10
-0.2602304684431306
 20
0.9405053126792876
 30
0.0
 11
-0.2602304684431209
 21
0.9770103797851557
 31
0.0
  0
ELLIPSE
  5
D2
330
8A
100
AcDbEntity
  8
AM_9
100
AcDbEllipse
 10
-0.2013892028241883
 20
1.007046946996416
 30
0.0
 11
0.02470402804728613
 21
0.1384380786606007
 31
0.0
210
0.0
220
0.0
230
1.0
 40
0.39044836208773
 41
2.140440652048651
 42
2.947052107759411
  0
LINE
  5
D3
330
8A
100
AcDbEntity
  8
AM_9
100
AcDbLine
 10
-0.225837874301963
 20
0.868564891013594
 30
0.0
 11
-0.2360765106845278
 21
0.8730849378941637
 31
0.0
  0
LWPOLYLINE
  5
D4
330
8A
100
AcDbEntity
  8
AM_9
100
AcDbPolyline
 90
        3
 70
     0
 43
0.0
 10
-0.2689146070947223
 20
1.035317185136488
 10
-0.2512755937295761
 20
1.059194264950857
 10
-0.2360765106845276
 20
1.08407547967231
  0
LINE
  5
D5
330
8A
100
AcDbEntity
  8
AM_9
100
AcDbLine
 10
-0.2360765106845276
 20
1.08407547967231
 30
0.0
 11
-0.2258378743019628
 21
1.105400554071066
 31
0.0
  0
LWPOLYLINE
  5
D6
330
8A
100
AcDbEntity
  8
AM_9
100
AcDbPolyline
 90
        4
 70
     0
 43
0.0
 10
-0.2258378743019628
 20
1.105400554071066
 10
-0.2189176876709016
 20
1.123969904412422
 10
-0.2138633349839128
 20
1.14153758187204
 10
-0.2099962668917054
 20
1.159191108020883
  0
LINE
  5
D7
330
8A
100
AcDbEntity
  8
AM_9
100
AcDbLine
 10
-0.2099962668917054
 20
1.159191108020883
 30
0.0
 11
-0.2389369657326277
 21
1.164355524074554
 31
0.0
  0
LWPOLYLINE
  5
D8
330
8A
100
AcDbEntity
  8
AM_9
100
AcDbPolyline
 90
        3
 70
     0
 43
0.0
 10
-0.2389369657326277
 20
1.164355524074554
 10
-0.2560939713202354
 20
1.139299576211473
 10
-0.2711532636537957
 20
1.113487004420221
  0
LINE
  5
D9
330
8A
100
AcDbEntity
  8
AM_9
100
AcDbLine
 10
-0.2711532636537957
 20
1.113487004420221
 30
0.0
 11
-0.2813919000363601
 21
1.092161930021465
 31
0.0
  0
LWPOLYLINE
  5
DA
330
8A
100
AcDbEntity
  8
AM_9
100
AcDbPolyline
 90
        3
 70
     0
 43
0.0
 10
-0.2813919000363601
 20
1.092161930021465
 10
-0.2911775952746244
 20
1.06656330161989
 10
-0.2987675689889719
 20
1.040644392903783
  0
LINE
  5
DB
330
8A
100
AcDbEntity
  8
AM_9
100
AcDbLine
 10
-0.2689146070947223
 20
1.035317185136488
 30
0.0
 11
-0.2987675689889719
 21
1.040644392903783
 31
0.0
  0
LWPOLYLINE
  5
DC
330
8A
100
AcDbEntity
  8
AM_9
100
AcDbPolyline
 90
        3
 70
     0
 43
0.0
 10
0.2187499999999999
 20
0.7994843945534172
 10
0.1643083897258503
 20
0.7729911469602958
 10
0.1093749999999998
 20
0.7446135603917672
  0
ELLIPSE
  5
DD
330
8A
100
AcDbEntity
  8
AM_9
100
AcDbEllipse
 10
0.0000000000000002
 20
0.9196361234023576
 30
0.0
 11
0.2187500000000003
 21
0.0
 31
0.0
210
0.0
220
0.0
230
1.0
 40
0.923879532511289
 41
3.141592653589793
 42
4.188790204786391
  0
LWPOLYLINE
  5
DE
330
8A
100
AcDbEntity
  8
AM_9
100
AcDbPolyline
 90
        3
 70
     0
 43
0.0
 10
-0.109375
 20
0.7446135603917672
 10
-0.1640625000000001
 20
0.7728680803864251
 10
-0.2187500000000001
 20
0.7994843945534172
  0
LWPOLYLINE
  5
DF
330
8A
100
AcDbEntity
  8
AM_9
100
AcDbPolyline
 90
        3
 70
     0
 43
0.0
 10
-0.0820583021831924
 20
0.692006423181273
 10
-0.0546875000000002
 20
0.6780906971606004
 10
-0.0000000000000001
 20
0.6514743829936082
  0
LINE
  5
E0
330
8A
100
AcDbEntity
  8
AM_9
100
AcDbLine
 10
-0.1093750000000001
 20
0.7063452171552581
 30
0.0
 11
-0.096631376742763
 21
0.6995984348090928
 31
0.0
  0
LINE
  5
E1
330
8A
100
AcDbEntity
  8
AM_9
100
AcDbLine
 10
0.1068710207364168
 20
0.7050115486402115
 30
0.0
 11
0.1093749999999999
 21
0.7063452171552581
 31
0.0
  0
LWPOLYLINE
  5
E2
330
8A
100
AcDbEntity
  8
AM_9
100
AcDbPolyline
 90
        3
 70
     0
 43
0.0
 10
-0.0000000000000001
 20
0.6514743829936082
 10
0.0544416102741494
 20
0.6779676305867297
 10
0.0939980918381176
 20
0.6982169116720027
  0
LINE
  5
E3
330
8A
100
AcDbEntity
  8
AM_9
100
AcDbLine
 10
-0.0000000000000001
 20
0.6828026858796911
 30
0.0
 11
-0.0000000000000001
 21
0.6514743829936082
 31
0.0
  0
ELLIPSE
  5
E4
330
8A
100
AcDbEntity
  8
AM_9
100
AcDbEllipse
 10
-0.0000000000000002
 20
0.9196361234023567
 30
0.0
 11
0.2
 21
0.0
 31
0.0
210
0.0
220
0.0
230
1.0
 40
0.9238795325112882
 41
3.141592653589793
 42
4.71238898038469
  0
ELLIPSE
  5
E5
330
8A
100
AcDbEntity
  8
AM_9
100
AcDbEllipse
 10
-0.0000000000000001
 20
0.9758427525309791
 30
0.0
 11
0.1999999999999999
 21
0.0
 31
0.0
210
0.0
220
0.0
230
1.0
 40
0.9238795325112873
 41
0.0
 42
2.679646633022827
  0
LWPOLYLINE
  5
E6
330
8A
100
AcDbEntity
  8
AM_9
100
AcDbPolyline
 90
        7
 70
     0
 43
0.0
 10
-0.1790373738501785
 20
0.8934897936461677
 10
-0.1842628795203942
 20
0.8992959717015513
 10
-0.1891729979031394
 20
0.907398409488099
 10
-0.1936098952159724
 20
0.9179859175398
 10
-0.1971856748420372
 20
0.9311586539068873
 10
-0.1994144431868155
 20
0.9465697290246572
 10
-0.1999999999699529
 20
0.9603553597638614
  0
LINE
  5
E7
330
8A
100
AcDbEntity
  8
AM_9
100
AcDbLine
 10
0.1999999999999998
 20
0.9196361234023565
 30
0.0
 11
0.1999999999999998
 21
0.9758427525309792
 31
0.0
  0
LINE
  5
E8
330
8A
100
AcDbEntity
  8
AM_9
100
AcDbLine
 10
-0.2000000000000001
 20
0.9604182264020305
 30
0.0
 11
-0.2000000000000001
 21
0.9196361234023565
 31
0.0
  0
ELLIPSE
  5
E9
330
8A
100
AcDbEntity
  8
AM_9
100
AcDbEllipse
 10
0.0000000000000001
 20
0.9758427525309787
 30
0.0
 11
0.1999999999999998
 21
0.0
 31
0.0
210
0.0
220
0.0
230
1.0
 40
0.9238795325112857
 41
3.603538674156759
 42
6.283185307179586
  0
LWPOLYLINE
  5
EA
330
8A
100
AcDbEntity
  8
AM_9
100
AcDbPolyline
 90
        8
 70
     0
 43
0.0
 10
-0.1999999999699529
 20
0.9603553597638614
 10
-0.1999786710855128
 20
0.9630632006837813
 10
-0.1988321115509054
 20
0.9809858667731777
 10
-0.196164942998426
 20
0.9986929257715655
 10
-0.1920694300574959
 20
1.016863820800224
 10
-0.1870948030566196
 20
1.034204971324326
 10
-0.1815005947613931
 20
1.05112846261
 10
-0.1790373738501785
 20
1.05819571141579
  0
ELLIPSE
  5
EB
330
8A
100
AcDbEntity
  8
AM_9
100
AcDbEllipse
 10
-0.0000000000000001
 20
0.9196361234023567
 30
0.0
 11
0.2
 21
2.980232238769531E-9
 31
0.0
210
0.0
220
0.0
230
1.0
 40
0.923879532511286
 41
4.712388966617811
 42
9.424777945868218
  0
ELLIPSE
  5
EC
330
8A
100
AcDbEntity
  8
AM_9
100
AcDbEllipse
 10
-0.0000000000000001
 20
0.9196361234023549
 30
0.0
 11
0.218750000000001
 21
3.259629011154191E-9
 31
0.0
210
0.0
220
0.0
230
1.0
 40
0.9238795325112897
 41
1.047197536839217
 42
3.141592638688632
  0
ELLIPSE
  5
ED
330
8A
100
AcDbEntity
  8
AM_9
100
AcDbEllipse
 10
-0.0000000000000011
 20
0.9196361234023559
 30
0.0
 11
0.2187500000000009
 21
0.0
 31
0.0
210
0.0
220
0.0
230
1.0
 40
0.9238795325112871
 41
4.188790204786393
 42
7.330382858376182
  0
LWPOLYLINE
  5
EE
330
8A
100
AcDbEntity
  8
AM_9
100
AcDbPolyline
 90
        3
 70
     0
 43
0.0
 10
0.1093749999999999
 20
0.7063452171552581
 10
0.1640624999999998
 20
0.7364315514974634
 10
0.2187499999999999
 20
0.7681560916673343
  0
LWPOLYLINE
  5
EF
330
8A
100
AcDbEntity
  8
AM_9
100
AcDbPolyline
 90
        3
 70
     0
 43
0.0
 10
-0.2187500000000001
 20
0.7681560916673343
 10
-0.1643083897258505
 20
0.7365708011142902
 10
-0.1093750000000001
 20
0.7063452171552581
  0
ELLIPSE
  5
F0
330
8A
100
AcDbEntity
  8
AM_9
100
AcDbEllipse
 10
-0.0000000000000011
 20
0.8813677801658482
 30
0.0
 11
0.218750000000001
 21
0.0
 31
0.0
210
0.0
220
0.0
230
1.0
 40
0.9238795325112868
 41
5.235987755982991
 42
6.283185307179586
  0
ELLIPSE
  5
F1
330
8A
100
AcDbEntity
  8
AM_9
100
AcDbEllipse
 10
-0.0000000000000003
 20
0.8813677801658464
 30
0.0
 11
0.2187500000000003
 21
0.0
 31
0.0
210
0.0
220
0.0
230
1.0
 40
0.923879532511289
 41
0.0
 42
2.094395102393194
  0
ELLIPSE
  5
F2
330
8A
100
AcDbEntity
  8
AM_9
100
AcDbEllipse
 10
0.0
 20
0.8813677801658464
 30
0.0
 11
0.2187500000000001
 21
0.0
 31
0.0
210
0.0
220
0.0
230
1.0
 40
0.923879532511289
 41
2.094395102393194
 42
3.141592653589793
  0
ELLIPSE
  5
F3
330
8A
100
AcDbEntity
  8
AM_9
100
AcDbEllipse
 10
0.0000000000000008
 20
0.8813677801658482
 30
0.0
 11
0.218750000000001
 21
0.0
 31
0.0
210
0.0
220
0.0
230
1.0
 40
0.9238795325112868
 41
3.141592653589793
 42
5.235987755982983
  0
LINE
  5
F4
330
8A
100
AcDbEntity
  8
AM_9
100
AcDbLine
 10
0.2187499999999999
 20
1.03284781190087
 30
0.0
 11
0.2187499999999999
 21
0.7681560916673343
 31
0.0
  0
LWPOLYLINE
  5
F5
330
8A
100
AcDbEntity
  8
AM_9
100
AcDbPolyline
 90
        3
 70
     0
 43
0.0
 10
0.1093749999999998
 20
1.094658686412946
 10
0.1640624999999998
 20
1.064572352070741
 10
0.2187499999999999
 20
1.03284781190087
  0
LWPOLYLINE
  5
F6
330
8A
100
AcDbEntity
  8
AM_9
100
AcDbPolyline
 90
        3
 70
     0
 43
0.0
 10
-0.0000000000000001
 20
1.149529520574596
 10
0.0544416102741495
 20
1.123036272981474
 10
0.1093749999999998
 20
1.094658686412946
  0
LWPOLYLINE
  5
F7
330
8A
100
AcDbEntity
  8
AM_9
100
AcDbPolyline
 90
        3
 70
     0
 43
0.0
 10
0.2187499999999999
 20
1.001519509014787
 10
0.1643083897258503
 20
1.028012756607908
 10
0.1093749999999999
 20
1.056390343176437
  0
LINE
  5
F8
330
8A
100
AcDbEntity
  8
AM_9
100
AcDbLine
 10
-0.0000000000000001
 20
1.149529520574596
 30
0.0
 11
-0.0000000000000001
 21
1.118201217688513
 31
0.0
  0
LWPOLYLINE
  5
F9
330
8A
100
AcDbEntity
  8
AM_9
100
AcDbPolyline
 90
        3
 70
     0
 43
0.0
 10
-0.109375
 20
1.094658686412946
 10
-0.0546875000000001
 20
1.122913206407604
 10
-0.0000000000000001
 20
1.149529520574596
  0
LWPOLYLINE
  5
FA
330
8A
100
AcDbEntity
  8
AM_9
100
AcDbPolyline
 90
        3
 70
     0
 43
0.0
 10
-0.2187500000000001
 20
1.03284781190087
 10
-0.1643083897258505
 20
1.064433102453914
 10
-0.109375
 20
1.094658686412946
  0
LINE
  5
FB
330
8A
100
AcDbEntity
  8
AM_9
100
AcDbLine
 10
-0.2187500000000001
 20
1.03284781190087
 30
0.0
 11
-0.2187500000000001
 21
0.7681560916673343
 31
0.0
  0
LWPOLYLINE
  5
FC
330
8A
100
AcDbEntity
  8
AM_9
100
AcDbPolyline
 90
        3
 70
     0
 43
0.0
 10
-0.1093750000000001
 20
1.056390343176437
 10
-0.1640625000000001
 20
1.028135823181779
 10
-0.2187500000000001
 20
1.001519509014787
  0
LWPOLYLINE
  5
FD
330
8A
100
AcDbEntity
  8
AM_9
100
AcDbPolyline
 90
        3
 70
     0
 43
0.0
 10
0.1093749999999999
 20
1.056390343176437
 10
0.0546874999999999
 20
1.086476677518642
 10
-0.0000000000000001
 20
1.118201217688513
  0
LWPOLYLINE
  5
FE
330
8A
100
AcDbEntity
  8
AM_9
100
AcDbPolyline
 90
        3
 70
     0
 43
0.0
 10
-0.0000000000000001
 20
1.118201217688513
 10
-0.0544416102741497
 20
1.086615927135469
 10
-0.1093750000000001
 20
1.056390343176437
  0
ELLIPSE
  5
FF
330
8A
100
AcDbEntity
  8
AM_9
100
AcDbEllipse
 10
-0.0000000000000001
 20
0.8813677801658477
 30
0.0
 11
0.1999999999999999
 21
0.0
 31
0.0
210
0.0
220
0.0
230
1.0
 40
0.9238795325112873
 41
3.141592653589793
 42
4.71238898038469
  0
ELLIPSE
  5
100
330
8A
100
AcDbEntity
  8
AM_9
100
AcDbEllipse
 10
-0.0000000000000001
 20
0.8514706370123248
 30
0.0
 11
0.2
 21
0.0
 31
0.0
210
0.0
220
0.0
230
1.0
 40
0.9238795325112865
 41
3.141592653589793
 42
4.71238898038469
  0
LINE
  5
101
330
8A
100
AcDbEntity
  8
AM_9
100
AcDbLine
 10
0.1999999999999998
 20
0.8514706370123248
 30
0.0
 11
0.1999999999999998
 21
0.8813677801658476
 31
0.0
  0
LINE
  5
102
330
8A
100
AcDbEntity
  8
AM_9
100
AcDbLine
 10
-0.2000000000000001
 20
0.8813677801658474
 30
0.0
 11
-0.2000000000000001
 21
0.8514706370123248
 31
0.0
  0
ELLIPSE
  5
103
330
8A
100
AcDbEntity
  8
AM_9
100
AcDbEllipse
 10
-0.0000000000000001
 20
0.8813677801658475
 30
0.0
 11
0.2
 21
0.0
 31
0.0
210
0.0
220
0.0
230
1.0
 40
0.923879532511287
 41
0.0
 42
3.141592653589793
  0
ELLIPSE
  5
104
330
8A
100
AcDbEntity
  8
AM_9
100
AcDbEllipse
 10
-0.0000000000000004
 20
0.8813677801658479
 30
0.0
 11
0.2000000000000002
 21
2.980232238769535E-9
 31
0.0
210
0.0
220
0.0
230
1.0
 40
0.9238795325112871
 41
4.712388966617813
 42
6.283187037607677
  0
ELLIPSE
  5
105
330
8A
100
AcDbEntity
  8
AM_9
100
AcDbEllipse
 10
-0.0000000000000001
 20
0.851470637012325
 30
0.0
 11
0.1999999999999999
 21
0.0
 31
0.0
210
0.0
220
0.0
230
1.0
 40
0.9238795325112867
 41
0.0
 42
3.141592653589793
  0
ELLIPSE
  5
106
330
8A
100
AcDbEntity
  8
AM_9
100
AcDbEllipse
 10
-0.0000000000000001
 20
0.8514706370123248
 30
0.0
 11
0.1999999999999999
 21
0.0
 31
0.0
210
0.0
220
0.0
230
1.0
 40
0.9238795325112862
 41
4.71238898038469
 42
6.283185307179586
  0
ELLIPSE
  5
107
330
8A
100
AcDbEntity
  8
AM_9
100
AcDbEllipse
 10
-0.0000000000000004
 20
0.8514706370123246
 30
0.0
 11
0.1915112338502292
 21
0.0
 31
0.0
210
0.0
220
0.0
230
1.0
 40
0.9238795325112862
 41
3.21711236156457
 42
4.71238898038469
  0
LINE
  5
108
330
8A
100
AcDbEntity
  8
AM_9
100
AcDbLine
 10
0.1848888035863233
 20
0.7639242546411515
 30
0.0
 11
0.1909653774006853
 21
0.8381213825883378
 31
0.0
  0
LINE
  5
109
330
8A
100
AcDbEntity
  8
AM_9
100
AcDbLine
 10
-0.1909653774006855
 20
0.8381213825883378
 30
0.0
 11
-0.1848888035863235
 21
0.7639242546411515
 31
0.0
  0
ELLIPSE
  5
10A
330
8A
100
AcDbEntity
  8
AM_9
100
AcDbEllipse
 10
-0.0000000000000001
 20
0.8514706370123247
 30
0.0
 11
0.1915112338502294
 21
0.0
 31
0.0
210
0.0
220
0.0
230
1.0
 40
0.9238795325112897
 41
4.71238898038469
 42
9.500297668744157
  0
ELLIPSE
  5
10B
330
8A
100
AcDbEntity
  8
AM_9
100
AcDbEllipse
 10
-0.0000000000000001
 20
0.7768487319093099
 30
0.0
 11
0.1854172907249859
 21
0.0
 31
0.0
210
0.0
220
0.0
230
1.0
 40
0.923879532511289
 41
4.71238898038469
 42
9.500297668744157
  0
ELLIPSE
  5
10C
330
8A
100
AcDbEntity
  8
AM_9
100
AcDbEllipse
 10
-0.0000000000000001
 20
0.7768487319093099
 30
0.0
 11
0.1854172907249859
 21
0.0
 31
0.0
210
0.0
220
0.0
230
1.0
 40
0.9238795325112878
 41
3.217112361564574
 42
4.71238898038469
  0
ELLIPSE
  5
10D
330
8A
100
AcDbEntity
  8
AM_9
100
AcDbEllipse
 10
-0.0000000000000001
 20
0.7677586361824614
 30
0.0
 11
-0.1616637258772237
 21
1.979809644337772E-17
 31
0.0
210
0.0
220
0.0
230
1.0
 40
0.923879532511287
 41
0.0
 42
6.283185307179586
  0
ELLIPSE
  5
10E
330
8A
100
AcDbEntity
  8
AM_9
100
AcDbEllipse
 10
-0.4687500000000001
 20
1.054757004056431
 30
0.0
 11
0.0181791150852802
 21
0.1018733365805335
 31
0.0
210
0.0
220
0.0
230
1.0
 40
0.3904483620877283
 41
0.0
 42
6.283185307179586
  0
ELLIPSE
  5
10F
330
8A
100
AcDbEntity
  8
AM_9
100
AcDbEllipse
 10
-0.3994303217889757
 20
1.042387031204147
 30
0.0
 11
0.02444465658260032
 21
0.1369845955621487
 31
0.0
210
0.0
220
0.0
230
1.0
 40
0.3904483620877284
 41
0.0
 42
6.283185307179586
  0
ELLIPSE
  5
110
330
8A
100
AcDbEntity
  8
AM_9
100
AcDbEllipse
 10
-0.2013892028241882
 20
1.007046946996416
 30
0.0
 11
0.01932403971698822
 21
0.1082893415300705
 31
0.0
210
0.0
220
0.0
230
1.0
 40
0.3904483620877298
 41
0.0
 42
6.283185307179586
  0
ENDBLK
  5
8D
330
8A
100
AcDbEntity
  8
0
100
AcDbBlockEnd
  0
BLOCK
  5
113
330
111
100
AcDbEntity
  8
0
100
AcDbBlockBegin
  2
3_1_1_2C_1_0_in_023078_2
 70
     2
 10
0.0
 20
0.0
 30
0.0
  3
3_1_1_2C_1_0_in_023078_2
  1

  0
ATTDEF
  5
115
330
111
100
AcDbEntity
  8
AM_6
100
AcDbText
 10
6.69
 20
1.593750000000008
 30
0.0
 40
0.5
  1
E-Type Collar -Inch
100
AcDbAttributeDefinition
  3

  2
NN
 70
     8
280
     0
  0
ATTDEF
  5
116
330
111
100
AcDbEntity
  8
AM_6
100
AcDbText
 10
6.69
 20
1.093750000000008
 30
0.0
 40
0.5
  1
E-Type Bearings
100
AcDbAttributeDefinition
  3

  2
NT
 70
     8
280
     0
  0
ATTDEF
  5
117
330
111
100
AcDbEntity
  8
AM_6
100
AcDbText
 10
6.69
 20
0.5937500000000075
 30
0.0
 40
0.5
  1
1-1/2C
100
AcDbAttributeDefinition
  3

  2
NB
 70
     8
280
     0
  0
ATTDEF
  5
118
330
111
100
AcDbEntity
  8
AM_6
100
AcDbText
 10
6.69
 20
0.0937500000000075
 30
0.0
 40
0.5
  1
$BORE.C
100
AcDbAttributeDefinition
  3

  2
NBSYN
 70
     8
280
     0
  0
ATTDEF
  5
119
330
111
100
AcDbEntity
  8
AM_6
100
AcDbText
 10
6.69
 20
-0.4062499999999925
 30
0.0
 40
0.5
  1
1-1/2C
100
AcDbAttributeDefinition
  3

  2
LINA
 70
     8
280
     0
  0
ATTDEF
  5
11A
330
111
100
AcDbEntity
  8
AM_6
100
AcDbText
 10
6.69
 20
-0.9062499999999925
 30
0.0
 40
0.5
  1
1-1/2
100
AcDbAttributeDefinition
  3

  2
BORE
 70
     8
280
     0
  0
ATTDEF
  5
11B
330
111
100
AcDbEntity
  8
AM_6
100
AcDbText
 10
6.69
 20
-1.406249999999992
 30
0.0
 40
0.5
  1
3.18750
100
AcDbAttributeDefinition
  3

  2
L
 70
     8
280
     0
  0
ATTDEF
  5
11C
330
111
100
AcDbEntity
  8
AM_6
100
AcDbText
 10
6.69
 20
-1.906249999999992
 30
0.0
 40
0.5
  1
3.38
100
AcDbAttributeDefinition
  3

  2
A
 70
     8
280
     0
  0
ATTDEF
  5
11D
330
111
100
AcDbEntity
  8
AM_6
100
AcDbText
 10
6.69
 20
-2.406249999999992
 30
0.0
 40
0.5
  1
1.50
100
AcDbAttributeDefinition
  3

  2
B
 70
     8
280
     0
  0
ATTDEF
  5
11E
330
111
100
AcDbEntity
  8
AM_6
100
AcDbText
 10
6.69
 20
-2.906249999999992
 30
0.0
 40
0.5
  1
2.06
100
AcDbAttributeDefinition
  3

  2
C
 70
     8
280
     0
  0
ATTDEF
  5
11F
330
111
100
AcDbEntity
  8
AM_6
100
AcDbText
 10
6.69
 20
-3.406249999999992
 30
0.0
 40
0.5
  1
3.25
100
AcDbAttributeDefinition
  3

  2
D
 70
     8
280
     0
  0
ATTDEF
  5
120
330
111
100
AcDbEntity
  8
AM_6
100
AcDbText
 10
6.69
 20
-3.906249999999992
 30
0.0
 40
0.5
  1
0.35
100
AcDbAttributeDefinition
  3

  2
E
 70
     8
280
     0
  0
ATTDEF
  5
121
330
111
100
AcDbEntity
  8
AM_6
100
AcDbText
 10
6.69
 20
-4.406249999999993
 30
0.0
 40
0.5
  1
0.28
100
AcDbAttributeDefinition
  3

  2
F
 70
     8
280
     0
  0
ATTDEF
  5
122
330
111
100
AcDbEntity
  8
AM_6
100
AcDbText
 10
6.69
 20
-4.906249999999993
 30
0.0
 40
0.5
  1
5/16-18
100
AcDbAttributeDefinition
  3

  2
CS
 70
     8
280
     0
  0
ATTDEF
  5
123
330
111
100
AcDbEntity
  8
AM_6
100
AcDbText
 10
6.69
 20
-5.406249999999993
 30
0.0
 40
0.5
  1
0.3125
100
AcDbAttributeDefinition
  3

  2
NDM
 70
     8
280
     0
  0
ATTDEF
  5
124
330
111
100
AcDbEntity
  8
AM_6
100
AcDbText
 10
6.69
 20
-5.906249999999993
 30
0.0
 40
0.5
  1
0.2520
100
AcDbAttributeDefinition
  3

  2
KDM
 70
     8
280
     0
  0
ATTDEF
  5
125
330
111
100
AcDbEntity
  8
AM_6
100
AcDbText
 10
6.69
 20
-6.406249999999993
 30
0.0
 40
0.5
  1
baldor
100
AcDbAttributeDefinition
  3

  2
COMPANY
 70
     8
280
     0
  0
LINE
  5
126
330
111
100
AcDbEntity
  8
AM_9
100
AcDbLine
 10
1.2838
 20
1.039216666666667
 30
0.0
 11
1.274766803003413
 21
1.03018346967008
 31
0.0
  0
LINE
  5
127
330
111
100
AcDbEntity
  8
AM_9
100
AcDbLine
 10
1.545203848447158
 20
1.030212818219509
 30
0.0
 11
1.5362
 21
1.039216666666667
 31
0.0
  0
LINE
  5
128
330
111
100
AcDbEntity
  8
AM_9
100
AcDbLine
 10
1.5362
 20
1.5637
 30
0.0
 11
1.56597265308321
 21
1.59347265308321
 31
0.0
  0
LINE
  5
129
330
111
100
AcDbEntity
  8
AM_9
100
AcDbLine
 10
1.253833880180152
 20
1.593666119819848
 30
0.0
 11
1.2838
 21
1.5637
 31
0.0
  0
LINE
  5
12A
330
111
100
AcDbEntity
  8
AM_9
100
AcDbLine
 10
1.2838
 20
1.5637
 30
0.0
 11
1.5362
 21
1.5637
 31
0.0
  0
LINE
  5
12B
330
111
100
AcDbEntity
  8
AM_9
100
AcDbLine
 10
1.2838
 20
1.039216666666667
 30
0.0
 11
1.5362
 21
1.039216666666667
 31
0.0
  0
LINE
  5
12C
330
111
100
AcDbEntity
  8
AM_9
100
AcDbLine
 10
1.5362
 20
1.039216666666667
 30
0.0
 11
1.5362
 21
1.5637
 31
0.0
  0
LINE
  5
12D
330
111
100
AcDbEntity
  8
AM_9
100
AcDbLine
 10
1.2838
 20
1.5637
 30
0.0
 11
1.2838
 21
1.039216666666667
 31
0.0
  0
LWPOLYLINE
  5
12E
330
111
100
AcDbEntity
  8
AM_9
100
AcDbPolyline
 90
       39
 70
     0
 43
0.0
 10
1.312667359787584
 20
0.3414877020853743
 10
1.327477477419787
 20
0.3279251419085204
 10
1.344654393636444
 20
0.31630880255101
 10
1.365322012062167
 20
0.306713511957813
 10
1.388214106283163
 20
0.3006345768769288
 10
1.409487530474031
 20
0.2987883756601651
 10
1.431438395267772
 20
0.3005757763541386
 10
1.451369843428373
 20
0.3055570261096213
 10
1.470703936932307
 20
0.3137752871288119
 10
1.488475561672248
 20
0.3248399977217072
 10
1.504611883531862
 20
0.3386912780498512
 10
1.518897243092783
 20
0.355391772620393
 10
1.530531134445214
 20
0.3743277882185123
 10
1.539196442012869
 20
0.3954419754140833
 10
1.544246449480167
 20
0.417945898881077
 10
1.545291658032939
 20
0.4409460914007933
 10
1.542075427349383
 20
0.4641633987508644
 10
1.534747146372806
 20
0.4859017515523796
 10
1.523033245786089
 20
0.5065718213101916
 10
1.508147654098444
 20
0.5241025110085914
 10
1.489328395851474
 20
0.5393892083081748
 10
1.469403331636061
 20
0.5504248202840379
 10
1.446688340667502
 20
0.5583937058104248
 10
1.425267540522129
 20
0.5622498799266898
 10
1.402656395295419
 20
0.5628589020546653
 10
1.382171739643921
 20
0.5603903605348076
 10
1.361898058575516
 20
0.5549311496939862
 10
1.343302805808238
 20
0.5468828770005135
 10
1.326005404729403
 20
0.5361185258510903
 10
1.31034745347145
 20
0.5226015279994005
 10
1.296999373010244
 20
0.5066182691986384
 10
1.286198321888069
 20
0.4879740492712977
 10
1.278710214943634
 20
0.4673064423146865
 10
1.274958311504049
 20
0.4450665099179475
 10
1.275304761947525
 20
0.4216749122879648
 10
1.279846552164755
 20
0.3985994247125846
 10
1.288793764097206
 20
0.3756687845535949
 10
1.299250141863336
 20
0.3579950751315242
 10
1.312667359787584
 20
0.3414877020853743
  0
LINE
  5
12F
330
111
100
AcDbEntity
  8
AM_9
100
AcDbLine
 10
1.69
 20
1.03
 30
0.0
 11
1.544913576264269
 21
1.03
 31
0.0
  0
LINE
  5
130
330
111
100
AcDbEntity
  8
AM_9
100
AcDbLine
 10
1.275017871534682
 20
1.03
 30
0.0
 11
1.13
 21
1.03
 31
0.0
  0
LINE
  5
131
330
111
100
AcDbEntity
  8
AM_9
100
AcDbLine
 10
1.13
 20
-1.03
 30
0.0
 11
1.69
 21
-1.03
 31
0.0
  0
LWPOLYLINE
  5
132
330
111
100
AcDbEntity
  8
AM_9
100
AcDbPolyline
 90
       21
 70
     0
 43
0.0
 10
1.274583333333756
 20
1.029999999999936
 10
1.274759337983454
 20
1.029971017937648
 10
1.278033471004588
 20
1.029484094371728
 10
1.285600752480754
 20
1.028395479319026
 10
1.29724012113757
 20
1.026846142357091
 10
1.31247660116828
 20
1.025039350571409
 10
1.331069779287331
 20
1.023180793465365
 10
1.351401886865825
 20
1.021594231032482
 10
1.3737605724102
 20
1.020381323498259
 10
1.395539899785714
 20
1.019754586583837
 10
1.41777526370562
 20
1.019665111089137
 10
1.438528298899274
 20
1.020099122655423
 10
1.458490383472098
 20
1.020973842937414
 10
1.477283698131492
 20
1.022214775619542
 10
1.494326636269272
 20
1.023680542271872
 10
1.510118201389453
 20
1.025328824475396
 10
1.523246269160134
 20
1.026908014786656
 10
1.534094504743316
 20
1.028353437793056
 10
1.54140434658858
 20
1.029401236136898
 10
1.545086372368504
 20
1.029947801174198
 10
1.545416666666543
 20
1.029999999999981
  0
ELLIPSE
  5
133
330
111
100
AcDbEntity
  8
AM_9
100
AcDbEllipse
 10
1.409999999999999
 20
0.4391919412386298
 30
0.0
 11
0.126200000000001
 21
0.0
 31
0.0
210
0.0
220
0.0
230
1.0
 40
0.9063077870366496
 41
1.820522343075722
 42
7.604255617693644
  0
LINE
  5
134
330
111
100
AcDbEntity
  8
AM_9
100
AcDbLine
 10
1.5362
 20
0.4391919412386306
 30
0.0
 11
1.5362
 21
0.6608481758839317
 31
0.0
  0
LINE
  5
135
330
111
100
AcDbEntity
  8
AM_9
100
AcDbLine
 10
1.2838
 20
0.6608481758839317
 30
0.0
 11
1.2838
 21
0.4391919412386306
 31
0.0
  0
LINE
  5
136
330
111
100
AcDbEntity
  8
AM_9
100
AcDbLine
 10
1.15625
 20
1.59375
 30
0.0
 11
1.13
 21
1.59375
 31
0.0
  0
LINE
  5
137
330
111
100
AcDbEntity
  8
AM_9
100
AcDbLine
 10
1.13
 20
-1.59375
 30
0.0
 11
1.15625
 21
-1.59375
 31
0.0
  0
LINE
  5
138
330
111
100
AcDbEntity
  8
AM_9
100
AcDbLine
 10
1.13
 20
-1.59375
 30
0.0
 11
1.13
 21
1.59375
 31
0.0
  0
LINE
  5
13A
330
111
100
AcDbEntity
  8
AM_5
100
AcDbLine
 10
1.56625
 20
1.59375
 30
0.0
 11
1.56625
 21
1.03
 31
0.0
  0
LINE
  5
13B
330
111
100
AcDbEntity
  8
AM_5
100
AcDbLine
 10
1.25375
 20
1.59375
 30
0.0
 11
1.25375
 21
1.03
 31
0.0
  0
ELLIPSE
  5
13D
330
111
100
AcDbEntity
  8
AM_4
100
AcDbEllipse
 10
1.41
 20
0.4391919412386308
 30
0.0
 11
0.1261999999999994
 21
0.0
 31
0.0
210
0.0
220
0.0
230
1.0
 40
0.9063077870366524
 41
1.32107031051406
 42
1.820522343075731
  0
LWPOLYLINE
  5
13E
330
111
100
AcDbEntity
  8
AM_4
100
AcDbPolyline
 90
       39
 70
     0
 43
0.0
 10
1.302035741360839
 20
0.5742671341502502
 10
1.286660374216307
 20
0.5894421734857704
 10
1.273605643806728
 20
0.6069020768209407
 10
1.262850842838766
 20
0.6277616720197077
 10
1.256004892053767
 20
0.6505866762335909
 10
1.253755993704051
 20
0.67236394576334
 10
1.255683727619192
 20
0.69467119914592
 10
1.261451722489891
 20
0.7151730262221607
 10
1.271170150415564
 20
0.7349485123055803
 10
1.284229446524596
 20
0.7527221514503742
 10
1.300782669028555
 20
0.768725133178222
 10
1.320314577097021
 20
0.7822949609477072
 10
1.342667852795879
 20
0.7931787374261758
 10
1.36714403571168
 20
0.8008786286055251
 10
1.393444257258941
 20
0.805121899781608
 10
1.42021832858838
 20
0.8055739726674742
 10
1.447461597008439
 20
0.8020701093086091
 10
1.473084275756936
 20
0.7948026532946125
 10
1.497609886466756
 20
0.7834894020720137
 10
1.518559562986879
 20
0.769261346386487
 10
1.536901400593611
 20
0.7514114593700666
 10
1.550433912963625
 20
0.7322376568894177
 10
1.560247651097061
 20
0.710425347924094
 10
1.565219618922951
 20
0.6890036411171304
 10
1.566025087232003
 20
0.6662909491229586
 10
1.56274676590925
 20
0.6449596952498247
 10
1.555412890510343
 20
0.6236948736703435
 10
1.544618204764219
 20
0.6041655460205185
 10
1.530163171163254
 20
0.5859281661990245
 10
1.512589660610772
 20
0.5698829525912813
 10
1.491949076791518
 20
0.5562666800518411
 10
1.468825438722636
 20
0.5457141011302595
 10
1.443516886619148
 20
0.5386156552273357
 10
1.417129486913697
 20
0.5354720946485647
 10
1.389804746460742
 20
0.5365110299147997
 10
1.363416711546491
 20
0.5417504576062095
 10
1.337614756628621
 20
0.5513757351630286
 10
1.319149312092224
 20
0.5615768595915422
 10
1.302035741310885
 20
0.574267133975753
  0
LINE
  5
13F
330
111
100
AcDbEntity
  8
AM_4
100
AcDbLine
 10
1.596666666666667
 20
1.59375
 30
0.0
 11
1.565741099419557
 21
1.59375
 31
0.0
  0
LINE
  5
140
330
111
100
AcDbEntity
  8
AM_4
100
AcDbLine
 10
1.253903365381386
 20
1.59375
 30
0.0
 11
1.15625
 21
1.59375
 31
0.0
  0
LINE
  5
141
330
111
100
AcDbEntity
  8
AM_4
100
AcDbLine
 10
1.15625
 20
-1.59375
 30
0.0
 11
1.596666666666667
 21
-1.59375
 31
0.0
  0
LWPOLYLINE
  5
142
330
111
100
AcDbEntity
  8
AM_4
100
AcDbPolyline
 90
       21
 70
     0
 43
0.0
 10
1.566250000000084
 20
1.593750000000008
 10
1.565553023449874
 20
1.593686782974665
 10
1.561183521067353
 20
1.593304856639171
 10
1.552969767863824
 20
1.592613460970913
 10
1.541222479355883
 20
1.591691944400744
 10
1.525853208639566
 20
1.590604279059677
 10
1.507627433708658
 20
1.589487346538133
 10
1.486071226220943
 20
1.58841333486801
 10
1.462567664558427
 20
1.587542062825486
 10
1.436697724623304
 20
1.586954470546024
 10
1.410108152414684
 20
1.586746529139646
 10
1.382917962225475
 20
1.586960669130704
 10
1.356491165259019
 20
1.587570790754727
 10
1.331587030362224
 20
1.588517747420179
 10
1.308963648093419
 20
1.589681765957182
 10
1.289785863312418
 20
1.590899448107769
 10
1.274137214481603
 20
1.592046809220329
 10
1.263052410748302
 20
1.59294295114521
 10
1.256147953907423
 20
1.593537514081812
 10
1.253777463179808
 20
1.593746335309296
 10
1.253750000000032
 20
1.593749999999997
  0
LINE
  5
143
330
111
100
AcDbEntity
  8
AM_4
100
AcDbLine
 10
1.69
 20
-1.500416666666667
 30
0.0
 11
1.69
 21
1.500416666666667
 31
0.0
  0
LINE
  5
144
330
111
100
AcDbEntity
  8
AM_4
100
AcDbLine
 10
1.596666666666667
 20
-1.59375
 30
0.0
 11
1.596666666666667
 21
1.59375
 31
0.0
  0
ARC
  5
145
330
111
100
AcDbEntity
  8
AM_4
100
AcDbCircle
 10
1.596666666666666
 20
1.500416666666667
 30
0.0
 40
0.0933333333333335
100
AcDbArc
 50
0.0
 51
90.0
  0
ARC
  5
146
330
111
100
AcDbEntity
  8
AM_4
100
AcDbCircle
 10
1.596666666666666
 20
-1.500416666666667
 30
0.0
 40
0.0933333333333335
100
AcDbArc
 50
270.0
 51
0.0
  0
ELLIPSE
  5
147
330
111
100
AcDbEntity
  8
AM_4
100
AcDbEllipse
 10
1.41
 20
0.6608481758839319
 30
0.0
 11
0.1262000000000003
 21
0.0
 31
0.0
210
0.0
220
0.0
230
1.0
 40
0.9063077870366496
 41
0.0
 42
6.283185307179586
  0
ENDBLK
  5
114
330
111
100
AcDbEntity
  8
0
100
AcDbBlockEnd
  0
BLOCK
  5
14A
330
148
100
AcDbEntity
  8
0
100
AcDbBlockBegin
  2
4_1_1_2C_2_0_in_023078_2
 70
     2
 10
0.0
 20
0.0
 30
0.0
  3
4_1_1_2C_2_0_in_023078_2
  1

  0
ATTDEF
  5
14C
330
148
100
AcDbEntity
  8
AM_6
100
AcDbText
 10
3.87
 20
1.59375
 30
0.0
 40
0.5
  1
E-Type Collar -Inch
100
AcDbAttributeDefinition
  3

  2
NN
 70
     8
280
     0
  0
ATTDEF
  5
14D
330
148
100
AcDbEntity
  8
AM_6
100
AcDbText
 10
3.87
 20
1.09375
 30
0.0
 40
0.5
  1
E-Type Bearings
100
AcDbAttributeDefinition
  3

  2
NT
 70
     8
280
     0
  0
ATTDEF
  5
14E
330
148
100
AcDbEntity
  8
AM_6
100
AcDbText
 10
3.87
 20
0.59375
 30
0.0
 40
0.5
  1
1-1/2C
100
AcDbAttributeDefinition
  3

  2
NB
 70
     8
280
     0
  0
ATTDEF
  5
14F
330
148
100
AcDbEntity
  8
AM_6
100
AcDbText
 10
3.87
 20
0.09375
 30
0.0
 40
0.5
  1
$BORE.C
100
AcDbAttributeDefinition
  3

  2
NBSYN
 70
     8
280
     0
  0
ATTDEF
  5
150
330
148
100
AcDbEntity
  8
AM_6
100
AcDbText
 10
3.87
 20
-0.40625
 30
0.0
 40
0.5
  1
1-1/2C
100
AcDbAttributeDefinition
  3

  2
LINA
 70
     8
280
     0
  0
ATTDEF
  5
151
330
148
100
AcDbEntity
  8
AM_6
100
AcDbText
 10
3.87
 20
-0.90625
 30
0.0
 40
0.5
  1
1-1/2
100
AcDbAttributeDefinition
  3

  2
BORE
 70
     8
280
     0
  0
ATTDEF
  5
152
330
148
100
AcDbEntity
  8
AM_6
100
AcDbText
 10
3.87
 20
-1.40625
 30
0.0
 40
0.5
  1
3.18750
100
AcDbAttributeDefinition
  3

  2
L
 70
     8
280
     0
  0
ATTDEF
  5
153
330
148
100
AcDbEntity
  8
AM_6
100
AcDbText
 10
3.87
 20
-1.90625
 30
0.0
 40
0.5
  1
3.38
100
AcDbAttributeDefinition
  3

  2
A
 70
     8
280
     0
  0
ATTDEF
  5
154
330
148
100
AcDbEntity
  8
AM_6
100
AcDbText
 10
3.87
 20
-2.40625
 30
0.0
 40
0.5
  1
1.50
100
AcDbAttributeDefinition
  3

  2
B
 70
     8
280
     0
  0
ATTDEF
  5
155
330
148
100
AcDbEntity
  8
AM_6
100
AcDbText
 10
3.87
 20
-2.90625
 30
0.0
 40
0.5
  1
2.06
100
AcDbAttributeDefinition
  3

  2
C
 70
     8
280
     0
  0
ATTDEF
  5
156
330
148
100
AcDbEntity
  8
AM_6
100
AcDbText
 10
3.87
 20
-3.40625
 30
0.0
 40
0.5
  1
3.25
100
AcDbAttributeDefinition
  3

  2
D
 70
     8
280
     0
  0
ATTDEF
  5
157
330
148
100
AcDbEntity
  8
AM_6
100
AcDbText
 10
3.87
 20
-3.90625
 30
0.0
 40
0.5
  1
0.35
100
AcDbAttributeDefinition
  3

  2
E
 70
     8
280
     0
  0
ATTDEF
  5
158
330
148
100
AcDbEntity
  8
AM_6
100
AcDbText
 10
3.87
 20
-4.40625
 30
0.0
 40
0.5
  1
0.28
100
AcDbAttributeDefinition
  3

  2
F
 70
     8
280
     0
  0
ATTDEF
  5
159
330
148
100
AcDbEntity
  8
AM_6
100
AcDbText
 10
3.87
 20
-4.90625
 30
0.0
 40
0.5
  1
5/16-18
100
AcDbAttributeDefinition
  3

  2
CS
 70
     8
280
     0
  0
ATTDEF
  5
15A
330
148
100
AcDbEntity
  8
AM_6
100
AcDbText
 10
3.87
 20
-5.40625
 30
0.0
 40
0.5
  1
0.3125
100
AcDbAttributeDefinition
  3

  2
NDM
 70
     8
280
     0
  0
ATTDEF
  5
15B
330
148
100
AcDbEntity
  8
AM_6
100
AcDbText
 10
3.87
 20
-5.90625
 30
0.0
 40
0.5
  1
0.2520
100
AcDbAttributeDefinition
  3

  2
KDM
 70
     8
280
     0
  0
ATTDEF
  5
15C
330
148
100
AcDbEntity
  8
AM_6
100
AcDbText
 10
3.87
 20
-6.40625
 30
0.0
 40
0.5
  1
baldor
100
AcDbAttributeDefinition
  3

  2
COMPANY
 70
     8
280
     0
  0
LINE
  5
15D
330
148
100
AcDbEntity
  8
AM_9
100
AcDbLine
 10
-1.2838
 20
1.039216666666667
 30
0.0
 11
-1.2838
 21
1.5637
 31
0.0
  0
LINE
  5
15E
330
148
100
AcDbEntity
  8
AM_9
100
AcDbLine
 10
-1.5362
 20
1.5637
 30
0.0
 11
-1.5362
 21
1.039216666666667
 31
0.0
  0
LINE
  5
15F
330
148
100
AcDbEntity
  8
AM_9
100
AcDbLine
 10
-1.5362
 20
1.039216666666667
 30
0.0
 11
-1.2838
 21
1.039216666666667
 31
0.0
  0
LINE
  5
160
330
148
100
AcDbEntity
  8
AM_9
100
AcDbLine
 10
-1.5362
 20
1.039216666666667
 30
0.0
 11
-1.545254312460441
 21
1.030162354206226
 31
0.0
  0
LINE
  5
161
330
148
100
AcDbEntity
  8
AM_9
100
AcDbLine
 10
-1.274804100935122
 20
1.030220767601788
 30
0.0
 11
-1.2838
 21
1.039216666666667
 31
0.0
  0
LINE
  5
162
330
148
100
AcDbEntity
  8
AM_9
100
AcDbLine
 10
-1.5362
 20
1.5637
 30
0.0
 11
-1.2838
 21
1.5637
 31
0.0
  0
LINE
  5
163
330
148
100
AcDbEntity
  8
AM_9
100
AcDbLine
 10
-1.2838
 20
1.5637
 30
0.0
 11
-1.25375
 21
1.59375
 31
0.0
  0
LINE
  5
164
330
148
100
AcDbEntity
  8
AM_9
100
AcDbLine
 10
-1.56625
 20
1.59375
 30
0.0
 11
-1.5362
 21
1.5637
 31
0.0
  0
LWPOLYLINE
  5
165
330
148
100
AcDbEntity
  8
AM_9
100
AcDbPolyline
 90
       38
 70
     0
 43
0.0
 10
-1.312116833062567
 20
0.3420727600107151
 10
-1.299502989187923
 20
0.3576428693506658
 10
-1.289323037174168
 20
0.3746144374717409
 10
-1.280605260310256
 20
0.3961116607543919
 10
-1.275691538561014
 20
0.4184119341135787
 10
-1.274759337983454
 20
0.4417378314205257
 10
-1.278033471004588
 20
0.4646207901325337
 10
-1.285600752480754
 20
0.4866404434838077
 10
-1.29724012113757
 20
0.5069596956867769
 10
-1.31247660116828
 20
0.5246885637191135
 10
-1.331069779287331
 20
0.53965474634039
 10
-1.351401886865825
 20
0.5507655984540466
 10
-1.3737605724102
 20
0.5585090037749478
 10
-1.395539899785714
 20
0.5623167344003627
 10
-1.41777526370562
 20
0.5628367738380132
 10
-1.438528298899274
 20
0.5602421549397789
 10
-1.458490383472098
 20
0.5547947228341842
 10
-1.477283698131492
 20
0.5465640775371879
 10
-1.494326636269272
 20
0.5358741898888103
 10
-1.510118201389453
 20
0.5221132796922197
 10
-1.523246269160133
 20
0.5062673685663547
 10
-1.534094504743316
 20
0.487316336983258
 10
-1.54140434658858
 20
0.4668691695546918
 10
-1.545086372368504
 20
0.4442869216571739
 10
-1.5446442526852
 20
0.4212014264218888
 10
-1.539904798856063
 20
0.3977991796571292
 10
-1.53098522440442
 20
0.3752258111704299
 10
-1.518116433877429
 20
0.354355082878247
 10
-1.501582906120251
 20
0.3357525884283232
 10
-1.48256210281257
 20
0.3207549751852316
 10
-1.461011188780093
 20
0.3092069346310651
 10
-1.43933959565837
 20
0.3021742393179065
 10
-1.416704484274784
 20
0.2989613574359889
 10
-1.395458653744419
 20
0.2996231599950119
 10
-1.374632304702638
 20
0.3037049028914041
 10
-1.355104663110747
 20
0.3109370494732723
 10
-1.337020782964523
 20
0.3210083704885995
 10
-1.312116833062567
 20
0.3420727600107151
  0
LINE
  5
166
330
148
100
AcDbEntity
  8
AM_9
100
AcDbLine
 10
-1.69
 20
-1.03
 30
0.0
 11
-1.13
 21
-1.03
 31
0.0
  0
LINE
  5
167
330
148
100
AcDbEntity
  8
AM_9
100
AcDbLine
 10
-1.13
 20
1.03
 30
0.0
 11
-1.27510349920866
 21
1.03
 31
0.0
  0
LINE
  5
168
330
148
100
AcDbEntity
  8
AM_9
100
AcDbLine
 10
-1.545033840512479
 20
1.03
 30
0.0
 11
-1.69
 21
1.03
 31
0.0
  0
LWPOLYLINE
  5
169
330
148
100
AcDbEntity
  8
AM_9
100
AcDbPolyline
 90
       21
 70
     0
 43
0.0
 10
-1.54541666666625
 20
1.029999999999937
 10
-1.545291658032939
 20
1.029981085276194
 10
-1.542075427349383
 20
1.029500183660362
 10
-1.534747146372806
 20
1.028445838517683
 10
-1.523033245786089
 20
1.026880884928272
 10
-1.508147654098444
 20
1.025108016048413
 10
-1.489328395851474
 20
1.023216557386044
 10
-1.469403331636061
 20
1.021644975878269
 10
-1.446688340667502
 20
1.020400023263992
 10
-1.425267540522129
 20
1.019763875754072
 10
-1.402656395295419
 20
1.019661377182346
 10
-1.382171739643921
 20
1.020073403156144
 10
-1.361898058575516
 20
1.02095243956671
 10
-1.343302805808238
 20
1.022168520518038
 10
-1.326005404729403
 20
1.02364885571841
 10
-1.31034745347145
 20
1.025276196241047
 10
-1.296999373010244
 20
1.02687673508421
 10
-1.286198321888069
 20
1.028314017784905
 10
-1.278710214943634
 20
1.029384392792492
 10
-1.274958311504049
 20
1.029943313047362
 10
-1.274583333333415
 20
1.029999999999988
  0
ELLIPSE
  5
16A
330
148
100
AcDbEntity
  8
AM_9
100
AcDbEllipse
 10
-1.41
 20
0.439191941238631
 30
0.0
 11
0.1261999999999994
 21
0.0
 31
0.0
210
0.0
220
0.0
230
1.0
 40
0.9063077870366498
 41
1.820522343075756
 42
3.141592653589793
  0
LINE
  5
16B
330
148
100
AcDbEntity
  8
AM_9
100
AcDbLine
 10
-1.2838
 20
0.4391919412386306
 30
0.0
 11
-1.2838
 21
0.6608481758839317
 31
0.0
  0
LINE
  5
16C
330
148
100
AcDbEntity
  8
AM_9
100
AcDbLine
 10
-1.5362
 20
0.6608481758839317
 30
0.0
 11
-1.5362
 21
0.4391919412386306
 31
0.0
  0
ELLIPSE
  5
16D
330
148
100
AcDbEntity
  8
AM_9
100
AcDbEllipse
 10
-1.41
 20
0.4391919412386305
 30
0.0
 11
0.1262000000000001
 21
0.0
 31
0.0
210
0.0
220
0.0
230
1.0
 40
0.9063077870366489
 41
3.141592653589793
 42
7.604255617693624
  0
LINE
  5
16E
330
148
100
AcDbEntity
  8
AM_9
100
AcDbLine
 10
-1.15625
 20
-1.59375
 30
0.0
 11
-1.13
 21
-1.59375
 31
0.0
  0
LINE
  5
16F
330
148
100
AcDbEntity
  8
AM_9
100
AcDbLine
 10
-1.13
 20
1.59375
 30
0.0
 11
-1.15625
 21
1.59375
 31
0.0
  0
LINE
  5
170
330
148
100
AcDbEntity
  8
AM_9
100
AcDbLine
 10
-1.319723015891335
 20
1.589090700921127
 30
0.0
 11
-1.302035741290261
 21
1.590097295473723
 31
0.0
  0
LINE
  5
171
330
148
100
AcDbEntity
  8
AM_9
100
AcDbLine
 10
-1.566249999999947
 20
1.593749999999995
 30
0.0
 11
-1.553444888749585
 21
1.592652847463143
 31
0.0
  0
LINE
  5
172
330
148
100
AcDbEntity
  8
AM_9
100
AcDbLine
 10
-1.13
 20
1.59375
 30
0.0
 11
-1.13
 21
-1.59375
 31
0.0
  0
LINE
  5
173
330
148
100
AcDbEntity
  8
AM_5
100
AcDbLine
 10
-1.56625
 20
1.59375
 30
0.0
 11
-1.56625
 21
1.03
 31
0.0
  0
LINE
  5
174
330
148
100
AcDbEntity
  8
AM_5
100
AcDbLine
 10
-1.25375
 20
1.59375
 30
0.0
 11
-1.25375
 21
1.03
 31
0.0
  0
ELLIPSE
  5
175
330
148
100
AcDbEntity
  8
AM_4
100
AcDbEllipse
 10
-1.409999999999998
 20
0.4391919412386224
 30
0.0
 11
0.1262000000000121
 21
0.0
 31
0.0
210
0.0
220
0.0
230
1.0
 40
0.9063077870366294
 41
1.321070310514072
 42
1.820522343075747
  0
ELLIPSE
  5
176
330
148
100
AcDbEntity
  8
AM_4
100
AcDbEllipse
 10
-1.41
 20
0.6608481758839317
 30
0.0
 11
0.1262000000000001
 21
0.0
 31
0.0
210
0.0
220
0.0
230
1.0
 40
0.9063077870366504
 41
3.141592653589793
 42
7.853981633974483
  0
ELLIPSE
  5
177
330
148
100
AcDbEntity
  8
AM_4
100
AcDbEllipse
 10
-1.41
 20
0.6608481758839323
 30
0.0
 11
0.1261999999999994
 21
0.0
 31
0.0
210
0.0
220
0.0
230
1.0
 40
0.9063077870366489
 41
1.570796326794897
 42
3.141592653589793
  0
LWPOLYLINE
  5
178
330
148
100
AcDbEntity
  8
AM_4
100
AcDbPolyline
 90
       38
 70
     0
 43
0.0
 10
-1.29084951027333
 20
0.5848545772668292
 10
-1.307178609735321
 20
0.5700743126870095
 10
-1.325647004987601
 20
0.5576247338838193
 10
-1.348887287332711
 20
0.5465852425632535
 10
-1.37372381104208
 20
0.5391873417499023
 10
-1.400387277666545
 20
0.5356067433712883
 10
-1.427313924642639
 20
0.5361957528074055
 10
-1.454171625897947
 20
0.5411048796538456
 10
-1.47976960305444
 20
0.5501724093843887
 10
-1.503179726787317
 20
0.5631188668689175
 10
-1.523862607660419
 20
0.5795776434617813
 10
-1.540622498636584
 20
0.5985094048049059
 10
-1.553566828964733
 20
0.6197463743376418
 10
-1.561841925913577
 20
0.6415758889309606
 10
-1.565879859576699
 20
0.6642374024907527
 10
-1.565553023449874
 20
0.6861215243049689
 10
-1.561183521067353
 20
0.7074963421248202
 10
-1.552969767863824
 20
0.7275667368583613
 10
-1.541222479355882
 20
0.7460600094637523
 10
-1.525853208639566
 20
0.762917771005613
 10
-1.507627433708658
 20
0.7773187408950307
 10
-1.486071226220943
 20
0.7894040953361525
 10
-1.462567664558427
 20
0.7982895717618065
 10
-1.436697724623304
 20
0.8039339491388862
 10
-1.410108152414684
 20
0.8058513160003625
 10
-1.382917962225475
 20
0.8038771538863404
 10
-1.356491165259019
 20
0.7980072460642719
 10
-1.331587030362224
 20
0.7882899679304802
 10
-1.308963648093419
 20
0.774968383639352
 10
-1.289785863312418
 20
0.7586783950642088
 10
-1.274137214481603
 20
0.7395880656732269
 10
-1.263052410748302
 20
0.7190969862344345
 10
-1.256147953907423
 20
0.697043897536407
 10
-1.253777463179808
 20
0.6751048333647564
 10
-1.255560676893019
 20
0.6529654919579864
 10
-1.261327242269759
 20
0.631732395736916
 10
-1.270810563615015
 20
0.611523179447677
 10
-1.290849510244519
 20
0.5848545772238694
  0
LINE
  5
179
330
148
100
AcDbEntity
  8
AM_4
100
AcDbLine
 10
-1.596666666666667
 20
-1.59375
 30
0.0
 11
-1.15625
 21
-1.59375
 31
0.0
  0
LINE
  5
17A
330
148
100
AcDbEntity
  8
AM_4
100
AcDbLine
 10
-1.15625
 20
1.59375
 30
0.0
 11
-1.25375
 21
1.59375
 31
0.0
  0
LINE
  5
17B
330
148
100
AcDbEntity
  8
AM_4
100
AcDbLine
 10
-1.56625
 20
1.59375
 30
0.0
 11
-1.596666666666667
 21
1.59375
 31
0.0
  0
LWPOLYLINE
  5
17C
330
148
100
AcDbEntity
  8
AM_4
100
AcDbPolyline
 90
       20
 70
     0
 43
0.0
 10
-1.253750000000015
 20
1.593749999999998
 10
-1.255683727619192
 20
1.593578397293294
 10
-1.261451722489891
 20
1.593079036533507
 10
-1.271170150415564
 20
1.592280098117872
 10
-1.284229446524596
 20
1.591290592070509
 10
-1.300782669028555
 20
1.590175373421191
 10
-1.320314577097021
 20
1.589060120756184
 10
-1.342667852795879
 20
1.588051315870141
 10
-1.36714403571168
 20
1.587275351148451
 10
-1.393444257258941
 20
1.586825466223331
 10
-1.42021832858838
 20
1.586776598595671
 10
-1.447461597008439
 20
1.587150630109865
 10
-1.473084275756936
 20
1.587891980158529
 10
-1.497609886466756
 20
1.588954409810338
 10
-1.518559562986879
 20
1.590134276945568
 10
-1.536901400593611
 20
1.591372456441679
 10
-1.550433912963624
 20
1.592408291728029
 10
-1.560247651097061
 20
1.593224211786769
 10
-1.565219618922951
 20
1.593658300223111
 10
-1.566249999999947
 20
1.593749999999995
  0
LINE
  5
17D
330
148
100
AcDbEntity
  8
AM_4
100
AcDbLine
 10
-1.69
 20
1.500416666666667
 30
0.0
 11
-1.69
 21
-1.500416666666667
 31
0.0
  0
ARC
  5
17E
330
148
100
AcDbEntity
  8
AM_4
100
AcDbCircle
 10
-1.596666666666667
 20
-1.500416666666667
 30
0.0
 40
0.0933333333333333
100
AcDbArc
 50
180.0
 51
270.0
  0
ARC
  5
17F
330
148
100
AcDbEntity
  8
AM_4
100
AcDbCircle
 10
-1.596666666666667
 20
1.500416666666667
 30
0.0
 40
0.0933333333333335
100
AcDbArc
 50
90.0
 51
180.0
  0
LINE
  5
180
330
148
100
AcDbEntity
  8
AM_4
100
AcDbLine
 10
-1.596666666666667
 20
1.59375
 30
0.0
 11
-1.596666666666667
 21
-1.59375
 31
0.0
  0
ENDBLK
  5
14B
330
148
100
AcDbEntity
  8
0
100
AcDbBlockEnd
  0
BLOCK
  5
183
330
181
100
AcDbEntity
  8
0
100
AcDbBlockBegin
  2
5_1_1_2I_0_in_023078_2
 70
     2
 10
0.0
 20
0.0
 30
0.0
  3
5_1_1_2I_0_in_023078_2
  1

  0
ATTDEF
  5
185
330
181
100
AcDbEntity
  8
AM_6
100
AcDbText
 10
6.859
 20
1.625
 30
0.0
 40
0.5
  1
E-Type Insert -Inch
100
AcDbAttributeDefinition
  3

  2
NN
 70
     8
280
     0
  0
ATTDEF
  5
186
330
181
100
AcDbEntity
  8
AM_6
100
AcDbText
 10
6.859
 20
1.125
 30
0.0
 40
0.5
  1
E-Type Bearings
100
AcDbAttributeDefinition
  3

  2
NT
 70
     8
280
     0
  0
ATTDEF
  5
187
330
181
100
AcDbEntity
  8
AM_6
100
AcDbText
 10
6.859
 20
0.625
 30
0.0
 40
0.5
  1
1-1/2I
100
AcDbAttributeDefinition
  3

  2
NB
 70
     8
280
     0
  0
ATTDEF
  5
188
330
181
100
AcDbEntity
  8
AM_6
100
AcDbText
 10
6.859
 20
0.125
 30
0.0
 40
0.5
  1
$BORE.I
100
AcDbAttributeDefinition
  3

  2
NBSYN
 70
     8
280
     0
  0
ATTDEF
  5
189
330
181
100
AcDbEntity
  8
AM_6
100
AcDbText
 10
6.859
 20
-0.375
 30
0.0
 40
0.5
  1
1-1/2I
100
AcDbAttributeDefinition
  3

  2
LINA
 70
     8
280
     0
  0
ATTDEF
  5
18A
330
181
100
AcDbEntity
  8
AM_6
100
AcDbText
 10
6.859
 20
-0.875
 30
0.0
 40
0.5
  1
1-1/2
100
AcDbAttributeDefinition
  3

  2
BORE
 70
     8
280
     0
  0
ATTDEF
  5
18B
330
181
100
AcDbEntity
  8
AM_6
100
AcDbText
 10
6.859
 20
-1.375
 30
0.0
 40
0.5
  1
3.38
100
AcDbAttributeDefinition
  3

  2
A
 70
     8
280
     0
  0
ATTDEF
  5
18C
330
181
100
AcDbEntity
  8
AM_6
100
AcDbText
 10
6.859
 20
-1.875
 30
0.0
 40
0.5
  1
1.50
100
AcDbAttributeDefinition
  3

  2
B
 70
     8
280
     0
  0
ATTDEF
  5
18D
330
181
100
AcDbEntity
  8
AM_6
100
AcDbText
 10
6.859
 20
-2.375
 30
0.0
 40
0.5
  1
2.06
100
AcDbAttributeDefinition
  3

  2
C
 70
     8
280
     0
  0
ATTDEF
  5
18E
330
181
100
AcDbEntity
  8
AM_6
100
AcDbText
 10
6.859
 20
-2.875
 30
0.0
 40
0.5
  1
3.25
100
AcDbAttributeDefinition
  3

  2
D
 70
     8
280
     0
  0
ATTDEF
  5
18F
330
181
100
AcDbEntity
  8
AM_6
100
AcDbText
 10
6.859
 20
-3.375
 30
0.0
 40
0.5
  1
0.35
100
AcDbAttributeDefinition
  3

  2
E
 70
     8
280
     0
  0
ATTDEF
  5
190
330
181
100
AcDbEntity
  8
AM_6
100
AcDbText
 10
6.859
 20
-3.875
 30
0.0
 40
0.5
  1
0.28
100
AcDbAttributeDefinition
  3

  2
F
 70
     8
280
     0
  0
ATTDEF
  5
191
330
181
100
AcDbEntity
  8
AM_6
100
AcDbText
 10
6.859
 20
-4.375
 30
0.0
 40
0.5
  1
baldor
100
AcDbAttributeDefinition
  3

  2
COMPANY
 70
     8
280
     0
  0
LINE
  5
192
330
181
100
AcDbEntity
  8
AM_9
100
AcDbLine
 10
1.234999985
 20
1.03
 30
0.0
 11
1.234999985
 21
0.7499999999999998
 31
0.0
  0
LINE
  5
193
330
181
100
AcDbEntity
  8
AM_9
100
AcDbLine
 10
1.584999995
 20
0.7499999999999998
 30
0.0
 11
1.584999995
 21
1.03
 31
0.0
  0
LINE
  5
194
330
181
100
AcDbEntity
  8
AM_9
100
AcDbLine
 10
-1.584999995
 20
1.03
 30
0.0
 11
-1.584999995
 21
0.7499999999999999
 31
0.0
  0
LINE
  5
195
330
181
100
AcDbEntity
  8
AM_9
100
AcDbLine
 10
-1.234999985
 20
0.7499999999999999
 30
0.0
 11
-1.234999985
 21
1.03
 31
0.0
  0
LINE
  5
196
330
181
100
AcDbEntity
  8
AM_9
100
AcDbLine
 10
-1.69
 20
-0.7499999999999999
 30
0.0
 11
1.69
 21
-0.7499999999999999
 31
0.0
  0
LINE
  5
197
330
181
100
AcDbEntity
  8
AM_9
100
AcDbLine
 10
1.69
 20
0.7499999999999999
 30
0.0
 11
1.584999995
 21
0.7499999999999999
 31
0.0
  0
LINE
  5
198
330
181
100
AcDbEntity
  8
AM_9
100
AcDbLine
 10
1.234999985
 20
0.7499999999999999
 30
0.0
 11
-1.234999985
 21
0.7499999999999999
 31
0.0
  0
LINE
  5
199
330
181
100
AcDbEntity
  8
AM_9
100
AcDbLine
 10
-1.584999995
 20
0.7499999999999999
 30
0.0
 11
-1.69
 21
0.7499999999999999
 31
0.0
  0
LWPOLYLINE
  5
19A
330
181
100
AcDbEntity
  8
AM_9
100
AcDbPolyline
 90
       21
 70
     0
 43
0.0
 10
1.234999985000993
 20
0.7499999999997684
 10
1.235928298185723
 20
0.7497839369719015
 10
1.241115470683789
 20
0.7485966731923589
 10
1.251045609034442
 20
0.7464191138215469
 10
1.265015421193642
 20
0.7435694476254153
 10
1.283334143842809
 20
0.7402156677838675
 10
1.305072136090326
 20
0.7368072019029739
 10
1.330483597267949
 20
0.7336196936854392
 10
1.35756295168151
 20
0.7311803069268308
 10
1.387056180003195
 20
0.7296584246530491
 10
1.415698967105498
 20
0.7293198726142385
 10
1.445021523457938
 20
0.7301380048016576
 10
1.472154357377931
 20
0.7319413662542585
 10
1.498299176065174
 20
0.7346235393109671
 10
1.521752871851891
 20
0.7378100736993244
 10
1.542722973219133
 20
0.7412761890986289
 10
1.559852692067201
 20
0.7445339687125371
 10
1.573138395622116
 20
0.7473213081659895
 10
1.5813825313612
 20
0.7491641834293892
 10
1.584912044247091
 20
0.7499794830333273
 10
1.584999994997231
 20
0.749999999999354
  0
LINE
  5
19B
330
181
100
AcDbEntity
  8
AM_9
100
AcDbLine
 10
1.413199104484526
 20
0.7293046226258854
 30
0.0
 11
1.40999999
 21
0.7292976060909564
 31
0.0
  0
LINE
  5
19C
330
181
100
AcDbEntity
  8
AM_9
100
AcDbLine
 10
1.584999994997231
 20
0.749999999999354
 30
0.0
 11
1.57590937353954
 21
0.7479310942837383
 31
0.0
  0
LWPOLYLINE
  5
19D
330
181
100
AcDbEntity
  8
AM_9
100
AcDbPolyline
 90
       21
 70
     0
 43
0.0
 10
-1.584999994999007
 20
0.7499999999997684
 10
-1.584071681814277
 20
0.7497839369719015
 10
-1.578884509316211
 20
0.7485966731923589
 10
-1.568954370965558
 20
0.7464191138215469
 10
-1.554984558806358
 20
0.7435694476254153
 10
-1.536665836157191
 20
0.7402156677838675
 10
-1.514927843909674
 20
0.7368072019029739
 10
-1.489516382732051
 20
0.7336196936854392
 10
-1.46243702831849
 20
0.7311803069268308
 10
-1.432943799996805
 20
0.7296584246530491
 10
-1.404301012894502
 20
0.7293198726142385
 10
-1.374978456542062
 20
0.7301380048016576
 10
-1.347845622622069
 20
0.7319413662542585
 10
-1.321700803934825
 20
0.7346235393109671
 10
-1.298247108148109
 20
0.7378100736993244
 10
-1.277277006780867
 20
0.7412761890986289
 10
-1.260147287932799
 20
0.7445339687125371
 10
-1.246861584377884
 20
0.7473213081659895
 10
-1.2386174486388
 20
0.7491641834293892
 10
-1.235087935752909
 20
0.7499794830333273
 10
-1.234999985002768
 20
0.749999999999354
  0
LINE
  5
19E
330
181
100
AcDbEntity
  8
AM_9
100
AcDbLine
 10
-1.406800875515474
 20
0.7293046226258854
 30
0.0
 11
-1.40999999
 21
0.7292976060909564
 31
0.0
  0
LINE
  5
19F
330
181
100
AcDbEntity
  8
AM_9
100
AcDbLine
 10
-1.234999985002768
 20
0.749999999999354
 30
0.0
 11
-1.24409060646046
 21
0.7479310942837383
 31
0.0
  0
LWPOLYLINE
  5
1A0
330
181
100
AcDbEntity
  8
AM_9
100
AcDbPolyline
 90
        4
 70
     0
 43
0.0
 10
-1.572177928999569
 20
0.3753347682587202
 10
-1.580291060402114
 20
0.3530504071673107
 10
-1.584604100872663
 20
0.3275870626990154
 10
-1.584999994661692
 20
0.3169735582904122
  0
LWPOLYLINE
  5
1A1
330
181
100
AcDbEntity
  8
AM_9
100
AcDbPolyline
 90
        9
 70
     0
 43
0.0
 10
-1.40999999
 20
0.466818353840766
 10
-1.438512849084581
 20
0.4649344807641388
 10
-1.467025708169162
 20
0.4591021654192286
 10
-1.493125191394136
 20
0.4497791473098584
 10
-1.517606877979899
 20
0.4366276828847325
 10
-1.538854679483035
 20
0.4203062614606943
 10
-1.55704135737921
 20
0.4004149088858273
 10
-1.570807759326964
 20
0.378185246635864
 10
-1.572177928999569
 20
0.3753347682587202
  0
LINE
  5
1A2
330
181
100
AcDbEntity
  8
AM_9
100
AcDbLine
 10
-1.584999995
 20
0.4352851894997153
 30
0.0
 11
-1.584999995
 21
0.3169040410000598
 31
0.0
  0
LINE
  5
1A3
330
181
100
AcDbEntity
  8
AM_9
100
AcDbLine
 10
-1.234999985
 20
0.3169279517595153
 30
0.0
 11
-1.234999985
 21
0.4352548169324169
 31
0.0
  0
LWPOLYLINE
  5
1A4
330
181
100
AcDbEntity
  8
AM_9
100
AcDbPolyline
 90
       21
 70
     0
 43
0.0
 10
-1.584999994661692
 20
0.3169735582904122
 10
-1.584071681814277
 20
0.3005576391434441
 10
-1.578884509316211
 20
0.2748085227211886
 10
-1.568954370965558
 20
0.2491069684853399
 10
-1.554984558806358
 20
0.2254256607231299
 10
-1.536665836157191
 20
0.2033912329747094
 10
-1.514927843909674
 20
0.1844560694508207
 10
-1.489516382732051
 20
0.1687554421748359
 10
-1.462437028318491
 20
0.1576937698734686
 10
-1.432943799996805
 20
0.1511321510727741
 10
-1.404301012894502
 20
0.149704152925584
 10
-1.374978456542062
 20
0.1531742207756928
 10
-1.347845622622069
 20
0.1610684863166335
 10
-1.321700803934825
 20
0.1735310775552866
 10
-1.298247108148109
 20
0.1897585779639736
 10
-1.277277006780867
 20
0.2099036748645092
 10
-1.260147287932799
 20
0.2327384200945335
 10
-1.246861584377884
 20
0.2584339188893108
 10
-1.2386174486388
 20
0.2845288812597591
 10
-1.235087935752909
 20
0.3119272607271663
 10
-1.234999985943944
 20
0.3169472228227725
  0
LWPOLYLINE
  5
1A5
330
181
100
AcDbEntity
  8
AM_9
100
AcDbPolyline
 90
        9
 70
     0
 43
0.0
 10
-1.247786126958828
 20
0.3752576958756635
 10
-1.25327021916189
 20
0.3858084558792423
 10
-1.268305601233219
 20
0.4070574926110402
 10
-1.287084522416478
 20
0.4254568420586549
 10
-1.309863478305437
 20
0.4411785862165967
 10
-1.335196784225271
 20
0.4532158236530471
 10
-1.363535111595707
 20
0.461750522120592
 10
-1.386323188092311
 20
0.465522411416668
 10
-1.40999999
 20
0.466818353840766
  0
LWPOLYLINE
  5
1A6
330
181
100
AcDbEntity
  8
AM_9
100
AcDbPolyline
 90
        4
 70
     0
 43
0.0
 10
-1.234999985943944
 20
0.3169472228227725
 10
-1.236507644903477
 20
0.3375898170045304
 10
-1.242765637173634
 20
0.3629365664028585
 10
-1.247786126958828
 20
0.3752576958756635
  0
LWPOLYLINE
  5
1A7
330
181
100
AcDbEntity
  8
AM_9
100
AcDbPolyline
 90
       21
 70
     0
 43
0.0
 10
-1.234999985566771
 20
0.4353095743375998
 10
-1.236040582583733
 20
0.4179518195224513
 10
-1.241614353994253
 20
0.3916939833795061
 10
-1.2517929839953
 20
0.3663524589006553
 10
-1.266420967717919
 20
0.3425877906912027
 10
-1.284992807105194
 20
0.3212159644095174
 10
-1.307350544529248
 20
0.3027230059032127
 10
-1.332622801815771
 20
0.2879546553752956
 10
-1.360179780743919
 20
0.2774631160359692
 10
-1.38918129520905
 20
0.271580611188101
 10
-1.418430713450542
 20
0.2705819941653312
 10
-1.447439832916952
 20
0.2743280489039872
 10
-1.475189392959298
 20
0.2826811149989094
 10
-1.501128414503806
 20
0.2952901455308662
 10
-1.524735947406816
 20
0.3119618747552169
 10
-1.545151782990281
 20
0.3319987219054493
 10
-1.561931204251621
 20
0.3550710848493031
 10
-1.57440907163009
 20
0.380220635572817
 10
-1.582128049136432
 20
0.4065681645065272
 10
-1.584987662239814
 20
0.4334130025065786
 10
-1.584999994609254
 20
0.4352862107649667
  0
LWPOLYLINE
  5
1A8
330
181
100
AcDbEntity
  8
AM_9
100
AcDbPolyline
 90
        4
 70
     0
 43
0.0
 10
-1.487561256414275
 20
0.5723940377977055
 10
-1.47990986657823
 20
0.5753667920919816
 10
-1.451833074720056
 20
0.5833377637778409
 10
-1.40999999
 20
0.5875718117559409
  0
LWPOLYLINE
  5
1A9
330
181
100
AcDbEntity
  8
AM_9
100
AcDbPolyline
 90
        8
 70
     0
 43
0.0
 10
-1.584999994609254
 20
0.4352862107649667
 10
-1.582885424062273
 20
0.4596227765748611
 10
-1.576022135288609
 20
0.4848162211463971
 10
-1.564554491115448
 20
0.508274136032202
 10
-1.548867174374054
 20
0.5294799843372643
 10
-1.529085393668289
 20
0.5481086619078043
 10
-1.505966529185131
 20
0.5635101133783811
 10
-1.487561256414275
 20
0.5723940377977055
  0
LWPOLYLINE
  5
1AA
330
181
100
AcDbEntity
  8
AM_9
100
AcDbPolyline
 90
        4
 70
     0
 43
0.0
 10
1.247822051000431
 20
0.3753347682587205
 10
1.239708919597886
 20
0.3530504071673107
 10
1.235395879127337
 20
0.3275870626990154
 10
1.234999985338308
 20
0.3169735582904121
  0
LWPOLYLINE
  5
1AB
330
181
100
AcDbEntity
  8
AM_9
100
AcDbPolyline
 90
        9
 70
     0
 43
0.0
 10
1.40999999
 20
0.466818353840766
 10
1.381487130915419
 20
0.4649344807641388
 10
1.352974271830838
 20
0.4591021654192286
 10
1.326874788605863
 20
0.4497791473098584
 10
1.302393102020101
 20
0.4366276828847325
 10
1.281145300516965
 20
0.4203062614606943
 10
1.26295862262079
 20
0.4004149088858273
 10
1.249192220673035
 20
0.378185246635864
 10
1.247822051000431
 20
0.3753347682587205
  0
LINE
  5
1AC
330
181
100
AcDbEntity
  8
AM_9
100
AcDbLine
 10
1.234999985
 20
0.4352851894997156
 30
0.0
 11
1.234999985
 21
0.3169040410000598
 31
0.0
  0
LINE
  5
1AD
330
181
100
AcDbEntity
  8
AM_9
100
AcDbLine
 10
1.584999995
 20
0.3169279517595154
 30
0.0
 11
1.584999995
 21
0.4352548169324171
 31
0.0
  0
LWPOLYLINE
  5
1AE
330
181
100
AcDbEntity
  8
AM_9
100
AcDbPolyline
 90
       21
 70
     0
 43
0.0
 10
1.234999985338308
 20
0.3169735582904121
 10
1.235928298185723
 20
0.3005576391434441
 10
1.241115470683789
 20
0.2748085227211886
 10
1.251045609034442
 20
0.2491069684853399
 10
1.265015421193642
 20
0.2254256607231299
 10
1.283334143842809
 20
0.2033912329747094
 10
1.305072136090326
 20
0.1844560694508207
 10
1.330483597267949
 20
0.1687554421748359
 10
1.357562951681509
 20
0.1576937698734686
 10
1.387056180003195
 20
0.1511321510727741
 10
1.415698967105498
 20
0.149704152925584
 10
1.445021523457938
 20
0.1531742207756928
 10
1.472154357377931
 20
0.1610684863166335
 10
1.498299176065174
 20
0.1735310775552866
 10
1.521752871851891
 20
0.1897585779639736
 10
1.542722973219133
 20
0.2099036748645092
 10
1.559852692067201
 20
0.2327384200945335
 10
1.573138395622116
 20
0.2584339188893108
 10
1.5813825313612
 20
0.2845288812597591
 10
1.584912044247091
 20
0.3119272607271663
 10
1.584999994056056
 20
0.3169472228227725
  0
LWPOLYLINE
  5
1AF
330
181
100
AcDbEntity
  8
AM_9
100
AcDbPolyline
 90
        9
 70
     0
 43
0.0
 10
1.572213853041172
 20
0.3752576958756634
 10
1.56672976083811
 20
0.3858084558792423
 10
1.551694378766781
 20
0.4070574926110402
 10
1.532915457583522
 20
0.4254568420586549
 10
1.510136501694563
 20
0.4411785862165967
 10
1.484803195774729
 20
0.4532158236530471
 10
1.456464868404293
 20
0.4617505221205919
 10
1.433676791907689
 20
0.465522411416668
 10
1.40999999
 20
0.466818353840766
  0
LWPOLYLINE
  5
1B0
330
181
100
AcDbEntity
  8
AM_9
100
AcDbPolyline
 90
        4
 70
     0
 43
0.0
 10
1.584999994056056
 20
0.3169472228227725
 10
1.583492335096523
 20
0.3375898170045303
 10
1.577234342826366
 20
0.3629365664028585
 10
1.572213853041172
 20
0.3752576958756634
  0
LWPOLYLINE
  5
1B1
330
181
100
AcDbEntity
  8
AM_9
100
AcDbPolyline
 90
       21
 70
     0
 43
0.0
 10
1.584999994433229
 20
0.4353095743376001
 10
1.583959397416267
 20
0.4179518195224516
 10
1.578385626005747
 20
0.3916939833795064
 10
1.5682069960047
 20
0.3663524589006555
 10
1.553579012282081
 20
0.3425877906912029
 10
1.535007172894806
 20
0.3212159644095177
 10
1.512649435470752
 20
0.302723005903213
 10
1.487377178184229
 20
0.2879546553752958
 10
1.459820199256081
 20
0.2774631160359695
 10
1.430818684790949
 20
0.2715806111881011
 10
1.401569266549458
 20
0.2705819941653314
 10
1.372560147083048
 20
0.2743280489039873
 10
1.344810587040702
 20
0.2826811149989095
 10
1.318871565496194
 20
0.2952901455308665
 10
1.295264032593184
 20
0.3119618747552171
 10
1.274848197009719
 20
0.3319987219054494
 10
1.258068775748378
 20
0.3550710848493034
 10
1.245590908369909
 20
0.3802206355728174
 10
1.237871930863567
 20
0.4065681645065275
 10
1.235012317760186
 20
0.4334130025065789
 10
1.234999985390745
 20
0.435286210764967
  0
LWPOLYLINE
  5
1B2
330
181
100
AcDbEntity
  8
AM_9
100
AcDbPolyline
 90
        4
 70
     0
 43
0.0
 10
1.331977869691316
 20
0.5722016494588499
 10
1.34009011342177
 20
0.5753667920919818
 10
1.368166905279944
 20
0.5833377637778411
 10
1.40999999
 20
0.5875718117559411
  0
LWPOLYLINE
  5
1B3
330
181
100
AcDbEntity
  8
AM_9
100
AcDbPolyline
 90
        8
 70
     0
 43
0.0
 10
1.234999985390745
 20
0.435286210764967
 10
1.237114555937727
 20
0.4596227765748612
 10
1.243977844711391
 20
0.4848162211463972
 10
1.255445488884552
 20
0.5082741360322021
 10
1.271132805625946
 20
0.5294799843372646
 10
1.290914586331711
 20
0.5481086619078046
 10
1.314033450814869
 20
0.5635101133783813
 10
1.331977869691316
 20
0.5722016494588499
  0
LWPOLYLINE
  5
1B4
330
181
100
AcDbEntity
  8
AM_9
100
AcDbPolyline
 90
        9
 70
     0
 43
0.0
 10
-1.331147112275647
 20
0.5718511835934096
 10
-1.325893991257417
 20
0.5695079827064842
 10
-1.301583209304455
 20
0.5559084546338168
 10
-1.28013155653054
 20
0.5387521173014082
 10
-1.262316036816052
 20
0.5185737023389703
 10
-1.248616531941367
 20
0.4956505552696815
 10
-1.239498243453638
 20
0.4707070299115589
 10
-1.235323628800678
 20
0.4446362666859853
 10
-1.234999985566771
 20
0.4353095743375998
  0
LWPOLYLINE
  5
1B5
330
181
100
AcDbEntity
  8
AM_9
100
AcDbPolyline
 90
        4
 70
     0
 43
0.0
 10
-1.40999999
 20
0.5875718117559409
 10
-1.380861189372001
 20
0.5855205185841335
 10
-1.352549543080099
 20
0.5794681669472304
 10
-1.331147112275647
 20
0.5718511835934096
  0
LINE
  5
1B6
330
181
100
AcDbEntity
  8
AM_9
100
AcDbLine
 10
-1.69
 20
-1.03
 30
0.0
 11
-0.7499999999999999
 21
-1.03
 31
0.0
  0
LINE
  5
1B7
330
181
100
AcDbEntity
  8
AM_9
100
AcDbLine
 10
-0.7499999999999999
 20
1.03
 30
0.0
 11
-1.234999985
 21
1.03
 31
0.0
  0
LINE
  5
1B8
330
181
100
AcDbEntity
  8
AM_9
100
AcDbLine
 10
-1.584999995
 20
1.03
 30
0.0
 11
-1.69
 21
1.03
 31
0.0
  0
LWPOLYLINE
  5
1B9
330
181
100
AcDbEntity
  8
AM_9
100
AcDbPolyline
 90
       21
 70
     0
 43
0.0
 10
-1.234999985000462
 20
1.029999999999921
 10
-1.236040582583733
 20
1.029823710000221
 10
-1.241486158329351
 20
1.02891783428723
 10
-1.2517929839953
 20
1.027280124892413
 10
-1.266175212424243
 20
1.025163677124153
 10
-1.284992807105194
 20
1.022693401770685
 10
-1.306998577136907
 20
1.020237369096914
 10
-1.332622801815771
 20
1.017969659420799
 10
-1.35975665379519
 20
1.016267381688003
 10
-1.38918129520905
 20
1.015238108180932
 10
-1.418006714976709
 20
1.015056208244081
 10
-1.447439832916952
 20
1.01571489114202
 10
-1.474816995678674
 20
1.017092052114826
 10
-1.501128414503806
 20
1.019107152365513
 10
-1.524436525619827
 20
1.021455196733889
 10
-1.545151782990281
 20
1.023982912649663
 10
-1.561733227043023
 20
1.026303061221954
 10
-1.57440907163009
 20
1.028253540899543
 10
-1.582067488928467
 20
1.029505814669105
 10
-1.584987662239814
 20
1.029997904699766
 10
-1.584999994999708
 20
1.02999999999995
  0
LINE
  5
1BA
330
181
100
AcDbEntity
  8
AM_9
100
AcDbLine
 10
-1.413057402837695
 20
1.015029234073216
 30
0.0
 11
-1.40999999
 21
1.015024629380982
 31
0.0
  0
LINE
  5
1BB
330
181
100
AcDbEntity
  8
AM_9
100
AcDbLine
 10
-1.584999994999708
 20
1.02999999999995
 30
0.0
 11
-1.582819204217103
 21
1.029631720108028
 31
0.0
  0
LWPOLYLINE
  5
1BC
330
181
100
AcDbEntity
  8
AM_9
100
AcDbPolyline
 90
        9
 70
     0
 43
0.0
 10
1.487668040138345
 20
0.5723495881582524
 10
1.494105988742582
 20
0.5695079827064845
 10
1.518416770695545
 20
0.5559084546338169
 10
1.53986842346946
 20
0.5387521173014083
 10
1.557683943183948
 20
0.5185737023389704
 10
1.571383448058633
 20
0.4956505552696818
 10
1.580501736546362
 20
0.4707070299115593
 10
1.584676351199322
 20
0.4446362666859855
 10
1.584999994433229
 20
0.4353095743376001
  0
LWPOLYLINE
  5
1BD
330
181
100
AcDbEntity
  8
AM_9
100
AcDbPolyline
 90
        4
 70
     0
 43
0.0
 10
1.40999999
 20
0.5875718117559411
 10
1.439138790627999
 20
0.5855205185841337
 10
1.467450436919901
 20
0.5794681669472306
 10
1.487668040138345
 20
0.5723495881582524
  0
LINE
  5
1BE
330
181
100
AcDbEntity
  8
AM_9
100
AcDbLine
 10
0.7500000000000002
 20
-1.03
 30
0.0
 11
1.69
 21
-1.03
 31
0.0
  0
LINE
  5
1BF
330
181
100
AcDbEntity
  8
AM_9
100
AcDbLine
 10
1.69
 20
1.03
 30
0.0
 11
1.584999995
 21
1.03
 31
0.0
  0
LINE
  5
1C0
330
181
100
AcDbEntity
  8
AM_9
100
AcDbLine
 10
1.234999985
 20
1.03
 30
0.0
 11
0.7500000000000002
 21
1.03
 31
0.0
  0
LWPOLYLINE
  5
1C1
330
181
100
AcDbEntity
  8
AM_9
100
AcDbPolyline
 90
       21
 70
     0
 43
0.0
 10
1.584999994999538
 20
1.029999999999922
 10
1.583959397416267
 20
1.029823710000221
 10
1.578513821670648
 20
1.02891783428723
 10
1.5682069960047
 20
1.027280124892413
 10
1.553824767575757
 20
1.025163677124154
 10
1.535007172894806
 20
1.022693401770685
 10
1.513001402863093
 20
1.020237369096914
 10
1.487377178184229
 20
1.017969659420799
 10
1.46024332620481
 20
1.016267381688003
 10
1.430818684790949
 20
1.015238108180933
 10
1.401993265023291
 20
1.015056208244082
 10
1.372560147083048
 20
1.01571489114202
 10
1.345182984321326
 20
1.017092052114827
 10
1.318871565496194
 20
1.019107152365514
 10
1.295563454380173
 20
1.021455196733889
 10
1.274848197009719
 20
1.023982912649663
 10
1.258266752956976
 20
1.026303061221954
 10
1.245590908369909
 20
1.028253540899544
 10
1.237932491071533
 20
1.029505814669105
 10
1.235012317760186
 20
1.029997904699766
 10
1.234999985000292
 20
1.029999999999951
  0
LINE
  5
1C2
330
181
100
AcDbEntity
  8
AM_9
100
AcDbLine
 10
-0.7499999999999997
 20
-1.625
 30
0.0
 11
0.7500000000000002
 21
-1.625
 31
0.0
  0
LINE
  5
1C3
330
181
100
AcDbEntity
  8
AM_9
100
AcDbLine
 10
0.7500000000000002
 20
1.625
 30
0.0
 11
-0.7499999999999997
 21
1.625
 31
0.0
  0
LINE
  5
1C4
330
181
100
AcDbEntity
  8
AM_9
100
AcDbLine
 10
-0.7499999999999997
 20
1.625
 30
0.0
 11
-0.7499999999999997
 21
-1.625
 31
0.0
  0
LINE
  5
1C5
330
181
100
AcDbEntity
  8
AM_9
100
AcDbLine
 10
0.7500000000000002
 20
1.625
 30
0.0
 11
0.7500000000000002
 21
-1.625
 31
0.0
  0
LINE
  5
1C8
330
181
100
AcDbEntity
  8
AM_7
100
AcDbLine
 10
-1.859
 20
0.0
 30
0.0
 11
1.859
 21
0.0
 31
0.0
  0
LINE
  5
1C9
330
181
100
AcDbEntity
  8
AM_7
100
AcDbLine
 10
1.40999999
 20
-0.0528205128205128
 30
0.0
 11
1.41
 21
1.622979166666667
 31
0.0
  0
LINE
  5
1CA
330
181
100
AcDbEntity
  8
AM_7
100
AcDbLine
 10
-1.40999999
 20
-0.0528205128205128
 30
0.0
 11
-1.41
 21
1.622979166666667
 31
0.0
  0
ENDBLK
  5
184
330
181
100
AcDbEntity
  8
0
100
AcDbBlockEnd
  0
BLOCK
  5
1CD
330
1CB
100
AcDbEntity
  8
0
100
AcDbBlockBegin
  2
6_023078H_0_in_023078_2
 70
     2
 10
0.0
 20
0.0
 30
0.0
  3
6_023078H_0_in_023078_2
  1

  0
ATTDEF
  5
1CF
330
1CB
100
AcDbEntity
  8
AM_6
100
AcDbText
 10
6.251062500000001
 20
2.375
 30
0.0
 40
0.5
  1
WSTU-E-Housing
100
AcDbAttributeDefinition
  3

  2
NN
 70
     8
280
     0
  0
ATTDEF
  5
1D0
330
1CB
100
AcDbEntity
  8
AM_6
100
AcDbText
 10
6.251062500000001
 20
1.875
 30
0.0
 40
0.5
  1
Type E Wide Slot Take-Up Bearing -Inch
100
AcDbAttributeDefinition
  3

  2
NT
 70
     8
280
     0
  0
ATTDEF
  5
1D1
330
1CB
100
AcDbEntity
  8
AM_6
100
AcDbText
 10
6.251062500000001
 20
1.375
 30
0.0
 40
0.5
  1
023078H
100
AcDbAttributeDefinition
  3

  2
NB
 70
     8
280
     0
  0
ATTDEF
  5
1D2
330
1CB
100
AcDbEntity
  8
AM_6
100
AcDbText
 10
6.251062500000001
 20
0.875
 30
0.0
 40
0.5
  1
$PN.H
100
AcDbAttributeDefinition
  3

  2
NBSYN
 70
     8
280
     0
  0
ATTDEF
  5
1D3
330
1CB
100
AcDbEntity
  8
AM_6
100
AcDbText
 10
6.251062500000001
 20
0.375
 30
0.0
 40
0.5
  1
023078
100
AcDbAttributeDefinition
  3

  2
LINA
 70
     8
280
     0
  0
ATTDEF
  5
1D4
330
1CB
100
AcDbEntity
  8
AM_6
100
AcDbText
 10
6.251062500000001
 20
-0.125
 30
0.0
 40
0.5
  1
1-1/2
100
AcDbAttributeDefinition
  3

  2
SS
 70
     8
280
     0
  0
ATTDEF
  5
1D5
330
1CB
100
AcDbEntity
  8
AM_6
100
AcDbText
 10
6.251062500000001
 20
-0.625
 30
0.0
 40
0.5
  1
023078
100
AcDbAttributeDefinition
  3

  2
PN
 70
     8
280
     0
  0
ATTDEF
  5
1D6
330
1CB
100
AcDbEntity
  8
AM_6
100
AcDbText
 10
6.251062500000001
 20
-1.125
 30
0.0
 40
0.5
  1
WSTU-E-108R
100
AcDbAttributeDefinition
  3

  2
DESCRIPTION
 70
     8
280
     0
  0
ATTDEF
  5
1D7
330
1CB
100
AcDbEntity
  8
AM_6
100
AcDbText
 10
6.251062500000001
 20
-1.625
 30
0.0
 40
0.5
  1
3-3/8
100
AcDbAttributeDefinition
  3

  2
A
 70
     8
280
     0
  0
ATTDEF
  5
1D8
330
1CB
100
AcDbEntity
  8
AM_6
100
AcDbText
 10
6.251062500000001
 20
-2.125
 30
0.0
 40
0.5
  1
6
100
AcDbAttributeDefinition
  3

  2
B
 70
     8
280
     0
  0
ATTDEF
  5
1D9
330
1CB
100
AcDbEntity
  8
AM_6
100
AcDbText
 10
6.251062500000001
 20
-2.625
 30
0.0
 40
0.5
  1
11/16
100
AcDbAttributeDefinition
  3

  2
C
 70
     8
280
     0
  0
ATTDEF
  5
1DA
330
1CB
100
AcDbEntity
  8
AM_6
100
AcDbText
 10
6.251062500000001
 20
-3.125
 30
0.0
 40
0.5
  1
3-1/4
100
AcDbAttributeDefinition
  3

  2
D
 70
     8
280
     0
  0
ATTDEF
  5
1DB
330
1CB
100
AcDbEntity
  8
AM_6
100
AcDbText
 10
6.251062500000001
 20
-3.625
 30
0.0
 40
0.5
  1
3-13/16
100
AcDbAttributeDefinition
  3

  2
E
 70
     8
280
     0
  0
ATTDEF
  5
1DC
330
1CB
100
AcDbEntity
  8
AM_6
100
AcDbText
 10
6.251062500000001
 20
-4.125
 30
0.0
 40
0.5
  1
1
100
AcDbAttributeDefinition
  3

  2
F
 70
     8
280
     0
  0
ATTDEF
  5
1DD
330
1CB
100
AcDbEntity
  8
AM_6
100
AcDbText
 10
6.251062500000001
 20
-4.625
 30
0.0
 40
0.5
  1
15/16
100
AcDbAttributeDefinition
  3

  2
G
 70
     8
280
     0
  0
ATTDEF
  5
1DE
330
1CB
100
AcDbEntity
  8
AM_6
100
AcDbText
 10
6.251062500000001
 20
-5.125
 30
0.0
 40
0.5
  1
3/4
100
AcDbAttributeDefinition
  3

  2
H
 70
     8
280
     0
  0
ATTDEF
  5
1DF
330
1CB
100
AcDbEntity
  8
AM_6
100
AcDbText
 10
6.251062500000001
 20
-5.625
 30
0.0
 40
0.5
  1
3-5/16
100
AcDbAttributeDefinition
  3

  2
J
 70
     8
280
     0
  0
ATTDEF
  5
1E0
330
1CB
100
AcDbEntity
  8
AM_6
100
AcDbText
 10
6.251062500000001
 20
-6.125
 30
0.0
 40
0.5
  1
1-15/16
100
AcDbAttributeDefinition
  3

  2
K
 70
     8
280
     0
  0
ATTDEF
  5
1E1
330
1CB
100
AcDbEntity
  8
AM_6
100
AcDbText
 10
6.251062500000001
 20
-6.625
 30
0.0
 40
0.5
  1
3-3/16
100
AcDbAttributeDefinition
  3

  2
L
 70
     8
280
     0
  0
ATTDEF
  5
1E2
330
1CB
100
AcDbEntity
  8
AM_6
100
AcDbText
 10
6.251062500000001
 20
-7.125
 30
0.0
 40
0.5
  1
4
100
AcDbAttributeDefinition
  3

  2
M
 70
     8
280
     0
  0
ATTDEF
  5
1E3
330
1CB
100
AcDbEntity
  8
AM_6
100
AcDbText
 10
6.251062500000001
 20
-7.625
 30
0.0
 40
0.5
  1
4-3/4
100
AcDbAttributeDefinition
  3

  2
N
 70
     8
280
     0
  0
ATTDEF
  5
1E4
330
1CB
100
AcDbEntity
  8
AM_6
100
AcDbText
 10
6.251062500000001
 20
-8.125
 30
0.0
 40
0.5
  1
2-5/16
100
AcDbAttributeDefinition
  3

  2
T
 70
     8
280
     0
  0
ATTDEF
  5
1E5
330
1CB
100
AcDbEntity
  8
AM_6
100
AcDbText
 10
6.251062500000001
 20
-8.625
 30
0.0
 40
0.5
  1
baldor
100
AcDbAttributeDefinition
  3

  2
COMPANY
 70
     8
280
     0
  0
ELLIPSE
  5
1E6
330
1CB
100
AcDbEntity
  8
AM_9
100
AcDbEllipse
 10
-0.0000000000000001
 20
0.8514706370123248
 30
0.0
 11
0.3999999999999999
 21
0.0
 31
0.0
210
0.0
220
0.0
230
1.0
 40
0.9238795325112865
 41
0.0
 42
6.283185307179586
  0
ELLIPSE
  5
1E7
330
1CB
100
AcDbEntity
  8
AM_9
100
AcDbEllipse
 10
-0.0000000000000002
 20
0.8132022937758159
 30
0.0
 11
-0.5000000000000002
 21
6.123233995736769E-17
 31
0.0
210
0.0
220
0.0
230
1.0
 40
0.9238795325112867
 41
0.1723400969376563
 42
3.07276673862858
  0
LINE
  5
1E8
330
1CB
100
AcDbEntity
  8
AM_9
100
AcDbLine
 10
-0.4999710226449801
 20
0.8182601294919222
 30
0.0
 11
-0.49999859107727
 21
0.8120870111190647
 31
0.0
  0
LWPOLYLINE
  5
1E9
330
1CB
100
AcDbEntity
  8
AM_9
100
AcDbPolyline
 90
       23
 70
     0
 43
0.0
 10
-0.0000000000000001
 20
1.282754106780331
 10
-0.0202195492147631
 20
1.282370400389757
 10
-0.0552293176268292
 20
1.279883644435446
 10
-0.0899799319214356
 20
1.275095691207685
 10
-0.1242943607697888
 20
1.268028595269393
 10
-0.1580022187052767
 20
1.258715599522822
 10
-0.1909357235715717
 20
1.247201270408418
 10
-0.2229305453561409
 20
1.2335414082998
 10
-0.2538266849386234
 20
1.217802904269774
 10
-0.2834693789892095
 20
1.200063528594515
 10
-0.3117100242193825
 20
1.180411634975767
 10
-0.3384071079202297
 20
1.158945765262984
 10
-0.3634271253938081
 20
1.135774142586812
 10
-0.3866454594158311
 20
1.111014046403761
 10
-0.4079471933163593
 20
1.084791070726897
 10
-0.4272278286072695
 20
1.057238276029926
 10
-0.4443938809745387
 20
1.028495254776901
 10
-0.459363334991693
 20
0.9987071388008314
 10
-0.4720659475271586
 20
0.9680235824095604
 10
-0.4824434013128145
 20
0.9365977570553569
 10
-0.490449321896997
 20
0.9045853911810059
 10
-0.4960491815125145
 20
0.8721438826718024
 10
-0.4970005348636047
 20
0.8645839874592591
  0
LWPOLYLINE
  5
1EA
330
1CB
100
AcDbEntity
  8
AM_9
100
AcDbPolyline
 90
       23
 70
     0
 43
0.0
 10
0.4946502049365618
 20
0.8817417015024991
 10
0.4931246377806446
 20
0.890842167175592
 10
0.4861580810506102
 20
0.9229764409015601
 10
0.4768238220104492
 20
0.9545696534223111
 10
0.4651668531738393
 20
0.9854713537069921
 10
0.4512424967561662
 20
1.015534055707869
 10
0.4351163473133731
 20
1.044613714937439
 10
0.4168642135448247
 20
1.072570265607688
 10
0.3965720292590123
 20
1.099268224047705
 10
0.3743357040426346
 20
1.124577353510066
 10
0.350260888638716
 20
1.148373375821715
 10
0.3244626376510815
 20
1.170538707958311
 10
0.2970649616843457
 20
1.190963197467124
 10
0.2682002708812229
 20
1.209544830111907
 10
0.2380087205589616
 20
1.226190385920427
 10
0.2066374761308974
 20
1.240816025200925
 10
0.1742399180996695
 20
1.253347792947037
 10
0.1409748085599528
 20
1.263722037187636
 10
0.1070054387597655
 20
1.271885743235039
 10
0.0724987735482476
 20
1.277796790730733
 10
0.0376246037931093
 20
1.281424143530016
 10
0.0043907908382737
 20
1.282736019560097
 10
-0.0000000000000001
 20
1.282754106780331
  0
LINE
  5
1EB
330
1CB
100
AcDbEntity
  8
AM_9
100
AcDbLine
 10
0.4999969253377548
 20
0.8148498479550813
 30
0.0
 11
0.4999882383276374
 21
0.8164246506872023
 31
0.0
  0
ELLIPSE
  5
1EC
330
1CB
100
AcDbEntity
  8
AM_9
100
AcDbEllipse
 10
-0.0000000000000001
 20
0.8132022937758157
 30
0.0
 11
-0.5000000000000001
 21
6.123233995736767E-17
 31
0.0
210
0.0
220
0.0
230
1.0
 40
0.9238795325112867
 41
3.501717211527684
 42
5.99890516557685
  0
LINE
  5
1ED
330
1CB
100
AcDbEntity
  8
AM_9
100
AcDbLine
 10
-1.15625
 20
-1.625
 30
0.0
 11
1.15625
 21
-1.625
 31
0.0
  0
LINE
  5
1EE
330
1CB
100
AcDbEntity
  8
AM_9
100
AcDbLine
 10
1.15625
 20
1.625
 30
0.0
 11
-1.15625
 21
1.625
 31
0.0
  0
LINE
  5
1EF
330
1CB
100
AcDbEntity
  8
AM_9
100
AcDbLine
 10
1.15625
 20
-0.4777481725828481
 30
0.0
 11
1.15625
 21
0.4777481725828476
 31
0.0
  0
LINE
  5
1F0
330
1CB
100
AcDbEntity
  8
AM_9
100
AcDbLine
 10
-1.15625
 20
-0.4777481725828472
 30
0.0
 11
-1.15625
 21
0.4777481725828476
 31
0.0
  0
LINE
  5
1F1
330
1CB
100
AcDbEntity
  8
AM_9
100
AcDbLine
 10
-1.040625
 20
-0.6944472537790396
 30
0.0
 11
-1.040625
 21
0.6944472537790399
 31
0.0
  0
LINE
  5
1F2
330
1CB
100
AcDbEntity
  8
AM_9
100
AcDbLine
 10
-0.8405937499999999
 20
-1.369306393762915
 30
0.0
 11
0.8405937499999999
 21
-1.369306393762915
 31
0.0
  0
LINE
  5
1F3
330
1CB
100
AcDbEntity
  8
AM_9
100
AcDbLine
 10
0.8405937500000001
 20
1.369306393762915
 30
0.0
 11
-0.8405937499999999
 21
1.369306393762915
 31
0.0
  0
LINE
  5
1F4
330
1CB
100
AcDbEntity
  8
AM_9
100
AcDbLine
 10
1.040625
 20
-0.6944472537790405
 30
0.0
 11
1.040625
 21
0.6944472537790403
 31
0.0
  0
LWPOLYLINE
  5
1F5
330
1CB
100
AcDbEntity
  8
AM_9
100
AcDbPolyline
 90
       29
 70
     0
 43
0.0
 10
-0.5000000000000001
 20
0.8132022937758165
 10
-0.4969032307741836
 20
0.8639164202266385
 10
-0.4877394183255308
 20
0.9136077764485443
 10
-0.4726983054972367
 20
0.961363955294823
 10
-0.451882390455357
 20
1.006713134167539
 10
-0.4255719362181876
 20
1.049398704762478
 10
-0.3942572540264069
 20
1.088743072925389
 10
-0.3575268254076743
 20
1.125008412943941
 10
-0.316244039004196
 20
1.157346729182135
 10
-0.2711428308919455
 20
1.185272064694905
 10
-0.2219118021006824
 20
1.208833574245831
 10
-0.1696041275259449
 20
1.22754837541382
 10
-0.1152148639343195
 20
1.241108338168931
 10
-0.0602598667148155
 20
1.249247485217616
 10
-0.0043350130815116
 20
1.252262972769344
 10
0.0514634218254177
 20
1.250102700240661
 10
0.1054110291356759
 20
1.242927738687131
 10
0.1582102295609289
 20
1.230860727327644
 10
0.2089011846364503
 20
1.214093480471807
 10
0.2574337477011498
 20
1.192460432453739
 10
0.3029576808405486
 20
1.166278764575373
 10
0.3446883235634569
 20
1.135933062957166
 10
0.3831154958688125
 20
1.100626731825798
 10
0.4168486200119402
 20
1.061338917397724
 10
0.4452588933510974
 20
1.018688399464339
 10
0.4680435359049871
 20
0.9727922936910746
 10
0.4849545836634996
 20
0.9241682129209418
 10
0.4956366223044414
 20
0.8737053971691456
 10
0.4999999999999998
 20
0.8132022937758164
  0
LWPOLYLINE
  5
1F6
330
1CB
100
AcDbEntity
  8
AM_9
100
AcDbPolyline
 90
       29
 70
     0
 43
0.0
 10
0.4999999999999998
 20
0.8132022937758164
 10
0.497474558423442
 20
0.7666694318659508
 10
0.489956643142372
 20
0.720184648781609
 10
0.4761247739321081
 20
0.6701691476391458
 10
0.4566089359495862
 20
0.6213093301027441
 10
0.4317831685946277
 20
0.5745322587949985
 10
0.4012934021200197
 20
0.529642346891046
 10
0.3658460710090753
 20
0.4878480040935715
 10
0.3260709654261151
 20
0.4499654157610555
 10
0.2812662814823609
 20
0.4157937972746206
 10
0.2326921998525604
 20
0.3865494760510398
 10
0.1812426435892263
 20
0.3628854153252576
 10
0.1276840136560662
 20
0.3453053667837307
 10
0.0722580843560727
 20
0.3338122247526324
 10
0.0160535571132475
 20
0.3286932703059875
 10
-0.038938393555541
 20
0.3300188377825601
 10
-0.0936092694194549
 20
0.3374552617605375
 10
-0.146926999941368
 20
0.3508231659315195
 10
-0.1981394881309539
 20
0.3699183613382365
 10
-0.2470769035860555
 20
0.3944491323742132
 10
-0.2928885547874598
 20
0.4238894693090074
 10
-0.3360943327388318
 20
0.4588022190200567
 10
-0.3752612738441362
 20
0.4980914090959993
 10
-0.4096926189685028
 20
0.5409672619772192
 10
-0.4394180820705576
 20
0.5877373274750338
 10
-0.4636493643816064
 20
0.6372275421174683
 10
-0.4818978599328384
 20
0.688427830971751
 10
-0.4954272751917919
 20
0.7506142430805735
 10
-0.5000000000000001
 20
0.8132022937758165
  0
LINE
  5
1F7
330
1CB
100
AcDbEntity
  8
AM_9
100
AcDbLine
 10
-0.8405937499999997
 20
0.9265848727273652
 30
0.0
 11
-0.8405937499999999
 21
-0.9265848727273641
 31
0.0
  0
LINE
  5
1F8
330
1CB
100
AcDbEntity
  8
AM_9
100
AcDbLine
 10
0.8405937499999999
 20
-0.9265848727273654
 30
0.0
 11
0.8405937500000001
 21
0.9265848727273641
 31
0.0
  0
LINE
  5
1F9
330
1CB
100
AcDbEntity
  8
AM_9
100
AcDbLine
 10
-0.8405937499999999
 20
-0.8687500000000001
 30
0.0
 11
0.8405937500000001
 21
-0.8687500000000001
 31
0.0
  0
LINE
  5
1FA
330
1CB
100
AcDbEntity
  8
AM_9
100
AcDbLine
 10
-0.8405937499999999
 20
-0.96875
 30
0.0
 11
0.8405937500000001
 21
-0.96875
 31
0.0
  0
LINE
  5
1FB
330
1CB
100
AcDbEntity
  8
AM_9
100
AcDbLine
 10
-0.8405937499999999
 20
0.9687500000000001
 30
0.0
 11
0.8405937500000001
 21
0.9687500000000001
 31
0.0
  0
LINE
  5
1FC
330
1CB
100
AcDbEntity
  8
AM_9
100
AcDbLine
 10
-0.8405937499999999
 20
0.86875
 30
0.0
 11
0.8405937500000001
 21
0.86875
 31
0.0
  0
LINE
  5
1FD
330
1CB
100
AcDbEntity
  8
AM_7
100
AcDbLine
 10
0.0000000000000002
 20
-0.525
 30
0.0
 11
0.0000000000000002
 21
0.525
 31
0.0
  0
LINE
  5
1FE
330
1CB
100
AcDbEntity
  8
AM_4
100
AcDbLine
 10
-0.3437499999999999
 20
1.891999999999996
 30
0.0
 11
-0.3437499999999999
 21
2.375
 31
0.0
  0
LINE
  5
1FF
330
1CB
100
AcDbEntity
  8
AM_4
100
AcDbLine
 10
-0.9249999999999998
 20
1.369306393762915
 30
0.0
 11
-0.9249999999999998
 21
2.375
 31
0.0
  0
LINE
  5
200
330
1CB
100
AcDbEntity
  8
AM_4
100
AcDbLine
 10
-0.9249999999999998
 20
2.375
 30
0.0
 11
-0.3437499999999999
 21
2.375
 31
0.0
  0
LINE
  5
201
330
1CB
100
AcDbEntity
  8
AM_4
100
AcDbLine
 10
0.3437499999999995
 20
-2.375
 30
0.0
 11
0.3437500000000001
 21
-1.891999999999998
 31
0.0
  0
LINE
  5
202
330
1CB
100
AcDbEntity
  8
AM_4
100
AcDbLine
 10
-0.9249999999999998
 20
-2.375
 30
0.0
 11
-0.9249999999999998
 21
-1.369306393762915
 31
0.0
  0
LINE
  5
203
330
1CB
100
AcDbEntity
  8
AM_4
100
AcDbLine
 10
-0.3437499999999999
 20
-2.375
 30
0.0
 11
-0.3437499999999999
 21
-1.891999999999998
 31
0.0
  0
LINE
  5
204
330
1CB
100
AcDbEntity
  8
AM_4
100
AcDbLine
 10
0.9250000000000002
 20
-2.375
 30
0.0
 11
0.9250000000000003
 21
-1.369306393762915
 31
0.0
  0
LINE
  5
205
330
1CB
100
AcDbEntity
  8
AM_4
100
AcDbLine
 10
-0.9249999999999998
 20
-2.375
 30
0.0
 11
-0.3437499999999999
 21
-2.375
 31
0.0
  0
LINE
  5
206
330
1CB
100
AcDbEntity
  8
AM_4
100
AcDbLine
 10
-0.9249999999999998
 20
-2.275
 30
0.0
 11
-0.3437499999999999
 21
-2.275
 31
0.0
  0
LINE
  5
207
330
1CB
100
AcDbEntity
  8
AM_4
100
AcDbLine
 10
0.3437500000000001
 20
1.891999999999996
 30
0.0
 11
0.3437500000000001
 21
2.375
 31
0.0
  0
LINE
  5
208
330
1CB
100
AcDbEntity
  8
AM_4
100
AcDbLine
 10
0.9250000000000003
 20
1.369306393762915
 30
0.0
 11
0.9250000000000002
 21
2.375
 31
0.0
  0
LINE
  5
209
330
1CB
100
AcDbEntity
  8
AM_4
100
AcDbLine
 10
0.3437500000000001
 20
2.375
 30
0.0
 11
0.9250000000000002
 21
2.375
 31
0.0
  0
LINE
  5
20A
330
1CB
100
AcDbEntity
  8
AM_4
100
AcDbLine
 10
-0.9249999999999998
 20
2.275
 30
0.0
 11
-0.3437499999999999
 21
2.275
 31
0.0
  0
LINE
  5
20B
330
1CB
100
AcDbEntity
  8
AM_4
100
AcDbLine
 10
0.3437500000000001
 20
2.275
 30
0.0
 11
0.9250000000000002
 21
2.275
 31
0.0
  0
LINE
  5
20C
330
1CB
100
AcDbEntity
  8
AM_4
100
AcDbLine
 10
0.3437499999999995
 20
-2.375
 30
0.0
 11
0.9250000000000002
 21
-2.375
 31
0.0
  0
LINE
  5
20D
330
1CB
100
AcDbEntity
  8
AM_4
100
AcDbLine
 10
0.3437500000000001
 20
-2.275
 30
0.0
 11
0.9250000000000002
 21
-2.275
 31
0.0
  0
LINE
  5
20E
330
1CB
100
AcDbEntity
  8
AM_4
100
AcDbLine
 10
-0.3437499999999999
 20
-1.891999999999998
 30
0.0
 11
0.3437500000000001
 21
-1.891999999999998
 31
0.0
  0
LINE
  5
20F
330
1CB
100
AcDbEntity
  8
AM_4
100
AcDbLine
 10
-0.34375
 20
-1.999999999999996
 30
0.0
 11
0.34375
 21
-1.999999999999996
 31
0.0
  0
LINE
  5
210
330
1CB
100
AcDbEntity
  8
AM_4
100
AcDbLine
 10
-0.3437499999999999
 20
1.891999999999996
 30
0.0
 11
0.3437500000000001
 21
1.891999999999996
 31
0.0
  0
LINE
  5
211
330
1CB
100
AcDbEntity
  8
AM_4
100
AcDbLine
 10
0.34375
 20
1.999999999999996
 30
0.0
 11
-0.34375
 21
1.999999999999996
 31
0.0
  0
LINE
  5
212
330
1CB
100
AcDbEntity
  8
AM_4
100
AcDbLine
 10
1.15625
 20
0.4777481725828476
 30
0.0
 11
1.15625
 21
2.009375
 31
0.0
  0
LINE
  5
213
330
1CB
100
AcDbEntity
  8
AM_4
100
AcDbLine
 10
1.15625
 20
2.009375
 30
0.0
 11
1.040625
 21
2.125
 31
0.0
  0
LINE
  5
214
330
1CB
100
AcDbEntity
  8
AM_4
100
AcDbLine
 10
1.040625
 20
-2.125
 30
0.0
 11
1.15625
 21
-2.009375
 31
0.0
  0
LINE
  5
215
330
1CB
100
AcDbEntity
  8
AM_4
100
AcDbLine
 10
1.15625
 20
-2.009375
 30
0.0
 11
1.15625
 21
-0.4777481725828481
 31
0.0
  0
LINE
  5
216
330
1CB
100
AcDbEntity
  8
AM_4
100
AcDbLine
 10
-1.15625
 20
0.4777481725828476
 30
0.0
 11
-1.15625
 21
2.009375
 31
0.0
  0
LINE
  5
217
330
1CB
100
AcDbEntity
  8
AM_4
100
AcDbLine
 10
-1.15625
 20
-2.009375
 30
0.0
 11
-1.040625
 21
-2.125
 31
0.0
  0
LINE
  5
218
330
1CB
100
AcDbEntity
  8
AM_4
100
AcDbLine
 10
-1.040625
 20
2.125
 30
0.0
 11
-1.15625
 21
2.009375
 31
0.0
  0
LINE
  5
219
330
1CB
100
AcDbEntity
  8
AM_4
100
AcDbLine
 10
-1.15625
 20
-2.009375
 30
0.0
 11
-1.15625
 21
-0.4777481725828472
 31
0.0
  0
LINE
  5
21A
330
1CB
100
AcDbEntity
  8
AM_4
100
AcDbLine
 10
-1.040625
 20
0.6944472537790399
 30
0.0
 11
-1.040625
 21
2.125
 31
0.0
  0
LINE
  5
21B
330
1CB
100
AcDbEntity
  8
AM_4
100
AcDbLine
 10
0.9250000000000003
 20
-1.369306393762915
 30
0.0
 11
0.8405937500000001
 21
-1.369306393762915
 31
0.0
  0
LINE
  5
21C
330
1CB
100
AcDbEntity
  8
AM_4
100
AcDbLine
 10
-0.8405937499999999
 20
-1.369306393762915
 30
0.0
 11
-0.9249999999999998
 21
-1.369306393762915
 31
0.0
  0
LINE
  5
21D
330
1CB
100
AcDbEntity
  8
AM_4
100
AcDbLine
 10
-0.9249999999999998
 20
1.369306393762915
 30
0.0
 11
-0.8405937499999999
 21
1.369306393762915
 31
0.0
  0
LINE
  5
21E
330
1CB
100
AcDbEntity
  8
AM_4
100
AcDbLine
 10
0.8405937500000001
 20
1.369306393762916
 30
0.0
 11
0.9250000000000003
 21
1.369306393762915
 31
0.0
  0
LINE
  5
21F
330
1CB
100
AcDbEntity
  8
AM_4
100
AcDbLine
 10
1.040625
 20
0.6944472537790403
 30
0.0
 11
1.040625
 21
2.125
 31
0.0
  0
LINE
  5
220
330
1CB
100
AcDbEntity
  8
AM_4
100
AcDbLine
 10
1.040625
 20
2.125
 30
0.0
 11
0.9250000000000002
 21
2.125
 31
0.0
  0
LINE
  5
221
330
1CB
100
AcDbEntity
  8
AM_4
100
AcDbLine
 10
-0.9249999999999999
 20
2.125
 30
0.0
 11
-1.040625
 21
2.125
 31
0.0
  0
LINE
  5
222
330
1CB
100
AcDbEntity
  8
AM_4
100
AcDbLine
 10
-1.040625
 20
-2.125
 30
0.0
 11
-0.9249999999999999
 21
-2.125
 31
0.0
  0
LINE
  5
223
330
1CB
100
AcDbEntity
  8
AM_4
100
AcDbLine
 10
0.9250000000000002
 20
-2.125
 30
0.0
 11
1.040625
 21
-2.125
 31
0.0
  0
LINE
  5
224
330
1CB
100
AcDbEntity
  8
AM_4
100
AcDbLine
 10
-1.040625
 20
-2.125
 30
0.0
 11
-1.040625
 21
-0.6944472537790396
 31
0.0
  0
LINE
  5
225
330
1CB
100
AcDbEntity
  8
AM_4
100
AcDbLine
 10
1.040625
 20
-2.125
 30
0.0
 11
1.040625
 21
-0.6944472537790405
 31
0.0
  0
LINE
  5
226
330
1CB
100
AcDbEntity
  8
AM_4
100
AcDbLine
 10
0.7405937500000003
 20
1.65625
 30
0.0
 11
-0.7405937499999995
 21
1.65625
 31
0.0
  0
ARC
  5
227
330
1CB
100
AcDbEntity
  8
AM_4
100
AcDbCircle
 10
-0.7405937499999998
 20
1.55625
 30
0.0
 40
0.1000000000000001
100
AcDbArc
 50
90.0
 51
180.0
  0
CIRCLE
  5
228
330
1CB
100
AcDbEntity
  8
AM_4
100
AcDbCircle
 10
0.0000000000000002
 20
0.0
 30
0.0
 40
0.5
  0
LINE
  5
229
330
1CB
100
AcDbEntity
  8
AM_4
100
AcDbLine
 10
-0.8405937499999998
 20
1.55625
 30
0.0
 11
-0.8405937499999997
 21
0.9265848727273653
 31
0.0
  0
ARC
  5
22A
330
1CB
100
AcDbEntity
  8
AM_4
100
AcDbCircle
 10
-0.0000000000000004
 20
0.0000000000000001
 30
0.0
 40
1.2510625
100
AcDbArc
 50
132.2141779061887
 51
227.7858220938113
  0
LINE
  5
22B
330
1CB
100
AcDbEntity
  8
AM_4
100
AcDbLine
 10
-0.8405937499999999
 20
-0.9265848727273649
 30
0.0
 11
-0.8405937499999998
 21
-1.55625
 31
0.0
  0
ARC
  5
22C
330
1CB
100
AcDbEntity
  8
AM_4
100
AcDbCircle
 10
-0.7405937499999998
 20
-1.55625
 30
0.0
 40
0.1
100
AcDbArc
 50
180.0
 51
270.0
  0
LINE
  5
22D
330
1CB
100
AcDbEntity
  8
AM_4
100
AcDbLine
 10
-0.7405937499999997
 20
-1.65625
 30
0.0
 11
0.7405937500000003
 21
-1.65625
 31
0.0
  0
ARC
  5
22E
330
1CB
100
AcDbEntity
  8
AM_4
100
AcDbCircle
 10
0.7405937500000002
 20
-1.556249999999999
 30
0.0
 40
0.1000000000000003
100
AcDbArc
 50
270.0
 51
0.0
  0
LINE
  5
22F
330
1CB
100
AcDbEntity
  8
AM_4
100
AcDbLine
 10
0.8405937500000004
 20
-1.55625
 30
0.0
 11
0.8405937500000004
 21
-0.9265848727273654
 31
0.0
  0
ARC
  5
230
330
1CB
100
AcDbEntity
  8
AM_4
100
AcDbCircle
 10
0.0000000000000011
 20
-0.0000000000000002
 30
0.0
 40
1.2510625
100
AcDbArc
 50
312.2141779061887
 51
47.7858220938113
  0
LINE
  5
231
330
1CB
100
AcDbEntity
  8
AM_4
100
AcDbLine
 10
0.84059375
 20
0.9265848727273652
 30
0.0
 11
0.8405937500000004
 21
1.55625
 31
0.0
  0
ARC
  5
232
330
1CB
100
AcDbEntity
  8
AM_4
100
AcDbCircle
 10
0.7405937500000002
 20
1.556249999999999
 30
0.0
 40
0.1000000000000002
100
AcDbArc
 50
0.0
 51
90.0
  0
ENDBLK
  5
1CE
330
1CB
100
AcDbEntity
  8
0
100
AcDbBlockEnd
  0
ENDSEC
  0
SECTION
  2
ENTITIES
  0
INSERT
  5
6F
330
1F
100
AcDbEntity
  8
0
100
AcDbBlockReference
  2
1_023078_2
 10
0.0
 20
0.0
 30
0.0
  0
POINT
  5
234
330
1F
100
AcDbEntity
  8
ConnectionPoints
100
AcDbPoint
 10
1.69
 20
0.0
 30
-0.0000000000000001
  0
POINT
  5
235
330
1F
100
AcDbEntity
  8
ConnectionPoints
100
AcDbPoint
 10
-1.69
 20
0.0
 30
0.0000000000000001
  0
POINT
  5
236
330
1F
100
AcDbEntity
  8
ConnectionPoints
100
AcDbPoint
 10
-1.69
 20
0.0
 30
0.0000000000000001
  0
POINT
  5
237
330
1F
100
AcDbEntity
  8
ConnectionPoints
100
AcDbPoint
 10
1.69
 20
0.0
 30
-0.0000000000000001
  0
POINT
  5
238
330
1F
100
AcDbEntity
  8
ConnectionPoints
100
AcDbPoint
 10
0.0
 20
0.0
 30
0.0
  0
POINT
  5
239
330
1F
100
AcDbEntity
  8
ConnectionPoints
100
AcDbPoint
 10
-0.0000000000000001
 20
0.8514706370123248
 30
-2.055631959837613
  0
POINT
  5
23A
330
1F
100
AcDbEntity
  8
ConnectionPoints
100
AcDbPoint
 10
0.0
 20
0.0
 30
0.0
  0
ENDSEC
  0
SECTION
  2
OBJECTS
  0
DICTIONARY
  5
C
330
0
100
AcDbDictionary
281
     1
  3
ACAD_DETAILVIEWSTYLE
350
242
  3
ACAD_GROUP
350
D
  3
ACAD_LAYOUT
350
1A
  3
ACAD_MATERIAL
350
43
  3
ACAD_MLEADERSTYLE
350
6B
  3
ACAD_MLINESTYLE
350
17
  3
ACAD_PLOTSETTINGS
350
19
  3
ACAD_PLOTSTYLENAME
350
E
  3
ACAD_SCALELIST
350
47
  3
ACAD_SECTIONVIEWSTYLE
350
243
  3
ACAD_TABLESTYLE
350
69
  3
ACAD_VISUALSTYLE
350
2A
  3
ACDB_RECOMPOSE_DATA
350
23F
  3
AcDbVariableDictionary
350
23B
  0
SUN
  5
6D
330
29
100
AcDbSun
 90
        1
290
     0
 63
     7
421
 16777215
 40
1.0
291
     1
 91
  2455826
 92
 54000000
292
     0
 70
     2
 71
   256
280
     1
  0
DICTIONARY
  5
242
102
{ACAD_REACTORS
330
C
102
}
330
C
100
AcDbDictionary
281
     1
  0
DICTIONARY
  5
D
102
{ACAD_REACTORS
330
C
102
}
330
C
100
AcDbDictionary
281
     1
  0
DICTIONARY
  5
1A
102
{ACAD_REACTORS
330
C
102
}
330
C
100
AcDbDictionary
281
     1
  3
Layout1
350
1E
  3
Layout2
350
26
  3
Model
350
22
  0
DICTIONARY
  5
43
102
{ACAD_REACTORS
330
C
102
}
330
C
100
AcDbDictionary
281
     1
  3
ByBlock
350
45
  3
ByLayer
350
44
  3
Global
350
46
  0
DICTIONARY
  5
6B
102
{ACAD_REACTORS
330
C
102
}
330
C
100
AcDbDictionary
281
     1
  3
Standard
350
6C
  0
DICTIONARY
  5
17
102
{ACAD_REACTORS
330
C
102
}
330
C
100
AcDbDictionary
281
     1
  3
Standard
350
18
  0
DICTIONARY
  5
19
102
{ACAD_REACTORS
330
C
102
}
330
C
100
AcDbDictionary
281
     1
  0
ACDBDICTIONARYWDFLT
  5
E
102
{ACAD_REACTORS
330
C
102
}
330
C
100
AcDbDictionary
281
     1
  3
Normal
350
F
100
AcDbDictionaryWithDefault
340
F
  0
DICTIONARY
  5
47
102
{ACAD_REACTORS
330
C
102
}
330
C
100
AcDbDictionary
281
     1
  3
A0
350
48
  3
A1
350
49
  3
A2
350
4A
  3
A3
350
4B
  3
A4
350
4C
  3
A5
350
4D
  3
A6
350
4E
  3
A7
350
4F
  3
A8
350
50
  3
A9
350
51
  3
B0
350
52
  3
B1
350
53
  3
B2
350
54
  3
B3
350
55
  3
B4
350
56
  3
B5
350
57
  3
B6
350
58
  3
B7
350
59
  3
B8
350
5A
  3
B9
350
5B
  3
C0
350
5C
  3
C1
350
5D
  3
C2
350
5E
  3
C3
350
5F
  3
C4
350
60
  3
C5
350
61
  3
C6
350
62
  3
C7
350
63
  3
C8
350
64
  3
C9
350
65
  3
D0
350
66
  3
D1
350
67
  3
D2
350
68
  0
DICTIONARY
  5
243
102
{ACAD_REACTORS
330
C
102
}
330
C
100
AcDbDictionary
281
     1
  0
DICTIONARY
  5
69
102
{ACAD_REACTORS
330
C
102
}
330
C
100
AcDbDictionary
281
     1
  3
Standard
350
6A
  0
DICTIONARY
  5
2A
102
{ACAD_REACTORS
330
C
102
}
330
C
100
AcDbDictionary
281
     1
  3
2dWireframe
350
2F
  3
Basic
350
32
  3
Brighten
350
36
  3
ColorChange
350
3A
  3
Conceptual
350
34
  3
Dim
350
35
  3
EdgeColorOff
350
3D
  3
Facepattern
350
39
  3
Flat
350
2B
  3
FlatWithEdges
350
2C
  3
Gouraud
350
2D
  3
GouraudWithEdges
350
2E
  3
Hidden
350
31
  3
JitterOff
350
3B
  3
Linepattern
350
38
  3
OverhangOff
350
3C
  3
Realistic
350
33
  3
Shaded
350
42
  3
Shaded with edges
350
41
  3
Shades of Gray
350
3E
  3
Sketchy
350
3F
  3
Thicken
350
37
  3
Wireframe
350
30
  3
X-Ray
350
40
  0
XRECORD
  5
23F
102
{ACAD_REACTORS
330
C
102
}
330
C
100
AcDbXrecord
280
     1
 90
        1
330
6A
  0
DICTIONARY
  5
23B
102
{ACAD_REACTORS
330
C
102
}
330
C
100
AcDbDictionary
281
     1
  3
CANNOSCALE
350
23C
  3
CMLEADERSTYLE
350
241
  3
CTABLESTYLE
350
240
  0
LAYOUT
  5
1E
102
{ACAD_REACTORS
330
1A
102
}
330
1A
100
AcDbPlotSettings
  1

  2
none_device
  4

  6

 40
0.0
 41
0.0
 42
0.0
 43
0.0
 44
0.0
 45
0.0
 46
0.0
 47
0.0
 48
0.0
 49
0.0
140
0.0
141
0.0
142
1.0
143
1.0
 70
   688
 72
     0
 73
     0
 74
     5
  7

 75
    16
 76
     0
 77
     2
 78
   300
147
1.0
148
0.0
149
0.0
100
AcDbLayout
  1
Layout1
 70
     1
 71
     1
 10
0.0
 20
0.0
 11
12.0
 21
9.0
 12
0.0
 22
0.0
 32
0.0
 14
1.000000000000000E+20
 24
1.000000000000000E+20
 34
1.000000000000000E+20
 15
-1.000000000000000E+20
 25
-1.000000000000000E+20
 35
-1.000000000000000E+20
146
0.0
 13
0.0
 23
0.0
 33
0.0
 16
1.0
 26
0.0
 36
0.0
 17
0.0
 27
1.0
 37
0.0
 76
     0
330
1B
  0
LAYOUT
  5
26
102
{ACAD_REACTORS
330
1A
102
}
330
1A
100
AcDbPlotSettings
  1

  2
none_device
  4

  6

 40
0.0
 41
0.0
 42
0.0
 43
0.0
 44
0.0
 45
0.0
 46
0.0
 47
0.0
 48
0.0
 49
0.0
140
0.0
141
0.0
142
1.0
143
1.0
 70
   688
 72
     0
 73
     0
 74
     5
  7

 75
    16
 76
     0
 77
     2
 78
   300
147
1.0
148
0.0
149
0.0
100
AcDbLayout
  1
Layout2
 70
     1
 71
     2
 10
0.0
 20
0.0
 11
0.0
 21
0.0
 12
0.0
 22
0.0
 32
0.0
 14
0.0
 24
0.0
 34
0.0
 15
0.0
 25
0.0
 35
0.0
146
0.0
 13
0.0
 23
0.0
 33
0.0
 16
1.0
 26
0.0
 36
0.0
 17
0.0
 27
1.0
 37
0.0
 76
     0
330
23
  0
LAYOUT
  5
22
102
{ACAD_REACTORS
330
1A
102
}
330
1A
100
AcDbPlotSettings
  1

  2
none_device
  4
Letter_(8.50_x_11.00_Inches)
  6

 40
6.35
 41
6.35
 42
6.35000508
 43
6.35000508
 44
215.9
 45
279.4
 46
0.0
 47
0.0
 48
0.0
 49
0.0
140
0.0
141
0.0
142
1.0
143
1.0
 70
  1712
 72
     0
 73
     0
 74
     0
  7

 75
     0
 76
     0
 77
     2
 78
   300
147
1.0
148
0.0
149
0.0
100
AcDbLayout
  1
Model
 70
     1
 71
     0
 10
0.0
 20
0.0
 11
12.0
 21
9.0
 12
0.0
 22
0.0
 32
0.0
 14
1.000000000000000E+20
 24
1.000000000000000E+20
 34
1.000000000000000E+20
 15
-1.000000000000000E+20
 25
-1.000000000000000E+20
 35
-1.000000000000000E+20
146
0.0
 13
0.0
 23
0.0
 33
0.0
 16
1.0
 26
0.0
 36
0.0
 17
0.0
 27
1.0
 37
0.0
 76
     0
330
1F
331
29
  0
MATERIAL
  5
45
102
{ACAD_REACTORS
330
43
102
}
330
43
100
AcDbMaterial
  1
ByBlock
 72
     1
 94
      127
  0
MATERIAL
  5
44
102
{ACAD_REACTORS
330
43
102
}
330
43
100
AcDbMaterial
  1
ByLayer
 72
     1
 94
      127
  0
MATERIAL
  5
46
102
{ACAD_REACTORS
330
43
102
}
330
43
100
AcDbMaterial
  1
Global
 72
     1
 94
      127
  0
MLEADERSTYLE
  5
6C
102
{ACAD_REACTORS
330
6B
102
}
330
6B
100
AcDbMLeaderStyle
179
     2
170
     2
171
     1
172
     0
 90
        2
 40
0.0
 41
0.0
173
     1
 91
-1056964608
340
14
 92
       -2
290
     1
 42
0.09
291
     1
 43
0.36
  3
Standard
341
0
 44
0.18
300

342
11
174
     1
178
     6
175
     1
176
     0
 93
-1056964608
 45
0.18
292
     0
297
     0
 46
0.18
343
0
 94
-1056964608
 47
1.0
 49
1.0
140
1.0
293
     1
141
0.0
294
     1
177
     0
142
1.0
295
     0
296
     0
143
0.125
271
     0
272
     9
273
     9
298
     0
  0
MLINESTYLE
  5
18
102
{ACAD_REACTORS
330
17
102
}
330
17
100
AcDbMlineStyle
  2
Standard
 70
     0
  3

 62
   256
 51
90.0
 52
90.0
 71
     2
 49
0.5
 62
   256
  6
BYLAYER
 49
-0.5
 62
   256
  6
BYLAYER
  0
ACDBPLACEHOLDER
  5
F
102
{ACAD_REACTORS
330
E
102
}
330
E
  0
SCALE
  5
48
102
{ACAD_REACTORS
330
47
102
}
330
47
100
AcDbScale
 70
     0
300
1:1
140
1.0
141
1.0
290
     1
  0
SCALE
  5
49
102
{ACAD_REACTORS
330
47
102
}
330
47
100
AcDbScale
 70
     0
300
1:2
140
1.0
141
2.0
290
     0
  0
SCALE
  5
4A
102
{ACAD_REACTORS
330
47
102
}
330
47
100
AcDbScale
 70
     0
300
1:4
140
1.0
141
4.0
290
     0
  0
SCALE
  5
4B
102
{ACAD_REACTORS
330
47
102
}
330
47
100
AcDbScale
 70
     0
300
1:5
140
1.0
141
5.0
290
     0
  0
SCALE
  5
4C
102
{ACAD_REACTORS
330
47
102
}
330
47
100
AcDbScale
 70
     0
300
1:8
140
1.0
141
8.0
290
     0
  0
SCALE
  5
4D
102
{ACAD_REACTORS
330
47
102
}
330
47
100
AcDbScale
 70
     0
300
1:10
140
1.0
141
10.0
290
     0
  0
SCALE
  5
4E
102
{ACAD_REACTORS
330
47
102
}
330
47
100
AcDbScale
 70
     0
300
1:16
140
1.0
141
16.0
290
     0
  0
SCALE
  5
4F
102
{ACAD_REACTORS
330
47
102
}
330
47
100
AcDbScale
 70
     0
300
1:20
140
1.0
141
20.0
290
     0
  0
SCALE
  5
50
102
{ACAD_REACTORS
330
47
102
}
330
47
100
AcDbScale
 70
     0
300
1:30
140
1.0
141
30.0
290
     0
  0
SCALE
  5
51
102
{ACAD_REACTORS
330
47
102
}
330
47
100
AcDbScale
 70
     0
300
1:40
140
1.0
141
40.0
290
     0
  0
SCALE
  5
52
102
{ACAD_REACTORS
330
47
102
}
330
47
100
AcDbScale
 70
     0
300
1:50
140
1.0
141
50.0
290
     0
  0
SCALE
  5
53
102
{ACAD_REACTORS
330
47
102
}
330
47
100
AcDbScale
 70
     0
300
1:100
140
1.0
141
100.0
290
     0
  0
SCALE
  5
54
102
{ACAD_REACTORS
330
47
102
}
330
47
100
AcDbScale
 70
     0
300
2:1
140
2.0
141
1.0
290
     0
  0
SCALE
  5
55
102
{ACAD_REACTORS
330
47
102
}
330
47
100
AcDbScale
 70
     0
300
4:1
140
4.0
141
1.0
290
     0
  0
SCALE
  5
56
102
{ACAD_REACTORS
330
47
102
}
330
47
100
AcDbScale
 70
     0
300
8:1
140
8.0
141
1.0
290
     0
  0
SCALE
  5
57
102
{ACAD_REACTORS
330
47
102
}
330
47
100
AcDbScale
 70
     0
300
10:1
140
10.0
141
1.0
290
     0
  0
SCALE
  5
58
102
{ACAD_REACTORS
330
47
102
}
330
47
100
AcDbScale
 70
     0
300
100:1
140
100.0
141
1.0
290
     0
  0
SCALE
  5
59
102
{ACAD_REACTORS
330
47
102
}
330
47
100
AcDbScale
 70
     0
300
1/128" = 1'-0"
140
0.0078125
141
12.0
290
     0
  0
SCALE
  5
5A
102
{ACAD_REACTORS
330
47
102
}
330
47
100
AcDbScale
 70
     0
300
1/64" = 1'-0"
140
0.015625
141
12.0
290
     0
  0
SCALE
  5
5B
102
{ACAD_REACTORS
330
47
102
}
330
47
100
AcDbScale
 70
     0
300
1/32" = 1'-0"
140
0.03125
141
12.0
290
     0
  0
SCALE
  5
5C
102
{ACAD_REACTORS
330
47
102
}
330
47
100
AcDbScale
 70
     0
300
1/16" = 1'-0"
140
0.0625
141
12.0
290
     0
  0
SCALE
  5
5D
102
{ACAD_REACTORS
330
47
102
}
330
47
100
AcDbScale
 70
     0
300
3/32" = 1'-0"
140
0.09375
141
12.0
290
     0
  0
SCALE
  5
5E
102
{ACAD_REACTORS
330
47
102
}
330
47
100
AcDbScale
 70
     0
300
1/8" = 1'-0"
140
0.125
141
12.0
290
     0
  0
SCALE
  5
5F
102
{ACAD_REACTORS
330
47
102
}
330
47
100
AcDbScale
 70
     0
300
3/16" = 1'-0"
140
0.1875
141
12.0
290
     0
  0
SCALE
  5
60
102
{ACAD_REACTORS
330
47
102
}
330
47
100
AcDbScale
 70
     0
300
1/4" = 1'-0"
140
0.25
141
12.0
290
     0
  0
SCALE
  5
61
102
{ACAD_REACTORS
330
47
102
}
330
47
100
AcDbScale
 70
     0
300
3/8" = 1'-0"
140
0.375
141
12.0
290
     0
  0
SCALE
  5
62
102
{ACAD_REACTORS
330
47
102
}
330
47
100
AcDbScale
 70
     0
300
1/2" = 1'-0"
140
0.5
141
12.0
290
     0
  0
SCALE
  5
63
102
{ACAD_REACTORS
330
47
102
}
330
47
100
AcDbScale
 70
     0
300
3/4" = 1'-0"
140
0.75
141
12.0
290
     0
  0
SCALE
  5
64
102
{ACAD_REACTORS
330
47
102
}
330
47
100
AcDbScale
 70
     0
300
1" = 1'-0"
140
1.0
141
12.0
290
     0
  0
SCALE
  5
65
102
{ACAD_REACTORS
330
47
102
}
330
47
100
AcDbScale
 70
     0
300
1-1/2" = 1'-0"
140
1.5
141
12.0
290
     0
  0
SCALE
  5
66
102
{ACAD_REACTORS
330
47
102
}
330
47
100
AcDbScale
 70
     0
300
3" = 1'-0"
140
3.0
141
12.0
290
     0
  0
SCALE
  5
67
102
{ACAD_REACTORS
330
47
102
}
330
47
100
AcDbScale
 70
     0
300
6" = 1'-0"
140
6.0
141
12.0
290
     0
  0
SCALE
  5
68
102
{ACAD_REACTORS
330
47
102
}
330
47
100
AcDbScale
 70
     0
300
1'-0" = 1'-0"
140
12.0
141
12.0
290
     0
  0
TABLESTYLE
  5
6A
102
{ACAD_REACTORS
330
69
102
}
102
{ACAD_XDICTIONARY
360
23D
102
}
330
69
100
AcDbTableStyle
  3
Standard
 70
     0
 71
     0
 40
0.06
 41
0.06
280
     0
281
     0
  7
Standard
140
0.18
170
     2
 62
     0
 63
   257
283
     0
 90
        4
 91
        0
  1

274
    -2
284
     1
 64
     0
275
    -2
285
     1
 65
     0
276
    -2
286
     1
 66
     0
277
    -2
287
     1
 67
     0
278
    -2
288
     1
 68
     0
279
    -2
289
     1
 69
     0
  7
Standard
140
0.25
170
     5
 62
     0
 63
   257
283
     0
 90
        4
 91
        0
  1

274
    -2
284
     1
 64
     0
275
    -2
285
     1
 65
     0
276
    -2
286
     1
 66
     0
277
    -2
287
     1
 67
     0
278
    -2
288
     1
 68
     0
279
    -2
289
     1
 69
     0
  7
Standard
140
0.18
170
     5
 62
     0
 63
   257
283
     0
 90
        4
 91
        0
  1

274
    -2
284
     1
 64
     0
275
    -2
285
     1
 65
     0
276
    -2
286
     1
 66
     0
277
    -2
287
     1
 67
     0
278
    -2
288
     1
 68
     0
279
    -2
289
     1
 69
     0
  0
VISUALSTYLE
  5
2F
102
{ACAD_REACTORS
330
2A
102
}
330
2A
100
AcDbVisualStyle
  2
2dWireframe
 70
     4
177
     3
291
     0
 70
    58
 90
        0
176
     1
 90
        2
176
     1
 90
        0
176
     1
 90
        0
176
     1
 40
0.6
176
     1
 40
30.0
176
     1
 62
     7
420
 16777215
176
     1
 90
        1
176
     1
 90
        4
176
     1
 62
     7
176
     1
 62
   257
176
     1
 90
        1
176
     1
 90
        1
176
     1
 40
1.0
176
     1
 90
        0
176
     1
 62
   257
176
     1
 40
1.0
176
     1
 90
        1
176
     1
 90
        6
176
     1
 90
        2
176
     1
 62
     7
176
     1
 90
        5
176
     1
 90
        0
176
     1
 90
        0
176
     1
290
     0
176
     1
 90
        1
176
     1
 40
0.0
176
     1
 90
        0
176
     1
290
     1
176
     1
290
     1
176
     1
290
     0
176
     1
290
     0
176
     1
290
     0
176
     1
290
     0
176
     1
290
     0
176
     1
290
     0
176
     1
290
     0
176
     1
 90
       50
176
     1
 40
0.0
176
     1
 40
1.0
176
     1
 90
        0
176
     1
 62
    18
420
        0
176
     1
 90
       50
176
     1
 90
        3
176
     1
 62
     5
420
      255
176
     1
290
     0
176
     1
 90
       50
176
     1
 90
       50
176
     1
 90
       50
176
     1
290
     0
176
     1
 90
       50
176
     1
 62
   256
176
     0
 40
1.0
176
     0
 90
        2
176
     1
  1
strokes_ogs.tif
176
     1
290
     0
176
     1
 40
1.0
176
     1
 40
1.0
176
     1
  0
VISUALSTYLE
  5
32
102
{ACAD_REACTORS
330
2A
102
}
330
2A
100
AcDbVisualStyle
  2
Basic
 70
     7
177
     3
291
     1
 70
    58
 90
        1
176
     1
 90
        0
176
     1
 90
        1
176
     1
 90
        0
176
     1
 40
0.6
176
     1
 40
30.0
176
     1
 62
     7
420
 16777215
176
     1
 90
        0
176
     1
 90
        4
176
     1
 62
     7
176
     1
 62
   257
176
     1
 90
        1
176
     1
 90
        1
176
     1
 40
1.0
176
     1
 90
        8
176
     1
 62
     7
176
     1
 40
1.0
176
     1
 90
        1
176
     1
 90
        6
176
     1
 90
        2
176
     1
 62
     7
176
     1
 90
        5
176
     1
 90
        0
176
     1
 90
        0
176
     1
290
     0
176
     1
 90
        1
176
     1
 40
0.0
176
     1
 90
        0
176
     1
290
     0
176
     1
290
     1
176
     1
290
     1
176
     1
290
     0
176
     1
290
     0
176
     1
290
     0
176
     1
290
     0
176
     1
290
     0
176
     1
290
     0
176
     1
 90
       50
176
     1
 40
0.0
176
     1
 40
1.0
176
     1
 90
        0
176
     1
 62
    18
420
        0
176
     1
 90
       50
176
     1
 90
        3
176
     1
 62
     5
420
      255
176
     1
290
     0
176
     1
 90
       50
176
     1
 90
       50
176
     1
 90
       50
176
     1
290
     0
176
     1
 90
       50
176
     1
 62
   256
176
     0
 40
1.0
176
     0
 90
        2
176
     1
  1
strokes_ogs.tif
176
     1
290
     0
176
     1
 40
1.0
176
     1
 40
1.0
176
     1
  0
VISUALSTYLE
  5
36
102
{ACAD_REACTORS
330
2A
102
}
330
2A
100
AcDbVisualStyle
  2
Brighten
 70
    12
177
     3
291
     1
 70
    58
 90
        2
176
     1
 90
        2
176
     1
 90
        0
176
     1
 90
        0
176
     1
 40
0.6
176
     1
 40
30.0
176
     1
 62
     7
420
 16777215
176
     1
 90
        1
176
     1
 90
        4
176
     1
 62
     7
176
     1
 62
   257
176
     1
 90
        1
176
     1
 90
        1
176
     1
 40
1.0
176
     1
 90
        8
176
     1
 62
     7
176
     1
 40
1.0
176
     1
 90
        1
176
     1
 90
        6
176
     1
 90
        2
176
     1
 62
     7
176
     1
 90
        5
176
     1
 90
        0
176
     1
 90
        0
176
     1
290
     0
176
     1
 90
        1
176
     1
 40
50.0
176
     1
 90
        0
176
     1
290
     0
176
     1
290
     1
176
     1
290
     1
176
     1
290
     0
176
     1
290
     0
176
     1
290
     0
176
     1
290
     0
176
     1
290
     0
176
     1
290
     0
176
     1
 90
       50
176
     1
 40
0.0
176
     1
 40
1.0
176
     1
 90
        0
176
     1
 62
    18
420
        0
176
     1
 90
       50
176
     1
 90
        3
176
     1
 62
     5
420
      255
176
     1
290
     0
176
     1
 90
       50
176
     1
 90
       50
176
     1
 90
       50
176
     1
290
     0
176
     1
 90
       50
176
     1
 62
   256
176
     0
 40
1.0
176
     0
 90
        2
176
     1
  1
strokes_ogs.tif
176
     1
290
     0
176
     1
 40
1.0
176
     1
 40
1.0
176
     1
  0
VISUALSTYLE
  5
3A
102
{ACAD_REACTORS
330
2A
102
}
330
2A
100
AcDbVisualStyle
  2
ColorChange
 70
    16
177
     3
291
     1
 70
    58
 90
        2
176
     1
 90
        2
176
     1
 90
        3
176
     1
 90
        0
176
     1
 40
0.6
176
     1
 40
30.0
176
     1
 62
     8
420
  8421504
176
     1
 90
        1
176
     1
 90
        4
176
     1
 62
     7
176
     1
 62
   257
176
     1
 90
        1
176
     1
 90
        1
176
     1
 40
1.0
176
     1
 90
        8
176
     1
 62
     8
420
  8421504
176
     1
 40
1.0
176
     1
 90
        1
176
     1
 90
        6
176
     1
 90
        2
176
     1
 62
     7
176
     1
 90
        5
176
     1
 90
        0
176
     1
 90
        0
176
     1
290
     0
176
     1
 90
        1
176
     1
 40
0.0
176
     1
 90
        0
176
     1
290
     0
176
     1
290
     1
176
     1
290
     1
176
     1
290
     0
176
     1
290
     0
176
     1
290
     0
176
     1
290
     0
176
     1
290
     0
176
     1
290
     0
176
     1
 90
       50
176
     1
 40
0.0
176
     1
 40
1.0
176
     1
 90
        0
176
     1
 62
    18
420
        0
176
     1
 90
       50
176
     1
 90
        3
176
     1
 62
     5
420
      255
176
     1
290
     0
176
     1
 90
       50
176
     1
 90
       50
176
     1
 90
       50
176
     1
290
     0
176
     1
 90
       50
176
     1
 62
   256
176
     0
 40
1.0
176
     0
 90
        2
176
     1
  1
strokes_ogs.tif
176
     1
290
     0
176
     1
 40
1.0
176
     1
 40
1.0
176
     1
  0
VISUALSTYLE
  5
34
102
{ACAD_REACTORS
330
2A
102
}
330
2A
100
AcDbVisualStyle
  2
Conceptual
 70
     9
177
     3
291
     0
 70
    58
 90
        3
176
     1
 90
        2
176
     1
 90
        0
176
     1
 90
        0
176
     1
 40
0.6
176
     1
 40
30.0
176
     1
 62
     7
420
 16777215
176
     1
 90
        2
176
     1
 90
        2
176
     1
 62
     7
176
     1
 62
   257
176
     1
 90
        1
176
     1
 90
        1
176
     1
 40
179.0
176
     1
 90
        8
176
     1
 62
     7
176
     1
 40
1.0
176
     1
 90
        1
176
     1
 90
        6
176
     1
 90
        2
176
     1
 62
     7
176
     1
 90
        3
176
     1
 90
        0
176
     1
 90
        0
176
     1
290
     0
176
     1
 90
        1
176
     1
 40
0.0
176
     1
 90
        0
176
     1
290
     0
176
     1
290
     1
176
     1
290
     1
176
     1
290
     0
176
     1
290
     0
176
     1
290
     0
176
     1
290
     0
176
     1
290
     0
176
     1
290
     0
176
     1
 90
       50
176
     1
 40
0.0
176
     1
 40
1.0
176
     1
 90
        0
176
     1
 62
    18
420
        0
176
     1
 90
       50
176
     1
 90
        3
176
     1
 62
     5
420
      255
176
     1
290
     0
176
     1
 90
       50
176
     1
 90
       50
176
     1
 90
       50
176
     1
290
     0
176
     1
 90
       50
176
     1
 62
   256
176
     0
 40
1.0
176
     0
 90
        2
176
     1
  1
strokes_ogs.tif
176
     1
290
     0
176
     1
 40
1.0
176
     1
 40
1.0
176
     1
  0
VISUALSTYLE
  5
35
102
{ACAD_REACTORS
330
2A
102
}
330
2A
100
AcDbVisualStyle
  2
Dim
 70
    11
177
     3
291
     1
 70
    58
 90
        2
176
     1
 90
        2
176
     1
 90
        0
176
     1
 90
        0
176
     1
 40
0.6
176
     1
 40
30.0
176
     1
 62
     7
420
 16777215
176
     1
 90
        1
176
     1
 90
        4
176
     1
 62
     7
176
     1
 62
   257
176
     1
 90
        1
176
     1
 90
        1
176
     1
 40
1.0
176
     1
 90
        8
176
     1
 62
     7
176
     1
 40
1.0
176
     1
 90
        1
176
     1
 90
        6
176
     1
 90
        2
176
     1
 62
     7
176
     1
 90
        5
176
     1
 90
        0
176
     1
 90
        0
176
     1
290
     0
176
     1
 90
        1
176
     1
 40
-50.0
176
     1
 90
        0
176
     1
290
     0
176
     1
290
     1
176
     1
290
     1
176
     1
290
     0
176
     1
290
     0
176
     1
290
     0
176
     1
290
     0
176
     1
290
     0
176
     1
290
     0
176
     1
 90
       50
176
     1
 40
0.0
176
     1
 40
1.0
176
     1
 90
        0
176
     1
 62
    18
420
        0
176
     1
 90
       50
176
     1
 90
        3
176
     1
 62
     5
420
      255
176
     1
290
     0
176
     1
 90
       50
176
     1
 90
       50
176
     1
 90
       50
176
     1
290
     0
176
     1
 90
       50
176
     1
 62
   256
176
     0
 40
1.0
176
     0
 90
        2
176
     1
  1
strokes_ogs.tif
176
     1
290
     0
176
     1
 40
1.0
176
     1
 40
1.0
176
     1
  0
VISUALSTYLE
  5
3D
102
{ACAD_REACTORS
330
2A
102
}
330
2A
100
AcDbVisualStyle
  2
EdgeColorOff
 70
    22
177
     3
291
     1
 70
    58
 90
        2
176
     0
 90
        2
176
     0
 90
        0
176
     0
 90
        0
176
     0
 40
0.6
176
     0
 40
30.0
176
     0
 62
     7
420
 16777215
176
     0
 90
        1
176
     0
 90
        4
176
     0
 62
     7
176
     0
 62
   257
176
     0
 90
        1
176
     0
 90
        1
176
     0
 40
1.0
176
     0
 90
        8
176
     2
 62
     7
176
     0
 40
1.0
176
     0
 90
        1
176
     0
 90
        6
176
     0
 90
        2
176
     0
 62
     7
176
     0
 90
        5
176
     0
 90
        0
176
     0
 90
        0
176
     0
290
     0
176
     0
 90
        1
176
     0
 40
0.0
176
     0
 90
        0
176
     0
290
     0
176
     0
290
     1
176
     0
290
     1
176
     0
290
     0
176
     0
290
     0
176
     0
290
     0
176
     0
290
     0
176
     0
290
     0
176
     0
290
     0
176
     0
 90
       50
176
     0
 40
0.0
176
     0
 40
1.0
176
     0
 90
        0
176
     0
 62
    18
420
        0
176
     0
 90
       50
176
     0
 90
        3
176
     0
 62
     5
420
      255
176
     0
290
     0
176
     0
 90
       50
176
     0
 90
       50
176
     0
 90
       50
176
     0
290
     0
176
     0
 90
       50
176
     0
 62
   256
176
     0
 40
1.0
176
     0
 90
        2
176
     0
  1
strokes_ogs.tif
176
     0
290
     0
176
     0
 40
1.0
176
     0
 40
1.0
176
     0
  0
VISUALSTYLE
  5
39
102
{ACAD_REACTORS
330
2A
102
}
330
2A
100
AcDbVisualStyle
  2
Facepattern
 70
    15
177
     3
291
     1
 70
    58
 90
        2
176
     1
 90
        2
176
     1
 90
        0
176
     1
 90
        0
176
     1
 40
0.6
176
     1
 40
30.0
176
     1
 62
     7
420
 16777215
176
     1
 90
        1
176
     1
 90
        4
176
     1
 62
     7
176
     1
 62
   257
176
     1
 90
        1
176
     1
 90
        1
176
     1
 40
1.0
176
     1
 90
        8
176
     1
 62
     7
176
     1
 40
1.0
176
     1
 90
        1
176
     1
 90
        6
176
     1
 90
        2
176
     1
 62
     7
176
     1
 90
        5
176
     1
 90
        0
176
     1
 90
        0
176
     1
290
     0
176
     1
 90
        1
176
     1
 40
0.0
176
     1
 90
        0
176
     1
290
     0
176
     1
290
     1
176
     1
290
     1
176
     1
290
     0
176
     1
290
     0
176
     1
290
     0
176
     1
290
     0
176
     1
290
     0
176
     1
290
     0
176
     1
 90
       50
176
     1
 40
0.0
176
     1
 40
1.0
176
     1
 90
        0
176
     1
 62
    18
420
        0
176
     1
 90
       50
176
     1
 90
        3
176
     1
 62
     5
420
      255
176
     1
290
     0
176
     1
 90
       50
176
     1
 90
       50
176
     1
 90
       50
176
     1
290
     0
176
     1
 90
       50
176
     1
 62
   256
176
     0
 40
1.0
176
     0
 90
        2
176
     1
  1
strokes_ogs.tif
176
     1
290
     0
176
     1
 40
1.0
176
     1
 40
1.0
176
     1
  0
VISUALSTYLE
  5
2B
102
{ACAD_REACTORS
330
2A
102
}
330
2A
100
AcDbVisualStyle
  2
Flat
 70
     0
177
     3
291
     1
 70
    58
 90
        2
176
     1
 90
        1
176
     1
 90
        1
176
     1
 90
        2
176
     1
 40
0.6
176
     1
 40
30.0
176
     1
 62
     7
420
 16777215
176
     1
 90
        0
176
     1
 90
        0
176
     1
 62
     7
176
     1
 62
   257
176
     1
 90
        1
176
     1
 90
        1
176
     1
 40
1.0
176
     1
 90
        8
176
     1
 62
     7
176
     1
 40
1.0
176
     1
 90
        1
176
     1
 90
        6
176
     1
 90
        2
176
     1
 62
     7
176
     1
 90
        5
176
     1
 90
        0
176
     1
 90
        0
176
     1
290
     0
176
     1
 90
       13
176
     1
 40
0.0
176
     1
 90
        0
176
     1
290
     0
176
     1
290
     1
176
     1
290
     1
176
     1
290
     0
176
     1
290
     0
176
     1
290
     0
176
     1
290
     0
176
     1
290
     0
176
     1
290
     0
176
     1
 90
       50
176
     1
 40
0.0
176
     1
 40
1.0
176
     1
 90
        0
176
     1
 62
    18
420
        0
176
     1
 90
       50
176
     1
 90
        3
176
     1
 62
     5
420
      255
176
     1
290
     0
176
     1
 90
       50
176
     1
 90
       50
176
     1
 90
       50
176
     1
290
     0
176
     1
 90
       50
176
     1
 62
   256
176
     0
 40
1.0
176
     0
 90
        2
176
     1
  1
strokes_ogs.tif
176
     1
290
     0
176
     1
 40
1.0
176
     1
 40
1.0
176
     1
  0
VISUALSTYLE
  5
2C
102
{ACAD_REACTORS
330
2A
102
}
330
2A
100
AcDbVisualStyle
  2
FlatWithEdges
 70
     1
177
     3
291
     1
 70
    58
 90
        2
176
     1
 90
        1
176
     1
 90
        1
176
     1
 90
        2
176
     1
 40
0.6
176
     1
 40
30.0
176
     1
 62
     7
420
 16777215
176
     1
 90
        1
176
     1
 90
        0
176
     1
 62
     7
176
     1
 62
   257
176
     1
 90
        1
176
     1
 90
        1
176
     1
 40
1.0
176
     1
 90
        0
176
     1
 62
   257
176
     1
 40
1.0
176
     1
 90
        1
176
     1
 90
        6
176
     1
 90
        2
176
     1
 62
     7
176
     1
 90
        5
176
     1
 90
        0
176
     1
 90
        0
176
     1
290
     0
176
     1
 90
       13
176
     1
 40
0.0
176
     1
 90
        0
176
     1
290
     0
176
     1
290
     1
176
     1
290
     1
176
     1
290
     0
176
     1
290
     0
176
     1
290
     0
176
     1
290
     0
176
     1
290
     0
176
     1
290
     0
176
     1
 90
       50
176
     1
 40
0.0
176
     1
 40
1.0
176
     1
 90
        0
176
     1
 62
    18
420
        0
176
     1
 90
       50
176
     1
 90
        3
176
     1
 62
     5
420
      255
176
     1
290
     0
176
     1
 90
       50
176
     1
 90
       50
176
     1
 90
       50
176
     1
290
     0
176
     1
 90
       50
176
     1
 62
   256
176
     0
 40
1.0
176
     0
 90
        2
176
     1
  1
strokes_ogs.tif
176
     1
290
     0
176
     1
 40
1.0
176
     1
 40
1.0
176
     1
  0
VISUALSTYLE
  5
2D
102
{ACAD_REACTORS
330
2A
102
}
330
2A
100
AcDbVisualStyle
  2
Gouraud
 70
     2
177
     3
291
     1
 70
    58
 90
        2
176
     1
 90
        2
176
     1
 90
        1
176
     1
 90
        2
176
     1
 40
0.6
176
     1
 40
30.0
176
     1
 62
     7
420
 16777215
176
     1
 90
        0
176
     1
 90
        0
176
     1
 62
     7
176
     1
 62
   257
176
     1
 90
        1
176
     1
 90
        1
176
     1
 40
1.0
176
     1
 90
        0
176
     1
 62
     7
176
     1
 40
1.0
176
     1
 90
        1
176
     1
 90
        6
176
     1
 90
        2
176
     1
 62
     7
176
     1
 90
        5
176
     1
 90
        0
176
     1
 90
        0
176
     1
290
     0
176
     1
 90
       13
176
     1
 40
0.0
176
     1
 90
        0
176
     1
290
     0
176
     1
290
     1
176
     1
290
     1
176
     1
290
     0
176
     1
290
     0
176
     1
290
     0
176
     1
290
     0
176
     1
290
     0
176
     1
290
     0
176
     1
 90
       50
176
     1
 40
0.0
176
     1
 40
1.0
176
     1
 90
        0
176
     1
 62
    18
420
        0
176
     1
 90
       50
176
     1
 90
        3
176
     1
 62
     5
420
      255
176
     1
290
     0
176
     1
 90
       50
176
     1
 90
       50
176
     1
 90
       50
176
     1
290
     0
176
     1
 90
       50
176
     1
 62
   256
176
     0
 40
1.0
176
     0
 90
        2
176
     1
  1
strokes_ogs.tif
176
     1
290
     0
176
     1
 40
1.0
176
     1
 40
1.0
176
     1
  0
VISUALSTYLE
  5
2E
102
{ACAD_REACTORS
330
2A
102
}
330
2A
100
AcDbVisualStyle
  2
GouraudWithEdges
 70
     3
177
     3
291
     1
 70
    58
 90
        2
176
     1
 90
        2
176
     1
 90
        1
176
     1
 90
        2
176
     1
 40
0.6
176
     1
 40
30.0
176
     1
 62
     7
420
 16777215
176
     1
 90
        1
176
     1
 90
        0
176
     1
 62
     7
176
     1
 62
   257
176
     1
 90
        1
176
     1
 90
        1
176
     1
 40
1.0
176
     1
 90
        0
176
     1
 62
   257
176
     1
 40
1.0
176
     1
 90
        1
176
     1
 90
        6
176
     1
 90
        2
176
     1
 62
     7
176
     1
 90
        5
176
     1
 90
        0
176
     1
 90
        0
176
     1
290
     0
176
     1
 90
       13
176
     1
 40
0.0
176
     1
 90
        0
176
     1
290
     0
176
     1
290
     1
176
     1
290
     1
176
     1
290
     0
176
     1
290
     0
176
     1
290
     0
176
     1
290
     0
176
     1
290
     0
176
     1
290
     0
176
     1
 90
       50
176
     1
 40
0.0
176
     1
 40
1.0
176
     1
 90
        0
176
     1
 62
    18
420
        0
176
     1
 90
       50
176
     1
 90
        3
176
     1
 62
     5
420
      255
176
     1
290
     0
176
     1
 90
       50
176
     1
 90
       50
176
     1
 90
       50
176
     1
290
     0
176
     1
 90
       50
176
     1
 62
   256
176
     0
 40
1.0
176
     0
 90
        2
176
     1
  1
strokes_ogs.tif
176
     1
290
     0
176
     1
 40
1.0
176
     1
 40
1.0
176
     1
  0
VISUALSTYLE
  5
31
102
{ACAD_REACTORS
330
2A
102
}
330
2A
100
AcDbVisualStyle
  2
Hidden
 70
     6
177
     3
291
     0
 70
    58
 90
        1
176
     1
 90
        2
176
     1
 90
        2
176
     1
 90
        0
176
     1
 40
0.6
176
     1
 40
30.0
176
     1
 62
     7
420
 16777215
176
     1
 90
        2
176
     1
 90
        2
176
     1
 62
     7
176
     1
 62
   257
176
     1
 90
        2
176
     1
 90
        1
176
     1
 40
40.0
176
     1
 90
        0
176
     1
 62
   257
176
     1
 40
1.0
176
     1
 90
        1
176
     1
 90
        6
176
     1
 90
        2
176
     1
 62
     7
176
     1
 90
        3
176
     1
 90
        0
176
     1
 90
        0
176
     1
290
     0
176
     1
 90
        1
176
     1
 40
0.0
176
     1
 90
        0
176
     1
290
     0
176
     1
290
     1
176
     1
290
     1
176
     1
290
     0
176
     1
290
     0
176
     1
290
     0
176
     1
290
     0
176
     1
290
     0
176
     1
290
     0
176
     1
 90
       50
176
     1
 40
0.0
176
     1
 40
1.0
176
     1
 90
        0
176
     1
 62
    18
420
        0
176
     1
 90
       50
176
     1
 90
        3
176
     1
 62
     5
420
      255
176
     1
290
     0
176
     1
 90
       50
176
     1
 90
       50
176
     1
 90
       50
176
     1
290
     0
176
     1
 90
       50
176
     1
 62
   256
176
     0
 40
1.0
176
     0
 90
        2
176
     1
  1
strokes_ogs.tif
176
     1
290
     0
176
     1
 40
1.0
176
     1
 40
1.0
176
     1
  0
VISUALSTYLE
  5
3B
102
{ACAD_REACTORS
330
2A
102
}
330
2A
100
AcDbVisualStyle
  2
JitterOff
 70
    20
177
     3
291
     1
 70
    58
 90
        2
176
     0
 90
        2
176
     0
 90
        0
176
     0
 90
        0
176
     0
 40
0.6
176
     0
 40
30.0
176
     0
 62
     7
420
 16777215
176
     0
 90
        1
176
     0
 90
        4
176
     0
 62
     7
176
     0
 62
   257
176
     0
 90
        1
176
     0
 90
        1
176
     0
 40
1.0
176
     0
 90
       10
176
     2
 62
     7
176
     0
 40
1.0
176
     0
 90
        1
176
     0
 90
        6
176
     0
 90
        2
176
     0
 62
     7
176
     0
 90
        5
176
     0
 90
        0
176
     0
 90
        0
176
     0
290
     0
176
     0
 90
        1
176
     0
 40
0.0
176
     0
 90
        0
176
     0
290
     0
176
     0
290
     1
176
     0
290
     1
176
     0
290
     0
176
     0
290
     0
176
     0
290
     0
176
     0
290
     0
176
     0
290
     0
176
     0
290
     0
176
     0
 90
       50
176
     0
 40
0.0
176
     0
 40
1.0
176
     0
 90
        0
176
     0
 62
    18
420
        0
176
     0
 90
       50
176
     0
 90
        3
176
     0
 62
     5
420
      255
176
     0
290
     0
176
     0
 90
       50
176
     0
 90
       50
176
     0
 90
       50
176
     0
290
     0
176
     0
 90
       50
176
     0
 62
   256
176
     0
 40
1.0
176
     0
 90
        2
176
     0
  1
strokes_ogs.tif
176
     0
290
     0
176
     0
 40
1.0
176
     0
 40
1.0
176
     0
  0
VISUALSTYLE
  5
38
102
{ACAD_REACTORS
330
2A
102
}
330
2A
100
AcDbVisualStyle
  2
Linepattern
 70
    14
177
     3
291
     1
 70
    58
 90
        2
176
     1
 90
        2
176
     1
 90
        0
176
     1
 90
        0
176
     1
 40
0.6
176
     1
 40
30.0
176
     1
 62
     7
420
 16777215
176
     1
 90
        1
176
     1
 90
        4
176
     1
 62
     7
176
     1
 62
   257
176
     1
 90
        7
176
     1
 90
        7
176
     1
 40
1.0
176
     1
 90
        8
176
     1
 62
     7
176
     1
 40
1.0
176
     1
 90
        1
176
     1
 90
        6
176
     1
 90
        2
176
     1
 62
     7
176
     1
 90
        5
176
     1
 90
        0
176
     1
 90
        0
176
     1
290
     0
176
     1
 90
        1
176
     1
 40
0.0
176
     1
 90
        0
176
     1
290
     0
176
     1
290
     1
176
     1
290
     1
176
     1
290
     0
176
     1
290
     0
176
     1
290
     0
176
     1
290
     0
176
     1
290
     0
176
     1
290
     0
176
     1
 90
       50
176
     1
 40
0.0
176
     1
 40
1.0
176
     1
 90
        0
176
     1
 62
    18
420
        0
176
     1
 90
       50
176
     1
 90
        3
176
     1
 62
     5
420
      255
176
     1
290
     0
176
     1
 90
       50
176
     1
 90
       50
176
     1
 90
       50
176
     1
290
     0
176
     1
 90
       50
176
     1
 62
   256
176
     0
 40
1.0
176
     0
 90
        2
176
     1
  1
strokes_ogs.tif
176
     1
290
     0
176
     1
 40
1.0
176
     1
 40
1.0
176
     1
  0
VISUALSTYLE
  5
3C
102
{ACAD_REACTORS
330
2A
102
}
330
2A
100
AcDbVisualStyle
  2
OverhangOff
 70
    21
177
     3
291
     1
 70
    58
 90
        2
176
     0
 90
        2
176
     0
 90
        0
176
     0
 90
        0
176
     0
 40
0.6
176
     0
 40
30.0
176
     0
 62
     7
420
 16777215
176
     0
 90
        1
176
     0
 90
        4
176
     0
 62
     7
176
     0
 62
   257
176
     0
 90
        1
176
     0
 90
        1
176
     0
 40
1.0
176
     0
 90
        9
176
     2
 62
     7
176
     0
 40
1.0
176
     0
 90
        1
176
     0
 90
        6
176
     0
 90
        2
176
     0
 62
     7
176
     0
 90
        5
176
     0
 90
        0
176
     0
 90
        0
176
     0
290
     0
176
     0
 90
        1
176
     0
 40
0.0
176
     0
 90
        0
176
     0
290
     0
176
     0
290
     1
176
     0
290
     1
176
     0
290
     0
176
     0
290
     0
176
     0
290
     0
176
     0
290
     0
176
     0
290
     0
176
     0
290
     0
176
     0
 90
       50
176
     0
 40
0.0
176
     0
 40
1.0
176
     0
 90
        0
176
     0
 62
    18
420
        0
176
     0
 90
       50
176
     0
 90
        3
176
     0
 62
     5
420
      255
176
     0
290
     0
176
     0
 90
       50
176
     0
 90
       50
176
     0
 90
       50
176
     0
290
     0
176
     0
 90
       50
176
     0
 62
   256
176
     0
 40
1.0
176
     0
 90
        2
176
     0
  1
strokes_ogs.tif
176
     0
290
     0
176
     0
 40
1.0
176
     0
 40
1.0
176
     0
  0
VISUALSTYLE
  5
33
102
{ACAD_REACTORS
330
2A
102
}
330
2A
100
AcDbVisualStyle
  2
Realistic
 70
     8
177
     3
291
     0
 70
    58
 90
        2
176
     1
 90
        3
176
     1
 90
        0
176
     1
 90
        2
176
     1
 40
0.6
176
     1
 40
30.0
176
     1
 62
     7
420
 16777215
176
     1
 90
        0
176
     1
 90
        0
176
     1
 62
     7
176
     1
 62
   257
176
     1
 90
        1
176
     1
 90
        1
176
     1
 40
1.0
176
     1
 90
        8
176
     1
 62
   257
176
     1
 40
1.0
176
     1
 90
        1
176
     1
 90
        6
176
     1
 90
        2
176
     1
 62
     7
176
     1
 90
        3
176
     1
 90
        0
176
     1
 90
        0
176
     1
290
     0
176
     1
 90
       13
176
     1
 40
0.0
176
     1
 90
        0
176
     1
290
     0
176
     1
290
     1
176
     1
290
     1
176
     1
290
     0
176
     1
290
     0
176
     1
290
     0
176
     1
290
     0
176
     1
290
     0
176
     1
290
     0
176
     1
 90
       50
176
     1
 40
0.0
176
     1
 40
1.0
176
     1
 90
        0
176
     1
 62
    18
420
        0
176
     1
 90
       50
176
     1
 90
        3
176
     1
 62
     5
420
      255
176
     1
290
     0
176
     1
 90
       50
176
     1
 90
       50
176
     1
 90
       50
176
     1
290
     0
176
     1
 90
       50
176
     1
 62
   256
176
     0
 40
1.0
176
     0
 90
        2
176
     1
  1
strokes_ogs.tif
176
     1
290
     0
176
     1
 40
1.0
176
     1
 40
1.0
176
     1
  0
VISUALSTYLE
  5
42
102
{ACAD_REACTORS
330
2A
102
}
330
2A
100
AcDbVisualStyle
  2
Shaded
 70
    27
177
     3
291
     0
 70
    58
 90
        2
176
     1
 90
        2
176
     1
 90
        1
176
     1
 90
        2
176
     1
 40
0.6
176
     1
 40
30.0
176
     1
 62
     7
420
 16777215
176
     1
 90
        0
176
     1
 90
        4
176
     1
 62
     7
176
     1
 62
   257
176
     1
 90
        1
176
     1
 90
        1
176
     1
 40
1.0
176
     1
 90
        8
176
     1
 62
   257
176
     1
 40
1.0
176
     1
 90
        1
176
     1
 90
        6
176
     1
 90
        2
176
     1
 62
     8
420
  7895160
176
     1
 90
        3
176
     1
 90
        0
176
     1
 90
        0
176
     1
290
     0
176
     1
 90
        5
176
     1
 40
0.0
176
     1
 90
        0
176
     1
290
     0
176
     1
290
     1
176
     1
290
     1
176
     1
290
     0
176
     1
290
     0
176
     1
290
     0
176
     1
290
     0
176
     1
290
     0
176
     1
290
     0
176
     1
 90
       50
176
     1
 40
0.0
176
     1
 40
1.0
176
     1
 90
        0
176
     1
 62
    18
420
        0
176
     1
 90
       50
176
     1
 90
        3
176
     1
 62
     5
420
      255
176
     1
290
     0
176
     1
 90
       50
176
     1
 90
       50
176
     1
 90
       50
176
     1
290
     0
176
     1
 90
       50
176
     1
 62
   256
176
     0
 40
1.0
176
     0
 90
        2
176
     1
  1
strokes_ogs.tif
176
     1
290
     0
176
     1
 40
1.0
176
     1
 40
1.0
176
     1
  0
VISUALSTYLE
  5
41
102
{ACAD_REACTORS
330
2A
102
}
330
2A
100
AcDbVisualStyle
  2
Shaded with edges
 70
    26
177
     3
291
     0
 70
    58
 90
        2
176
     1
 90
        2
176
     1
 90
        1
176
     1
 90
        2
176
     1
 40
0.6
176
     1
 40
30.0
176
     1
 62
     7
420
 16777215
176
     1
 90
        1
176
     1
 90
       10
176
     1
 62
     7
176
     1
 62
   257
176
     1
 90
        2
176
     1
 90
        1
176
     1
 40
1.0
176
     1
 90
        8
176
     1
 62
   257
176
     1
 40
1.0
176
     1
 90
        1
176
     1
 90
        6
176
     1
 90
        2
176
     1
 62
     7
176
     1
 90
        3
176
     1
 90
        0
176
     1
 90
        0
176
     1
290
     0
176
     1
 90
        5
176
     1
 40
0.0
176
     1
 90
        0
176
     1
290
     0
176
     1
290
     1
176
     1
290
     1
176
     1
290
     0
176
     1
290
     0
176
     1
290
     0
176
     1
290
     0
176
     1
290
     0
176
     1
290
     0
176
     1
 90
       50
176
     1
 40
0.0
176
     1
 40
1.0
176
     1
 90
        0
176
     1
 62
    18
420
        0
176
     1
 90
       50
176
     1
 90
        3
176
     1
 62
     5
420
      255
176
     1
290
     0
176
     1
 90
       50
176
     1
 90
       50
176
     1
 90
       50
176
     1
290
     0
176
     1
 90
       50
176
     1
 62
   256
176
     0
 40
1.0
176
     0
 90
        2
176
     1
  1
strokes_ogs.tif
176
     1
290
     0
176
     1
 40
1.0
176
     1
 40
1.0
176
     1
  0
VISUALSTYLE
  5
3E
102
{ACAD_REACTORS
330
2A
102
}
330
2A
100
AcDbVisualStyle
  2
Shades of Gray
 70
    23
177
     3
291
     0
 70
    58
 90
        2
176
     1
 90
        2
176
     1
 90
        3
176
     1
 90
        0
176
     1
 40
0.6
176
     1
 40
30.0
176
     1
 62
     7
420
 16777215
176
     1
 90
        2
176
     1
 90
        2
176
     1
 62
     7
176
     1
 62
     7
176
     1
 90
        1
176
     1
 90
        1
176
     1
 40
40.0
176
     1
 90
        8
176
     1
 62
     7
176
     1
 40
1.0
176
     1
 90
        1
176
     1
 90
        6
176
     1
 90
        2
176
     1
 62
     7
176
     1
 90
        3
176
     1
 90
        0
176
     1
 90
        0
176
     1
290
     0
176
     1
 90
        1
176
     1
 40
0.0
176
     1
 90
        0
176
     1
290
     0
176
     1
290
     1
176
     1
290
     1
176
     1
290
     0
176
     1
290
     0
176
     1
290
     0
176
     1
290
     0
176
     1
290
     0
176
     1
290
     0
176
     1
 90
       50
176
     1
 40
0.0
176
     1
 40
1.0
176
     1
 90
        0
176
     1
 62
    18
420
        0
176
     1
 90
       50
176
     1
 90
        3
176
     1
 62
     5
420
      255
176
     1
290
     0
176
     1
 90
       50
176
     1
 90
       50
176
     1
 90
       50
176
     1
290
     0
176
     1
 90
       50
176
     1
 62
   256
176
     0
 40
1.0
176
     0
 90
        2
176
     1
  1
strokes_ogs.tif
176
     1
290
     0
176
     1
 40
1.0
176
     1
 40
1.0
176
     1
  0
VISUALSTYLE
  5
3F
102
{ACAD_REACTORS
330
2A
102
}
330
2A
100
AcDbVisualStyle
  2
Sketchy
 70
    24
177
     3
291
     0
 70
    58
 90
        1
176
     1
 90
        2
176
     1
 90
        2
176
     1
 90
        0
176
     1
 40
0.6
176
     1
 40
30.0
176
     1
 62
     7
420
 16777215
176
     1
 90
        2
176
     1
 90
        2
176
     1
 62
     7
176
     1
 62
     7
176
     1
 90
        1
176
     1
 90
        1
176
     1
 40
40.0
176
     1
 90
       11
176
     1
 62
     7
176
     1
 40
1.0
176
     1
 90
        1
176
     1
 90
        6
176
     1
 90
        2
176
     1
 62
     7
176
     1
 90
        6
176
     1
 90
        0
176
     1
 90
        0
176
     1
290
     0
176
     1
 90
        1
176
     1
 40
0.0
176
     1
 90
        0
176
     1
290
     0
176
     1
290
     1
176
     1
290
     1
176
     1
290
     0
176
     1
290
     0
176
     1
290
     0
176
     1
290
     0
176
     1
290
     0
176
     1
290
     0
176
     1
 90
       50
176
     1
 40
0.0
176
     1
 40
1.0
176
     1
 90
        0
176
     1
 62
    18
420
        0
176
     1
 90
       50
176
     1
 90
        3
176
     1
 62
     5
420
      255
176
     1
290
     0
176
     1
 90
       50
176
     1
 90
       50
176
     1
 90
       50
176
     1
290
     0
176
     1
 90
       50
176
     1
 62
   256
176
     0
 40
1.0
176
     0
 90
        2
176
     1
  1
strokes_ogs.tif
176
     1
290
     0
176
     1
 40
1.0
176
     1
 40
1.0
176
     1
  0
VISUALSTYLE
  5
37
102
{ACAD_REACTORS
330
2A
102
}
330
2A
100
AcDbVisualStyle
  2
Thicken
 70
    13
177
     3
291
     1
 70
    58
 90
        2
176
     1
 90
        2
176
     1
 90
        0
176
     1
 90
        0
176
     1
 40
0.6
176
     1
 40
30.0
176
     1
 62
     7
420
 16777215
176
     1
 90
        1
176
     1
 90
        4
176
     1
 62
     7
176
     1
 62
   257
176
     1
 90
        1
176
     1
 90
        1
176
     1
 40
1.0
176
     1
 90
       12
176
     1
 62
     7
176
     1
 40
1.0
176
     1
 90
        1
176
     1
 90
        6
176
     1
 90
        2
176
     1
 62
     7
176
     1
 90
        5
176
     1
 90
        0
176
     1
 90
        0
176
     1
290
     0
176
     1
 90
        1
176
     1
 40
0.0
176
     1
 90
        0
176
     1
290
     0
176
     1
290
     1
176
     1
290
     1
176
     1
290
     0
176
     1
290
     0
176
     1
290
     0
176
     1
290
     0
176
     1
290
     0
176
     1
290
     0
176
     1
 90
       50
176
     1
 40
0.0
176
     1
 40
1.0
176
     1
 90
        0
176
     1
 62
    18
420
        0
176
     1
 90
       50
176
     1
 90
        3
176
     1
 62
     5
420
      255
176
     1
290
     0
176
     1
 90
       50
176
     1
 90
       50
176
     1
 90
       50
176
     1
290
     0
176
     1
 90
       50
176
     1
 62
   256
176
     0
 40
1.0
176
     0
 90
        2
176
     1
  1
strokes_ogs.tif
176
     1
290
     0
176
     1
 40
1.0
176
     1
 40
1.0
176
     1
  0
VISUALSTYLE
  5
30
102
{ACAD_REACTORS
330
2A
102
}
330
2A
100
AcDbVisualStyle
  2
Wireframe
 70
     5
177
     3
291
     0
 70
    58
 90
        0
176
     1
 90
        2
176
     1
 90
        0
176
     1
 90
        0
176
     1
 40
0.6
176
     1
 40
30.0
176
     1
 62
     7
420
 16777215
176
     1
 90
        1
176
     1
 90
        4
176
     1
 62
     7
176
     1
 62
   257
176
     1
 90
        1
176
     1
 90
        1
176
     1
 40
1.0
176
     1
 90
        0
176
     1
 62
   257
176
     1
 40
1.0
176
     1
 90
        1
176
     1
 90
        6
176
     1
 90
        2
176
     1
 62
     7
176
     1
 90
        3
176
     1
 90
        0
176
     1
 90
        0
176
     1
290
     0
176
     1
 90
        1
176
     1
 40
0.0
176
     1
 90
        0
176
     1
290
     0
176
     1
290
     1
176
     1
290
     1
176
     1
290
     0
176
     1
290
     0
176
     1
290
     0
176
     1
290
     0
176
     1
290
     0
176
     1
290
     0
176
     1
 90
       50
176
     1
 40
0.0
176
     1
 40
1.0
176
     1
 90
        0
176
     1
 62
    18
420
        0
176
     1
 90
       50
176
     1
 90
        3
176
     1
 62
     5
420
      255
176
     1
290
     0
176
     1
 90
       50
176
     1
 90
       50
176
     1
 90
       50
176
     1
290
     0
176
     1
 90
       50
176
     1
 62
   256
176
     0
 40
1.0
176
     0
 90
        2
176
     1
  1
strokes_ogs.tif
176
     1
290
     0
176
     1
 40
1.0
176
     1
 40
1.0
176
     1
  0
VISUALSTYLE
  5
40
102
{ACAD_REACTORS
330
2A
102
}
330
2A
100
AcDbVisualStyle
  2
X-Ray
 70
    25
177
     3
291
     0
 70
    58
 90
        2
176
     1
 90
        2
176
     1
 90
        1
176
     1
 90
        1
176
     1
 40
0.5
176
     1
 40
30.0
176
     1
 62
     7
420
 16777215
176
     1
 90
        1
176
     1
 90
        0
176
     1
 62
     7
176
     1
 62
   257
176
     1
 90
        1
176
     1
 90
        1
176
     1
 40
1.0
176
     1
 90
        8
176
     1
 62
     7
176
     1
 40
1.0
176
     1
 90
        1
176
     1
 90
        6
176
     1
 90
        2
176
     1
 62
     7
176
     1
 90
        3
176
     1
 90
        0
176
     1
 90
        0
176
     1
290
     0
176
     1
 90
       13
176
     1
 40
0.0
176
     1
 90
        0
176
     1
290
     0
176
     1
290
     1
176
     1
290
     1
176
     1
290
     0
176
     1
290
     0
176
     1
290
     0
176
     1
290
     0
176
     1
290
     0
176
     1
290
     0
176
     1
 90
       50
176
     1
 40
0.0
176
     1
 40
1.0
176
     1
 90
        0
176
     1
 62
    18
420
        0
176
     1
 90
       50
176
     1
 90
        3
176
     1
 62
     5
420
      255
176
     1
290
     0
176
     1
 90
       50
176
     1
 90
       50
176
     1
 90
       50
176
     1
290
     0
176
     1
 90
       50
176
     1
 62
   256
176
     0
 40
1.0
176
     0
 90
        2
176
     1
  1
strokes_ogs.tif
176
     1
290
     0
176
     1
 40
1.0
176
     1
 40
1.0
176
     1
  0
DICTIONARYVAR
  5
23C
102
{ACAD_REACTORS
330
23B
102
}
330
23B
100
DictionaryVariables
280
     0
  1
1:1
  0
DICTIONARYVAR
  5
241
102
{ACAD_REACTORS
330
23B
102
}
330
23B
100
DictionaryVariables
280
     0
  1
Standard
  0
DICTIONARYVAR
  5
240
102
{ACAD_REACTORS
330
23B
102
}
330
23B
100
DictionaryVariables
280
     0
  1
Standard
  0
DICTIONARY
  5
23D
330
6A
100
AcDbDictionary
280
     1
281
     1
  3
ACAD_ROUNDTRIP_2008_TABLESTYLE_CELLSTYLEMAP
360
23E
  0
CELLSTYLEMAP
  5
23E
102
{ACAD_REACTORS
330
23D
102
}
330
23D
100
AcDbCellStyleMap
 90
        3
300
CELLSTYLE
  1
TABLEFORMAT_BEGIN
 90
        5
170
     1
 91
        0
 92
    32768
 62
   257
 93
        1
300
CONTENTFORMAT
  1
CONTENTFORMAT_BEGIN
 90
        0
 91
        0
 92
        4
 93
        0
300

 40
0.0
140
1.0
 94
        5
 62
     0
340
11
144
0.25
309
CONTENTFORMAT_END
171
     1
301
MARGIN
  1
CELLMARGIN_BEGIN
 40
0.06
 40
0.06
 40
0.06
 40
0.06
 40
0.06
 40
0.06
309
CELLMARGIN_END
 94
        6
 95
        1
302
GRIDFORMAT
  1
GRIDFORMAT_BEGIN
 90
        0
 91
        1
 62
     0
 92
       -2
340
14
 93
        0
 40
0.045
309
GRIDFORMAT_END
 95
        2
302
GRIDFORMAT
  1
GRIDFORMAT_BEGIN
 90
        0
 91
        1
 62
     0
 92
       -2
340
14
 93
        0
 40
0.045
309
GRIDFORMAT_END
 95
        4
302
GRIDFORMAT
  1
GRIDFORMAT_BEGIN
 90
        0
 91
        1
 62
     0
 92
       -2
340
14
 93
        0
 40
0.045
309
GRIDFORMAT_END
 95
        8
302
GRIDFORMAT
  1
GRIDFORMAT_BEGIN
 90
        0
 91
        1
 62
     0
 92
       -2
340
14
 93
        0
 40
0.045
309
GRIDFORMAT_END
 95
       16
302
GRIDFORMAT
  1
GRIDFORMAT_BEGIN
 90
        0
 91
        1
 62
     0
 92
       -2
340
14
 93
        0
 40
0.045
309
GRIDFORMAT_END
 95
       32
302
GRIDFORMAT
  1
GRIDFORMAT_BEGIN
 90
        0
 91
        1
 62
     0
 92
       -2
340
14
 93
        0
 40
0.045
309
GRIDFORMAT_END
309
TABLEFORMAT_END
  1
CELLSTYLE_BEGIN
 90
        1
 91
        1
300
_TITLE
309
CELLSTYLE_END
300
CELLSTYLE
  1
TABLEFORMAT_BEGIN
 90
        5
170
     1
 91
        0
 92
        0
 62
   257
 93
        1
300
CONTENTFORMAT
  1
CONTENTFORMAT_BEGIN
 90
        0
 91
        0
 92
        4
 93
        0
300

 40
0.0
140
1.0
 94
        5
 62
     0
340
11
144
0.18
309
CONTENTFORMAT_END
171
     1
301
MARGIN
  1
CELLMARGIN_BEGIN
 40
0.06
 40
0.06
 40
0.06
 40
0.06
 40
0.06
 40
0.06
309
CELLMARGIN_END
 94
        6
 95
        1
302
GRIDFORMAT
  1
GRIDFORMAT_BEGIN
 90
        0
 91
        1
 62
     0
 92
       -2
340
14
 93
        0
 40
0.045
309
GRIDFORMAT_END
 95
        2
302
GRIDFORMAT
  1
GRIDFORMAT_BEGIN
 90
        0
 91
        1
 62
     0
 92
       -2
340
14
 93
        0
 40
0.045
309
GRIDFORMAT_END
 95
        4
302
GRIDFORMAT
  1
GRIDFORMAT_BEGIN
 90
        0
 91
        1
 62
     0
 92
       -2
340
14
 93
        0
 40
0.045
309
GRIDFORMAT_END
 95
        8
302
GRIDFORMAT
  1
GRIDFORMAT_BEGIN
 90
        0
 91
        1
 62
     0
 92
       -2
340
14
 93
        0
 40
0.045
309
GRIDFORMAT_END
 95
       16
302
GRIDFORMAT
  1
GRIDFORMAT_BEGIN
 90
        0
 91
        1
 62
     0
 92
       -2
340
14
 93
        0
 40
0.045
309
GRIDFORMAT_END
 95
       32
302
GRIDFORMAT
  1
GRIDFORMAT_BEGIN
 90
        0
 91
        1
 62
     0
 92
       -2
340
14
 93
        0
 40
0.045
309
GRIDFORMAT_END
309
TABLEFORMAT_END
  1
CELLSTYLE_BEGIN
 90
        2
 91
        1
300
_HEADER
309
CELLSTYLE_END
300
CELLSTYLE
  1
TABLEFORMAT_BEGIN
 90
        5
170
     1
 91
        0
 92
        0
 62
   257
 93
        1
300
CONTENTFORMAT
  1
CONTENTFORMAT_BEGIN
 90
        0
 91
        0
 92
        4
 93
        0
300

 40
0.0
140
1.0
 94
        2
 62
     0
340
11
144
0.18
309
CONTENTFORMAT_END
171
     1
301
MARGIN
  1
CELLMARGIN_BEGIN
 40
0.06
 40
0.06
 40
0.06
 40
0.06
 40
0.06
 40
0.06
309
CELLMARGIN_END
 94
        6
 95
        1
302
GRIDFORMAT
  1
GRIDFORMAT_BEGIN
 90
        0
 91
        1
 62
     0
 92
       -2
340
14
 93
        0
 40
0.045
309
GRIDFORMAT_END
 95
        2
302
GRIDFORMAT
  1
GRIDFORMAT_BEGIN
 90
        0
 91
        1
 62
     0
 92
       -2
340
14
 93
        0
 40
0.045
309
GRIDFORMAT_END
 95
        4
302
GRIDFORMAT
  1
GRIDFORMAT_BEGIN
 90
        0
 91
        1
 62
     0
 92
       -2
340
14
 93
        0
 40
0.045
309
GRIDFORMAT_END
 95
        8
302
GRIDFORMAT
  1
GRIDFORMAT_BEGIN
 90
        0
 91
        1
 62
     0
 92
       -2
340
14
 93
        0
 40
0.045
309
GRIDFORMAT_END
 95
       16
302
GRIDFORMAT
  1
GRIDFORMAT_BEGIN
 90
        0
 91
        1
 62
     0
 92
       -2
340
14
 93
        0
 40
0.045
309
GRIDFORMAT_END
 95
       32
302
GRIDFORMAT
  1
GRIDFORMAT_BEGIN
 90
        0
 91
        1
 62
     0
 92
       -2
340
14
 93
        0
 40
0.045
309
GRIDFORMAT_END
309
TABLEFORMAT_END
  1
CELLSTYLE_BEGIN
 90
        3
 91
        2
300
_DATA
309
CELLSTYLE_END
  0
ENDSEC
  0
EOF