0
SECTION
  2
HEADER
  9
$ACADVER
  1
AC1027
  9
$ACADMAINTVER
 70
     8
  9
$DWGCODEPAGE
  3
ANSI_1252
  9
$REQUIREDVERSIONS
160
                 0
  9
$COMMENTS
  1
File was created by Cadenas
  9
$CUSTOMPROPERTYTAG
  1
NN
  9
$CUSTOMPROPERTY
  1
Type E-Xtra Pillow Block 4-Bolt Base Inch Bore
  9
$CUSTOMPROPERTYTAG
  1
NT
  9
$CUSTOMPROPERTY
  1
Type E Pillow Block Bearing -(4-Bolt Base) -Inch
  9
$CUSTOMPROPERTYTAG
  1
NB
  9
$CUSTOMPROPERTY
  1
023045
  9
$CUSTOMPROPERTYTAG
  1
NBSYN
  9
$CUSTOMPROPERTY
  1
$PN.
  9
$CUSTOMPROPERTYTAG
  1
LINA
  9
$CUSTOMPROPERTY
  1
023045
  9
$CUSTOMPROPERTYTAG
  1
SS
  9
$CUSTOMPROPERTY
  1
6-15/16
  9
$CUSTOMPROPERTYTAG
  1
PN
  9
$CUSTOMPROPERTY
  1
023045
  9
$CUSTOMPROPERTYTAG
  1
DESCRIPTION
  9
$CUSTOMPROPERTY
  1
P4B-E-615R
  9
$CUSTOMPROPERTYTAG
  1
A
  9
$CUSTOMPROPERTY
  1
10-1/2
  9
$CUSTOMPROPERTYTAG
  1
B
  9
$CUSTOMPROPERTY
  1
26
  9
$CUSTOMPROPERTYTAG
  1
C
  9
$CUSTOMPROPERTY
  1
7-1/8
  9
$CUSTOMPROPERTYTAG
  1
DMIN
  9
$CUSTOMPROPERTY
  1
21-1/4
  9
$CUSTOMPROPERTYTAG
  1
DMAX
  9
$CUSTOMPROPERTY
  1
23-1/4
  9
$CUSTOMPROPERTYTAG
  1
E
  9
$CUSTOMPROPERTY
  1
4-5/8
  9
$CUSTOMPROPERTYTAG
  1
F
  9
$CUSTOMPROPERTY
  1
1
  9
$CUSTOMPROPERTYTAG
  1
G
  9
$CUSTOMPROPERTY
  1
2
  9
$CUSTOMPROPERTYTAG
  1
H
  9
$CUSTOMPROPERTY
  1
3-11/16
  9
$CUSTOMPROPERTYTAG
  1
J
  9
$CUSTOMPROPERTY
  1
14-15/16
  9
$CUSTOMPROPERTYTAG
  1
J1
  9
$CUSTOMPROPERTY
  1
14-33/64
  9
$CUSTOMPROPERTYTAG
  1
L
  9
$CUSTOMPROPERTY
  1
11-3/8
  9
$CUSTOMPROPERTYTAG
  1
M
  9
$CUSTOMPROPERTY
  1
7-1/2
  9
$CUSTOMPROPERTYTAG
  1
COMPANY
  9
$CUSTOMPROPERTY
  1
baldor
  9
$INSBASE
 10
0.0
 20
0.0
 30
0.0
  9
$EXTMIN
 10
1.000000000000000E+20
 20
1.000000000000000E+20
 30
1.000000000000000E+20
  9
$EXTMAX
 10
-1.000000000000000E+20
 20
-1.000000000000000E+20
 30
-1.000000000000000E+20
  9
$LIMMIN
 10
0.0
 20
0.0
  9
$LIMMAX
 10
12.0
 20
9.0
  9
$ORTHOMODE
 70
     0
  9
$REGENMODE
 70
     1
  9
$FILLMODE
 70
     1
  9
$QTEXTMODE
 70
     0
  9
$MIRRTEXT
 70
     1
  9
$LTSCALE
 40
1.0
  9
$ATTMODE
 70
     1
  9
$TEXTSIZE
 40
0.2
  9
$TRACEWID
 40
0.05
  9
$TEXTSTYLE
  7
Standard
  9
$CLAYER
  8
0
  9
$CELTYPE
  6
ByLayer
  9
$CECOLOR
 62
   256
  9
$CELTSCALE
 40
1.0
  9
$DISPSILH
 70
     0
  9
$DIMSCALE
 40
1.0
  9
$DIMASZ
 40
0.18
  9
$DIMEXO
 40
0.0625
  9
$DIMDLI
 40
0.38
  9
$DIMRND
 40
0.0
  9
$DIMDLE
 40
0.0
  9
$DIMEXE
 40
0.18
  9
$DIMTP
 40
0.0
  9
$DIMTM
 40
0.0
  9
$DIMTXT
 40
0.18
  9
$DIMCEN
 40
0.09
  9
$DIMTSZ
 40
0.0
  9
$DIMTOL
 70
     0
  9
$DIMLIM
 70
     0
  9
$DIMTIH
 70
     1
  9
$DIMTOH
 70
     1
  9
$DIMSE1
 70
     0
  9
$DIMSE2
 70
     0
  9
$DIMTAD
 70
     0
  9
$DIMZIN
 70
     0
  9
$DIMBLK
  1

  9
$DIMASO
 70
     1
  9
$DIMSHO
 70
     1
  9
$DIMPOST
  1

  9
$DIMAPOST
  1

  9
$DIMALT
 70
     0
  9
$DIMALTD
 70
     2
  9
$DIMALTF
 40
25.4
  9
$DIMLFAC
 40
1.0
  9
$DIMTOFL
 70
     0
  9
$DIMTVP
 40
0.0
  9
$DIMTIX
 70
     0
  9
$DIMSOXD
 70
     0
  9
$DIMSAH
 70
     0
  9
$DIMBLK1
  1

  9
$DIMBLK2
  1

  9
$DIMSTYLE
  2
Standard
  9
$DIMCLRD
 70
     0
  9
$DIMCLRE
 70
     0
  9
$DIMCLRT
 70
     0
  9
$DIMTFAC
 40
1.0
  9
$DIMGAP
 40
0.09
  9
$DIMJUST
 70
     0
  9
$DIMSD1
 70
     0
  9
$DIMSD2
 70
     0
  9
$DIMTOLJ
 70
     1
  9
$DIMTZIN
 70
     0
  9
$DIMALTZ
 70
     0
  9
$DIMALTTZ
 70
     0
  9
$DIMUPT
 70
     0
  9
$DIMDEC
 70
     4
  9
$DIMTDEC
 70
     4
  9
$DIMALTU
 70
     2
  9
$DIMALTTD
 70
     2
  9
$DIMTXSTY
  7
Standard
  9
$DIMAUNIT
 70
     0
  9
$DIMADEC
 70
     0
  9
$DIMALTRND
 40
0.0
  9
$DIMAZIN
 70
     0
  9
$DIMDSEP
 70
    46
  9
$DIMATFIT
 70
     3
  9
$DIMFRAC
 70
     0
  9
$DIMLDRBLK
  1

  9
$DIMLUNIT
 70
     2
  9
$DIMLWD
 70
    -2
  9
$DIMLWE
 70
    -2
  9
$DIMTMOVE
 70
     0
  9
$DIMFXL
 40
1.0
  9
$DIMFXLON
 70
     0
  9
$DIMJOGANG
 40
0.7853981633974483
  9
$DIMTFILL
 70
     0
  9
$DIMTFILLCLR
 70
     0
  9
$DIMARCSYM
 70
     0
  9
$DIMLTYPE
  6

  9
$DIMLTEX1
  6

  9
$DIMLTEX2
  6

  9
$DIMTXTDIRECTION
 70
     0
  9
$LUNITS
 70
     2
  9
$LUPREC
 70
     4
  9
$SKETCHINC
 40
0.1
  9
$FILLETRAD
 40
0.5
  9
$AUNITS
 70
     0
  9
$AUPREC
 70
     0
  9
$MENU
  1
.
  9
$ELEVATION
 40
0.0
  9
$PELEVATION
 40
0.0
  9
$THICKNESS
 40
0.0
  9
$LIMCHECK
 70
     0
  9
$CHAMFERA
 40
0.0
  9
$CHAMFERB
 40
0.0
  9
$CHAMFERC
 40
0.0
  9
$CHAMFERD
 40
0.0
  9
$SKPOLY
 70
     0
  9
$TDCREATE
 40
2458169.000457315
  9
$TDUCREATE
 40
2458168.958790648
  9
$TDUPDATE
 40
2458169.0004575
  9
$TDUUPDATE
 40
2458168.958790833
  9
$TDINDWG
 40
0.0000000116
  9
$TDUSRTIMER
 40
0.0000000116
  9
$USRTIMER
 70
     1
  9
$ANGBASE
 50
0.0
  9
$ANGDIR
 70
     0
  9
$PDMODE
 70
     0
  9
$PDSIZE
 40
0.0
  9
$PLINEWID
 40
0.0
  9
$SPLFRAME
 70
     0
  9
$SPLINETYPE
 70
     6
  9
$SPLINESEGS
 70
     8
  9
$HANDSEED
  5
1F0
  9
$SURFTAB1
 70
     6
  9
$SURFTAB2
 70
     6
  9
$SURFTYPE
 70
     6
  9
$SURFU
 70
     6
  9
$SURFV
 70
     6
  9
$UCSBASE
  2

  9
$UCSNAME
  2

  9
$UCSORG
 10
0.0
 20
0.0
 30
0.0
  9
$UCSXDIR
 10
1.0
 20
0.0
 30
0.0
  9
$UCSYDIR
 10
0.0
 20
1.0
 30
0.0
  9
$UCSORTHOREF
  2

  9
$UCSORTHOVIEW
 70
     0
  9
$UCSORGTOP
 10
0.0
 20
0.0
 30
0.0
  9
$UCSORGBOTTOM
 10
0.0
 20
0.0
 30
0.0
  9
$UCSORGLEFT
 10
0.0
 20
0.0
 30
0.0
  9
$UCSORGRIGHT
 10
0.0
 20
0.0
 30
0.0
  9
$UCSORGFRONT
 10
0.0
 20
0.0
 30
0.0
  9
$UCSORGBACK
 10
0.0
 20
0.0
 30
0.0
  9
$PUCSBASE
  2

  9
$PUCSNAME
  2

  9
$PUCSORG
 10
0.0
 20
0.0
 30
0.0
  9
$PUCSXDIR
 10
1.0
 20
0.0
 30
0.0
  9
$PUCSYDIR
 10
0.0
 20
1.0
 30
0.0
  9
$PUCSORTHOREF
  2

  9
$PUCSORTHOVIEW
 70
     0
  9
$PUCSORGTOP
 10
0.0
 20
0.0
 30
0.0
  9
$PUCSORGBOTTOM
 10
0.0
 20
0.0
 30
0.0
  9
$PUCSORGLEFT
 10
0.0
 20
0.0
 30
0.0
  9
$PUCSORGRIGHT
 10
0.0
 20
0.0
 30
0.0
  9
$PUCSORGFRONT
 10
0.0
 20
0.0
 30
0.0
  9
$PUCSORGBACK
 10
0.0
 20
0.0
 30
0.0
  9
$USERI1
 70
     0
  9
$USERI2
 70
     0
  9
$USERI3
 70
     0
  9
$USERI4
 70
     0
  9
$USERI5
 70
     0
  9
$USERR1
 40
0.0
  9
$USERR2
 40
0.0
  9
$USERR3
 40
0.0
  9
$USERR4
 40
0.0
  9
$USERR5
 40
0.0
  9
$WORLDVIEW
 70
     1
  9
$SHADEDGE
 70
     3
  9
$SHADEDIF
 70
    70
  9
$TILEMODE
 70
     1
  9
$MAXACTVP
 70
    64
  9
$PINSBASE
 10
0.0
 20
0.0
 30
0.0
  9
$PLIMCHECK
 70
     0
  9
$PEXTMIN
 10
1.000000000000000E+20
 20
1.000000000000000E+20
 30
1.000000000000000E+20
  9
$PEXTMAX
 10
-1.000000000000000E+20
 20
-1.000000000000000E+20
 30
-1.000000000000000E+20
  9
$PLIMMIN
 10
0.0
 20
0.0
  9
$PLIMMAX
 10
12.0
 20
9.0
  9
$UNITMODE
 70
     0
  9
$VISRETAIN
 70
     1
  9
$PLINEGEN
 70
     0
  9
$PSLTSCALE
 70
     1
  9
$TREEDEPTH
 70
  3020
  9
$CMLSTYLE
  2
Standard
  9
$CMLJUST
 70
     0
  9
$CMLSCALE
 40
1.0
  9
$PROXYGRAPHICS
 70
     1
  9
$MEASUREMENT
 70
     0
  9
$CELWEIGHT
370
    -1
  9
$ENDCAPS
280
     0
  9
$JOINSTYLE
280
     0
  9
$LWDISPLAY
290
     0
  9
$INSUNITS
 70
     1
  9
$HYPERLINKBASE
  1

  9
$STYLESHEET
  1

  9
$XEDIT
290
     1
  9
$CEPSNTYPE
380
     0
  9
$PSTYLEMODE
290
     1
  9
$FINGERPRINTGUID
  2
{C27BFBB2-F4E2-4693-823D-D5487C187604}
  9
$VERSIONGUID
  2
{FAEB1C32-E019-11D5-929B-00C0DF256EC4}
  9
$EXTNAMES
290
     1
  9
$PSVPSCALE
 40
0.0
  9
$OLESTARTUP
290
     0
  9
$SORTENTS
280
   127
  9
$INDEXCTL
280
     0
  9
$HIDETEXT
280
     1
  9
$XCLIPFRAME
280
     2
  9
$HALOGAP
280
     0
  9
$OBSCOLOR
 70
   257
  9
$OBSLTYPE
280
     0
  9
$INTERSECTIONDISPLAY
280
     0
  9
$INTERSECTIONCOLOR
 70
   257
  9
$DIMASSOC
280
     2
  9
$PROJECTNAME
  1

  9
$CAMERADISPLAY
290
     0
  9
$LENSLENGTH
 40
50.0
  9
$CAMERAHEIGHT
 40
0.0
  9
$STEPSPERSEC
 40
2.0
  9
$STEPSIZE
 40
6.0
  9
$3DDWFPREC
 40
2.0
  9
$PSOLWIDTH
 40
0.25
  9
$PSOLHEIGHT
 40
4.0
  9
$LOFTANG1
 40
1.570796326794897
  9
$LOFTANG2
 40
1.570796326794897
  9
$LOFTMAG1
 40
0.0
  9
$LOFTMAG2
 40
0.0
  9
$LOFTPARAM
 70
     7
  9
$LOFTNORMALS
280
     1
  9
$LATITUDE
 40
37.795
  9
$LONGITUDE
 40
-122.394
  9
$NORTHDIRECTION
 40
0.0
  9
$TIMEZONE
 70
 -8000
  9
$LIGHTGLYPHDISPLAY
280
     1
  9
$TILEMODELIGHTSYNCH
280
     1
  9
$CMATERIAL
347
44
  9
$SOLIDHIST
280
     0
  9
$SHOWHIST
280
     1
  9
$DWFFRAME
280
     2
  9
$DGNFRAME
280
     2
  9
$REALWORLDSCALE
290
     1
  9
$INTERFERECOLOR
 62
   256
  9
$CSHADOW
280
     0
  9
$SHADOWPLANELOCATION
 40
0.0
  0
ENDSEC
  0
SECTION
  2
CLASSES
  0
CLASS
  1
ACDBDICTIONARYWDFLT
  2
AcDbDictionaryWithDefault
  3
ObjectDBX Classes
 90
        0
 91
        4
280
     0
281
     0
  0
CLASS
  1
VISUALSTYLE
  2
AcDbVisualStyle
  3
ObjectDBX Classes
 90
     4095
 91
        4
280
     0
281
     0
  0
CLASS
  1
MATERIAL
  2
AcDbMaterial
  3
ObjectDBX Classes
 90
     1153
 91
        4
280
     0
281
     0
  0
CLASS
  1
SCALE
  2
AcDbScale
  3
ObjectDBX Classes
 90
     1153
 91
        4
280
     0
281
     0
  0
CLASS
  1
TABLESTYLE
  2
AcDbTableStyle
  3
ObjectDBX Classes
 90
     4095
 91
        4
280
     0
281
     0
  0
CLASS
  1
MLEADERSTYLE
  2
AcDbMLeaderStyle
  3
ACDB_MLEADERSTYLE_CLASS
 90
     4095
 91
        4
280
     0
281
     0
  0
CLASS
  1
SUN
  2
AcDbSun
  3
SCENEOE
 90
     1153
 91
        4
280
     0
281
     0
  0
CLASS
  1
DICTIONARYVAR
  2
AcDbDictionaryVar
  3
ObjectDBX Classes
 90
        0
 91
        4
280
     0
281
     0
  0
CLASS
  1
CELLSTYLEMAP
  2
AcDbCellStyleMap
  3
ObjectDBX Classes
 90
     1152
 91
        4
280
     0
281
     0
  0
ENDSEC
  0
SECTION
  2
TABLES
  0
TABLE
  2
VPORT
  5
8
330
0
100
AcDbSymbolTable
 70
     1
  0
VPORT
  5
29
330
8
100
AcDbSymbolTableRecord
100
AcDbViewportTableRecord
  2
*Active
 70
     0
 10
0.0
 20
0.0
 11
1.0
 21
1.0
 12
0.0
 22
0.0
 13
0.0
 23
0.0
 14
0.5
 24
0.5
 15
0.5
 25
0.5
 16
0.0
 26
0.0
 36
1.0
 17
0.0
 27
-0.0000000000000009
 37
0.0
 40
11.781
 41
2.251082251082251
 42
50.0
 43
0.0
 44
0.0
 50
0.0
 51
0.0
 71
     0
 72
   100
 73
     1
 74
     3
 75
     0
 76
     0
 77
     0
 78
     0
281
     0
 65
     1
110
0.0
120
0.0
130
0.0
111
1.0
121
0.0
131
0.0
112
0.0
122
1.0
132
0.0
 79
     0
146
0.0
348
2F
 60
     3
 61
     5
292
     1
282
     1
141
0.0
142
0.0
 63
   250
361
6D
  0
ENDTAB
  0
TABLE
  2
LTYPE
  5
5
330
0
100
AcDbSymbolTable
 70
     3
  0
LTYPE
  5
14
330
5
100
AcDbSymbolTableRecord
100
AcDbLinetypeTableRecord
  2
ByBlock
 70
     0
  3

 72
    65
 73
     0
 40
0.0
  0
LTYPE
  5
15
330
5
100
AcDbSymbolTableRecord
100
AcDbLinetypeTableRecord
  2
ByLayer
 70
     0
  3

 72
    65
 73
     0
 40
0.0
  0
LTYPE
  5
16
330
5
100
AcDbSymbolTableRecord
100
AcDbLinetypeTableRecord
  2
Continuous
 70
     0
  3
Solid line
 72
    65
 73
     0
 40
0.0
  0
LTYPE
  5
9E
330
5
100
AcDbSymbolTableRecord
100
AcDbLinetypeTableRecord
  2
Dashed
 70
     0
  3

 72
    65
 73
     2
 40
2.0
 49
1.0
 74
     0
 49
-1.0
 74
     0
  0
LTYPE
  5
AE
330
5
100
AcDbSymbolTableRecord
100
AcDbLinetypeTableRecord
  2
Center
 70
     0
  3

 72
    65
 73
     4
 40
1.5
 49
0.45
 74
     0
 49
-0.5
 74
     0
 49
0.05
 74
     0
 49
-0.5
 74
     0
  0
ENDTAB
  0
TABLE
  2
LAYER
  5
2
330
0
100
AcDbSymbolTable
 70
     7
  0
LAYER
  5
10
330
2
100
AcDbSymbolTableRecord
100
AcDbLayerTableRecord
  2
0
 70
     0
 62
     7
  6
Continuous
370
    -3
390
F
347
46
348
0
  0
LAYER
  5
72
330
2
100
AcDbSymbolTableRecord
100
AcDbLayerTableRecord
  2
AM_6
 70
     0
 62
    -2
  6
Continuous
370
    35
390
F
347
46
348
0
  0
LAYER
  5
9F
330
2
100
AcDbSymbolTableRecord
100
AcDbLayerTableRecord
  2
AM_9
 70
     0
 62
     6
  6
Dashed
370
    25
390
F
347
46
348
0
  0
LAYER
  5
AF
330
2
100
AcDbSymbolTableRecord
100
AcDbLayerTableRecord
  2
AM_7
 70
     0
 62
     7
  6
Center
370
    25
390
F
347
46
348
0
  0
LAYER
  5
B1
330
2
100
AcDbSymbolTableRecord
100
AcDbLayerTableRecord
  2
AM_4
 70
     0
 62
     7
  6
Continuous
370
    50
390
F
347
46
348
0
  0
LAYER
  5
BF
330
2
100
AcDbSymbolTableRecord
100
AcDbLayerTableRecord
  2
AM_5
 70
     0
 62
     3
  6
Continuous
370
    25
390
F
347
46
348
0
  0
LAYER
  5
1DF
330
2
100
AcDbSymbolTableRecord
100
AcDbLayerTableRecord
  2
ConnectionPoints
 70
     0
 62
     7
  6
Continuous
370
    50
390
F
347
46
348
0
  0
ENDTAB
  0
TABLE
  2
STYLE
  5
3
330
0
100
AcDbSymbolTable
 70
     1
  0
STYLE
  5
11
330
3
100
AcDbSymbolTableRecord
100
AcDbTextStyleTableRecord
  2
Standard
 70
     0
 40
0.0
 41
1.0
 50
0.0
 71
     0
 42
0.2
  3
txt
  4

  0
ENDTAB
  0
TABLE
  2
VIEW
  5
6
330
0
100
AcDbSymbolTable
 70
     0
  0
ENDTAB
  0
TABLE
  2
UCS
  5
7
330
0
100
AcDbSymbolTable
 70
     0
  0
ENDTAB
  0
TABLE
  2
APPID
  5
9
330
0
100
AcDbSymbolTable
 70
     1
  0
APPID
  5
12
330
9
100
AcDbSymbolTableRecord
100
AcDbRegAppTableRecord
  2
ACAD
 70
     0
  0
ENDTAB
  0
TABLE
  2
DIMSTYLE
  5
A
330
0
100
AcDbSymbolTable
 70
     1
100
AcDbDimStyleTable
  0
DIMSTYLE
105
27
330
A
100
AcDbSymbolTableRecord
100
AcDbDimStyleTableRecord
  2
Standard
 70
     0
178
     0
340
11
  0
ENDTAB
  0
TABLE
  2
BLOCK_RECORD
  5
1
330
0
100
AcDbSymbolTable
 70
     7
  0
BLOCK_RECORD
  5
1F
330
1
100
AcDbSymbolTableRecord
100
AcDbBlockTableRecord
  2
*Model_Space
340
22
 70
     0
280
     1
281
     0
  0
BLOCK_RECORD
  5
1B
330
1
100
AcDbSymbolTableRecord
100
AcDbBlockTableRecord
  2
*Paper_Space
340
1E
 70
     0
280
     1
281
     0
  0
BLOCK_RECORD
  5
23
330
1
100
AcDbSymbolTableRecord
100
AcDbBlockTableRecord
  2
*Paper_Space0
340
26
 70
     0
280
     1
281
     0
  0
BLOCK_RECORD
  5
6E
330
1
100
AcDbSymbolTableRecord
100
AcDbBlockTableRecord
  2
1_023045_4
340
0
102
{BLKREFS
331
6F
102
}
 70
     0
280
     1
281
     0
  0
BLOCK_RECORD
  5
89
330
1
100
AcDbSymbolTableRecord
100
AcDbBlockTableRecord
  2
2_6_15_16C_1_0_in_023045_4
340
0
102
{BLKREFS
331
8A
102
}
 70
     0
280
     1
281
     0
  0
BLOCK_RECORD
  5
C2
330
1
100
AcDbSymbolTableRecord
100
AcDbBlockTableRecord
  2
3_6_15_16C_2_0_in_023045_4
340
0
102
{BLKREFS
331
C3
102
}
 70
     0
280
     1
281
     0
  0
BLOCK_RECORD
  5
F4
330
1
100
AcDbSymbolTableRecord
100
AcDbBlockTableRecord
  2
4_6_15_16I_0_in_023045_4
340
0
102
{BLKREFS
331
F5
102
}
 70
     0
280
     1
281
     0
  0
BLOCK_RECORD
  5
12E
330
1
100
AcDbSymbolTableRecord
100
AcDbBlockTableRecord
  2
5_405015E_Inch_0_in_023045_4
340
0
102
{BLKREFS
331
12F
102
}
 70
     0
280
     1
281
     0
  0
BLOCK_RECORD
  5
173
330
1
100
AcDbSymbolTableRecord
100
AcDbBlockTableRecord
  2
6_023045H_0_in_023045_4
340
0
102
{BLKREFS
331
174
102
}
 70
     0
280
     1
281
     0
  0
ENDTAB
  0
ENDSEC
  0
SECTION
  2
BLOCKS
  0
BLOCK
  5
20
330
1F
100
AcDbEntity
  8
0
100
AcDbBlockBegin
  2
*Model_Space
 70
     0
 10
0.0
 20
0.0
 30
0.0
  3
*Model_Space
  1

  0
ENDBLK
  5
21
330
1F
100
AcDbEntity
  8
0
100
AcDbBlockEnd
  0
BLOCK
  5
1C
330
1B
100
AcDbEntity
 67
     1
  8
0
100
AcDbBlockBegin
  2
*Paper_Space
 70
     0
 10
0.0
 20
0.0
 30
0.0
  3
*Paper_Space
  1

  0
ENDBLK
  5
1D
330
1B
100
AcDbEntity
 67
     1
  8
0
100
AcDbBlockEnd
  0
BLOCK
  5
24
330
23
100
AcDbEntity
  8
0
100
AcDbBlockBegin
  2
*Paper_Space0
 70
     0
 10
0.0
 20
0.0
 30
0.0
  3
*Paper_Space0
  1

  0
ENDBLK
  5
25
330
23
100
AcDbEntity
  8
0
100
AcDbBlockEnd
  0
BLOCK
  5
70
330
6E
100
AcDbEntity
  8
0
100
AcDbBlockBegin
  2
1_023045_4
 70
     2
 10
0.0
 20
0.0
 30
0.0
  3
1_023045_4
  1

  0
ATTDEF
  5
73
330
6E
100
AcDbEntity
  8
AM_6
100
AcDbText
 10
18.0
 20
5.775
 30
0.0
 40
0.5
  1
Type E-Xtra Pillow Block 4-Bolt Base Inch Bore
100
AcDbAttributeDefinition
  3

  2
NN
 70
     8
280
     0
  0
ATTDEF
  5
74
330
6E
100
AcDbEntity
  8
AM_6
100
AcDbText
 10
18.0
 20
5.275
 30
0.0
 40
0.5
  1
Type E Pillow Block Bearing -(4-Bolt Base) -Inch
100
AcDbAttributeDefinition
  3

  2
NT
 70
     8
280
     0
  0
ATTDEF
  5
75
330
6E
100
AcDbEntity
  8
AM_6
100
AcDbText
 10
18.0
 20
4.775
 30
0.0
 40
0.5
  1
023045
100
AcDbAttributeDefinition
  3

  2
NB
 70
     8
280
     0
  0
ATTDEF
  5
76
330
6E
100
AcDbEntity
  8
AM_6
100
AcDbText
 10
18.0
 20
4.275
 30
0.0
 40
0.5
  1
$PN.
100
AcDbAttributeDefinition
  3

  2
NBSYN
 70
     8
280
     0
  0
ATTDEF
  5
77
330
6E
100
AcDbEntity
  8
AM_6
100
AcDbText
 10
18.0
 20
3.775
 30
0.0
 40
0.5
  1
023045
100
AcDbAttributeDefinition
  3

  2
LINA
 70
     8
280
     0
  0
ATTDEF
  5
78
330
6E
100
AcDbEntity
  8
AM_6
100
AcDbText
 10
18.0
 20
3.275
 30
0.0
 40
0.5
  1
6-15/16
100
AcDbAttributeDefinition
  3

  2
SS
 70
     8
280
     0
  0
ATTDEF
  5
79
330
6E
100
AcDbEntity
  8
AM_6
100
AcDbText
 10
18.0
 20
2.775
 30
0.0
 40
0.5
  1
023045
100
AcDbAttributeDefinition
  3

  2
PN
 70
     8
280
     0
  0
ATTDEF
  5
7A
330
6E
100
AcDbEntity
  8
AM_6
100
AcDbText
 10
18.0
 20
2.275
 30
0.0
 40
0.5
  1
P4B-E-615R
100
AcDbAttributeDefinition
  3

  2
DESCRIPTION
 70
     8
280
     0
  0
ATTDEF
  5
7B
330
6E
100
AcDbEntity
  8
AM_6
100
AcDbText
 10
18.0
 20
1.775
 30
0.0
 40
0.5
  1
10-1/2
100
AcDbAttributeDefinition
  3

  2
A
 70
     8
280
     0
  0
ATTDEF
  5
7C
330
6E
100
AcDbEntity
  8
AM_6
100
AcDbText
 10
18.0
 20
1.275
 30
0.0
 40
0.5
  1
26
100
AcDbAttributeDefinition
  3

  2
B
 70
     8
280
     0
  0
ATTDEF
  5
7D
330
6E
100
AcDbEntity
  8
AM_6
100
AcDbText
 10
18.0
 20
0.7750000000000004
 30
0.0
 40
0.5
  1
7-1/8
100
AcDbAttributeDefinition
  3

  2
C
 70
     8
280
     0
  0
ATTDEF
  5
7E
330
6E
100
AcDbEntity
  8
AM_6
100
AcDbText
 10
18.0
 20
0.2750000000000004
 30
0.0
 40
0.5
  1
21-1/4
100
AcDbAttributeDefinition
  3

  2
DMIN
 70
     8
280
     0
  0
ATTDEF
  5
7F
330
6E
100
AcDbEntity
  8
AM_6
100
AcDbText
 10
18.0
 20
-0.2249999999999996
 30
0.0
 40
0.5
  1
23-1/4
100
AcDbAttributeDefinition
  3

  2
DMAX
 70
     8
280
     0
  0
ATTDEF
  5
80
330
6E
100
AcDbEntity
  8
AM_6
100
AcDbText
 10
18.0
 20
-0.7249999999999996
 30
0.0
 40
0.5
  1
4-5/8
100
AcDbAttributeDefinition
  3

  2
E
 70
     8
280
     0
  0
ATTDEF
  5
81
330
6E
100
AcDbEntity
  8
AM_6
100
AcDbText
 10
18.0
 20
-1.225
 30
0.0
 40
0.5
  1
1
100
AcDbAttributeDefinition
  3

  2
F
 70
     8
280
     0
  0
ATTDEF
  5
82
330
6E
100
AcDbEntity
  8
AM_6
100
AcDbText
 10
18.0
 20
-1.725
 30
0.0
 40
0.5
  1
2
100
AcDbAttributeDefinition
  3

  2
G
 70
     8
280
     0
  0
ATTDEF
  5
83
330
6E
100
AcDbEntity
  8
AM_6
100
AcDbText
 10
18.0
 20
-2.225
 30
0.0
 40
0.5
  1
3-11/16
100
AcDbAttributeDefinition
  3

  2
H
 70
     8
280
     0
  0
ATTDEF
  5
84
330
6E
100
AcDbEntity
  8
AM_6
100
AcDbText
 10
18.0
 20
-2.725
 30
0.0
 40
0.5
  1
14-15/16
100
AcDbAttributeDefinition
  3

  2
J
 70
     8
280
     0
  0
ATTDEF
  5
85
330
6E
100
AcDbEntity
  8
AM_6
100
AcDbText
 10
18.0
 20
-3.225
 30
0.0
 40
0.5
  1
14-33/64
100
AcDbAttributeDefinition
  3

  2
J1
 70
     8
280
     0
  0
ATTDEF
  5
86
330
6E
100
AcDbEntity
  8
AM_6
100
AcDbText
 10
18.0
 20
-3.725
 30
0.0
 40
0.5
  1
11-3/8
100
AcDbAttributeDefinition
  3

  2
L
 70
     8
280
     0
  0
ATTDEF
  5
87
330
6E
100
AcDbEntity
  8
AM_6
100
AcDbText
 10
18.0
 20
-4.225
 30
0.0
 40
0.5
  1
7-1/2
100
AcDbAttributeDefinition
  3

  2
M
 70
     8
280
     0
  0
ATTDEF
  5
88
330
6E
100
AcDbEntity
  8
AM_6
100
AcDbText
 10
18.0
 20
-4.725
 30
0.0
 40
0.5
  1
baldor
100
AcDbAttributeDefinition
  3

  2
COMPANY
 70
     8
280
     0
  0
INSERT
  5
8A
330
6E
100
AcDbEntity
  8
0
100
AcDbBlockReference
  2
2_6_15_16C_1_0_in_023045_4
 10
0.0
 20
0.0
 30
0.0
  0
INSERT
  5
C3
330
6E
100
AcDbEntity
  8
0
100
AcDbBlockReference
  2
3_6_15_16C_2_0_in_023045_4
 10
0.0
 20
0.0
 30
0.0
  0
INSERT
  5
F5
330
6E
100
AcDbEntity
  8
0
100
AcDbBlockReference
  2
4_6_15_16I_0_in_023045_4
 10
0.0
 20
0.0
 30
0.0
  0
INSERT
  5
12F
330
6E
100
AcDbEntity
  8
0
100
AcDbBlockReference
  2
5_405015E_Inch_0_in_023045_4
 10
0.0
 20
0.0
 30
0.0
  0
INSERT
  5
174
330
6E
100
AcDbEntity
  8
0
100
AcDbBlockReference
  2
6_023045H_0_in_023045_4
 10
0.0
 20
0.0
 30
0.0
  0
ENDBLK
  5
71
330
6E
100
AcDbEntity
  8
0
100
AcDbBlockEnd
  0
BLOCK
  5
8B
330
89
100
AcDbEntity
  8
0
100
AcDbBlockBegin
  2
2_6_15_16C_1_0_in_023045_4
 70
     2
 10
0.0
 20
0.0
 30
0.0
  3
2_6_15_16C_1_0_in_023045_4
  1

  0
ATTDEF
  5
8D
330
89
100
AcDbEntity
  8
AM_6
100
AcDbText
 10
10.6875
 20
5.25
 30
0.0
 40
0.5
  1
E-Type Collar -Inch
100
AcDbAttributeDefinition
  3

  2
NN
 70
     8
280
     0
  0
ATTDEF
  5
8E
330
89
100
AcDbEntity
  8
AM_6
100
AcDbText
 10
10.6875
 20
4.75
 30
0.0
 40
0.5
  1
E-Type Bearings
100
AcDbAttributeDefinition
  3

  2
NT
 70
     8
280
     0
  0
ATTDEF
  5
8F
330
89
100
AcDbEntity
  8
AM_6
100
AcDbText
 10
10.6875
 20
4.25
 30
0.0
 40
0.5
  1
6-15/16C
100
AcDbAttributeDefinition
  3

  2
NB
 70
     8
280
     0
  0
ATTDEF
  5
90
330
89
100
AcDbEntity
  8
AM_6
100
AcDbText
 10
10.6875
 20
3.75
 30
0.0
 40
0.5
  1
$BORE.C
100
AcDbAttributeDefinition
  3

  2
NBSYN
 70
     8
280
     0
  0
ATTDEF
  5
91
330
89
100
AcDbEntity
  8
AM_6
100
AcDbText
 10
10.6875
 20
3.25
 30
0.0
 40
0.5
  1
6-15/16C
100
AcDbAttributeDefinition
  3

  2
LINA
 70
     8
280
     0
  0
ATTDEF
  5
92
330
89
100
AcDbEntity
  8
AM_6
100
AcDbText
 10
10.6875
 20
2.75
 30
0.0
 40
0.5
  1
6-15/16
100
AcDbAttributeDefinition
  3

  2
BORE
 70
     8
280
     0
  0
ATTDEF
  5
93
330
89
100
AcDbEntity
  8
AM_6
100
AcDbText
 10
10.6875
 20
2.25
 30
0.0
 40
0.5
  1
11.37500
100
AcDbAttributeDefinition
  3

  2
L
 70
     8
280
     0
  0
ATTDEF
  5
94
330
89
100
AcDbEntity
  8
AM_6
100
AcDbText
 10
10.6875
 20
1.75
 30
0.0
 40
0.5
  1
10.50
100
AcDbAttributeDefinition
  3

  2
A
 70
     8
280
     0
  0
ATTDEF
  5
95
330
89
100
AcDbEntity
  8
AM_6
100
AcDbText
 10
10.6875
 20
1.25
 30
0.0
 40
0.5
  1
5.71
100
AcDbAttributeDefinition
  3

  2
B
 70
     8
280
     0
  0
ATTDEF
  5
96
330
89
100
AcDbEntity
  8
AM_6
100
AcDbText
 10
10.6875
 20
0.75
 30
0.0
 40
0.5
  1
7.79
100
AcDbAttributeDefinition
  3

  2
C
 70
     8
280
     0
  0
ATTDEF
  5
97
330
89
100
AcDbEntity
  8
AM_6
100
AcDbText
 10
10.6875
 20
0.25
 30
0.0
 40
0.5
  1
11.81
100
AcDbAttributeDefinition
  3

  2
D
 70
     8
280
     0
  0
ATTDEF
  5
98
330
89
100
AcDbEntity
  8
AM_6
100
AcDbText
 10
10.6875
 20
-0.25
 30
0.0
 40
0.5
  1
0.94
100
AcDbAttributeDefinition
  3

  2
E
 70
     8
280
     0
  0
ATTDEF
  5
99
330
89
100
AcDbEntity
  8
AM_6
100
AcDbText
 10
10.6875
 20
-0.75
 30
0.0
 40
0.5
  1
0.75
100
AcDbAttributeDefinition
  3

  2
F
 70
     8
280
     0
  0
ATTDEF
  5
9A
330
89
100
AcDbEntity
  8
AM_6
100
AcDbText
 10
10.6875
 20
-1.25
 30
0.0
 40
0.5
  1
7/8-9
100
AcDbAttributeDefinition
  3

  2
CS
 70
     8
280
     0
  0
ATTDEF
  5
9B
330
89
100
AcDbEntity
  8
AM_6
100
AcDbText
 10
10.6875
 20
-1.75
 30
0.0
 40
0.5
  1
0.8750
100
AcDbAttributeDefinition
  3

  2
NDM
 70
     8
280
     0
  0
ATTDEF
  5
9C
330
89
100
AcDbEntity
  8
AM_6
100
AcDbText
 10
10.6875
 20
-2.25
 30
0.0
 40
0.5
  1
0.7550
100
AcDbAttributeDefinition
  3

  2
KDM
 70
     8
280
     0
  0
ATTDEF
  5
9D
330
89
100
AcDbEntity
  8
AM_6
100
AcDbText
 10
10.6875
 20
-2.75
 30
0.0
 40
0.5
  1
baldor
100
AcDbAttributeDefinition
  3

  2
COMPANY
 70
     8
280
     0
  0
LINE
  5
A0
330
89
100
AcDbEntity
  8
AM_9
100
AcDbLine
 10
3.606079703936417
 20
4.833812343125403
 30
0.0
 11
3.602079976775368
 21
4.83880114915983
 31
0.0
  0
LINE
  5
A1
330
89
100
AcDbEntity
  8
AM_9
100
AcDbLine
 10
3.602117976862395
 20
4.161246247838975
 30
0.0
 11
3.606079703936417
 21
4.166187656874598
 31
0.0
  0
LWPOLYLINE
  5
A2
330
89
100
AcDbEntity
  8
AM_9
100
AcDbPolyline
 90
       26
 70
     0
 43
0.0
 10
3.601866883729165
 20
4.839066934551533
 10
3.598928027455148
 20
4.842625627987642
 10
3.574404407337396
 20
4.864988639244761
 10
3.547056977695489
 20
4.877194478558188
 10
3.518088767419965
 20
4.878223658253783
 10
3.487506589966348
 20
4.867544258417038
 10
3.457729399338975
 20
4.845784847233897
 10
3.428312660673013
 20
4.812179222220466
 10
3.402529761047671
 20
4.770250830024768
 10
3.379460496917534
 20
4.717977569783494
 10
3.362285979780154
 20
4.662516563209466
 10
3.349780350037364
 20
4.599876972576641
 10
3.343616795923443
 20
4.539426335743865
 10
3.342914603119737
 20
4.475877338448805
 10
3.347494715274873
 20
4.417072571363089
 10
3.35724498359855
 20
4.358959785707204
 10
3.371281605421477
 20
4.305882868183988
 10
3.389652476187175
 20
4.256689509525461
 10
3.411634293269351
 20
4.213346278491156
 10
3.436773126785497
 20
4.176786938632038
 10
3.464316582014012
 20
4.148403908292416
 10
3.493487862733718
 20
4.129446776853479
 10
3.522935898710284
 20
4.121169444115488
 10
3.552284624757798
 20
4.124236384294125
 10
3.579537428562833
 20
4.138702611811804
 10
3.601881173805191
 20
4.160950886564939
  0
LWPOLYLINE
  5
A3
330
89
100
AcDbEntity
  8
AM_9
100
AcDbPolyline
 90
        3
 70
     0
 43
0.0
 10
3.601881173805191
 20
4.160950886564939
 10
3.605133970718127
 20
4.165141743716533
 10
3.639061068518296
 20
4.229069161146938
  0
LINE
  5
A4
330
89
100
AcDbEntity
  8
AM_9
100
AcDbLine
 10
3.531715289654201
 20
4.12265
 30
0.0
 11
5.100111125380693
 21
4.12265
 31
0.0
  0
LINE
  5
A5
330
89
100
AcDbEntity
  8
AM_9
100
AcDbLine
 10
5.100111125380693
 20
4.877350000000001
 30
0.0
 11
3.531715289654201
 21
4.87735
 31
0.0
  0
LINE
  5
A6
330
89
100
AcDbEntity
  8
AM_9
100
AcDbLine
 10
5.025746711098476
 20
4.166187656874599
 30
0.0
 11
5.065695599821148
 21
4.116359943857296
 31
0.0
  0
LINE
  5
A7
330
89
100
AcDbEntity
  8
AM_9
100
AcDbLine
 10
5.065364683341678
 20
4.883227308456877
 30
0.0
 11
5.025746711098476
 21
4.833812343125402
 31
0.0
  0
ELLIPSE
  5
A8
330
89
100
AcDbEntity
  8
AM_9
100
AcDbEllipse
 10
5.100111125381281
 20
4.499999999999847
 30
0.0
 11
-6.931807044870735E-17
 21
-0.3773499999998329
 31
0.0
210
0.0
220
0.0
230
1.0
 40
0.4226182617414021
 41
3.516486306147133
 42
5.901708562306693
  0
LWPOLYLINE
  5
A9
330
89
100
AcDbEntity
  8
AM_9
100
AcDbPolyline
 90
       13
 70
     0
 43
0.0
 10
3.639061068518296
 20
4.229069161146938
 10
3.652778118430443
 20
4.27085689018929
 10
3.664105894571461
 20
4.319105953323903
 10
3.673154613843066
 20
4.376850141007683
 10
3.678721080162734
 20
4.440411079306815
 10
3.6803636644532
 20
4.500889398993057
 10
3.678515975657834
 20
4.563167673247253
 10
3.673471274988092
 20
4.620507705673085
 10
3.665031127942077
 20
4.676070081887564
 10
3.65351006768775
 20
4.726493222099727
 10
3.638618525200943
 20
4.772074409572271
 10
3.620420450189744
 20
4.811190697815157
 10
3.601866883729165
 20
4.839066934551533
  0
LWPOLYLINE
  5
AA
330
89
100
AcDbEntity
  8
AM_9
100
AcDbPolyline
 90
       38
 70
     0
 43
0.0
 10
-0.2651879073304947
 20
4.216489389683735
 10
-0.2186181458576994
 20
4.182741444352962
 10
-0.167716040124096
 20
4.155919697916356
 10
-0.1035342709719099
 20
4.133847239473367
 10
-0.0365985875464806
 20
4.122431027409347
 10
0.0332068167906619
 20
4.122185632263238
 10
0.1020864732043587
 20
4.133445509893224
 10
0.168512967189368
 20
4.156315414182498
 10
0.2300632783682004
 20
4.190094387805053
 10
0.2838565930280808
 20
4.233315233655316
 10
0.3292655771040167
 20
4.285247099881656
 10
0.3631958682379747
 20
4.341956999600484
 10
0.3866045315687774
 20
4.403770883564117
 10
0.3979950622205343
 20
4.465216104477724
 10
0.3986602366672626
 20
4.527710984815864
 10
0.3889419040034769
 20
4.58721300113409
 10
0.3695696313257021
 20
4.644292510819891
 10
0.3408435528678767
 20
4.697797320079718
 10
0.303951373952323
 20
4.746026995648226
 10
0.2578534520996495
 20
4.78949773232921
 10
0.2054293716312511
 20
4.825125434055526
 10
0.1449185562685036
 20
4.85326171513354
 10
0.0806452581834899
 20
4.871345634422552
 10
0.0117620960572212
 20
4.878965669311953
 10
-0.0574440883126191
 20
4.875218553293641
 10
-0.1260094478406654
 20
4.859735189559127
 10
-0.1909671308483508
 20
4.832976108799749
 10
-0.2497923060314083
 20
4.795775922926035
 10
-0.3012673200876317
 20
4.748978278974498
 10
-0.3421781628382997
 20
4.695685840716608
 10
-0.3730524577803703
 20
4.636009819252064
 10
-0.3917170027232132
 20
4.575203584378253
 10
-0.3995295451404465
 20
4.512066513843193
 10
-0.3963847677851449
 20
4.451409507424418
 10
-0.3831663209697392
 20
4.392135497704109
 10
-0.3604111016224547
 20
4.336298582427332
 10
-0.3289818524544398
 20
4.284856668919542
 10
-0.2651879073304947
 20
4.216489389683735
  0
LINE
  5
AB
330
89
100
AcDbEntity
  8
AM_9
100
AcDbLine
 10
-3.895
 20
5.25
 30
0.0
 11
-3.895
 21
3.75
 31
0.0
  0
LINE
  5
AC
330
89
100
AcDbEntity
  8
AM_9
100
AcDbLine
 10
3.895
 20
3.75
 30
0.0
 11
3.895
 21
5.25
 31
0.0
  0
ELLIPSE
  5
AD
330
89
100
AcDbEntity
  8
AM_9
100
AcDbEllipse
 10
3.531715289654201
 20
4.5
 30
0.0
 11
-6.931807044873803E-17
 21
-0.3773499999999999
 31
0.0
210
0.0
220
0.0
230
1.0
 40
0.4226182617406997
 41
0.0
 42
6.283185307179586
  0
LINE
  5
B0
330
89
100
AcDbEntity
  8
AM_7
100
AcDbLine
 10
-0.3962175000000003
 20
4.500000000000001
 30
0.0
 11
0.3962174999999998
 21
4.500000000000001
 31
0.0
  0
ELLIPSE
  5
B2
330
89
100
AcDbEntity
  8
AM_4
100
AcDbEllipse
 10
5.100111125380693
 20
4.5
 30
0.0
 11
-6.931807044873803E-17
 21
-0.3773499999999999
 31
0.0
210
0.0
220
0.0
230
1.0
 40
0.4226182617406997
 41
5.901708562309688
 42
9.799671613324008
  0
LWPOLYLINE
  5
B3
330
89
100
AcDbEntity
  8
AM_4
100
AcDbPolyline
 90
       14
 70
     0
 43
0.0
 10
5.065853993216478
 20
4.116162381900069
 10
5.042040929639594
 20
4.150939729455639
 10
5.018009229753547
 20
4.198556085348946
 10
4.997477585420993
 20
4.254163993035736
 10
4.980846799358992
 20
4.317733727433488
 10
4.969210332928807
 20
4.386587974997657
 10
4.963000619104005
 20
4.46043891818519
 10
4.962817114871028
 20
4.535024397088582
 10
4.968876359683721
 20
4.61073526109989
 10
4.980707331519084
 20
4.681613132195554
 10
4.998559516349062
 20
4.749253761336989
 10
5.020430357953947
 20
4.80695264618556
 10
5.047053753439887
 20
4.857279475970738
 10
5.065844771301904
 20
4.883826115013127
  0
LWPOLYLINE
  5
B4
330
89
100
AcDbEntity
  8
AM_4
100
AcDbPolyline
 90
       18
 70
     0
 43
0.0
 10
5.065844771301904
 20
4.883826115013127
 10
5.074966125401917
 20
4.894528363059957
 10
5.105659128228202
 20
4.921366061866685
 10
5.135120014466356
 20
4.934915283483613
 10
5.165285077363617
 20
4.936708760315646
 10
5.192878715991212
 20
4.926929715631633
 10
5.219472242790046
 20
4.905552624928673
 10
5.243082929305485
 20
4.874304766809393
 10
5.264441669772737
 20
4.832549757549381
 10
5.282520216045809
 20
4.7822682849056
 10
5.297419033876136
 20
4.723282800060345
 10
5.308521022953304
 20
4.657951934173768
 10
5.31573112313104
 20
4.586576144741342
 10
5.318638618088232
 20
4.512847237849173
 10
5.317122320029203
 20
4.436682358159377
 10
5.311186365140244
 20
4.36355918733632
 10
5.300512686727107
 20
4.292273513726863
 10
5.275465422692568
 20
4.196010911529418
  0
CIRCLE
  5
B5
330
89
100
AcDbEntity
  8
AM_4
100
AcDbCircle
 10
-0.0000000000000003
 20
4.500000000000001
 30
0.0
 40
0.37735
  0
LINE
  5
B6
330
89
100
AcDbEntity
  8
AM_4
100
AcDbLine
 10
5.4375
 20
5.25
 30
0.0
 11
-5.4375
 21
5.25
 31
0.0
  0
ARC
  5
B7
330
89
100
AcDbEntity
  8
AM_4
100
AcDbCircle
 10
-5.437499999999999
 20
4.999999999999999
 30
0.0
 40
0.2500000000000009
100
AcDbArc
 50
90.0
 51
180.0
  0
ARC
  5
B8
330
89
100
AcDbEntity
  8
AM_4
100
AcDbCircle
 10
5.437499999999999
 20
4.999999999999999
 30
0.0
 40
0.2500000000000009
100
AcDbArc
 50
0.0
 51
90.0
  0
LWPOLYLINE
  5
B9
330
89
100
AcDbEntity
  8
AM_4
100
AcDbPolyline
 90
       10
 70
     0
 43
0.0
 10
5.275465422692568
 20
4.196010911529418
 10
5.257994419737569
 20
4.153190188187229
 10
5.237421710309984
 20
4.116965884067236
 10
5.212139571235912
 20
4.087241587237518
 10
5.183614074518615
 20
4.068486283499526
 10
5.155219258861975
 20
4.062502430384268
 10
5.125191019053259
 20
4.068357472614
 10
5.096568373094318
 20
4.085181648090564
 10
5.068153708626003
 20
4.113337681799252
 10
5.065853993216478
 20
4.116162381900069
  0
LWPOLYLINE
  5
BA
330
89
100
AcDbEntity
  8
AM_4
100
AcDbPolyline
 90
       38
 70
     0
 43
0.0
 10
-0.2732914817883464
 20
4.1668144523
 10
-0.3179265662882577
 20
4.212589910945173
 10
-0.3553909461898356
 20
4.264411463203673
 10
-0.3884213734151592
 20
4.329535291891927
 10
-0.4104667657835537
 20
4.399172942907522
 10
-0.4210188745870461
 20
4.473496256854883
 10
-0.4192266077287434
 20
4.54854850273845
 10
-0.4046954707808736
 20
4.623215329626518
 10
-0.3778717130185066
 20
4.694374309583023
 10
-0.3394769628853951
 20
4.759517814420267
 10
-0.2905196395597175
 20
4.817116761243159
 10
-0.2336600233319109
 20
4.864124204832775
 10
-0.1695242688524618
 20
4.900578350330973
 10
-0.1024854033871089
 20
4.924325551988669
 10
-0.0323590798082938
 20
4.936209354381017
 10
0.0365600597415712
 20
4.935806321857254
 10
0.1044353815516863
 20
4.923864800592644
 10
0.1688057875545237
 20
4.90086090324966
 10
0.2285516037500955
 20
4.867657115739941
 10
0.2830377461245844
 20
4.824262954757725
 10
0.3298253175749056
 20
4.77264999579737
 10
0.368873980383349
 20
4.712062467875227
 10
0.3976443666923586
 20
4.645948123585422
 10
0.4157591164170084
 20
4.573702804412245
 10
0.421834609355777
 20
4.499456176567572
 10
0.4153421684443685
 20
4.423831553019918
 10
0.3963634608811791
 20
4.350354274979502
 10
0.3651550976044004
 20
4.281145913314811
 10
0.3226515081222368
 20
4.218270173054477
 10
0.2708491147814774
 20
4.164740960823342
 10
0.2105855224695943
 20
4.120971272683568
 10
0.1458193947040371
 20
4.089553607708403
 10
0.0765983522197849
 20
4.069781617431682
 10
0.0074849992914991
 20
4.062615989415238
 10
-0.0618457952824807
 20
4.067233054957995
 10
-0.1282572993092287
 20
4.083279017760303
 10
-0.1911199379754477
 20
4.110026684538626
 10
-0.2732914818018423
 20
4.166814452269285
  0
LINE
  5
BB
330
89
100
AcDbEntity
  8
AM_4
100
AcDbLine
 10
-5.6875
 20
5.0
 30
0.0
 11
-5.6875
 21
3.75
 31
0.0
  0
LINE
  5
BC
330
89
100
AcDbEntity
  8
AM_4
100
AcDbLine
 10
5.6875
 20
3.75
 30
0.0
 11
5.6875
 21
5.0
 31
0.0
  0
LINE
  5
BD
330
89
100
AcDbEntity
  8
AM_4
100
AcDbLine
 10
5.6875
 20
5.0
 30
0.0
 11
-5.6875
 21
5.0
 31
0.0
  0
LINE
  5
BE
330
89
100
AcDbEntity
  8
AM_4
100
AcDbLine
 10
5.6875
 20
3.75
 30
0.0
 11
-5.6875
 21
3.75
 31
0.0
  0
ARC
  5
C0
330
89
100
AcDbEntity
  8
AM_5
100
AcDbCircle
 10
0.0000000000000002
 20
4.5
 30
0.0
 40
0.4375000000000001
100
AcDbArc
 50
63.85157066748187
 51
3.851570667481932
  0
ARC
  5
C1
330
89
100
AcDbEntity
  8
AM_5
100
AcDbCircle
 10
0.000000000000598
 20
4.500000000000069
 30
0.0
 40
0.4374999999993992
100
AcDbArc
 50
3.85157066747824
 51
15.00000000001167
  0
ENDBLK
  5
8C
330
89
100
AcDbEntity
  8
0
100
AcDbBlockEnd
  0
BLOCK
  5
C4
330
C2
100
AcDbEntity
  8
0
100
AcDbBlockBegin
  2
3_6_15_16C_2_0_in_023045_4
 70
     2
 10
0.0
 20
0.0
 30
0.0
  3
3_6_15_16C_2_0_in_023045_4
  1

  0
ATTDEF
  5
C6
330
C2
100
AcDbEntity
  8
AM_6
100
AcDbText
 10
10.6875
 20
-3.75
 30
0.0
 40
0.5
  1
E-Type Collar -Inch
100
AcDbAttributeDefinition
  3

  2
NN
 70
     8
280
     0
  0
ATTDEF
  5
C7
330
C2
100
AcDbEntity
  8
AM_6
100
AcDbText
 10
10.6875
 20
-4.25
 30
0.0
 40
0.5
  1
E-Type Bearings
100
AcDbAttributeDefinition
  3

  2
NT
 70
     8
280
     0
  0
ATTDEF
  5
C8
330
C2
100
AcDbEntity
  8
AM_6
100
AcDbText
 10
10.6875
 20
-4.75
 30
0.0
 40
0.5
  1
6-15/16C
100
AcDbAttributeDefinition
  3

  2
NB
 70
     8
280
     0
  0
ATTDEF
  5
C9
330
C2
100
AcDbEntity
  8
AM_6
100
AcDbText
 10
10.6875
 20
-5.25
 30
0.0
 40
0.5
  1
$BORE.C
100
AcDbAttributeDefinition
  3

  2
NBSYN
 70
     8
280
     0
  0
ATTDEF
  5
CA
330
C2
100
AcDbEntity
  8
AM_6
100
AcDbText
 10
10.6875
 20
-5.75
 30
0.0
 40
0.5
  1
6-15/16C
100
AcDbAttributeDefinition
  3

  2
LINA
 70
     8
280
     0
  0
ATTDEF
  5
CB
330
C2
100
AcDbEntity
  8
AM_6
100
AcDbText
 10
10.6875
 20
-6.25
 30
0.0
 40
0.5
  1
6-15/16
100
AcDbAttributeDefinition
  3

  2
BORE
 70
     8
280
     0
  0
ATTDEF
  5
CC
330
C2
100
AcDbEntity
  8
AM_6
100
AcDbText
 10
10.6875
 20
-6.75
 30
0.0
 40
0.5
  1
11.37500
100
AcDbAttributeDefinition
  3

  2
L
 70
     8
280
     0
  0
ATTDEF
  5
CD
330
C2
100
AcDbEntity
  8
AM_6
100
AcDbText
 10
10.6875
 20
-7.25
 30
0.0
 40
0.5
  1
10.50
100
AcDbAttributeDefinition
  3

  2
A
 70
     8
280
     0
  0
ATTDEF
  5
CE
330
C2
100
AcDbEntity
  8
AM_6
100
AcDbText
 10
10.6875
 20
-7.75
 30
0.0
 40
0.5
  1
5.71
100
AcDbAttributeDefinition
  3

  2
B
 70
     8
280
     0
  0
ATTDEF
  5
CF
330
C2
100
AcDbEntity
  8
AM_6
100
AcDbText
 10
10.6875
 20
-8.25
 30
0.0
 40
0.5
  1
7.79
100
AcDbAttributeDefinition
  3

  2
C
 70
     8
280
     0
  0
ATTDEF
  5
D0
330
C2
100
AcDbEntity
  8
AM_6
100
AcDbText
 10
10.6875
 20
-8.75
 30
0.0
 40
0.5
  1
11.81
100
AcDbAttributeDefinition
  3

  2
D
 70
     8
280
     0
  0
ATTDEF
  5
D1
330
C2
100
AcDbEntity
  8
AM_6
100
AcDbText
 10
10.6875
 20
-9.25
 30
0.0
 40
0.5
  1
0.94
100
AcDbAttributeDefinition
  3

  2
E
 70
     8
280
     0
  0
ATTDEF
  5
D2
330
C2
100
AcDbEntity
  8
AM_6
100
AcDbText
 10
10.6875
 20
-9.75
 30
0.0
 40
0.5
  1
0.75
100
AcDbAttributeDefinition
  3

  2
F
 70
     8
280
     0
  0
ATTDEF
  5
D3
330
C2
100
AcDbEntity
  8
AM_6
100
AcDbText
 10
10.6875
 20
-10.25
 30
0.0
 40
0.5
  1
7/8-9
100
AcDbAttributeDefinition
  3

  2
CS
 70
     8
280
     0
  0
ATTDEF
  5
D4
330
C2
100
AcDbEntity
  8
AM_6
100
AcDbText
 10
10.6875
 20
-10.75
 30
0.0
 40
0.5
  1
0.8750
100
AcDbAttributeDefinition
  3

  2
NDM
 70
     8
280
     0
  0
ATTDEF
  5
D5
330
C2
100
AcDbEntity
  8
AM_6
100
AcDbText
 10
10.6875
 20
-11.25
 30
0.0
 40
0.5
  1
0.7550
100
AcDbAttributeDefinition
  3

  2
KDM
 70
     8
280
     0
  0
ATTDEF
  5
D6
330
C2
100
AcDbEntity
  8
AM_6
100
AcDbText
 10
10.6875
 20
-11.75
 30
0.0
 40
0.5
  1
baldor
100
AcDbAttributeDefinition
  3

  2
COMPANY
 70
     8
280
     0
  0
LINE
  5
D7
330
C2
100
AcDbEntity
  8
AM_9
100
AcDbLine
 10
3.606079703936417
 20
-4.166187656874598
 30
0.0
 11
3.602107901844075
 21
-4.161233681403774
 31
0.0
  0
LINE
  5
D8
330
C2
100
AcDbEntity
  8
AM_9
100
AcDbLine
 10
3.60219519921549
 20
-4.838657433755893
 30
0.0
 11
3.606079703936417
 21
-4.833812343125402
 31
0.0
  0
LWPOLYLINE
  5
D9
330
C2
100
AcDbEntity
  8
AM_9
100
AcDbPolyline
 90
       26
 70
     0
 43
0.0
 10
3.60186710961048
 20
-4.160933347104974
 10
3.597674614763372
 20
-4.155919697916356
 10
3.572570430033002
 20
-4.133847239473367
 10
3.545380222837776
 20
-4.122431027409347
 10
3.515898949179303
 20
-4.122185632263238
 10
3.485712534158258
 20
-4.133445509893224
 10
3.455540355852411
 20
-4.156315414182498
 10
3.426676604093343
 20
-4.190094387805052
 10
3.400716224832073
 20
-4.233315233655315
 10
3.378279205681361
 20
-4.285247099881655
 10
3.361196638660337
 20
-4.341956999600483
 10
3.349250753812782
 20
-4.403770883564116
 10
3.343395154049463
 20
-4.465216104477724
 10
3.343048747514219
 20
-4.527710984815864
 10
3.348053302218939
 20
-4.58721300113409
 10
3.357955776404076
 20
-4.64429251081989
 10
3.372480170174964
 20
-4.697797320079717
 10
3.390848549828254
 20
-4.746026995648226
 10
3.413348575352912
 20
-4.789497732329209
 10
3.438337412747734
 20
-4.825125434055526
 10
3.466373733498335
 20
-4.85326171513354
 10
3.495229939015337
 20
-4.871345634422552
 10
3.525074248624107
 20
-4.878965669311953
 10
3.55396182081135
 20
-4.875218553293641
 10
3.581467675791135
 20
-4.859735189559126
 10
3.601878988820523
 20
-4.839051838652532
  0
LWPOLYLINE
  5
DA
330
C2
100
AcDbEntity
  8
AM_9
100
AcDbPolyline
 90
       13
 70
     0
 43
0.0
 10
3.601878988820523
 20
-4.839051838652532
 10
3.606529645854123
 20
-4.832976108799749
 10
3.628364536380839
 20
-4.795775922926035
 10
3.646814586560544
 20
-4.748978278974497
 10
3.661031252225442
 20
-4.695685840716608
 10
3.671499145173302
 20
-4.636009819252063
 10
3.677721448238075
 20
-4.575203584378253
 10
3.680297171598396
 20
-4.512066513843193
 10
3.679263719211649
 20
-4.451409507424417
 10
3.674879403851075
 20
-4.392135497704109
 10
3.667241059095827
 20
-4.336298582427331
 10
3.656488396382492
 20
-4.284856668919542
 10
3.633950839150346
 20
-4.216489389683735
  0
LINE
  5
DB
330
C2
100
AcDbEntity
  8
AM_9
100
AcDbLine
 10
3.531715289654201
 20
-4.87735
 30
0.0
 11
5.100111125380693
 21
-4.87735
 31
0.0
  0
LINE
  5
DC
330
C2
100
AcDbEntity
  8
AM_9
100
AcDbLine
 10
5.100111125380693
 20
-4.12265
 30
0.0
 11
3.531715289654201
 21
-4.12265
 31
0.0
  0
ELLIPSE
  5
DD
330
C2
100
AcDbEntity
  8
AM_9
100
AcDbEllipse
 10
5.100111125380697
 20
-4.500000000000002
 30
0.0
 11
-6.931807044873770E-17
 21
-0.3773499999999981
 31
0.0
210
0.0
220
0.0
230
1.0
 40
0.422618261740711
 41
3.486832165093666
 42
5.931964283430838
  0
LINE
  5
DE
330
C2
100
AcDbEntity
  8
AM_9
100
AcDbLine
 10
5.025746711098476
 20
-4.833812343125402
 30
0.0
 11
5.065335312642352
 21
-4.883190674777595
 31
0.0
  0
LINE
  5
DF
330
C2
100
AcDbEntity
  8
AM_9
100
AcDbLine
 10
5.065586141015864
 20
-4.116496470356811
 30
0.0
 11
5.025746711098476
 21
-4.166187656874599
 31
0.0
  0
LWPOLYLINE
  5
E0
330
C2
100
AcDbEntity
  8
AM_9
100
AcDbPolyline
 90
       38
 70
     0
 43
0.0
 10
-0.2794184904308635
 20
-4.229069161146938
 10
-0.3182909974661423
 20
-4.270856890189289
 10
-0.3511784563607605
 20
-4.319105953323903
 10
-0.3779966586707383
 20
-4.376850141007683
 10
-0.3947495378172646
 20
-4.440411079306814
 10
-0.3997315670084922
 20
-4.500889398993056
 10
-0.3941286937524351
 20
-4.563167673247252
 10
-0.378944362385801
 20
-4.620507705673084
 10
-0.3538977325052796
 20
-4.676070081887564
 10
-0.3203939308761285
 20
-4.726493222099726
 10
-0.2781808803287494
 20
-4.77207440957227
 10
-0.2281293574114953
 20
-4.811190697815156
 10
-0.1709871601177888
 20
-4.842625627987641
 10
-0.1081260088662413
 20
-4.864988639244761
 10
-0.0406523404721785
 20
-4.877194478558188
 10
0.0281294145689857
 20
-4.878223658253783
 10
0.0980631313763599
 20
-4.867544258417038
 10
0.1637818976043322
 20
-4.845784847233897
 10
0.2266250438257122
 20
-4.812179222220466
 10
0.2801493830724373
 20
-4.770250830024768
 10
0.3268993524147337
 20
-4.717977569783494
 10
0.3610455454933277
 20
-4.662516563209466
 10
0.385571978591697
 20
-4.599876972576641
 10
0.3975588127725531
 20
-4.539426335743865
 10
0.3989202563330433
 20
-4.475877338448805
 10
0.3900247708350303
 20
-4.417072571363089
 10
0.3709656258307105
 20
-4.358959785707203
 10
0.3432286290262213
 20
-4.305882868183987
 10
0.3063733410560259
 20
-4.25668950952546
 10
0.2614071886040824
 20
-4.213346278491156
 10
0.2087514666280852
 20
-4.176786938632038
 10
0.1494334900003902
 20
-4.148403908292415
 10
0.0845879788770086
 20
-4.129446776853478
 10
0.0168002540299299
 20
-4.121169444115488
 10
-0.053350638841034
 20
-4.124236384294125
 10
-0.1210901775016645
 20
-4.138702611811803
 10
-0.1872803309790284
 20
-4.165141743716533
 10
-0.2794184904308635
 20
-4.229069161146938
  0
LWPOLYLINE
  5
E1
330
C2
100
AcDbEntity
  8
AM_9
100
AcDbPolyline
 90
        3
 70
     0
 43
0.0
 10
3.633950839150346
 20
-4.216489389683735
 10
3.616893573780371
 20
-4.182741444352962
 10
3.60186710961048
 20
-4.160933347104974
  0
LINE
  5
E2
330
C2
100
AcDbEntity
  8
AM_9
100
AcDbLine
 10
3.895
 20
-5.25
 30
0.0
 11
3.895
 21
-3.75
 31
0.0
  0
LINE
  5
E3
330
C2
100
AcDbEntity
  8
AM_9
100
AcDbLine
 10
-3.895
 20
-3.75
 30
0.0
 11
-3.895
 21
-5.25
 31
0.0
  0
ELLIPSE
  5
E4
330
C2
100
AcDbEntity
  8
AM_9
100
AcDbEllipse
 10
3.531715289654201
 20
-4.5
 30
0.0
 11
-6.931807044873803E-17
 21
-0.3773499999999999
 31
0.0
210
0.0
220
0.0
230
1.0
 40
0.4226182617406985
 41
0.0
 42
6.283185307179586
  0
LINE
  5
E5
330
C2
100
AcDbEntity
  8
AM_7
100
AcDbLine
 10
-0.3962175000000001
 20
-4.499999999999999
 30
0.0
 11
0.3962175000000001
 21
-4.499999999999999
 31
0.0
  0
ELLIPSE
  5
E6
330
C2
100
AcDbEntity
  8
AM_4
100
AcDbEllipse
 10
5.100111125380693
 20
-4.5
 30
0.0
 11
-6.931807044873803E-17
 21
-0.3773499999999999
 31
0.0
210
0.0
220
0.0
230
1.0
 40
0.4226182617406997
 41
5.93196428343085
 42
9.77001747227324
  0
LWPOLYLINE
  5
E7
330
C2
100
AcDbEntity
  8
AM_4
100
AcDbPolyline
 90
       15
 70
     0
 43
0.0
 10
5.065833855810388
 20
-4.883812497591293
 10
5.053871864118908
 20
-4.867657115739941
 10
5.028620482963261
 20
-4.824262954757725
 10
5.006560568200676
 20
-4.772649995797369
 10
4.987880966296284
 20
-4.712062467875226
 10
4.973959975379124
 20
-4.645948123585421
 10
4.965130117899439
 20
-4.573702804412245
 10
4.962153181596535
 20
-4.499456176567572
 10
4.96533420960012
 20
-4.423831553019917
 10
4.974582541522774
 20
-4.350354274979501
 10
4.989670673008574
 20
-4.28114591331481
 10
5.009965906435754
 20
-4.218270173054476
 10
5.034309343204682
 20
-4.164740960823342
 10
5.06209373288834
 20
-4.120971272683568
 10
5.065836357561308
 20
-4.116184381220072
  0
LWPOLYLINE
  5
E8
330
C2
100
AcDbEntity
  8
AM_4
100
AcDbPolyline
 90
        8
 70
     0
 43
0.0
 10
5.065836357561308
 20
-4.116184381220072
 10
5.091300205350599
 20
-4.089553607708402
 10
5.121786174968708
 20
-4.069781617431681
 10
5.151452193255661
 20
-4.062615989415238
 10
5.18045794159408
 20
-4.067233054957995
 10
5.207514310374171
 20
-4.083279017760302
 10
5.232485202500357
 20
-4.110026684538626
 10
5.264169255139286
 20
-4.166814452274108
  0
LINE
  5
E9
330
C2
100
AcDbEntity
  8
AM_4
100
AcDbLine
 10
-5.6875
 20
-3.75
 30
0.0
 11
5.6875
 21
-3.75
 31
0.0
  0
LWPOLYLINE
  5
EA
330
C2
100
AcDbEntity
  8
AM_4
100
AcDbPolyline
 90
       19
 70
     0
 43
0.0
 10
5.264169255139286
 20
-4.166814452274108
 10
5.280927111499914
 20
-4.212589910945172
 10
5.294747179050485
 20
-4.264411463203672
 10
5.306746418220725
 20
-4.329535291891927
 10
5.314654815124085
 20
-4.399172942907521
 10
5.318416428235124
 20
-4.473496256854882
 10
5.317776258017268
 20
-4.548548502738449
 10
5.312594153248741
 20
-4.623215329626518
 10
5.302931827758045
 20
-4.694374309583022
 10
5.288904489973978
 20
-4.759517814420266
 10
5.270675314627383
 20
-4.817116761243158
 10
5.249019443480538
 20
-4.864124204832775
 10
5.223979331810634
 20
-4.900578350330973
 10
5.197095405547497
 20
-4.924325551988668
 10
5.168217647233811
 20
-4.936209354381016
 10
5.139062764549714
 20
-4.935806321857254
 10
5.109620166401923
 20
-4.923864800592644
 10
5.081010600529729
 20
-4.900860903249659
 10
5.065833855810388
 20
-4.883812497591293
  0
LINE
  5
EB
330
C2
100
AcDbEntity
  8
AM_4
100
AcDbLine
 10
5.6875
 20
-5.0
 30
0.0
 11
5.6875
 21
-3.75
 31
0.0
  0
LINE
  5
EC
330
C2
100
AcDbEntity
  8
AM_4
100
AcDbLine
 10
-5.6875
 20
-3.75
 30
0.0
 11
-5.6875
 21
-5.0
 31
0.0
  0
LINE
  5
ED
330
C2
100
AcDbEntity
  8
AM_4
100
AcDbLine
 10
-5.4375
 20
-5.25
 30
0.0
 11
5.437499999995015
 21
-5.25
 31
0.0
  0
LINE
  5
EE
330
C2
100
AcDbEntity
  8
AM_4
100
AcDbLine
 10
-5.6875
 20
-5.0
 30
0.0
 11
5.6875
 21
-5.0
 31
0.0
  0
ARC
  5
EF
330
C2
100
AcDbEntity
  8
AM_4
100
AcDbCircle
 10
5.437499999999999
 20
-4.999999999999999
 30
0.0
 40
0.2500000000000009
100
AcDbArc
 50
270.0
 51
0.0
  0
ARC
  5
F0
330
C2
100
AcDbEntity
  8
AM_4
100
AcDbCircle
 10
-5.437499999999999
 20
-4.999999999999999
 30
0.0
 40
0.2500000000000009
100
AcDbArc
 50
180.0
 51
270.0
  0
LWPOLYLINE
  5
F1
330
C2
100
AcDbEntity
  8
AM_4
100
AcDbPolyline
 90
       38
 70
     0
 43
0.0
 10
-0.3032850229415532
 20
-4.196010911557397
 10
-0.2570554424661596
 20
-4.153190188187228
 10
-0.2037408045391664
 20
-4.116965884067236
 10
-0.1397735576095266
 20
-4.087241587237518
 10
-0.0695034822012108
 20
-4.068486283499526
 10
-0.0014052337023124
 20
-4.062502430384267
 10
0.068756710860251
 20
-4.068357472614
 10
0.133989793043531
 20
-4.085181648090563
 10
0.1972708542571106
 20
-4.113337681799251
 10
0.2542087146795088
 20
-4.150939729455639
 10
0.3056377497472515
 20
-4.198556085348945
 10
0.3488755722042147
 20
-4.254163993035735
 10
0.3834447045853154
 20
-4.317733727433487
 10
0.4073987947796535
 20
-4.386587974997656
 10
0.4201047377806805
 20
-4.460438918185189
 10
0.4204794076708862
 20
-4.535024397088582
 10
0.4080835032575298
 20
-4.610735261099889
 10
0.3837329309830671
 20
-4.681613132195553
 10
0.3466127595818073
 20
-4.749253761336989
 10
0.3004971430578822
 20
-4.806952646185559
 10
0.2433655040151141
 20
-4.857279475970738
 10
0.1822281517950417
 20
-4.894528363059957
 10
0.1134381376859067
 20
-4.921366061866684
 10
0.0457592357097875
 20
-4.934915283483611
 10
-0.0253437099664167
 20
-4.936708760315645
 10
-0.0921145098144412
 20
-4.926929715631633
 10
-0.1581570623460368
 20
-4.905552624928673
 10
-0.2182952201337938
 20
-4.874304766809392
 10
-0.2740103275124464
 20
-4.832549757549381
 10
-0.3222136071198083
 20
-4.7822682849056
 10
-0.3627052992987587
 20
-4.723282800060345
 10
-0.3933530115268659
 20
-4.657951934173767
 10
-0.4134833512280168
 20
-4.586576144741342
 10
-0.4216528041740309
 20
-4.512847237849172
 10
-0.417388565233183
 20
-4.436682358159376
 10
-0.4007734121780879
 20
-4.36355918733632
 10
-0.3712038402407233
 20
-4.292273513726862
 10
-0.3032850229738538
 20
-4.196010911537322
  0
CIRCLE
  5
F2
330
C2
100
AcDbEntity
  8
AM_4
100
AcDbCircle
 10
0.0
 20
-4.499999999999999
 30
0.0
 40
0.37735
  0
CIRCLE
  5
F3
330
C2
100
AcDbEntity
  8
AM_5
100
AcDbCircle
 10
0.0000000000000005
 20
-4.499999999999999
 30
0.0
 40
0.4375000000000001
  0
ENDBLK
  5
C5
330
C2
100
AcDbEntity
  8
0
100
AcDbBlockEnd
  0
BLOCK
  5
F6
330
F4
100
AcDbEntity
  8
0
100
AcDbBlockBegin
  2
4_6_15_16I_0_in_023045_4
 70
     2
 10
0.0
 20
0.0
 30
0.0
  3
4_6_15_16I_0_in_023045_4
  1

  0
ATTDEF
  5
F8
330
F4
100
AcDbEntity
  8
AM_6
100
AcDbText
 10
10.905
 20
5.775
 30
0.0
 40
0.5
  1
E-Type Insert -Inch
100
AcDbAttributeDefinition
  3

  2
NN
 70
     8
280
     0
  0
ATTDEF
  5
F9
330
F4
100
AcDbEntity
  8
AM_6
100
AcDbText
 10
10.905
 20
5.275
 30
0.0
 40
0.5
  1
E-Type Bearings
100
AcDbAttributeDefinition
  3

  2
NT
 70
     8
280
     0
  0
ATTDEF
  5
FA
330
F4
100
AcDbEntity
  8
AM_6
100
AcDbText
 10
10.905
 20
4.775
 30
0.0
 40
0.5
  1
6-15/16I
100
AcDbAttributeDefinition
  3

  2
NB
 70
     8
280
     0
  0
ATTDEF
  5
FB
330
F4
100
AcDbEntity
  8
AM_6
100
AcDbText
 10
10.905
 20
4.275
 30
0.0
 40
0.5
  1
$BORE.I
100
AcDbAttributeDefinition
  3

  2
NBSYN
 70
     8
280
     0
  0
ATTDEF
  5
FC
330
F4
100
AcDbEntity
  8
AM_6
100
AcDbText
 10
10.905
 20
3.775
 30
0.0
 40
0.5
  1
6-15/16I
100
AcDbAttributeDefinition
  3

  2
LINA
 70
     8
280
     0
  0
ATTDEF
  5
FD
330
F4
100
AcDbEntity
  8
AM_6
100
AcDbText
 10
10.905
 20
3.275
 30
0.0
 40
0.5
  1
6-15/16
100
AcDbAttributeDefinition
  3

  2
BORE
 70
     8
280
     0
  0
ATTDEF
  5
FE
330
F4
100
AcDbEntity
  8
AM_6
100
AcDbText
 10
10.905
 20
2.775
 30
0.0
 40
0.5
  1
10.50
100
AcDbAttributeDefinition
  3

  2
A
 70
     8
280
     0
  0
ATTDEF
  5
FF
330
F4
100
AcDbEntity
  8
AM_6
100
AcDbText
 10
10.905
 20
2.275
 30
0.0
 40
0.5
  1
5.71
100
AcDbAttributeDefinition
  3

  2
B
 70
     8
280
     0
  0
ATTDEF
  5
100
330
F4
100
AcDbEntity
  8
AM_6
100
AcDbText
 10
10.905
 20
1.775
 30
0.0
 40
0.5
  1
7.79
100
AcDbAttributeDefinition
  3

  2
C
 70
     8
280
     0
  0
ATTDEF
  5
101
330
F4
100
AcDbEntity
  8
AM_6
100
AcDbText
 10
10.905
 20
1.275
 30
0.0
 40
0.5
  1
11.81
100
AcDbAttributeDefinition
  3

  2
D
 70
     8
280
     0
  0
ATTDEF
  5
102
330
F4
100
AcDbEntity
  8
AM_6
100
AcDbText
 10
10.905
 20
0.7750000000000004
 30
0.0
 40
0.5
  1
0.94
100
AcDbAttributeDefinition
  3

  2
E
 70
     8
280
     0
  0
ATTDEF
  5
103
330
F4
100
AcDbEntity
  8
AM_6
100
AcDbText
 10
10.905
 20
0.2750000000000004
 30
0.0
 40
0.5
  1
0.75
100
AcDbAttributeDefinition
  3

  2
F
 70
     8
280
     0
  0
ATTDEF
  5
104
330
F4
100
AcDbEntity
  8
AM_6
100
AcDbText
 10
10.905
 20
-0.2249999999999996
 30
0.0
 40
0.5
  1
baldor
100
AcDbAttributeDefinition
  3

  2
COMPANY
 70
     8
280
     0
  0
LINE
  5
105
330
F4
100
AcDbEntity
  8
AM_9
100
AcDbLine
 10
3.529900918282948
 20
4.97
 30
0.0
 11
3.143738247968363
 21
4.97
 31
0.0
  0
LINE
  5
106
330
F4
100
AcDbEntity
  8
AM_9
100
AcDbLine
 10
3.143565132603407
 20
4.03
 30
0.0
 11
3.530065877309112
 21
4.03
 31
0.0
  0
LWPOLYLINE
  5
107
330
F4
100
AcDbEntity
  8
AM_9
100
AcDbPolyline
 90
       11
 70
     0
 43
0.0
 10
3.310857385932519
 20
4.588775886985697
 10
3.309945310187082
 20
4.603275348598086
 10
3.302891056783381
 20
4.677058632505329
 10
3.291611925218949
 20
4.747890403587279
 10
3.276622104071152
 20
4.810294538394682
 10
3.2571557732162
 20
4.865614090073792
 10
3.234262092652453
 20
4.909531778905003
 10
3.206997714428306
 20
4.942896915247781
 10
3.177455780139985
 20
4.962824839411859
 10
3.144482465577807
 20
4.969996845709423
 10
3.14375976036332
 20
4.969999999872641
  0
LWPOLYLINE
  5
108
330
F4
100
AcDbEntity
  8
AM_9
100
AcDbPolyline
 90
        4
 70
     0
 43
0.0
 10
3.311152635551692
 20
4.416488371331997
 10
3.312478552766442
 20
4.446451314218753
 10
3.313209387302401
 20
4.524085985225816
 10
3.310857385932519
 20
4.588775886985697
  0
LWPOLYLINE
  5
109
330
F4
100
AcDbEntity
  8
AM_9
100
AcDbPolyline
 90
       10
 70
     0
 43
0.0
 10
3.143737889589327
 20
4.030000001771644
 10
3.165522394765892
 20
4.032924886025281
 10
3.195816702049227
 20
4.047843866779422
 10
3.224046647547161
 20
4.075955393551634
 10
3.248198813815709
 20
4.115042860644534
 10
3.269231963078129
 20
4.166135587520346
 10
3.285920209536235
 20
4.225518859462702
 10
3.298972291288116
 20
4.294550977293809
 10
3.307650524321081
 20
4.36749089370652
 10
3.311152635551692
 20
4.416488371331997
  0
LWPOLYLINE
  5
10A
330
F4
100
AcDbEntity
  8
AM_9
100
AcDbPolyline
 90
       10
 70
     0
 43
0.0
 10
3.14375976036332
 20
4.969999999872641
 10
3.111086805424942
 20
4.963890423336077
 10
3.076107344050099
 20
4.94445345903984
 10
3.04266870141052
 20
4.913347267098419
 10
3.010086562284005
 20
4.869702367302121
 10
2.981188468077286
 20
4.816686535896154
 10
2.955818355033309
 20
4.753069518519899
 10
2.936412488102208
 20
4.683845304386138
 10
2.922886118796258
 20
4.607222332537178
 10
2.916132725070987
 20
4.5
  0
LWPOLYLINE
  5
10B
330
F4
100
AcDbEntity
  8
AM_9
100
AcDbPolyline
 90
       21
 70
     0
 43
0.0
 10
3.53005109876023
 20
4.969999998127299
 10
3.55205014934042
 20
4.967027155653033
 10
3.582989605893691
 20
4.95164732362075
 10
3.611194467480106
 20
4.923731453625265
 10
3.636115369568944
 20
4.88379738478638
 10
3.657356702329348
 20
4.833183184752454
 10
3.674726134769308
 20
4.772748416667854
 10
3.688000519987777
 20
4.704593974251282
 10
3.697077504148346
 20
4.630508013453901
 10
3.701978323204506
 20
4.552690896914029
 10
3.70266751520284
 20
4.473841152123443
 10
3.699229531006754
 20
4.395732621094055
 10
3.691655049531136
 20
4.320845144596271
 10
3.67999184538197
 20
4.250969409322818
 10
3.664144258328484
 20
4.187833344128168
 10
3.644306933749322
 20
4.133440077792035
 10
3.620479021790849
 20
4.089230231489109
 10
3.593145406618543
 20
4.056626920712961
 10
3.562827854710349
 20
4.036781889143601
 10
3.53020522198781
 20
4.030000110822347
 10
3.530069789453552
 20
4.030000000005478
  0
LWPOLYLINE
  5
10C
330
F4
100
AcDbEntity
  8
AM_9
100
AcDbPolyline
 90
       10
 70
     0
 43
0.0
 10
3.530069789453552
 20
4.030000000005478
 10
3.496328637041042
 20
4.036587798270833
 10
3.462048867089687
 20
4.056079627300697
 10
3.428501093173406
 20
4.088072992907008
 10
3.396865624639768
 20
4.131493911608503
 10
3.368205796574355
 20
4.185639278869862
 10
3.343838165895638
 20
4.248627343599445
 10
3.324820917475149
 20
4.31904793719686
 10
3.312000448282364
 20
4.39463514027361
 10
3.305643957686764
 20
4.5
  0
LINE
  5
10D
330
F4
100
AcDbEntity
  8
AM_9
100
AcDbLine
 10
3.529900918282949
 20
-4.03
 30
0.0
 11
3.143738247968363
 21
-4.03
 31
0.0
  0
LINE
  5
10E
330
F4
100
AcDbEntity
  8
AM_9
100
AcDbLine
 10
3.143565132603407
 20
-4.97
 30
0.0
 11
3.530065877309113
 21
-4.97
 31
0.0
  0
LWPOLYLINE
  5
10F
330
F4
100
AcDbEntity
  8
AM_9
100
AcDbPolyline
 90
       11
 70
     0
 43
0.0
 10
3.31085738593252
 20
-4.411224113014311
 10
3.309945310187082
 20
-4.396724651401914
 10
3.302891056783381
 20
-4.322941367494671
 10
3.291611925218949
 20
-4.252109596412721
 10
3.276622104071152
 20
-4.189705461605318
 10
3.257155773216199
 20
-4.134385909926208
 10
3.234262092652453
 20
-4.090468221094997
 10
3.206997714428306
 20
-4.057103084752219
 10
3.177455780139985
 20
-4.037175160588142
 10
3.144482465577807
 20
-4.030003154290577
 10
3.143759760363319
 20
-4.030000000127359
  0
LWPOLYLINE
  5
110
330
F4
100
AcDbEntity
  8
AM_9
100
AcDbPolyline
 90
        4
 70
     0
 43
0.0
 10
3.311152635551693
 20
-4.583511628667994
 10
3.312478552766442
 20
-4.553548685781247
 10
3.313209387302401
 20
-4.475914014774184
 10
3.31085738593252
 20
-4.411224113014311
  0
LWPOLYLINE
  5
111
330
F4
100
AcDbEntity
  8
AM_9
100
AcDbPolyline
 90
       10
 70
     0
 43
0.0
 10
3.143737889589327
 20
-4.969999998228356
 10
3.165522394765892
 20
-4.96707511397472
 10
3.195816702049227
 20
-4.952156133220578
 10
3.224046647547161
 20
-4.924044606448366
 10
3.248198813815709
 20
-4.884957139355465
 10
3.269231963078129
 20
-4.833864412479654
 10
3.285920209536235
 20
-4.774481140537298
 10
3.298972291288116
 20
-4.705449022706191
 10
3.307650524321081
 20
-4.63250910629348
 10
3.311152635551693
 20
-4.583511628667994
  0
LWPOLYLINE
  5
112
330
F4
100
AcDbEntity
  8
AM_9
100
AcDbPolyline
 90
       10
 70
     0
 43
0.0
 10
3.143759760363319
 20
-4.030000000127359
 10
3.111086805424942
 20
-4.036109576663924
 10
3.076107344050099
 20
-4.05554654096016
 10
3.042668701410519
 20
-4.086652732901582
 10
3.010086562284005
 20
-4.130297632697879
 10
2.981188468077285
 20
-4.183313464103847
 10
2.955818355033309
 20
-4.246930481480101
 10
2.936412488102208
 20
-4.316154695613862
 10
2.922886118796257
 20
-4.392777667462823
 10
2.916132725070987
 20
-4.5
  0
LWPOLYLINE
  5
113
330
F4
100
AcDbEntity
  8
AM_9
100
AcDbPolyline
 90
       21
 70
     0
 43
0.0
 10
3.530051098760232
 20
-4.030000001872702
 10
3.552050149340421
 20
-4.032972844346967
 10
3.582989605893692
 20
-4.048352676379251
 10
3.611194467480107
 20
-4.076268546374735
 10
3.636115369568945
 20
-4.116202615213621
 10
3.657356702329349
 20
-4.166816815247547
 10
3.67472613476931
 20
-4.227251583332147
 10
3.688000519987778
 20
-4.295406025748718
 10
3.697077504148346
 20
-4.369491986546099
 10
3.701978323204506
 20
-4.447309103085971
 10
3.702667515202841
 20
-4.526158847876556
 10
3.699229531006755
 20
-4.604267378905946
 10
3.691655049531138
 20
-4.67915485540373
 10
3.679991845381972
 20
-4.749030590677182
 10
3.664144258328485
 20
-4.812166655871831
 10
3.644306933749323
 20
-4.866559922207965
 10
3.62047902179085
 20
-4.910769768510892
 10
3.593145406618544
 20
-4.943373079287039
 10
3.56282785471035
 20
-4.963218110856398
 10
3.530205221987811
 20
-4.969999889177653
 10
3.530069789453553
 20
-4.969999999994523
  0
LWPOLYLINE
  5
114
330
F4
100
AcDbEntity
  8
AM_9
100
AcDbPolyline
 90
       10
 70
     0
 43
0.0
 10
3.530069789453553
 20
-4.969999999994523
 10
3.496328637041044
 20
-4.963412201729168
 10
3.462048867089688
 20
-4.943920372699303
 10
3.428501093173407
 20
-4.911927007092992
 10
3.396865624639768
 20
-4.868506088391498
 10
3.368205796574356
 20
-4.814360721130138
 10
3.34383816589564
 20
-4.751372656400555
 10
3.324820917475149
 20
-4.680952062803138
 10
3.312000448282365
 20
-4.605364859726389
 10
3.305643957686765
 20
-4.5
  0
LWPOLYLINE
  5
115
330
F4
100
AcDbEntity
  8
AM_9
100
AcDbPolyline
 90
       11
 70
     0
 43
0.0
 10
2.916132725070987
 20
4.5
 10
2.919632713190709
 20
4.422619187340588
 10
2.930366374080099
 20
4.345238374681175
 10
2.947223064112737
 20
4.274370694980129
 10
2.970366662319273
 20
4.207936152353841
 10
2.9976785795564
 20
4.151113227669391
 10
3.029412965640737
 20
4.102665715184705
 10
3.062677592697315
 20
4.066517711675972
 10
3.097988743488711
 20
4.041853820454945
 10
3.131905869041774
 20
4.03082282372577
 10
3.143737889589327
 20
4.030000001771644
  0
LWPOLYLINE
  5
116
330
F4
100
AcDbEntity
  8
AM_9
100
AcDbPolyline
 90
       11
 70
     0
 43
0.0
 10
2.916132725070987
 20
-4.5
 10
2.919632713190709
 20
-4.577380812659412
 10
2.930366374080099
 20
-4.654761625318825
 10
2.947223064112737
 20
-4.725629305019871
 10
2.970366662319273
 20
-4.79206384764616
 10
2.9976785795564
 20
-4.848886772330609
 10
3.029412965640737
 20
-4.897334284815295
 10
3.062677592697315
 20
-4.933482288324028
 10
3.097988743488711
 20
-4.958146179545055
 10
3.131905869041774
 20
-4.96917717627423
 10
3.143737889589327
 20
-4.969999998228356
  0
LINE
  5
117
330
F4
100
AcDbEntity
  8
AM_9
100
AcDbLine
 10
3.46875
 20
-5.25
 30
0.0
 11
3.46875
 21
5.25
 31
0.0
  0
LINE
  5
118
330
F4
100
AcDbEntity
  8
AM_9
100
AcDbLine
 10
-3.46875
 20
5.25
 30
0.0
 11
-3.46875
 21
-5.25
 31
0.0
  0
LWPOLYLINE
  5
119
330
F4
100
AcDbEntity
  8
AM_9
100
AcDbPolyline
 90
       38
 70
     0
 43
0.0
 10
-0.47
 20
4.5
 10
-0.4635722073092366
 20
4.577464886306262
 10
-0.4437305100601391
 20
4.654929772612525
 10
-0.4121639445450517
 20
4.725878026414841
 10
-0.3679833673809838
 20
4.792383722753083
 10
-0.3146002958788411
 20
4.849179973413347
 10
-0.2506519084578735
 20
4.8975847340963
 10
-0.1812460775458133
 20
4.933647159997915
 10
-0.1045346386368995
 20
4.95822757372844
 10
-0.0273983758283281
 20
4.969200734229998
 10
0.0527791235493482
 20
4.967027155653033
 10
0.1288229240491656
 20
4.952000723715597
 10
0.2033510639475986
 20
4.923731453625265
 10
0.2703289716379935
 20
4.884476588485105
 10
0.3314950458124716
 20
4.833183184752453
 10
0.3820842496772217
 20
4.773699883355099
 10
0.4231327282308302
 20
4.704593974251282
 10
0.4511915000795959
 20
4.63162913908373
 10
0.4670371177780148
 20
4.552690896914029
 10
0.4693333160585843
 20
4.474975243508617
 10
0.4582884612294792
 20
4.395732621094054
 10
0.43493187968534
 20
4.321858876074678
 10
0.3986022640514902
 20
4.250969409322818
 10
0.352072888352706
 20
4.18864059145903
 10
0.294166319334643
 20
4.133440077792035
 10
0.2293289327477996
 20
4.089746126642593
 10
0.1559497116493933
 20
4.056626920712961
 10
0.0804109480051967
 20
4.036929725159447
 10
0.0003227584137969
 20
4.030000110822347
 10
-0.0770264249476773
 20
4.036354737045897
 10
-0.1543849173414031
 20
4.056079627300697
 10
-0.2252608087133602
 20
4.087498402357272
 10
-0.2917246352614021
 20
4.131493911608503
 10
-0.348613055317801
 20
4.184771610317237
 10
-0.3971294343336045
 20
4.248627343599445
 10
-0.4333178386918524
 20
4.317967995474912
 10
-0.4580373853025951
 20
4.39463514027361
 10
-0.47
 20
4.5
  0
LWPOLYLINE
  5
11A
330
F4
100
AcDbEntity
  8
AM_9
100
AcDbPolyline
 90
       11
 70
     0
 43
0.0
 10
3.305643957686764
 20
4.5
 10
3.30919337054887
 20
4.578576213692833
 10
3.319557946773537
 20
4.654929772612525
 10
3.336362895625168
 20
4.726835989576124
 10
3.358762890031385
 20
4.792383722753083
 10
3.386006989638846
 20
4.849899198245763
 10
3.416821797829896
 20
4.8975847340963
 10
3.450141117587151
 20
4.934045329797275
 10
3.48461902304214
 20
4.95822757372844
 10
3.518884138103507
 20
4.969217912021655
 10
3.53005109876023
 20
4.969999998127299
  0
LINE
  5
11B
330
F4
100
AcDbEntity
  8
AM_9
100
AcDbLine
 10
3.895
 20
3.75
 30
0.0
 11
3.895
 21
5.25
 31
0.0
  0
LINE
  5
11C
330
F4
100
AcDbEntity
  8
AM_9
100
AcDbLine
 10
3.895
 20
2.854999999999999
 30
0.0
 11
3.895
 21
3.5625
 31
0.0
  0
LINE
  5
11D
330
F4
100
AcDbEntity
  8
AM_9
100
AcDbLine
 10
-3.895
 20
3.5625
 30
0.0
 11
-3.895
 21
2.854999999999999
 31
0.0
  0
LINE
  5
11E
330
F4
100
AcDbEntity
  8
AM_9
100
AcDbLine
 10
-3.895
 20
5.25
 30
0.0
 11
-3.895
 21
3.750000000000001
 31
0.0
  0
LWPOLYLINE
  5
11F
330
F4
100
AcDbEntity
  8
AM_9
100
AcDbPolyline
 90
       38
 70
     0
 43
0.0
 10
-0.47
 20
-4.5
 10
-0.4635722073092366
 20
-4.422535113693738
 10
-0.4437305100601391
 20
-4.345070227387475
 10
-0.4121639445450517
 20
-4.274121973585159
 10
-0.3679833673809838
 20
-4.207616277246917
 10
-0.3146002958788411
 20
-4.150820026586653
 10
-0.2506519084578735
 20
-4.1024152659037
 10
-0.1812460775458136
 20
-4.066352840002085
 10
-0.1045346386369001
 20
-4.04177242627156
 10
-0.0273983758283288
 20
-4.030799265770002
 10
0.0527791235493481
 20
-4.032972844346967
 10
0.1288229240491656
 20
-4.047999276284403
 10
0.2033510639475986
 20
-4.076268546374735
 10
0.2703289716379935
 20
-4.115523411514895
 10
0.3314950458124716
 20
-4.166816815247547
 10
0.3820842496772217
 20
-4.226300116644902
 10
0.4231327282308302
 20
-4.295406025748718
 10
0.4511915000795959
 20
-4.36837086091627
 10
0.4670371177780148
 20
-4.447309103085971
 10
0.4693333160585843
 20
-4.525024756491383
 10
0.4582884612294792
 20
-4.604267378905946
 10
0.43493187968534
 20
-4.678141123925322
 10
0.3986022640514902
 20
-4.749030590677182
 10
0.3520728883527059
 20
-4.81135940854097
 10
0.2941663193346425
 20
-4.866559922207965
 10
0.2293289327477989
 20
-4.910253873357408
 10
0.155949711649393
 20
-4.943373079287039
 10
0.0804109480051959
 20
-4.963070274840554
 10
0.0003227584137966
 20
-4.969999889177653
 10
-0.0770264249476775
 20
-4.963645262954103
 10
-0.1543849173414033
 20
-4.943920372699303
 10
-0.2252608087133606
 20
-4.912501597642727
 10
-0.2917246352614021
 20
-4.868506088391498
 10
-0.348613055317801
 20
-4.815228389682763
 10
-0.3971294343336045
 20
-4.751372656400555
 10
-0.4333178386918524
 20
-4.682032004525088
 10
-0.4580373853025953
 20
-4.60536485972639
 10
-0.47
 20
-4.5
  0
LWPOLYLINE
  5
120
330
F4
100
AcDbEntity
  8
AM_9
100
AcDbPolyline
 90
       11
 70
     0
 43
0.0
 10
3.305643957686765
 20
-4.5
 10
3.309193370548871
 20
-4.421423786307167
 10
3.319557946773537
 20
-4.345070227387475
 10
3.336362895625169
 20
-4.273164010423876
 10
3.358762890031386
 20
-4.207616277246917
 10
3.386006989638847
 20
-4.150100801754237
 10
3.416821797829897
 20
-4.1024152659037
 10
3.450141117587152
 20
-4.065954670202726
 10
3.484619023042141
 20
-4.04177242627156
 10
3.518884138103508
 20
-4.030782087978345
 10
3.530051098760232
 20
-4.030000001872702
  0
LINE
  5
121
330
F4
100
AcDbEntity
  8
AM_9
100
AcDbLine
 10
3.895000000000001
 20
-3.562499999999999
 30
0.0
 11
3.895000000000001
 21
-2.855
 31
0.0
  0
LINE
  5
122
330
F4
100
AcDbEntity
  8
AM_9
100
AcDbLine
 10
3.895000000000001
 20
-5.25
 30
0.0
 11
3.895000000000001
 21
-3.75
 31
0.0
  0
LINE
  5
123
330
F4
100
AcDbEntity
  8
AM_9
100
AcDbLine
 10
-3.895000000000001
 20
-3.75
 30
0.0
 11
-3.895000000000001
 21
-5.25
 31
0.0
  0
LINE
  5
124
330
F4
100
AcDbEntity
  8
AM_9
100
AcDbLine
 10
-3.895000000000001
 20
-2.855
 30
0.0
 11
-3.895000000000001
 21
-3.562499999999999
 31
0.0
  0
LINE
  5
125
330
F4
100
AcDbEntity
  8
AM_9
100
AcDbLine
 10
-5.905
 20
2.854999999999999
 30
0.0
 11
5.905
 21
2.854999999999999
 31
0.0
  0
LINE
  5
126
330
F4
100
AcDbEntity
  8
AM_9
100
AcDbLine
 10
-5.905
 20
-2.855
 30
0.0
 11
5.905
 21
-2.855
 31
0.0
  0
LINE
  5
127
330
F4
100
AcDbEntity
  8
AM_9
100
AcDbLine
 10
5.905
 20
-2.855
 30
0.0
 11
5.905
 21
2.854999999999999
 31
0.0
  0
LINE
  5
128
330
F4
100
AcDbEntity
  8
AM_9
100
AcDbLine
 10
-5.905
 20
2.854999999999999
 30
0.0
 11
-5.905
 21
-2.855
 31
0.0
  0
LINE
  5
129
330
F4
100
AcDbEntity
  8
AM_7
100
AcDbLine
 10
0.0
 20
-5.775
 30
0.0
 11
0.0
 21
5.775
 31
0.0
  0
LINE
  5
12A
330
F4
100
AcDbEntity
  8
AM_4
100
AcDbLine
 10
3.895
 20
3.5625
 30
0.0
 11
3.895
 21
3.75
 31
0.0
  0
LINE
  5
12B
330
F4
100
AcDbEntity
  8
AM_4
100
AcDbLine
 10
-3.895
 20
3.750000000000001
 30
0.0
 11
-3.895
 21
3.5625
 31
0.0
  0
LINE
  5
12C
330
F4
100
AcDbEntity
  8
AM_4
100
AcDbLine
 10
3.895000000000001
 20
-3.75
 30
0.0
 11
3.895000000000001
 21
-3.562499999999999
 31
0.0
  0
LINE
  5
12D
330
F4
100
AcDbEntity
  8
AM_4
100
AcDbLine
 10
-3.895000000000001
 20
-3.562499999999999
 30
0.0
 11
-3.895000000000001
 21
-3.75
 31
0.0
  0
ENDBLK
  5
F7
330
F4
100
AcDbEntity
  8
0
100
AcDbBlockEnd
  0
BLOCK
  5
130
330
12E
100
AcDbEntity
  8
0
100
AcDbBlockBegin
  2
5_405015E_Inch_0_in_023045_4
 70
     2
 10
0.0
 20
0.0
 30
0.0
  3
5_405015E_Inch_0_in_023045_4
  1

  0
ATTDEF
  5
132
330
12E
100
AcDbEntity
  8
AM_6
100
AcDbText
 10
10.72945849022734
 20
0.2187500000000003
 30
0.0
 40
0.5
  1
405015E -Inch
100
AcDbAttributeDefinition
  3

  2
NN
 70
     8
280
     0
  0
ATTDEF
  5
133
330
12E
100
AcDbEntity
  8
AM_6
100
AcDbText
 10
10.72945849022734
 20
-0.2812499999999997
 30
0.0
 40
0.5
  1
Grease Fitting
100
AcDbAttributeDefinition
  3

  2
NT
 70
     8
280
     0
  0
ATTDEF
  5
134
330
12E
100
AcDbEntity
  8
AM_6
100
AcDbText
 10
10.72945849022734
 20
-0.7812499999999997
 30
0.0
 40
0.5
  1
405015E-Inch
100
AcDbAttributeDefinition
  3

  2
NB
 70
     8
280
     0
  0
ATTDEF
  5
135
330
12E
100
AcDbEntity
  8
AM_6
100
AcDbText
 10
10.72945849022734
 20
-1.28125
 30
0.0
 40
0.5
  1
$MN.-Inch
100
AcDbAttributeDefinition
  3

  2
NBSYN
 70
     8
280
     0
  0
ATTDEF
  5
136
330
12E
100
AcDbEntity
  8
AM_6
100
AcDbText
 10
10.72945849022734
 20
-1.78125
 30
0.0
 40
0.5
  1
405015E
100
AcDbAttributeDefinition
  3

  2
LINA
 70
     8
280
     0
  0
ATTDEF
  5
137
330
12E
100
AcDbEntity
  8
AM_6
100
AcDbText
 10
10.72945849022734
 20
-2.28125
 30
0.0
 40
0.5
  1
405015E
100
AcDbAttributeDefinition
  3

  2
MN
 70
     8
280
     0
  0
ATTDEF
  5
138
330
12E
100
AcDbEntity
  8
AM_6
100
AcDbText
 10
10.72945849022734
 20
-2.78125
 30
0.0
 40
0.5
  1
1/8 x 27PTF
100
AcDbAttributeDefinition
  3

  2
T
 70
     8
280
     0
  0
ATTDEF
  5
139
330
12E
100
AcDbEntity
  8
AM_6
100
AcDbText
 10
10.72945849022734
 20
-3.28125
 30
0.0
 40
0.5
  1
baldor
100
AcDbAttributeDefinition
  3

  2
COMPANY
 70
     8
280
     0
  0
LWPOLYLINE
  5
13A
330
12E
100
AcDbEntity
  8
AM_9
100
AcDbPolyline
 90
        3
 70
     0
 43
0.0
 10
5.576709594859926
 20
0.0000000000000003
 10
5.549779466266064
 20
-0.0544416102741493
 10
5.52564567685588
 20
-0.1093749999999997
  0
LWPOLYLINE
  5
13B
330
12E
100
AcDbEntity
  8
AM_9
100
AcDbPolyline
 90
        3
 70
     0
 43
0.0
 10
5.52564567685588
 20
0.1093750000000003
 10
5.549664131023682
 20
0.0546875000000003
 10
5.576709594859926
 20
0.0000000000000003
  0
ELLIPSE
  5
13C
330
12E
100
AcDbEntity
  8
AM_9
100
AcDbEllipse
 10
5.20430590953299
 20
0.0000000000000003
 30
0.0
 11
9.913691727296317E-18
 21
0.161902872472269
 31
0.0
210
0.0
220
0.0
230
1.0
 40
0.7071067811865478
 41
0.0
 42
6.283185307179586
  0
LINE
  5
13D
330
12E
100
AcDbEntity
  8
AM_9
100
AcDbLine
 10
5.631246759295433
 20
-0.011052105221743
 30
0.0
 11
5.634596750509459
 21
0.0000000000000003
 31
0.0
  0
LINE
  5
13E
330
12E
100
AcDbEntity
  8
AM_9
100
AcDbLine
 10
5.596356354974535
 20
-0.1093749999999997
 30
0.0
 11
5.610870136658653
 21
-0.0718512757016719
 31
0.0
  0
LINE
  5
13F
330
12E
100
AcDbEntity
  8
AM_9
100
AcDbLine
 10
5.609387031589686
 20
0.0758820520366736
 30
0.0
 11
5.596356354974535
 21
0.1093750000000002
 31
0.0
  0
LINE
  5
140
330
12E
100
AcDbEntity
  8
AM_9
100
AcDbLine
 10
5.634596750509459
 20
0.0000000000000001
 30
0.0
 11
5.630355372564615
 21
0.013940231746117
 31
0.0
  0
LWPOLYLINE
  5
141
330
12E
100
AcDbEntity
  8
AM_9
100
AcDbPolyline
 90
        3
 70
     0
 43
0.0
 10
5.487405281320956
 20
0.2187500000000003
 10
5.504926541376137
 20
0.1643083897258507
 10
5.52564567685588
 20
0.1093750000000003
  0
LINE
  5
142
330
12E
100
AcDbEntity
  8
AM_9
100
AcDbLine
 10
5.634596750509459
 20
0.0000000000000003
 30
0.0
 11
5.576709594859926
 21
0.0000000000000003
 31
0.0
  0
LWPOLYLINE
  5
143
330
12E
100
AcDbEntity
  8
AM_9
100
AcDbPolyline
 90
        3
 70
     0
 43
0.0
 10
5.52564567685588
 20
-0.1093749999999997
 10
5.505011974254197
 20
-0.1640624999999996
 10
5.487405281320956
 20
-0.2187499999999996
  0
LINE
  5
144
330
12E
100
AcDbEntity
  8
AM_9
100
AcDbLine
 10
5.587239028263723
 20
-0.1310457238828991
 30
0.0
 11
5.596356354974535
 21
-0.1093749999999997
 31
0.0
  0
LINE
  5
145
330
12E
100
AcDbEntity
  8
AM_9
100
AcDbLine
 10
5.596356354974535
 20
0.1093750000000003
 30
0.0
 11
5.587078964962927
 21
0.1314151105203124
 31
0.0
  0
LINE
  5
146
330
12E
100
AcDbEntity
  8
AM_9
100
AcDbLine
 10
5.225878070981417
 20
-0.1985206121313385
 30
0.0
 11
5.387142461782075
 21
-0.2056513978434622
 31
0.0
  0
LINE
  5
147
330
12E
100
AcDbEntity
  8
AM_9
100
AcDbLine
 10
5.387142461782075
 20
0.2056513978434629
 30
0.0
 11
5.225878070981417
 21
0.1985206121313392
 31
0.0
  0
ELLIPSE
  5
148
330
12E
100
AcDbEntity
  8
AM_9
100
AcDbEllipse
 10
5.462399884666008
 20
-0.0000000000000655
 30
0.0
 11
-4.018372309704470E-17
 21
-0.2187500000001207
 31
0.0
210
0.0
220
0.0
230
1.0
 40
0.7071067811865488
 41
0.9156936017155166
 42
2.225899051874756
  0
LINE
  5
149
330
12E
100
AcDbEntity
  8
AM_9
100
AcDbLine
 10
5.568465901844062
 20
0.0948683298050518
 30
0.0
 11
5.549852035414996
 21
0.1073548910028993
 31
0.0
  0
LINE
  5
14A
330
12E
100
AcDbEntity
  8
AM_9
100
AcDbLine
 10
5.549852035414997
 20
-0.1073548910028986
 30
0.0
 11
5.568465901844062
 21
-0.0948683298050511
 31
0.0
  0
ELLIPSE
  5
14B
330
12E
100
AcDbEntity
  8
AM_9
100
AcDbEllipse
 10
5.536646096690667
 20
0.0000000000000005
 30
0.0
 11
-1.928818708657088E-17
 21
-0.1050000000000003
 31
0.0
210
0.0
220
0.0
230
1.0
 40
0.7071067811865472
 41
0.0
 42
3.141592653589793
  0
ELLIPSE
  5
14C
330
12E
100
AcDbEntity
  8
AM_9
100
AcDbEllipse
 10
5.4623998846661
 20
-0.000000000000067
 30
0.0
 11
-3.926523799768342E-17
 21
-0.2137500000001166
 31
0.0
210
0.0
220
0.0
230
1.0
 40
0.7071067811861994
 41
0.9036552188412239
 42
2.237937434749067
  0
LINE
  5
14D
330
12E
100
AcDbEntity
  8
AM_9
100
AcDbLine
 10
5.537965087573206
 20
-0.1049999999999997
 30
0.0
 11
5.557859300126263
 21
-0.1049999999999997
 31
0.0
  0
LINE
  5
14E
330
12E
100
AcDbEntity
  8
AM_9
100
AcDbLine
 10
5.557859300126263
 20
0.1050000000000003
 30
0.0
 11
5.537965087573206
 21
0.1050000000000003
 31
0.0
  0
ELLIPSE
  5
14F
330
12E
100
AcDbEntity
  8
AM_9
100
AcDbEllipse
 10
5.557859300126262
 20
0.0000000000000025
 30
0.0
 11
-1.928818708657121E-17
 21
-0.1050000000000022
 31
0.0
210
0.0
220
0.0
230
1.0
 40
0.7071067811865434
 41
5.759586531581315
 42
9.948376736367678
  0
ELLIPSE
  5
150
330
12E
100
AcDbEntity
  8
AM_9
100
AcDbEllipse
 10
5.513844110315141
 20
0.0000000000000074
 30
0.0
 11
-2.182689656891315E-17
 21
-0.1188200907347865
 31
0.0
210
0.0
220
0.0
230
1.0
 40
0.7071067811865474
 41
0.3762206261000358
 42
2.765372027489722
  0
LINE
  5
151
330
12E
100
AcDbEntity
  8
AM_9
100
AcDbLine
 10
5.59674982363474
 20
0.0192743186691528
 30
0.0
 11
5.595736983443749
 21
0.0279874918769164
 31
0.0
  0
LINE
  5
152
330
12E
100
AcDbEntity
  8
AM_9
100
AcDbLine
 10
5.595736983443749
 20
-0.0279874918769157
 30
0.0
 11
5.59674982363474
 21
-0.0192743186691522
 31
0.0
  0
ELLIPSE
  5
153
330
12E
100
AcDbEntity
  8
AM_9
100
AcDbEllipse
 10
5.475352807073459
 20
0.0000000000000037
 30
0.0
 11
-3.169399141454579E-17
 21
-0.1725340532830221
 31
0.0
210
0.0
220
0.0
230
1.0
 40
0.7071067811865251
 41
0.7772913431422452
 42
2.364301310447519
  0
ELLIPSE
  5
154
330
12E
100
AcDbEntity
  8
AM_9
100
AcDbEllipse
 10
5.600285706997456
 20
0.0
 30
0.0
 11
-2.479909768273401E-17
 21
-0.1350000000000006
 31
0.0
210
0.0
220
0.0
230
1.0
 40
0.7071067811865481
 41
0.4159140521025497
 42
2.725678601487245
  0
ELLIPSE
  5
155
330
12E
100
AcDbEntity
  8
AM_9
100
AcDbEllipse
 10
5.391689206547426
 20
-0.000000000000001
 30
0.0
 11
-3.779601035290936E-17
 21
-0.205751897223071
 31
0.0
210
0.0
220
0.0
230
1.0
 40
0.707106781186548
 41
0.0
 42
6.283185307179586
  0
ELLIPSE
  5
156
330
12E
100
AcDbEntity
  8
AM_9
100
AcDbEllipse
 10
5.230267161274442
 20
0.0000000000000008
 30
0.0
 11
-3.648546613377886E-17
 21
-0.1986176267812154
 31
0.0
210
0.0
220
0.0
230
1.0
 40
0.7071067811865566
 41
0.0
 42
6.283185307179586
  0
ELLIPSE
  5
157
330
12E
100
AcDbEntity
  8
AM_9
100
AcDbEllipse
 10
5.391689206547423
 20
-0.0000000000000036
 30
0.0
 11
-4.018372309702176E-17
 21
-0.2187499999999958
 31
0.0
210
0.0
220
0.0
230
1.0
 40
0.7071067811865465
 41
0.0
 42
6.283185307179586
  0
LWPOLYLINE
  5
158
330
12E
100
AcDbEntity
  8
AM_4
100
AcDbPolyline
 90
        3
 70
     0
 43
0.0
 10
5.545292436970489
 20
-0.2187499999999996
 10
5.572222565564351
 20
-0.16430838972585
 10
5.587239028263723
 20
-0.1310457238828991
  0
LWPOLYLINE
  5
159
330
12E
100
AcDbEntity
  8
AM_4
100
AcDbPolyline
 90
        3
 70
     0
 43
0.0
 10
5.587078964962927
 20
0.1314151105203124
 10
5.572337900806733
 20
0.1640625000000003
 10
5.545292436970489
 20
0.2187500000000003
  0
ELLIPSE
  5
15A
330
12E
100
AcDbEntity
  8
AM_4
100
AcDbEllipse
 10
5.462399884666078
 20
-0.0000000000000006
 30
0.0
 11
-4.018372309702275E-17
 21
-0.2187500000000012
 31
0.0
210
0.0
220
0.0
230
1.0
 40
0.7071067811865533
 41
2.225899051874796
 42
7.19887890889459
  0
ELLIPSE
  5
15B
330
12E
100
AcDbEntity
  8
AM_4
100
AcDbEllipse
 10
5.513844110315063
 20
0.0000000000000003
 30
0.0
 11
-2.182689656893369E-17
 21
-0.1188200907348983
 31
0.0
210
0.0
220
0.0
230
1.0
 40
0.7071067811865476
 41
2.765372027488878
 42
6.659405933280501
  0
ELLIPSE
  5
15C
330
12E
100
AcDbEntity
  8
AM_4
100
AcDbEllipse
 10
5.46239988466608
 20
0.0000000000000003
 30
0.0
 11
-3.926523799766204E-17
 21
-0.2137500000000002
 31
0.0
210
0.0
220
0.0
230
1.0
 40
0.7071067811865511
 41
2.23793743474898
 42
7.186840526020399
  0
LINE
  5
15D
330
12E
100
AcDbEntity
  8
AM_4
100
AcDbLine
 10
5.536646096690667
 20
-0.1049999999999997
 30
0.0
 11
5.537965087573206
 21
-0.1049999999999997
 31
0.0
  0
LINE
  5
15E
330
12E
100
AcDbEntity
  8
AM_4
100
AcDbLine
 10
5.537965087573206
 20
0.1050000000000003
 30
0.0
 11
5.536646096690667
 21
0.1050000000000003
 31
0.0
  0
ELLIPSE
  5
15F
330
12E
100
AcDbEntity
  8
AM_4
100
AcDbEllipse
 10
5.536646096690667
 20
0.0000000000000003
 30
0.0
 11
-1.928818708657075E-17
 21
-0.1049999999999997
 31
0.0
210
0.0
220
0.0
230
1.0
 40
0.7071067811865434
 41
3.141592653589793
 42
6.283185307179586
  0
ELLIPSE
  5
160
330
12E
100
AcDbEntity
  8
AM_4
100
AcDbEllipse
 10
5.475352807073459
 20
0.0000000000000003
 30
0.0
 11
-3.169399141454455E-17
 21
-0.1725340532830154
 31
0.0
210
0.0
220
0.0
230
1.0
 40
0.7071067811865475
 41
2.364301310447551
 42
7.060476650321829
  0
LINE
  5
161
330
12E
100
AcDbEntity
  8
AM_4
100
AcDbLine
 10
5.545292436970489
 20
-0.2187499999999996
 30
0.0
 11
5.308796654243016
 21
-0.2187499999999996
 31
0.0
  0
LWPOLYLINE
  5
162
330
12E
100
AcDbEntity
  8
AM_4
100
AcDbPolyline
 90
        3
 70
     0
 43
0.0
 10
5.328443414357625
 20
-0.1093749999999997
 10
5.349077116959308
 20
-0.1640624999999996
 10
5.366683809892548
 20
-0.2187499999999996
  0
LWPOLYLINE
  5
163
330
12E
100
AcDbEntity
  8
AM_4
100
AcDbPolyline
 90
        3
 70
     0
 43
0.0
 10
5.25773273623897
 20
-0.1093749999999997
 10
5.237099033637287
 20
-0.0546874999999997
 10
5.219492340704046
 20
0.0000000000000003
  0
LWPOLYLINE
  5
164
330
12E
100
AcDbEntity
  8
AM_4
100
AcDbPolyline
 90
        3
 70
     0
 43
0.0
 10
5.308796654243016
 20
-0.2187499999999996
 10
5.281866525649154
 20
-0.16430838972585
 10
5.25773273623897
 20
-0.1093749999999997
  0
LWPOLYLINE
  5
165
330
12E
100
AcDbEntity
  8
AM_4
100
AcDbPolyline
 90
        3
 70
     0
 43
0.0
 10
5.277379496353578
 20
0.0000000000000003
 10
5.30430962494744
 20
-0.0544416102741492
 10
5.328443414357625
 20
-0.1093749999999997
  0
LINE
  5
166
330
12E
100
AcDbEntity
  8
AM_4
100
AcDbLine
 10
5.277379496353578
 20
0.0000000000000003
 30
0.0
 11
5.219492340704046
 21
0.0000000000000003
 31
0.0
  0
LWPOLYLINE
  5
167
330
12E
100
AcDbEntity
  8
AM_4
100
AcDbPolyline
 90
        3
 70
     0
 43
0.0
 10
5.328443414357625
 20
0.1093750000000002
 10
5.304424960189823
 20
0.0546875000000003
 10
5.277379496353578
 20
0.0000000000000003
  0
LWPOLYLINE
  5
168
330
12E
100
AcDbEntity
  8
AM_4
100
AcDbPolyline
 90
        3
 70
     0
 43
0.0
 10
5.366683809892548
 20
0.2187500000000003
 10
5.349162549837368
 20
0.1643083897258507
 10
5.328443414357625
 20
0.1093750000000002
  0
LINE
  5
169
330
12E
100
AcDbEntity
  8
AM_4
100
AcDbLine
 10
5.545292436970489
 20
0.2187500000000003
 30
0.0
 11
5.308796654243016
 21
0.2187500000000003
 31
0.0
  0
LWPOLYLINE
  5
16A
330
12E
100
AcDbEntity
  8
AM_4
100
AcDbPolyline
 90
        3
 70
     0
 43
0.0
 10
5.25773273623897
 20
0.1093750000000003
 10
5.281751190406772
 20
0.1640625000000003
 10
5.308796654243016
 20
0.2187500000000003
  0
LWPOLYLINE
  5
16B
330
12E
100
AcDbEntity
  8
AM_4
100
AcDbPolyline
 90
        3
 70
     0
 43
0.0
 10
5.219492340704046
 20
0.0000000000000003
 10
5.237013600759227
 20
0.0544416102741499
 10
5.25773273623897
 20
0.1093750000000003
  0
LINE
  5
16C
330
12E
100
AcDbEntity
  8
AM_4
100
AcDbLine
 10
5.52073619411397
 20
-0.0909326673973657
 30
0.0
 11
5.552555999267365
 21
-0.1169134295108989
 31
0.0
  0
LINE
  5
16D
330
12E
100
AcDbEntity
  8
AM_4
100
AcDbLine
 10
5.552555999267365
 20
0.1169134295108996
 30
0.0
 11
5.52073619411397
 21
0.0909326673973664
 31
0.0
  0
ELLIPSE
  5
16E
330
12E
100
AcDbEntity
  8
AM_4
100
AcDbEllipse
 10
5.600285706997457
 20
0.0000000000000003
 30
0.0
 11
-2.479909768273404E-17
 21
-0.1350000000000007
 31
0.0
210
0.0
220
0.0
230
1.0
 40
0.7071067811865344
 41
2.725678601487246
 42
6.699099359282133
  0
ELLIPSE
  5
16F
330
12E
100
AcDbEntity
  8
AM_4
100
AcDbEllipse
 10
5.557859300126263
 20
0.0000000000000003
 30
0.0
 11
-1.928818708657098E-17
 21
-0.1050000000000009
 31
0.0
210
0.0
220
0.0
230
1.0
 40
0.7071067811865264
 41
3.665191429188098
 42
5.759586531581281
  0
LINE
  5
170
330
12E
100
AcDbEntity
  8
AM_4
100
AcDbLine
 10
5.686188266856155
 20
0.0939243440009291
 30
0.0
 11
5.638853814346264
 21
0.1234908992236338
 31
0.0
  0
LINE
  5
171
330
12E
100
AcDbEntity
  8
AM_4
100
AcDbLine
 10
5.638853814346264
 20
-0.1234908992236331
 30
0.0
 11
5.686188266856155
 21
-0.0939243440009284
 31
0.0
  0
ELLIPSE
  5
172
330
12E
100
AcDbEntity
  8
AM_4
100
AcDbEllipse
 10
5.656854249492383
 20
0.0000000000000013
 30
0.0
 11
-1.886162459184621E-17
 21
-0.1026779019331855
 31
0.0
210
0.0
220
0.0
230
1.0
 40
0.7071067811865387
 41
0.0
 42
6.283185307179586
  0
ENDBLK
  5
131
330
12E
100
AcDbEntity
  8
0
100
AcDbBlockEnd
  0
BLOCK
  5
175
330
173
100
AcDbEntity
  8
0
100
AcDbBlockBegin
  2
6_023045H_0_in_023045_4
 70
     2
 10
0.0
 20
0.0
 30
0.0
  3
6_023045H_0_in_023045_4
  1

  0
ATTDEF
  5
177
330
173
100
AcDbEntity
  8
AM_6
100
AcDbText
 10
18.0
 20
3.5625
 30
0.0
 40
0.5
  1
P4B-E-Housing
100
AcDbAttributeDefinition
  3

  2
NN
 70
     8
280
     0
  0
ATTDEF
  5
178
330
173
100
AcDbEntity
  8
AM_6
100
AcDbText
 10
18.0
 20
3.0625
 30
0.0
 40
0.5
  1
Type E Pillow Block -Inch (4-Bolt Base)
100
AcDbAttributeDefinition
  3

  2
NT
 70
     8
280
     0
  0
ATTDEF
  5
179
330
173
100
AcDbEntity
  8
AM_6
100
AcDbText
 10
18.0
 20
2.5625
 30
0.0
 40
0.5
  1
023045H
100
AcDbAttributeDefinition
  3

  2
NB
 70
     8
280
     0
  0
ATTDEF
  5
17A
330
173
100
AcDbEntity
  8
AM_6
100
AcDbText
 10
18.0
 20
2.0625
 30
0.0
 40
0.5
  1
$PN.H
100
AcDbAttributeDefinition
  3

  2
NBSYN
 70
     8
280
     0
  0
ATTDEF
  5
17B
330
173
100
AcDbEntity
  8
AM_6
100
AcDbText
 10
18.0
 20
1.5625
 30
0.0
 40
0.5
  1
023045
100
AcDbAttributeDefinition
  3

  2
LINA
 70
     8
280
     0
  0
ATTDEF
  5
17C
330
173
100
AcDbEntity
  8
AM_6
100
AcDbText
 10
18.0
 20
1.0625
 30
0.0
 40
0.5
  1
6-15/16
100
AcDbAttributeDefinition
  3

  2
SS
 70
     8
280
     0
  0
ATTDEF
  5
17D
330
173
100
AcDbEntity
  8
AM_6
100
AcDbText
 10
18.0
 20
0.5625
 30
0.0
 40
0.5
  1
11.81
100
AcDbAttributeDefinition
  3

  2
BORE
 70
     8
280
     0
  0
ATTDEF
  5
17E
330
173
100
AcDbEntity
  8
AM_6
100
AcDbText
 10
18.0
 20
0.0625
 30
0.0
 40
0.5
  1
023045
100
AcDbAttributeDefinition
  3

  2
PN
 70
     8
280
     0
  0
ATTDEF
  5
17F
330
173
100
AcDbEntity
  8
AM_6
100
AcDbText
 10
18.0
 20
-0.4375
 30
0.0
 40
0.5
  1
P4B-E-615R
100
AcDbAttributeDefinition
  3

  2
DESCRIPTION
 70
     8
280
     0
  0
ATTDEF
  5
180
330
173
100
AcDbEntity
  8
AM_6
100
AcDbText
 10
18.0
 20
-0.9375
 30
0.0
 40
0.5
  1
10-1/2
100
AcDbAttributeDefinition
  3

  2
A
 70
     8
280
     0
  0
ATTDEF
  5
181
330
173
100
AcDbEntity
  8
AM_6
100
AcDbText
 10
18.0
 20
-1.4375
 30
0.0
 40
0.5
  1
26
100
AcDbAttributeDefinition
  3

  2
B
 70
     8
280
     0
  0
ATTDEF
  5
182
330
173
100
AcDbEntity
  8
AM_6
100
AcDbText
 10
18.0
 20
-1.9375
 30
0.0
 40
0.5
  1
7-1/8
100
AcDbAttributeDefinition
  3

  2
C
 70
     8
280
     0
  0
ATTDEF
  5
183
330
173
100
AcDbEntity
  8
AM_6
100
AcDbText
 10
18.0
 20
-2.4375
 30
0.0
 40
0.5
  1
21-1/4
100
AcDbAttributeDefinition
  3

  2
DMIN
 70
     8
280
     0
  0
ATTDEF
  5
184
330
173
100
AcDbEntity
  8
AM_6
100
AcDbText
 10
18.0
 20
-2.9375
 30
0.0
 40
0.5
  1
23-1/4
100
AcDbAttributeDefinition
  3

  2
DMAX
 70
     8
280
     0
  0
ATTDEF
  5
185
330
173
100
AcDbEntity
  8
AM_6
100
AcDbText
 10
18.0
 20
-3.4375
 30
0.0
 40
0.5
  1
4-5/8
100
AcDbAttributeDefinition
  3

  2
E
 70
     8
280
     0
  0
ATTDEF
  5
186
330
173
100
AcDbEntity
  8
AM_6
100
AcDbText
 10
18.0
 20
-3.9375
 30
0.0
 40
0.5
  1
4.625000
100
AcDbAttributeDefinition
  3

  2
E1
 70
     8
280
     0
  0
ATTDEF
  5
187
330
173
100
AcDbEntity
  8
AM_6
100
AcDbText
 10
18.0
 20
-4.4375
 30
0.0
 40
0.5
  1
1
100
AcDbAttributeDefinition
  3

  2
F
 70
     8
280
     0
  0
ATTDEF
  5
188
330
173
100
AcDbEntity
  8
AM_6
100
AcDbText
 10
18.0
 20
-4.9375
 30
0.0
 40
0.5
  1
1.0000000
100
AcDbAttributeDefinition
  3

  2
F1
 70
     8
280
     0
  0
ATTDEF
  5
189
330
173
100
AcDbEntity
  8
AM_6
100
AcDbText
 10
18.0
 20
-5.4375
 30
0.0
 40
0.5
  1
2
100
AcDbAttributeDefinition
  3

  2
G
 70
     8
280
     0
  0
ATTDEF
  5
18A
330
173
100
AcDbEntity
  8
AM_6
100
AcDbText
 10
18.0
 20
-5.9375
 30
0.0
 40
0.5
  1
3-11/16
100
AcDbAttributeDefinition
  3

  2
H
 70
     8
280
     0
  0
ATTDEF
  5
18B
330
173
100
AcDbEntity
  8
AM_6
100
AcDbText
 10
18.0
 20
-6.4375
 30
0.0
 40
0.5
  1
14-15/16
100
AcDbAttributeDefinition
  3

  2
J
 70
     8
280
     0
  0
ATTDEF
  5
18C
330
173
100
AcDbEntity
  8
AM_6
100
AcDbText
 10
18.0
 20
-6.9375
 30
0.0
 40
0.5
  1
14-33/64
100
AcDbAttributeDefinition
  3

  2
J1
 70
     8
280
     0
  0
ATTDEF
  5
18D
330
173
100
AcDbEntity
  8
AM_6
100
AcDbText
 10
18.0
 20
-7.4375
 30
0.0
 40
0.5
  1
11-3/8
100
AcDbAttributeDefinition
  3

  2
L
 70
     8
280
     0
  0
ATTDEF
  5
18E
330
173
100
AcDbEntity
  8
AM_6
100
AcDbText
 10
18.0
 20
-7.9375
 30
0.0
 40
0.5
  1
7-1/2
100
AcDbAttributeDefinition
  3

  2
M
 70
     8
280
     0
  0
ATTDEF
  5
18F
330
173
100
AcDbEntity
  8
AM_6
100
AcDbText
 10
18.0
 20
-8.4375
 30
0.0
 40
0.5
  1
0.940
100
AcDbAttributeDefinition
  3

  2
F2
 70
     8
280
     0
  0
ATTDEF
  5
190
330
173
100
AcDbEntity
  8
AM_6
100
AcDbText
 10
18.0
 20
-8.9375
 30
0.0
 40
0.5
  1
baldor
100
AcDbAttributeDefinition
  3

  2
COMPANY
 70
     8
280
     0
  0
ELLIPSE
  5
191
330
173
100
AcDbEntity
  8
AM_9
100
AcDbEllipse
 10
5.356333867488105
 20
0.0000000000002183
 30
0.0
 11
-9.184850993601161E-17
 21
-0.499999999999783
 31
0.0
210
0.0
220
0.0
230
1.0
 40
0.7071067811865476
 41
0.0
 42
3.128129209027472
  0
LWPOLYLINE
  5
192
330
173
100
AcDbEntity
  8
AM_9
100
AcDbPolyline
 90
       10
 70
     0
 43
0.0
 10
5.594053331511888
 20
0.1003134979038014
 10
5.592110506953132
 20
0.1137341400238814
 10
5.574917771428909
 20
0.193660472113432
 10
5.549046427683479
 20
0.2681408833728254
 10
5.514921034833009
 20
0.3350833665472849
 10
5.47348378552679
 20
0.3925988509527736
 10
5.425557548652844
 20
0.4389860484670406
 10
5.372489395076037
 20
0.4729893559216111
 10
5.315640778411273
 20
0.4934433526109833
 10
5.259090587254547
 20
0.4999999994817236
  0
LWPOLYLINE
  5
193
330
173
100
AcDbEntity
  8
AM_9
100
AcDbPolyline
 90
       12
 70
     0
 43
0.0
 10
5.259073109688576
 20
-0.4999999977454023
 10
5.299503461267976
 20
-0.4966999969933093
 10
5.35698035516954
 20
-0.480025621294201
 10
5.411121003344493
 20
-0.4498852993680834
 10
5.460482746328412
 20
-0.4069147615852886
 10
5.503855600734954
 20
-0.3525192730872423
 10
5.540155426460868
 20
-0.287947055093234
 10
5.568530987062871
 20
-0.2152470743260152
 10
5.588211348276733
 20
-0.1363703577722189
 10
5.598859656787506
 20
-0.053632777871174
 10
5.600118101657449
 20
0.0304809413356081
 10
5.594053331511888
 20
0.1003134979038014
  0
ELLIPSE
  5
194
330
173
100
AcDbEntity
  8
AM_9
100
AcDbEllipse
 10
5.391689206547436
 20
0.0000000000000003
 30
0.0
 11
-8.266365894243625E-17
 21
-0.4499999999999451
 31
0.0
210
0.0
220
0.0
230
1.0
 40
0.7071067811866146
 41
1.399877398230891
 42
1.741715255358902
  0
LWPOLYLINE
  5
195
330
173
100
AcDbEntity
  8
AM_9
100
AcDbPolyline
 90
        3
 70
     0
 43
0.0
 10
5.723482745526787
 20
-0.0379232905383139
 10
5.724414576473255
 20
0.0126909574520562
 10
5.723208343096578
 20
0.0425866041034678
  0
LINE
  5
196
330
173
100
AcDbEntity
  8
AM_9
100
AcDbLine
 10
5.905
 20
-3.5625
 30
0.0
 11
5.905
 21
3.5625
 31
0.0
  0
LINE
  5
197
330
173
100
AcDbEntity
  8
AM_9
100
AcDbLine
 10
-5.905
 20
3.5625
 30
0.0
 11
-5.905
 21
-3.5625
 31
0.0
  0
LINE
  5
198
330
173
100
AcDbEntity
  8
AM_7
100
AcDbLine
 10
-12.15
 20
-2.312499999999999
 30
0.0
 11
-10.1
 21
-2.312499999999999
 31
0.0
  0
LINE
  5
199
330
173
100
AcDbEntity
  8
AM_7
100
AcDbLine
 10
-10.625
 20
-2.837499999999999
 30
0.0
 11
-10.625
 21
-1.787499999999999
 31
0.0
  0
LINE
  5
19A
330
173
100
AcDbEntity
  8
AM_7
100
AcDbLine
 10
-11.625
 20
-2.837499999999999
 30
0.0
 11
-11.625
 21
-1.787499999999999
 31
0.0
  0
LINE
  5
19B
330
173
100
AcDbEntity
  8
AM_7
100
AcDbLine
 10
10.1
 20
-2.3125
 30
0.0
 11
12.15
 21
-2.3125
 31
0.0
  0
LINE
  5
19C
330
173
100
AcDbEntity
  8
AM_7
100
AcDbLine
 10
10.625
 20
-2.8375
 30
0.0
 11
10.625
 21
-1.7875
 31
0.0
  0
LINE
  5
19D
330
173
100
AcDbEntity
  8
AM_7
100
AcDbLine
 10
10.1
 20
2.3125
 30
0.0
 11
12.15
 21
2.3125
 31
0.0
  0
LINE
  5
19E
330
173
100
AcDbEntity
  8
AM_7
100
AcDbLine
 10
11.625
 20
1.7875
 30
0.0
 11
11.625
 21
2.8375
 31
0.0
  0
LINE
  5
19F
330
173
100
AcDbEntity
  8
AM_7
100
AcDbLine
 10
11.625
 20
-2.8375
 30
0.0
 11
11.625
 21
-1.7875
 31
0.0
  0
LINE
  5
1A0
330
173
100
AcDbEntity
  8
AM_7
100
AcDbLine
 10
10.625
 20
1.7875
 30
0.0
 11
10.625
 21
2.8375
 31
0.0
  0
LINE
  5
1A1
330
173
100
AcDbEntity
  8
AM_7
100
AcDbLine
 10
-12.15
 20
2.3125
 30
0.0
 11
-10.1
 21
2.3125
 31
0.0
  0
LINE
  5
1A2
330
173
100
AcDbEntity
  8
AM_7
100
AcDbLine
 10
-11.625
 20
1.7875
 30
0.0
 11
-11.625
 21
2.8375
 31
0.0
  0
LINE
  5
1A3
330
173
100
AcDbEntity
  8
AM_7
100
AcDbLine
 10
-10.625
 20
1.7875
 30
0.0
 11
-10.625
 21
2.8375
 31
0.0
  0
LWPOLYLINE
  5
1A4
330
173
100
AcDbEntity
  8
AM_4
100
AcDbPolyline
 90
       10
 70
     0
 43
0.0
 10
-12.69196121676686
 20
3.559222720019351
 10
-12.7424826843603
 20
3.548545076708693
 10
-12.79077833315873
 20
3.530744578920149
 10
-12.83253315789344
 20
3.508367496672704
 10
-12.87002784884217
 20
3.481408858885843
 10
-12.91739466416123
 20
3.434356686171385
 10
-12.95421958837488
 20
3.380957461759166
 10
-12.98825384843794
 20
3.296975745582239
 10
-12.9999995962041
 20
3.206786380850439
 10
-13.0
 20
3.206250000000002
  0
LWPOLYLINE
  5
1A5
330
173
100
AcDbEntity
  8
AM_4
100
AcDbPolyline
 90
       10
 70
     0
 43
0.0
 10
-13.0
 20
-3.206250000000003
 10
-12.9999995962041
 20
-3.206786380850441
 10
-12.98903906192939
 20
-3.293939943619111
 10
-12.95421958837488
 20
-3.380957461759168
 10
-12.91850223909982
 20
-3.43302140386221
 10
-12.87002784884217
 20
-3.481408858885845
 10
-12.83333030792105
 20
-3.507867919475219
 10
-12.79077833315873
 20
-3.530744578920151
 10
-12.74418207691119
 20
-3.548050322450558
 10
-12.69196121676686
 20
-3.559222720019352
  0
LINE
  5
1A6
330
173
100
AcDbEntity
  8
AM_4
100
AcDbLine
 10
-13.0
 20
-3.206250000000003
 30
0.0
 11
-13.0
 21
3.206250000000002
 31
0.0
  0
LWPOLYLINE
  5
1A7
330
173
100
AcDbEntity
  8
AM_4
100
AcDbPolyline
 90
       10
 70
     0
 43
0.0
 10
13.0
 20
3.20625
 10
12.9999995962041
 20
3.2067863808511
 10
12.98865052433688
 20
3.295457091320065
 10
12.95421958442003
 20
3.380957468787269
 10
12.91794472106824
 20
3.43368652701756
 10
12.87002784386601
 20
3.481408862978007
 10
12.83292409714477
 20
3.508111229776803
 10
12.7907783277181
 20
3.530744581385297
 10
12.74331426194819
 20
3.548264933019281
 10
12.69196121158317
 20
3.55922272072737
  0
LWPOLYLINE
  5
1A8
330
173
100
AcDbEntity
  8
AM_4
100
AcDbPolyline
 90
       10
 70
     0
 43
0.0
 10
12.69196121158317
 20
-3.559222720727372
 10
12.74331426194819
 20
-3.548264933019283
 10
12.7907783277181
 20
-3.530744581385299
 10
12.83292409714477
 20
-3.508111229776805
 10
12.87002784386601
 20
-3.481408862978009
 10
12.91794472106824
 20
-3.433686527017561
 10
12.95421958442003
 20
-3.38095746878727
 10
12.98865052433688
 20
-3.295457091328218
 10
12.9999995962041
 20
-3.206786380850904
 10
13.0
 20
-3.206250000000003
  0
LINE
  5
1A9
330
173
100
AcDbEntity
  8
AM_4
100
AcDbLine
 10
13.0
 20
-3.206250000000003
 30
0.0
 11
13.0
 21
3.20625
 31
0.0
  0
LINE
  5
1AA
330
173
100
AcDbEntity
  8
AM_4
100
AcDbLine
 10
-11.625
 20
1.8125
 30
0.0
 11
-10.625
 21
1.8125
 31
0.0
  0
LINE
  5
1AB
330
173
100
AcDbEntity
  8
AM_4
100
AcDbLine
 10
-10.625
 20
2.8125
 30
0.0
 11
-11.625
 21
2.8125
 31
0.0
  0
ARC
  5
1AC
330
173
100
AcDbEntity
  8
AM_4
100
AcDbCircle
 10
-10.625
 20
-2.312499999999999
 30
0.0
 40
0.4999999999999996
100
AcDbArc
 50
270.0
 51
90.0
  0
ARC
  5
1AD
330
173
100
AcDbEntity
  8
AM_4
100
AcDbCircle
 10
-11.625
 20
2.3125
 30
0.0
 40
0.5
100
AcDbArc
 50
90.0
 51
270.0
  0
ARC
  5
1AE
330
173
100
AcDbEntity
  8
AM_4
100
AcDbCircle
 10
-11.966875
 20
-2.50994318181818
 30
0.0
 40
0.8906250000000018
100
AcDbArc
 50
180.0
 51
270.0
  0
LINE
  5
1AF
330
173
100
AcDbEntity
  8
AM_4
100
AcDbLine
 10
-12.8575
 20
2.509943181818181
 30
0.0
 11
-12.8575
 21
-2.509943181818181
 31
0.0
  0
LINE
  5
1B0
330
173
100
AcDbEntity
  8
AM_4
100
AcDbLine
 10
-11.625
 20
-2.812499999999999
 30
0.0
 11
-10.625
 21
-2.812499999999999
 31
0.0
  0
LINE
  5
1B1
330
173
100
AcDbEntity
  8
AM_4
100
AcDbLine
 10
-8.94603766351304
 20
3.400568181818182
 30
0.0
 11
-11.966875
 21
3.400568181818182
 31
0.0
  0
LINE
  5
1B2
330
173
100
AcDbEntity
  8
AM_4
100
AcDbLine
 10
-11.966875
 20
-3.400568181818182
 30
0.0
 11
-8.946037663513044
 21
-3.400568181818182
 31
0.0
  0
ARC
  5
1B3
330
173
100
AcDbEntity
  8
AM_4
100
AcDbCircle
 10
-10.625
 20
2.3125
 30
0.0
 40
0.5000000000000004
100
AcDbArc
 50
270.0
 51
90.0
  0
LINE
  5
1B4
330
173
100
AcDbEntity
  8
AM_4
100
AcDbLine
 10
-10.625
 20
-1.812499999999999
 30
0.0
 11
-11.625
 21
-1.812499999999999
 31
0.0
  0
ARC
  5
1B5
330
173
100
AcDbEntity
  8
AM_4
100
AcDbCircle
 10
-11.625
 20
-2.312499999999999
 30
0.0
 40
0.5
100
AcDbArc
 50
90.0
 51
270.0
  0
ARC
  5
1B6
330
173
100
AcDbEntity
  8
AM_4
100
AcDbCircle
 10
-11.966875
 20
2.50994318181818
 30
0.0
 40
0.8906250000000013
100
AcDbArc
 50
90.0
 51
180.0
  0
LINE
  5
1B7
330
173
100
AcDbEntity
  8
AM_4
100
AcDbLine
 10
12.8575
 20
-2.509943181818177
 30
0.0
 11
12.8575
 21
2.509943181818181
 31
0.0
  0
ARC
  5
1B8
330
173
100
AcDbEntity
  8
AM_4
100
AcDbCircle
 10
11.966875
 20
-2.509943181818177
 30
0.0
 40
0.8906250000000049
100
AcDbArc
 50
270.0
 51
0.0
  0
ARC
  5
1B9
330
173
100
AcDbEntity
  8
AM_4
100
AcDbCircle
 10
10.625
 20
-2.3125
 30
0.0
 40
0.4999999999999998
100
AcDbArc
 50
90.0
 51
270.0
  0
ARC
  5
1BA
330
173
100
AcDbEntity
  8
AM_4
100
AcDbCircle
 10
11.966875
 20
2.50994318181818
 30
0.0
 40
0.890625
100
AcDbArc
 50
0.0
 51
90.0
  0
LINE
  5
1BB
330
173
100
AcDbEntity
  8
AM_4
100
AcDbLine
 10
8.94603766351305
 20
-3.400568181818182
 30
0.0
 11
11.966875
 21
-3.400568181818182
 31
0.0
  0
LINE
  5
1BC
330
173
100
AcDbEntity
  8
AM_4
100
AcDbLine
 10
10.625
 20
-1.8125
 30
0.0
 11
11.625
 21
-1.8125
 31
0.0
  0
ARC
  5
1BD
330
173
100
AcDbEntity
  8
AM_4
100
AcDbCircle
 10
11.625
 20
-2.3125
 30
0.0
 40
0.5
100
AcDbArc
 50
270.0
 51
90.0
  0
LINE
  5
1BE
330
173
100
AcDbEntity
  8
AM_4
100
AcDbLine
 10
11.625
 20
-2.8125
 30
0.0
 11
10.625
 21
-2.8125
 31
0.0
  0
ARC
  5
1BF
330
173
100
AcDbEntity
  8
AM_4
100
AcDbCircle
 10
10.625
 20
2.3125
 30
0.0
 40
0.5
100
AcDbArc
 50
90.0
 51
270.0
  0
LINE
  5
1C0
330
173
100
AcDbEntity
  8
AM_4
100
AcDbLine
 10
11.625
 20
2.8125
 30
0.0
 11
10.625
 21
2.8125
 31
0.0
  0
ARC
  5
1C1
330
173
100
AcDbEntity
  8
AM_4
100
AcDbCircle
 10
11.625
 20
2.3125
 30
0.0
 40
0.5000000000000004
100
AcDbArc
 50
270.0
 51
90.0
  0
LINE
  5
1C2
330
173
100
AcDbEntity
  8
AM_4
100
AcDbLine
 10
10.625
 20
1.8125
 30
0.0
 11
11.625
 21
1.8125
 31
0.0
  0
LINE
  5
1C3
330
173
100
AcDbEntity
  8
AM_4
100
AcDbLine
 10
11.966875
 20
3.400568181818181
 30
0.0
 11
8.946037663513048
 21
3.400568181818181
 31
0.0
  0
LINE
  5
1C4
330
173
100
AcDbEntity
  8
AM_4
100
AcDbLine
 10
12.64375
 20
3.562499999999998
 30
0.0
 11
12.69196121158317
 21
3.55922272072737
 31
0.0
  0
LINE
  5
1C5
330
173
100
AcDbEntity
  8
AM_4
100
AcDbLine
 10
12.69196121158317
 20
-3.559222720727372
 30
0.0
 11
12.64375
 21
-3.5625
 31
0.0
  0
LINE
  5
1C6
330
173
100
AcDbEntity
  8
AM_4
100
AcDbLine
 10
12.69196121158317
 20
-3.559222720727372
 30
0.0
 11
12.69196121158317
 21
-3.027111313470706
 31
0.0
  0
LINE
  5
1C7
330
173
100
AcDbEntity
  8
AM_4
100
AcDbLine
 10
8.946037663513048
 20
3.400568181818181
 30
0.0
 11
8.94603766351305
 21
-3.400568181818182
 31
0.0
  0
LINE
  5
1C8
330
173
100
AcDbEntity
  8
AM_4
100
AcDbLine
 10
12.69196121158317
 20
3.02711131347071
 30
0.0
 11
12.69196121158317
 21
3.55922272072737
 31
0.0
  0
LINE
  5
1C9
330
173
100
AcDbEntity
  8
AM_4
100
AcDbLine
 10
-12.64375
 20
-3.562500000000001
 30
0.0
 11
12.64375
 21
-3.5625
 31
0.0
  0
LINE
  5
1CA
330
173
100
AcDbEntity
  8
AM_4
100
AcDbLine
 10
-12.64375
 20
3.5625
 30
0.0
 11
12.64375
 21
3.562499999999998
 31
0.0
  0
LINE
  5
1CB
330
173
100
AcDbEntity
  8
AM_4
100
AcDbLine
 10
-12.69196121676686
 20
3.559222720019351
 30
0.0
 11
-12.64375
 21
3.5625
 31
0.0
  0
LINE
  5
1CC
330
173
100
AcDbEntity
  8
AM_4
100
AcDbLine
 10
-12.69196121676686
 20
3.027111306203015
 30
0.0
 11
-12.69196121676686
 21
3.559222720019351
 31
0.0
  0
LINE
  5
1CD
330
173
100
AcDbEntity
  8
AM_4
100
AcDbLine
 10
-8.946037663513044
 20
-3.400568181818182
 30
0.0
 11
-8.94603766351304
 21
3.400568181818182
 31
0.0
  0
LINE
  5
1CE
330
173
100
AcDbEntity
  8
AM_4
100
AcDbLine
 10
-12.69196121676686
 20
-3.559222720019352
 30
0.0
 11
-12.69196121676686
 21
-3.027111306203013
 31
0.0
  0
LINE
  5
1CF
330
173
100
AcDbEntity
  8
AM_4
100
AcDbLine
 10
-12.64375
 20
-3.562500000000001
 30
0.0
 11
-12.69196121676686
 21
-3.559222720019352
 31
0.0
  0
LINE
  5
1D0
330
173
100
AcDbEntity
  8
AM_4
100
AcDbLine
 10
7.447590266889496
 20
-3.5625
 30
0.0
 11
7.447590266889496
 21
3.5625
 31
0.0
  0
LINE
  5
1D1
330
173
100
AcDbEntity
  8
AM_4
100
AcDbLine
 10
-7.447590266889496
 20
-3.5625
 30
0.0
 11
-7.447590266889496
 21
3.5625
 31
0.0
  0
LINE
  5
1D2
330
173
100
AcDbEntity
  8
AM_4
100
AcDbLine
 10
5.259030440411034
 20
-0.500000000000001
 30
0.0
 11
5.356333867488098
 21
-0.500000000000001
 31
0.0
  0
LINE
  5
1D3
330
173
100
AcDbEntity
  8
AM_4
100
AcDbLine
 10
5.356333867488098
 20
0.5000000000000017
 30
0.0
 11
5.259092795900631
 21
0.5000000000000017
 31
0.0
  0
ELLIPSE
  5
1D4
330
173
100
AcDbEntity
  8
AM_4
100
AcDbEllipse
 10
5.356333867488098
 20
0.0000000000000008
 30
0.0
 11
-9.184850993605169E-17
 21
-0.5000000000000011
 31
0.0
210
0.0
220
0.0
230
1.0
 40
0.7071067811865464
 41
3.141592653589793
 42
6.274189395951581
  0
LWPOLYLINE
  5
1D5
330
173
100
AcDbEntity
  8
AM_4
100
AcDbPolyline
 90
       11
 70
     0
 43
0.0
 10
5.259090587254547
 20
0.4999999994817236
 10
5.256556993037
 20
0.4999870042718104
 10
5.196985063106587
 20
0.4922625607381813
 10
5.138535889190559
 20
0.4707159501752977
 10
5.082970211301717
 20
0.4357747317458107
 10
5.03193327235079
 20
0.3886100025514519
 10
4.987006716806151
 20
0.3302687842601371
 10
4.949637296680407
 20
0.2626220976852079
 10
4.921140290911768
 20
0.1873910266387954
 10
4.902367972043378
 20
0.106856311256063
 10
4.893655689003273
 20
0.0000000000000003
  0
ELLIPSE
  5
1D6
330
173
100
AcDbEntity
  8
AM_4
100
AcDbEllipse
 10
5.391689206547426
 20
0.0000000000000009
 30
0.0
 11
-8.266365894244640E-17
 21
-0.4500000000000003
 31
0.0
210
0.0
220
0.0
230
1.0
 40
0.7071067811865476
 41
1.741715255358879
 42
7.683062705410498
  0
LINE
  5
1D7
330
173
100
AcDbEntity
  8
AM_4
100
AcDbLine
 10
5.37202757087241
 20
0.499551980141644
 30
0.0
 11
5.361572805523882
 21
0.4999500946483448
 31
0.0
  0
LWPOLYLINE
  5
1D8
330
173
100
AcDbEntity
  8
AM_4
100
AcDbPolyline
 90
       14
 70
     0
 43
0.0
 10
5.723208343096578
 20
0.0425866041034678
 10
5.720494091466752
 20
0.0742407182819707
 10
5.711057472109549
 20
0.1347143770999826
 10
5.696211850171879
 20
0.1932206740246636
 10
5.676126307183604
 20
0.2488914184865356
 10
5.651032252448773
 20
0.300882632543749
 10
5.621230342512479
 20
0.3483736417020716
 10
5.587117706424987
 20
0.3905569985895516
 10
5.549197115069719
 20
0.4266791882983307
 10
5.508102882667181
 20
0.4560656769926607
 10
5.464598920248065
 20
0.478179400586862
 10
5.419531008591623
 20
0.4926809444761913
 10
5.37374066098635
 20
0.4994487709326365
 10
5.37202757087241
 20
0.499551980141644
  0
LWPOLYLINE
  5
1D9
330
173
100
AcDbEntity
  8
AM_4
100
AcDbPolyline
 90
       15
 70
     0
 43
0.0
 10
5.352833163569458
 20
-0.4999777177794385
 10
5.354035549067865
 20
-0.4999903957780613
 10
5.399631793021461
 20
-0.4965788708168123
 10
5.444313224309799
 20
-0.4857078440031933
 10
5.487497679905623
 20
-0.4676001215164424
 10
5.528676401760423
 20
-0.4424843044690157
 10
5.567309701627081
 20
-0.4106410954955338
 10
5.602819973139728
 20
-0.372467001962984
 10
5.634628490274971
 20
-0.3285103955714166
 10
5.662206513441352
 20
-0.279461891687897
 10
5.685111024895898
 20
-0.226115262575282
 10
5.702994982898891
 20
-0.1693305873567987
 10
5.715605643446742
 20
-0.1100019971392401
 10
5.722776741633085
 20
-0.0490260898386749
 10
5.723482745526787
 20
-0.0379232905383139
  0
ELLIPSE
  5
1DA
330
173
100
AcDbEntity
  8
AM_4
100
AcDbEllipse
 10
5.356333867488162
 20
0.0000000000147807
 30
0.0
 11
-9.184850993876684E-17
 21
-0.5000000000147817
 31
0.0
210
0.0
220
0.0
230
1.0
 40
0.7071067811865476
 41
6.274189395951655
 42
6.283185307179586
  0
ELLIPSE
  5
1DB
330
173
100
AcDbEntity
  8
AM_4
100
AcDbEllipse
 10
5.356333867488066
 20
-0.0000000000037424
 30
0.0
 11
-9.184850993673927E-17
 21
-0.5000000000037441
 31
0.0
210
0.0
220
0.0
230
1.0
 40
0.7071067811865482
 41
3.128129209027464
 42
3.141592653589793
  0
LINE
  5
1DC
330
173
100
AcDbEntity
  8
AM_4
100
AcDbLine
 10
-7.437031171130112
 20
-3.5625
 30
0.0
 11
-7.437031171130112
 21
3.5625
 31
0.0
  0
LINE
  5
1DD
330
173
100
AcDbEntity
  8
AM_4
100
AcDbLine
 10
7.437031171130111
 20
-3.5625
 30
0.0
 11
7.437031171130111
 21
3.5625
 31
0.0
  0
LWPOLYLINE
  5
1DE
330
173
100
AcDbEntity
  8
AM_4
100
AcDbPolyline
 90
       11
 70
     0
 43
0.0
 10
4.893655689003273
 20
0.0000000000000003
 10
4.899035601846353
 20
-0.0838281703469267
 10
4.914834916906131
 20
-0.1652908335782869
 10
4.940668010440961
 20
-0.2420224556467734
 10
4.975536248475285
 20
-0.3119437088395752
 10
5.01848596257398
 20
-0.3730555264577693
 10
5.067990415569199
 20
-0.4236623901730508
 10
5.122623477146884
 20
-0.4622042606783649
 10
5.180600696039349
 20
-0.4877030546301035
 10
5.240112102315472
 20
-0.499230086667881
 10
5.259073109688576
 20
-0.4999999977454023
  0
ENDBLK
  5
176
330
173
100
AcDbEntity
  8
0
100
AcDbBlockEnd
  0
ENDSEC
  0
SECTION
  2
ENTITIES
  0
INSERT
  5
6F
330
1F
100
AcDbEntity
  8
0
100
AcDbBlockReference
  2
1_023045_4
 10
0.0
 20
0.0
 30
0.0
  0
POINT
  5
1E0
330
1F
100
AcDbEntity
  8
ConnectionPoints
100
AcDbPoint
 10
0.0
 20
-5.25
 30
0.0000000000000004
  0
POINT
  5
1E1
330
1F
100
AcDbEntity
  8
ConnectionPoints
100
AcDbPoint
 10
0.0
 20
-5.25
 30
0.0000000000000003
  0
POINT
  5
1E2
330
1F
100
AcDbEntity
  8
ConnectionPoints
100
AcDbPoint
 10
0.0
 20
5.25
 30
-0.0000000000000003
  0
POINT
  5
1E3
330
1F
100
AcDbEntity
  8
ConnectionPoints
100
AcDbPoint
 10
0.0
 20
0.0
 30
0.0
  0
POINT
  5
1E4
330
1F
100
AcDbEntity
  8
ConnectionPoints
100
AcDbPoint
 10
5.391689206547425
 20
0.0000000000000003
 30
5.391689206547424
  0
POINT
  5
1E5
330
1F
100
AcDbEntity
  8
ConnectionPoints
100
AcDbPoint
 10
5.391689206547425
 20
0.0000000000000003
 30
5.391689206547424
  0
POINT
  5
1E6
330
1F
100
AcDbEntity
  8
ConnectionPoints
100
AcDbPoint
 10
0.0
 20
0.0
 30
0.0
  0
ENDSEC
  0
SECTION
  2
OBJECTS
  0
DICTIONARY
  5
C
330
0
100
AcDbDictionary
281
     1
  3
ACAD_DETAILVIEWSTYLE
350
1EE
  3
ACAD_GROUP
350
D
  3
ACAD_LAYOUT
350
1A
  3
ACAD_MATERIAL
350
43
  3
ACAD_MLEADERSTYLE
350
6B
  3
ACAD_MLINESTYLE
350
17
  3
ACAD_PLOTSETTINGS
350
19
  3
ACAD_PLOTSTYLENAME
350
E
  3
ACAD_SCALELIST
350
47
  3
ACAD_SECTIONVIEWSTYLE
350
1EF
  3
ACAD_TABLESTYLE
350
69
  3
ACAD_VISUALSTYLE
350
2A
  3
ACDB_RECOMPOSE_DATA
350
1EB
  3
AcDbVariableDictionary
350
1E7
  0
SUN
  5
6D
330
29
100
AcDbSun
 90
        1
290
     0
 63
     7
421
 16777215
 40
1.0
291
     1
 91
  2455826
 92
 54000000
292
     0
 70
     2
 71
   256
280
     1
  0
DICTIONARY
  5
1EE
102
{ACAD_REACTORS
330
C
102
}
330
C
100
AcDbDictionary
281
     1
  0
DICTIONARY
  5
D
102
{ACAD_REACTORS
330
C
102
}
330
C
100
AcDbDictionary
281
     1
  0
DICTIONARY
  5
1A
102
{ACAD_REACTORS
330
C
102
}
330
C
100
AcDbDictionary
281
     1
  3
Layout1
350
1E
  3
Layout2
350
26
  3
Model
350
22
  0
DICTIONARY
  5
43
102
{ACAD_REACTORS
330
C
102
}
330
C
100
AcDbDictionary
281
     1
  3
ByBlock
350
45
  3
ByLayer
350
44
  3
Global
350
46
  0
DICTIONARY
  5
6B
102
{ACAD_REACTORS
330
C
102
}
330
C
100
AcDbDictionary
281
     1
  3
Standard
350
6C
  0
DICTIONARY
  5
17
102
{ACAD_REACTORS
330
C
102
}
330
C
100
AcDbDictionary
281
     1
  3
Standard
350
18
  0
DICTIONARY
  5
19
102
{ACAD_REACTORS
330
C
102
}
330
C
100
AcDbDictionary
281
     1
  0
ACDBDICTIONARYWDFLT
  5
E
102
{ACAD_REACTORS
330
C
102
}
330
C
100
AcDbDictionary
281
     1
  3
Normal
350
F
100
AcDbDictionaryWithDefault
340
F
  0
DICTIONARY
  5
47
102
{ACAD_REACTORS
330
C
102
}
330
C
100
AcDbDictionary
281
     1
  3
A0
350
48
  3
A1
350
49
  3
A2
350
4A
  3
A3
350
4B
  3
A4
350
4C
  3
A5
350
4D
  3
A6
350
4E
  3
A7
350
4F
  3
A8
350
50
  3
A9
350
51
  3
B0
350
52
  3
B1
350
53
  3
B2
350
54
  3
B3
350
55
  3
B4
350
56
  3
B5
350
57
  3
B6
350
58
  3
B7
350
59
  3
B8
350
5A
  3
B9
350
5B
  3
C0
350
5C
  3
C1
350
5D
  3
C2
350
5E
  3
C3
350
5F
  3
C4
350
60
  3
C5
350
61
  3
C6
350
62
  3
C7
350
63
  3
C8
350
64
  3
C9
350
65
  3
D0
350
66
  3
D1
350
67
  3
D2
350
68
  0
DICTIONARY
  5
1EF
102
{ACAD_REACTORS
330
C
102
}
330
C
100
AcDbDictionary
281
     1
  0
DICTIONARY
  5
69
102
{ACAD_REACTORS
330
C
102
}
330
C
100
AcDbDictionary
281
     1
  3
Standard
350
6A
  0
DICTIONARY
  5
2A
102
{ACAD_REACTORS
330
C
102
}
330
C
100
AcDbDictionary
281
     1
  3
2dWireframe
350
2F
  3
Basic
350
32
  3
Brighten
350
36
  3
ColorChange
350
3A
  3
Conceptual
350
34
  3
Dim
350
35
  3
EdgeColorOff
350
3D
  3
Facepattern
350
39
  3
Flat
350
2B
  3
FlatWithEdges
350
2C
  3
Gouraud
350
2D
  3
GouraudWithEdges
350
2E
  3
Hidden
350
31
  3
JitterOff
350
3B
  3
Linepattern
350
38
  3
OverhangOff
350
3C
  3
Realistic
350
33
  3
Shaded
350
42
  3
Shaded with edges
350
41
  3
Shades of Gray
350
3E
  3
Sketchy
350
3F
  3
Thicken
350
37
  3
Wireframe
350
30
  3
X-Ray
350
40
  0
XRECORD
  5
1EB
102
{ACAD_REACTORS
330
C
102
}
330
C
100
AcDbXrecord
280
     1
 90
        1
330
6A
  0
DICTIONARY
  5
1E7
102
{ACAD_REACTORS
330
C
102
}
330
C
100
AcDbDictionary
281
     1
  3
CANNOSCALE
350
1E8
  3
CMLEADERSTYLE
350
1ED
  3
CTABLESTYLE
350
1EC
  0
LAYOUT
  5
1E
102
{ACAD_REACTORS
330
1A
102
}
330
1A
100
AcDbPlotSettings
  1

  2
none_device
  4

  6

 40
0.0
 41
0.0
 42
0.0
 43
0.0
 44
0.0
 45
0.0
 46
0.0
 47
0.0
 48
0.0
 49
0.0
140
0.0
141
0.0
142
1.0
143
1.0
 70
   688
 72
     0
 73
     0
 74
     5
  7

 75
    16
 76
     0
 77
     2
 78
   300
147
1.0
148
0.0
149
0.0
100
AcDbLayout
  1
Layout1
 70
     1
 71
     1
 10
0.0
 20
0.0
 11
12.0
 21
9.0
 12
0.0
 22
0.0
 32
0.0
 14
1.000000000000000E+20
 24
1.000000000000000E+20
 34
1.000000000000000E+20
 15
-1.000000000000000E+20
 25
-1.000000000000000E+20
 35
-1.000000000000000E+20
146
0.0
 13
0.0
 23
0.0
 33
0.0
 16
1.0
 26
0.0
 36
0.0
 17
0.0
 27
1.0
 37
0.0
 76
     0
330
1B
  0
LAYOUT
  5
26
102
{ACAD_REACTORS
330
1A
102
}
330
1A
100
AcDbPlotSettings
  1

  2
none_device
  4

  6

 40
0.0
 41
0.0
 42
0.0
 43
0.0
 44
0.0
 45
0.0
 46
0.0
 47
0.0
 48
0.0
 49
0.0
140
0.0
141
0.0
142
1.0
143
1.0
 70
   688
 72
     0
 73
     0
 74
     5
  7

 75
    16
 76
     0
 77
     2
 78
   300
147
1.0
148
0.0
149
0.0
100
AcDbLayout
  1
Layout2
 70
     1
 71
     2
 10
0.0
 20
0.0
 11
0.0
 21
0.0
 12
0.0
 22
0.0
 32
0.0
 14
0.0
 24
0.0
 34
0.0
 15
0.0
 25
0.0
 35
0.0
146
0.0
 13
0.0
 23
0.0
 33
0.0
 16
1.0
 26
0.0
 36
0.0
 17
0.0
 27
1.0
 37
0.0
 76
     0
330
23
  0
LAYOUT
  5
22
102
{ACAD_REACTORS
330
1A
102
}
330
1A
100
AcDbPlotSettings
  1

  2
none_device
  4
Letter_(8.50_x_11.00_Inches)
  6

 40
6.35
 41
6.35
 42
6.35000508
 43
6.35000508
 44
215.9
 45
279.4
 46
0.0
 47
0.0
 48
0.0
 49
0.0
140
0.0
141
0.0
142
1.0
143
1.0
 70
  1712
 72
     0
 73
     0
 74
     0
  7

 75
     0
 76
     0
 77
     2
 78
   300
147
1.0
148
0.0
149
0.0
100
AcDbLayout
  1
Model
 70
     1
 71
     0
 10
0.0
 20
0.0
 11
12.0
 21
9.0
 12
0.0
 22
0.0
 32
0.0
 14
1.000000000000000E+20
 24
1.000000000000000E+20
 34
1.000000000000000E+20
 15
-1.000000000000000E+20
 25
-1.000000000000000E+20
 35
-1.000000000000000E+20
146
0.0
 13
0.0
 23
0.0
 33
0.0
 16
1.0
 26
0.0
 36
0.0
 17
0.0
 27
1.0
 37
0.0
 76
     0
330
1F
331
29
  0
MATERIAL
  5
45
102
{ACAD_REACTORS
330
43
102
}
330
43
100
AcDbMaterial
  1
ByBlock
 72
     1
 94
      127
  0
MATERIAL
  5
44
102
{ACAD_REACTORS
330
43
102
}
330
43
100
AcDbMaterial
  1
ByLayer
 72
     1
 94
      127
  0
MATERIAL
  5
46
102
{ACAD_REACTORS
330
43
102
}
330
43
100
AcDbMaterial
  1
Global
 72
     1
 94
      127
  0
MLEADERSTYLE
  5
6C
102
{ACAD_REACTORS
330
6B
102
}
330
6B
100
AcDbMLeaderStyle
179
     2
170
     2
171
     1
172
     0
 90
        2
 40
0.0
 41
0.0
173
     1
 91
-1056964608
340
14
 92
       -2
290
     1
 42
0.09
291
     1
 43
0.36
  3
Standard
341
0
 44
0.18
300

342
11
174
     1
178
     6
175
     1
176
     0
 93
-1056964608
 45
0.18
292
     0
297
     0
 46
0.18
343
0
 94
-1056964608
 47
1.0
 49
1.0
140
1.0
293
     1
141
0.0
294
     1
177
     0
142
1.0
295
     0
296
     0
143
0.125
271
     0
272
     9
273
     9
298
     0
  0
MLINESTYLE
  5
18
102
{ACAD_REACTORS
330
17
102
}
330
17
100
AcDbMlineStyle
  2
Standard
 70
     0
  3

 62
   256
 51
90.0
 52
90.0
 71
     2
 49
0.5
 62
   256
  6
BYLAYER
 49
-0.5
 62
   256
  6
BYLAYER
  0
ACDBPLACEHOLDER
  5
F
102
{ACAD_REACTORS
330
E
102
}
330
E
  0
SCALE
  5
48
102
{ACAD_REACTORS
330
47
102
}
330
47
100
AcDbScale
 70
     0
300
1:1
140
1.0
141
1.0
290
     1
  0
SCALE
  5
49
102
{ACAD_REACTORS
330
47
102
}
330
47
100
AcDbScale
 70
     0
300
1:2
140
1.0
141
2.0
290
     0
  0
SCALE
  5
4A
102
{ACAD_REACTORS
330
47
102
}
330
47
100
AcDbScale
 70
     0
300
1:4
140
1.0
141
4.0
290
     0
  0
SCALE
  5
4B
102
{ACAD_REACTORS
330
47
102
}
330
47
100
AcDbScale
 70
     0
300
1:5
140
1.0
141
5.0
290
     0
  0
SCALE
  5
4C
102
{ACAD_REACTORS
330
47
102
}
330
47
100
AcDbScale
 70
     0
300
1:8
140
1.0
141
8.0
290
     0
  0
SCALE
  5
4D
102
{ACAD_REACTORS
330
47
102
}
330
47
100
AcDbScale
 70
     0
300
1:10
140
1.0
141
10.0
290
     0
  0
SCALE
  5
4E
102
{ACAD_REACTORS
330
47
102
}
330
47
100
AcDbScale
 70
     0
300
1:16
140
1.0
141
16.0
290
     0
  0
SCALE
  5
4F
102
{ACAD_REACTORS
330
47
102
}
330
47
100
AcDbScale
 70
     0
300
1:20
140
1.0
141
20.0
290
     0
  0
SCALE
  5
50
102
{ACAD_REACTORS
330
47
102
}
330
47
100
AcDbScale
 70
     0
300
1:30
140
1.0
141
30.0
290
     0
  0
SCALE
  5
51
102
{ACAD_REACTORS
330
47
102
}
330
47
100
AcDbScale
 70
     0
300
1:40
140
1.0
141
40.0
290
     0
  0
SCALE
  5
52
102
{ACAD_REACTORS
330
47
102
}
330
47
100
AcDbScale
 70
     0
300
1:50
140
1.0
141
50.0
290
     0
  0
SCALE
  5
53
102
{ACAD_REACTORS
330
47
102
}
330
47
100
AcDbScale
 70
     0
300
1:100
140
1.0
141
100.0
290
     0
  0
SCALE
  5
54
102
{ACAD_REACTORS
330
47
102
}
330
47
100
AcDbScale
 70
     0
300
2:1
140
2.0
141
1.0
290
     0
  0
SCALE
  5
55
102
{ACAD_REACTORS
330
47
102
}
330
47
100
AcDbScale
 70
     0
300
4:1
140
4.0
141
1.0
290
     0
  0
SCALE
  5
56
102
{ACAD_REACTORS
330
47
102
}
330
47
100
AcDbScale
 70
     0
300
8:1
140
8.0
141
1.0
290
     0
  0
SCALE
  5
57
102
{ACAD_REACTORS
330
47
102
}
330
47
100
AcDbScale
 70
     0
300
10:1
140
10.0
141
1.0
290
     0
  0
SCALE
  5
58
102
{ACAD_REACTORS
330
47
102
}
330
47
100
AcDbScale
 70
     0
300
100:1
140
100.0
141
1.0
290
     0
  0
SCALE
  5
59
102
{ACAD_REACTORS
330
47
102
}
330
47
100
AcDbScale
 70
     0
300
1/128" = 1'-0"
140
0.0078125
141
12.0
290
     0
  0
SCALE
  5
5A
102
{ACAD_REACTORS
330
47
102
}
330
47
100
AcDbScale
 70
     0
300
1/64" = 1'-0"
140
0.015625
141
12.0
290
     0
  0
SCALE
  5
5B
102
{ACAD_REACTORS
330
47
102
}
330
47
100
AcDbScale
 70
     0
300
1/32" = 1'-0"
140
0.03125
141
12.0
290
     0
  0
SCALE
  5
5C
102
{ACAD_REACTORS
330
47
102
}
330
47
100
AcDbScale
 70
     0
300
1/16" = 1'-0"
140
0.0625
141
12.0
290
     0
  0
SCALE
  5
5D
102
{ACAD_REACTORS
330
47
102
}
330
47
100
AcDbScale
 70
     0
300
3/32" = 1'-0"
140
0.09375
141
12.0
290
     0
  0
SCALE
  5
5E
102
{ACAD_REACTORS
330
47
102
}
330
47
100
AcDbScale
 70
     0
300
1/8" = 1'-0"
140
0.125
141
12.0
290
     0
  0
SCALE
  5
5F
102
{ACAD_REACTORS
330
47
102
}
330
47
100
AcDbScale
 70
     0
300
3/16" = 1'-0"
140
0.1875
141
12.0
290
     0
  0
SCALE
  5
60
102
{ACAD_REACTORS
330
47
102
}
330
47
100
AcDbScale
 70
     0
300
1/4" = 1'-0"
140
0.25
141
12.0
290
     0
  0
SCALE
  5
61
102
{ACAD_REACTORS
330
47
102
}
330
47
100
AcDbScale
 70
     0
300
3/8" = 1'-0"
140
0.375
141
12.0
290
     0
  0
SCALE
  5
62
102
{ACAD_REACTORS
330
47
102
}
330
47
100
AcDbScale
 70
     0
300
1/2" = 1'-0"
140
0.5
141
12.0
290
     0
  0
SCALE
  5
63
102
{ACAD_REACTORS
330
47
102
}
330
47
100
AcDbScale
 70
     0
300
3/4" = 1'-0"
140
0.75
141
12.0
290
     0
  0
SCALE
  5
64
102
{ACAD_REACTORS
330
47
102
}
330
47
100
AcDbScale
 70
     0
300
1" = 1'-0"
140
1.0
141
12.0
290
     0
  0
SCALE
  5
65
102
{ACAD_REACTORS
330
47
102
}
330
47
100
AcDbScale
 70
     0
300
1-1/2" = 1'-0"
140
1.5
141
12.0
290
     0
  0
SCALE
  5
66
102
{ACAD_REACTORS
330
47
102
}
330
47
100
AcDbScale
 70
     0
300
3" = 1'-0"
140
3.0
141
12.0
290
     0
  0
SCALE
  5
67
102
{ACAD_REACTORS
330
47
102
}
330
47
100
AcDbScale
 70
     0
300
6" = 1'-0"
140
6.0
141
12.0
290
     0
  0
SCALE
  5
68
102
{ACAD_REACTORS
330
47
102
}
330
47
100
AcDbScale
 70
     0
300
1'-0" = 1'-0"
140
12.0
141
12.0
290
     0
  0
TABLESTYLE
  5
6A
102
{ACAD_REACTORS
330
69
102
}
102
{ACAD_XDICTIONARY
360
1E9
102
}
330
69
100
AcDbTableStyle
  3
Standard
 70
     0
 71
     0
 40
0.06
 41
0.06
280
     0
281
     0
  7
Standard
140
0.18
170
     2
 62
     0
 63
   257
283
     0
 90
        4
 91
        0
  1

274
    -2
284
     1
 64
     0
275
    -2
285
     1
 65
     0
276
    -2
286
     1
 66
     0
277
    -2
287
     1
 67
     0
278
    -2
288
     1
 68
     0
279
    -2
289
     1
 69
     0
  7
Standard
140
0.25
170
     5
 62
     0
 63
   257
283
     0
 90
        4
 91
        0
  1

274
    -2
284
     1
 64
     0
275
    -2
285
     1
 65
     0
276
    -2
286
     1
 66
     0
277
    -2
287
     1
 67
     0
278
    -2
288
     1
 68
     0
279
    -2
289
     1
 69
     0
  7
Standard
140
0.18
170
     5
 62
     0
 63
   257
283
     0
 90
        4
 91
        0
  1

274
    -2
284
     1
 64
     0
275
    -2
285
     1
 65
     0
276
    -2
286
     1
 66
     0
277
    -2
287
     1
 67
     0
278
    -2
288
     1
 68
     0
279
    -2
289
     1
 69
     0
  0
VISUALSTYLE
  5
2F
102
{ACAD_REACTORS
330
2A
102
}
330
2A
100
AcDbVisualStyle
  2
2dWireframe
 70
     4
177
     3
291
     0
 70
    58
 90
        0
176
     1
 90
        2
176
     1
 90
        0
176
     1
 90
        0
176
     1
 40
0.6
176
     1
 40
30.0
176
     1
 62
     7
420
 16777215
176
     1
 90
        1
176
     1
 90
        4
176
     1
 62
     7
176
     1
 62
   257
176
     1
 90
        1
176
     1
 90
        1
176
     1
 40
1.0
176
     1
 90
        0
176
     1
 62
   257
176
     1
 40
1.0
176
     1
 90
        1
176
     1
 90
        6
176
     1
 90
        2
176
     1
 62
     7
176
     1
 90
        5
176
     1
 90
        0
176
     1
 90
        0
176
     1
290
     0
176
     1
 90
        1
176
     1
 40
0.0
176
     1
 90
        0
176
     1
290
     1
176
     1
290
     1
176
     1
290
     0
176
     1
290
     0
176
     1
290
     0
176
     1
290
     0
176
     1
290
     0
176
     1
290
     0
176
     1
290
     0
176
     1
 90
       50
176
     1
 40
0.0
176
     1
 40
1.0
176
     1
 90
        0
176
     1
 62
    18
420
        0
176
     1
 90
       50
176
     1
 90
        3
176
     1
 62
     5
420
      255
176
     1
290
     0
176
     1
 90
       50
176
     1
 90
       50
176
     1
 90
       50
176
     1
290
     0
176
     1
 90
       50
176
     1
 62
   256
176
     0
 40
1.0
176
     0
 90
        2
176
     1
  1
strokes_ogs.tif
176
     1
290
     0
176
     1
 40
1.0
176
     1
 40
1.0
176
     1
  0
VISUALSTYLE
  5
32
102
{ACAD_REACTORS
330
2A
102
}
330
2A
100
AcDbVisualStyle
  2
Basic
 70
     7
177
     3
291
     1
 70
    58
 90
        1
176
     1
 90
        0
176
     1
 90
        1
176
     1
 90
        0
176
     1
 40
0.6
176
     1
 40
30.0
176
     1
 62
     7
420
 16777215
176
     1
 90
        0
176
     1
 90
        4
176
     1
 62
     7
176
     1
 62
   257
176
     1
 90
        1
176
     1
 90
        1
176
     1
 40
1.0
176
     1
 90
        8
176
     1
 62
     7
176
     1
 40
1.0
176
     1
 90
        1
176
     1
 90
        6
176
     1
 90
        2
176
     1
 62
     7
176
     1
 90
        5
176
     1
 90
        0
176
     1
 90
        0
176
     1
290
     0
176
     1
 90
        1
176
     1
 40
0.0
176
     1
 90
        0
176
     1
290
     0
176
     1
290
     1
176
     1
290
     1
176
     1
290
     0
176
     1
290
     0
176
     1
290
     0
176
     1
290
     0
176
     1
290
     0
176
     1
290
     0
176
     1
 90
       50
176
     1
 40
0.0
176
     1
 40
1.0
176
     1
 90
        0
176
     1
 62
    18
420
        0
176
     1
 90
       50
176
     1
 90
        3
176
     1
 62
     5
420
      255
176
     1
290
     0
176
     1
 90
       50
176
     1
 90
       50
176
     1
 90
       50
176
     1
290
     0
176
     1
 90
       50
176
     1
 62
   256
176
     0
 40
1.0
176
     0
 90
        2
176
     1
  1
strokes_ogs.tif
176
     1
290
     0
176
     1
 40
1.0
176
     1
 40
1.0
176
     1
  0
VISUALSTYLE
  5
36
102
{ACAD_REACTORS
330
2A
102
}
330
2A
100
AcDbVisualStyle
  2
Brighten
 70
    12
177
     3
291
     1
 70
    58
 90
        2
176
     1
 90
        2
176
     1
 90
        0
176
     1
 90
        0
176
     1
 40
0.6
176
     1
 40
30.0
176
     1
 62
     7
420
 16777215
176
     1
 90
        1
176
     1
 90
        4
176
     1
 62
     7
176
     1
 62
   257
176
     1
 90
        1
176
     1
 90
        1
176
     1
 40
1.0
176
     1
 90
        8
176
     1
 62
     7
176
     1
 40
1.0
176
     1
 90
        1
176
     1
 90
        6
176
     1
 90
        2
176
     1
 62
     7
176
     1
 90
        5
176
     1
 90
        0
176
     1
 90
        0
176
     1
290
     0
176
     1
 90
        1
176
     1
 40
50.0
176
     1
 90
        0
176
     1
290
     0
176
     1
290
     1
176
     1
290
     1
176
     1
290
     0
176
     1
290
     0
176
     1
290
     0
176
     1
290
     0
176
     1
290
     0
176
     1
290
     0
176
     1
 90
       50
176
     1
 40
0.0
176
     1
 40
1.0
176
     1
 90
        0
176
     1
 62
    18
420
        0
176
     1
 90
       50
176
     1
 90
        3
176
     1
 62
     5
420
      255
176
     1
290
     0
176
     1
 90
       50
176
     1
 90
       50
176
     1
 90
       50
176
     1
290
     0
176
     1
 90
       50
176
     1
 62
   256
176
     0
 40
1.0
176
     0
 90
        2
176
     1
  1
strokes_ogs.tif
176
     1
290
     0
176
     1
 40
1.0
176
     1
 40
1.0
176
     1
  0
VISUALSTYLE
  5
3A
102
{ACAD_REACTORS
330
2A
102
}
330
2A
100
AcDbVisualStyle
  2
ColorChange
 70
    16
177
     3
291
     1
 70
    58
 90
        2
176
     1
 90
        2
176
     1
 90
        3
176
     1
 90
        0
176
     1
 40
0.6
176
     1
 40
30.0
176
     1
 62
     8
420
  8421504
176
     1
 90
        1
176
     1
 90
        4
176
     1
 62
     7
176
     1
 62
   257
176
     1
 90
        1
176
     1
 90
        1
176
     1
 40
1.0
176
     1
 90
        8
176
     1
 62
     8
420
  8421504
176
     1
 40
1.0
176
     1
 90
        1
176
     1
 90
        6
176
     1
 90
        2
176
     1
 62
     7
176
     1
 90
        5
176
     1
 90
        0
176
     1
 90
        0
176
     1
290
     0
176
     1
 90
        1
176
     1
 40
0.0
176
     1
 90
        0
176
     1
290
     0
176
     1
290
     1
176
     1
290
     1
176
     1
290
     0
176
     1
290
     0
176
     1
290
     0
176
     1
290
     0
176
     1
290
     0
176
     1
290
     0
176
     1
 90
       50
176
     1
 40
0.0
176
     1
 40
1.0
176
     1
 90
        0
176
     1
 62
    18
420
        0
176
     1
 90
       50
176
     1
 90
        3
176
     1
 62
     5
420
      255
176
     1
290
     0
176
     1
 90
       50
176
     1
 90
       50
176
     1
 90
       50
176
     1
290
     0
176
     1
 90
       50
176
     1
 62
   256
176
     0
 40
1.0
176
     0
 90
        2
176
     1
  1
strokes_ogs.tif
176
     1
290
     0
176
     1
 40
1.0
176
     1
 40
1.0
176
     1
  0
VISUALSTYLE
  5
34
102
{ACAD_REACTORS
330
2A
102
}
330
2A
100
AcDbVisualStyle
  2
Conceptual
 70
     9
177
     3
291
     0
 70
    58
 90
        3
176
     1
 90
        2
176
     1
 90
        0
176
     1
 90
        0
176
     1
 40
0.6
176
     1
 40
30.0
176
     1
 62
     7
420
 16777215
176
     1
 90
        2
176
     1
 90
        2
176
     1
 62
     7
176
     1
 62
   257
176
     1
 90
        1
176
     1
 90
        1
176
     1
 40
179.0
176
     1
 90
        8
176
     1
 62
     7
176
     1
 40
1.0
176
     1
 90
        1
176
     1
 90
        6
176
     1
 90
        2
176
     1
 62
     7
176
     1
 90
        3
176
     1
 90
        0
176
     1
 90
        0
176
     1
290
     0
176
     1
 90
        1
176
     1
 40
0.0
176
     1
 90
        0
176
     1
290
     0
176
     1
290
     1
176
     1
290
     1
176
     1
290
     0
176
     1
290
     0
176
     1
290
     0
176
     1
290
     0
176
     1
290
     0
176
     1
290
     0
176
     1
 90
       50
176
     1
 40
0.0
176
     1
 40
1.0
176
     1
 90
        0
176
     1
 62
    18
420
        0
176
     1
 90
       50
176
     1
 90
        3
176
     1
 62
     5
420
      255
176
     1
290
     0
176
     1
 90
       50
176
     1
 90
       50
176
     1
 90
       50
176
     1
290
     0
176
     1
 90
       50
176
     1
 62
   256
176
     0
 40
1.0
176
     0
 90
        2
176
     1
  1
strokes_ogs.tif
176
     1
290
     0
176
     1
 40
1.0
176
     1
 40
1.0
176
     1
  0
VISUALSTYLE
  5
35
102
{ACAD_REACTORS
330
2A
102
}
330
2A
100
AcDbVisualStyle
  2
Dim
 70
    11
177
     3
291
     1
 70
    58
 90
        2
176
     1
 90
        2
176
     1
 90
        0
176
     1
 90
        0
176
     1
 40
0.6
176
     1
 40
30.0
176
     1
 62
     7
420
 16777215
176
     1
 90
        1
176
     1
 90
        4
176
     1
 62
     7
176
     1
 62
   257
176
     1
 90
        1
176
     1
 90
        1
176
     1
 40
1.0
176
     1
 90
        8
176
     1
 62
     7
176
     1
 40
1.0
176
     1
 90
        1
176
     1
 90
        6
176
     1
 90
        2
176
     1
 62
     7
176
     1
 90
        5
176
     1
 90
        0
176
     1
 90
        0
176
     1
290
     0
176
     1
 90
        1
176
     1
 40
-50.0
176
     1
 90
        0
176
     1
290
     0
176
     1
290
     1
176
     1
290
     1
176
     1
290
     0
176
     1
290
     0
176
     1
290
     0
176
     1
290
     0
176
     1
290
     0
176
     1
290
     0
176
     1
 90
       50
176
     1
 40
0.0
176
     1
 40
1.0
176
     1
 90
        0
176
     1
 62
    18
420
        0
176
     1
 90
       50
176
     1
 90
        3
176
     1
 62
     5
420
      255
176
     1
290
     0
176
     1
 90
       50
176
     1
 90
       50
176
     1
 90
       50
176
     1
290
     0
176
     1
 90
       50
176
     1
 62
   256
176
     0
 40
1.0
176
     0
 90
        2
176
     1
  1
strokes_ogs.tif
176
     1
290
     0
176
     1
 40
1.0
176
     1
 40
1.0
176
     1
  0
VISUALSTYLE
  5
3D
102
{ACAD_REACTORS
330
2A
102
}
330
2A
100
AcDbVisualStyle
  2
EdgeColorOff
 70
    22
177
     3
291
     1
 70
    58
 90
        2
176
     0
 90
        2
176
     0
 90
        0
176
     0
 90
        0
176
     0
 40
0.6
176
     0
 40
30.0
176
     0
 62
     7
420
 16777215
176
     0
 90
        1
176
     0
 90
        4
176
     0
 62
     7
176
     0
 62
   257
176
     0
 90
        1
176
     0
 90
        1
176
     0
 40
1.0
176
     0
 90
        8
176
     2
 62
     7
176
     0
 40
1.0
176
     0
 90
        1
176
     0
 90
        6
176
     0
 90
        2
176
     0
 62
     7
176
     0
 90
        5
176
     0
 90
        0
176
     0
 90
        0
176
     0
290
     0
176
     0
 90
        1
176
     0
 40
0.0
176
     0
 90
        0
176
     0
290
     0
176
     0
290
     1
176
     0
290
     1
176
     0
290
     0
176
     0
290
     0
176
     0
290
     0
176
     0
290
     0
176
     0
290
     0
176
     0
290
     0
176
     0
 90
       50
176
     0
 40
0.0
176
     0
 40
1.0
176
     0
 90
        0
176
     0
 62
    18
420
        0
176
     0
 90
       50
176
     0
 90
        3
176
     0
 62
     5
420
      255
176
     0
290
     0
176
     0
 90
       50
176
     0
 90
       50
176
     0
 90
       50
176
     0
290
     0
176
     0
 90
       50
176
     0
 62
   256
176
     0
 40
1.0
176
     0
 90
        2
176
     0
  1
strokes_ogs.tif
176
     0
290
     0
176
     0
 40
1.0
176
     0
 40
1.0
176
     0
  0
VISUALSTYLE
  5
39
102
{ACAD_REACTORS
330
2A
102
}
330
2A
100
AcDbVisualStyle
  2
Facepattern
 70
    15
177
     3
291
     1
 70
    58
 90
        2
176
     1
 90
        2
176
     1
 90
        0
176
     1
 90
        0
176
     1
 40
0.6
176
     1
 40
30.0
176
     1
 62
     7
420
 16777215
176
     1
 90
        1
176
     1
 90
        4
176
     1
 62
     7
176
     1
 62
   257
176
     1
 90
        1
176
     1
 90
        1
176
     1
 40
1.0
176
     1
 90
        8
176
     1
 62
     7
176
     1
 40
1.0
176
     1
 90
        1
176
     1
 90
        6
176
     1
 90
        2
176
     1
 62
     7
176
     1
 90
        5
176
     1
 90
        0
176
     1
 90
        0
176
     1
290
     0
176
     1
 90
        1
176
     1
 40
0.0
176
     1
 90
        0
176
     1
290
     0
176
     1
290
     1
176
     1
290
     1
176
     1
290
     0
176
     1
290
     0
176
     1
290
     0
176
     1
290
     0
176
     1
290
     0
176
     1
290
     0
176
     1
 90
       50
176
     1
 40
0.0
176
     1
 40
1.0
176
     1
 90
        0
176
     1
 62
    18
420
        0
176
     1
 90
       50
176
     1
 90
        3
176
     1
 62
     5
420
      255
176
     1
290
     0
176
     1
 90
       50
176
     1
 90
       50
176
     1
 90
       50
176
     1
290
     0
176
     1
 90
       50
176
     1
 62
   256
176
     0
 40
1.0
176
     0
 90
        2
176
     1
  1
strokes_ogs.tif
176
     1
290
     0
176
     1
 40
1.0
176
     1
 40
1.0
176
     1
  0
VISUALSTYLE
  5
2B
102
{ACAD_REACTORS
330
2A
102
}
330
2A
100
AcDbVisualStyle
  2
Flat
 70
     0
177
     3
291
     1
 70
    58
 90
        2
176
     1
 90
        1
176
     1
 90
        1
176
     1
 90
        2
176
     1
 40
0.6
176
     1
 40
30.0
176
     1
 62
     7
420
 16777215
176
     1
 90
        0
176
     1
 90
        0
176
     1
 62
     7
176
     1
 62
   257
176
     1
 90
        1
176
     1
 90
        1
176
     1
 40
1.0
176
     1
 90
        8
176
     1
 62
     7
176
     1
 40
1.0
176
     1
 90
        1
176
     1
 90
        6
176
     1
 90
        2
176
     1
 62
     7
176
     1
 90
        5
176
     1
 90
        0
176
     1
 90
        0
176
     1
290
     0
176
     1
 90
       13
176
     1
 40
0.0
176
     1
 90
        0
176
     1
290
     0
176
     1
290
     1
176
     1
290
     1
176
     1
290
     0
176
     1
290
     0
176
     1
290
     0
176
     1
290
     0
176
     1
290
     0
176
     1
290
     0
176
     1
 90
       50
176
     1
 40
0.0
176
     1
 40
1.0
176
     1
 90
        0
176
     1
 62
    18
420
        0
176
     1
 90
       50
176
     1
 90
        3
176
     1
 62
     5
420
      255
176
     1
290
     0
176
     1
 90
       50
176
     1
 90
       50
176
     1
 90
       50
176
     1
290
     0
176
     1
 90
       50
176
     1
 62
   256
176
     0
 40
1.0
176
     0
 90
        2
176
     1
  1
strokes_ogs.tif
176
     1
290
     0
176
     1
 40
1.0
176
     1
 40
1.0
176
     1
  0
VISUALSTYLE
  5
2C
102
{ACAD_REACTORS
330
2A
102
}
330
2A
100
AcDbVisualStyle
  2
FlatWithEdges
 70
     1
177
     3
291
     1
 70
    58
 90
        2
176
     1
 90
        1
176
     1
 90
        1
176
     1
 90
        2
176
     1
 40
0.6
176
     1
 40
30.0
176
     1
 62
     7
420
 16777215
176
     1
 90
        1
176
     1
 90
        0
176
     1
 62
     7
176
     1
 62
   257
176
     1
 90
        1
176
     1
 90
        1
176
     1
 40
1.0
176
     1
 90
        0
176
     1
 62
   257
176
     1
 40
1.0
176
     1
 90
        1
176
     1
 90
        6
176
     1
 90
        2
176
     1
 62
     7
176
     1
 90
        5
176
     1
 90
        0
176
     1
 90
        0
176
     1
290
     0
176
     1
 90
       13
176
     1
 40
0.0
176
     1
 90
        0
176
     1
290
     0
176
     1
290
     1
176
     1
290
     1
176
     1
290
     0
176
     1
290
     0
176
     1
290
     0
176
     1
290
     0
176
     1
290
     0
176
     1
290
     0
176
     1
 90
       50
176
     1
 40
0.0
176
     1
 40
1.0
176
     1
 90
        0
176
     1
 62
    18
420
        0
176
     1
 90
       50
176
     1
 90
        3
176
     1
 62
     5
420
      255
176
     1
290
     0
176
     1
 90
       50
176
     1
 90
       50
176
     1
 90
       50
176
     1
290
     0
176
     1
 90
       50
176
     1
 62
   256
176
     0
 40
1.0
176
     0
 90
        2
176
     1
  1
strokes_ogs.tif
176
     1
290
     0
176
     1
 40
1.0
176
     1
 40
1.0
176
     1
  0
VISUALSTYLE
  5
2D
102
{ACAD_REACTORS
330
2A
102
}
330
2A
100
AcDbVisualStyle
  2
Gouraud
 70
     2
177
     3
291
     1
 70
    58
 90
        2
176
     1
 90
        2
176
     1
 90
        1
176
     1
 90
        2
176
     1
 40
0.6
176
     1
 40
30.0
176
     1
 62
     7
420
 16777215
176
     1
 90
        0
176
     1
 90
        0
176
     1
 62
     7
176
     1
 62
   257
176
     1
 90
        1
176
     1
 90
        1
176
     1
 40
1.0
176
     1
 90
        0
176
     1
 62
     7
176
     1
 40
1.0
176
     1
 90
        1
176
     1
 90
        6
176
     1
 90
        2
176
     1
 62
     7
176
     1
 90
        5
176
     1
 90
        0
176
     1
 90
        0
176
     1
290
     0
176
     1
 90
       13
176
     1
 40
0.0
176
     1
 90
        0
176
     1
290
     0
176
     1
290
     1
176
     1
290
     1
176
     1
290
     0
176
     1
290
     0
176
     1
290
     0
176
     1
290
     0
176
     1
290
     0
176
     1
290
     0
176
     1
 90
       50
176
     1
 40
0.0
176
     1
 40
1.0
176
     1
 90
        0
176
     1
 62
    18
420
        0
176
     1
 90
       50
176
     1
 90
        3
176
     1
 62
     5
420
      255
176
     1
290
     0
176
     1
 90
       50
176
     1
 90
       50
176
     1
 90
       50
176
     1
290
     0
176
     1
 90
       50
176
     1
 62
   256
176
     0
 40
1.0
176
     0
 90
        2
176
     1
  1
strokes_ogs.tif
176
     1
290
     0
176
     1
 40
1.0
176
     1
 40
1.0
176
     1
  0
VISUALSTYLE
  5
2E
102
{ACAD_REACTORS
330
2A
102
}
330
2A
100
AcDbVisualStyle
  2
GouraudWithEdges
 70
     3
177
     3
291
     1
 70
    58
 90
        2
176
     1
 90
        2
176
     1
 90
        1
176
     1
 90
        2
176
     1
 40
0.6
176
     1
 40
30.0
176
     1
 62
     7
420
 16777215
176
     1
 90
        1
176
     1
 90
        0
176
     1
 62
     7
176
     1
 62
   257
176
     1
 90
        1
176
     1
 90
        1
176
     1
 40
1.0
176
     1
 90
        0
176
     1
 62
   257
176
     1
 40
1.0
176
     1
 90
        1
176
     1
 90
        6
176
     1
 90
        2
176
     1
 62
     7
176
     1
 90
        5
176
     1
 90
        0
176
     1
 90
        0
176
     1
290
     0
176
     1
 90
       13
176
     1
 40
0.0
176
     1
 90
        0
176
     1
290
     0
176
     1
290
     1
176
     1
290
     1
176
     1
290
     0
176
     1
290
     0
176
     1
290
     0
176
     1
290
     0
176
     1
290
     0
176
     1
290
     0
176
     1
 90
       50
176
     1
 40
0.0
176
     1
 40
1.0
176
     1
 90
        0
176
     1
 62
    18
420
        0
176
     1
 90
       50
176
     1
 90
        3
176
     1
 62
     5
420
      255
176
     1
290
     0
176
     1
 90
       50
176
     1
 90
       50
176
     1
 90
       50
176
     1
290
     0
176
     1
 90
       50
176
     1
 62
   256
176
     0
 40
1.0
176
     0
 90
        2
176
     1
  1
strokes_ogs.tif
176
     1
290
     0
176
     1
 40
1.0
176
     1
 40
1.0
176
     1
  0
VISUALSTYLE
  5
31
102
{ACAD_REACTORS
330
2A
102
}
330
2A
100
AcDbVisualStyle
  2
Hidden
 70
     6
177
     3
291
     0
 70
    58
 90
        1
176
     1
 90
        2
176
     1
 90
        2
176
     1
 90
        0
176
     1
 40
0.6
176
     1
 40
30.0
176
     1
 62
     7
420
 16777215
176
     1
 90
        2
176
     1
 90
        2
176
     1
 62
     7
176
     1
 62
   257
176
     1
 90
        2
176
     1
 90
        1
176
     1
 40
40.0
176
     1
 90
        0
176
     1
 62
   257
176
     1
 40
1.0
176
     1
 90
        1
176
     1
 90
        6
176
     1
 90
        2
176
     1
 62
     7
176
     1
 90
        3
176
     1
 90
        0
176
     1
 90
        0
176
     1
290
     0
176
     1
 90
        1
176
     1
 40
0.0
176
     1
 90
        0
176
     1
290
     0
176
     1
290
     1
176
     1
290
     1
176
     1
290
     0
176
     1
290
     0
176
     1
290
     0
176
     1
290
     0
176
     1
290
     0
176
     1
290
     0
176
     1
 90
       50
176
     1
 40
0.0
176
     1
 40
1.0
176
     1
 90
        0
176
     1
 62
    18
420
        0
176
     1
 90
       50
176
     1
 90
        3
176
     1
 62
     5
420
      255
176
     1
290
     0
176
     1
 90
       50
176
     1
 90
       50
176
     1
 90
       50
176
     1
290
     0
176
     1
 90
       50
176
     1
 62
   256
176
     0
 40
1.0
176
     0
 90
        2
176
     1
  1
strokes_ogs.tif
176
     1
290
     0
176
     1
 40
1.0
176
     1
 40
1.0
176
     1
  0
VISUALSTYLE
  5
3B
102
{ACAD_REACTORS
330
2A
102
}
330
2A
100
AcDbVisualStyle
  2
JitterOff
 70
    20
177
     3
291
     1
 70
    58
 90
        2
176
     0
 90
        2
176
     0
 90
        0
176
     0
 90
        0
176
     0
 40
0.6
176
     0
 40
30.0
176
     0
 62
     7
420
 16777215
176
     0
 90
        1
176
     0
 90
        4
176
     0
 62
     7
176
     0
 62
   257
176
     0
 90
        1
176
     0
 90
        1
176
     0
 40
1.0
176
     0
 90
       10
176
     2
 62
     7
176
     0
 40
1.0
176
     0
 90
        1
176
     0
 90
        6
176
     0
 90
        2
176
     0
 62
     7
176
     0
 90
        5
176
     0
 90
        0
176
     0
 90
        0
176
     0
290
     0
176
     0
 90
        1
176
     0
 40
0.0
176
     0
 90
        0
176
     0
290
     0
176
     0
290
     1
176
     0
290
     1
176
     0
290
     0
176
     0
290
     0
176
     0
290
     0
176
     0
290
     0
176
     0
290
     0
176
     0
290
     0
176
     0
 90
       50
176
     0
 40
0.0
176
     0
 40
1.0
176
     0
 90
        0
176
     0
 62
    18
420
        0
176
     0
 90
       50
176
     0
 90
        3
176
     0
 62
     5
420
      255
176
     0
290
     0
176
     0
 90
       50
176
     0
 90
       50
176
     0
 90
       50
176
     0
290
     0
176
     0
 90
       50
176
     0
 62
   256
176
     0
 40
1.0
176
     0
 90
        2
176
     0
  1
strokes_ogs.tif
176
     0
290
     0
176
     0
 40
1.0
176
     0
 40
1.0
176
     0
  0
VISUALSTYLE
  5
38
102
{ACAD_REACTORS
330
2A
102
}
330
2A
100
AcDbVisualStyle
  2
Linepattern
 70
    14
177
     3
291
     1
 70
    58
 90
        2
176
     1
 90
        2
176
     1
 90
        0
176
     1
 90
        0
176
     1
 40
0.6
176
     1
 40
30.0
176
     1
 62
     7
420
 16777215
176
     1
 90
        1
176
     1
 90
        4
176
     1
 62
     7
176
     1
 62
   257
176
     1
 90
        7
176
     1
 90
        7
176
     1
 40
1.0
176
     1
 90
        8
176
     1
 62
     7
176
     1
 40
1.0
176
     1
 90
        1
176
     1
 90
        6
176
     1
 90
        2
176
     1
 62
     7
176
     1
 90
        5
176
     1
 90
        0
176
     1
 90
        0
176
     1
290
     0
176
     1
 90
        1
176
     1
 40
0.0
176
     1
 90
        0
176
     1
290
     0
176
     1
290
     1
176
     1
290
     1
176
     1
290
     0
176
     1
290
     0
176
     1
290
     0
176
     1
290
     0
176
     1
290
     0
176
     1
290
     0
176
     1
 90
       50
176
     1
 40
0.0
176
     1
 40
1.0
176
     1
 90
        0
176
     1
 62
    18
420
        0
176
     1
 90
       50
176
     1
 90
        3
176
     1
 62
     5
420
      255
176
     1
290
     0
176
     1
 90
       50
176
     1
 90
       50
176
     1
 90
       50
176
     1
290
     0
176
     1
 90
       50
176
     1
 62
   256
176
     0
 40
1.0
176
     0
 90
        2
176
     1
  1
strokes_ogs.tif
176
     1
290
     0
176
     1
 40
1.0
176
     1
 40
1.0
176
     1
  0
VISUALSTYLE
  5
3C
102
{ACAD_REACTORS
330
2A
102
}
330
2A
100
AcDbVisualStyle
  2
OverhangOff
 70
    21
177
     3
291
     1
 70
    58
 90
        2
176
     0
 90
        2
176
     0
 90
        0
176
     0
 90
        0
176
     0
 40
0.6
176
     0
 40
30.0
176
     0
 62
     7
420
 16777215
176
     0
 90
        1
176
     0
 90
        4
176
     0
 62
     7
176
     0
 62
   257
176
     0
 90
        1
176
     0
 90
        1
176
     0
 40
1.0
176
     0
 90
        9
176
     2
 62
     7
176
     0
 40
1.0
176
     0
 90
        1
176
     0
 90
        6
176
     0
 90
        2
176
     0
 62
     7
176
     0
 90
        5
176
     0
 90
        0
176
     0
 90
        0
176
     0
290
     0
176
     0
 90
        1
176
     0
 40
0.0
176
     0
 90
        0
176
     0
290
     0
176
     0
290
     1
176
     0
290
     1
176
     0
290
     0
176
     0
290
     0
176
     0
290
     0
176
     0
290
     0
176
     0
290
     0
176
     0
290
     0
176
     0
 90
       50
176
     0
 40
0.0
176
     0
 40
1.0
176
     0
 90
        0
176
     0
 62
    18
420
        0
176
     0
 90
       50
176
     0
 90
        3
176
     0
 62
     5
420
      255
176
     0
290
     0
176
     0
 90
       50
176
     0
 90
       50
176
     0
 90
       50
176
     0
290
     0
176
     0
 90
       50
176
     0
 62
   256
176
     0
 40
1.0
176
     0
 90
        2
176
     0
  1
strokes_ogs.tif
176
     0
290
     0
176
     0
 40
1.0
176
     0
 40
1.0
176
     0
  0
VISUALSTYLE
  5
33
102
{ACAD_REACTORS
330
2A
102
}
330
2A
100
AcDbVisualStyle
  2
Realistic
 70
     8
177
     3
291
     0
 70
    58
 90
        2
176
     1
 90
        3
176
     1
 90
        0
176
     1
 90
        2
176
     1
 40
0.6
176
     1
 40
30.0
176
     1
 62
     7
420
 16777215
176
     1
 90
        0
176
     1
 90
        0
176
     1
 62
     7
176
     1
 62
   257
176
     1
 90
        1
176
     1
 90
        1
176
     1
 40
1.0
176
     1
 90
        8
176
     1
 62
   257
176
     1
 40
1.0
176
     1
 90
        1
176
     1
 90
        6
176
     1
 90
        2
176
     1
 62
     7
176
     1
 90
        3
176
     1
 90
        0
176
     1
 90
        0
176
     1
290
     0
176
     1
 90
       13
176
     1
 40
0.0
176
     1
 90
        0
176
     1
290
     0
176
     1
290
     1
176
     1
290
     1
176
     1
290
     0
176
     1
290
     0
176
     1
290
     0
176
     1
290
     0
176
     1
290
     0
176
     1
290
     0
176
     1
 90
       50
176
     1
 40
0.0
176
     1
 40
1.0
176
     1
 90
        0
176
     1
 62
    18
420
        0
176
     1
 90
       50
176
     1
 90
        3
176
     1
 62
     5
420
      255
176
     1
290
     0
176
     1
 90
       50
176
     1
 90
       50
176
     1
 90
       50
176
     1
290
     0
176
     1
 90
       50
176
     1
 62
   256
176
     0
 40
1.0
176
     0
 90
        2
176
     1
  1
strokes_ogs.tif
176
     1
290
     0
176
     1
 40
1.0
176
     1
 40
1.0
176
     1
  0
VISUALSTYLE
  5
42
102
{ACAD_REACTORS
330
2A
102
}
330
2A
100
AcDbVisualStyle
  2
Shaded
 70
    27
177
     3
291
     0
 70
    58
 90
        2
176
     1
 90
        2
176
     1
 90
        1
176
     1
 90
        2
176
     1
 40
0.6
176
     1
 40
30.0
176
     1
 62
     7
420
 16777215
176
     1
 90
        0
176
     1
 90
        4
176
     1
 62
     7
176
     1
 62
   257
176
     1
 90
        1
176
     1
 90
        1
176
     1
 40
1.0
176
     1
 90
        8
176
     1
 62
   257
176
     1
 40
1.0
176
     1
 90
        1
176
     1
 90
        6
176
     1
 90
        2
176
     1
 62
     8
420
  7895160
176
     1
 90
        3
176
     1
 90
        0
176
     1
 90
        0
176
     1
290
     0
176
     1
 90
        5
176
     1
 40
0.0
176
     1
 90
        0
176
     1
290
     0
176
     1
290
     1
176
     1
290
     1
176
     1
290
     0
176
     1
290
     0
176
     1
290
     0
176
     1
290
     0
176
     1
290
     0
176
     1
290
     0
176
     1
 90
       50
176
     1
 40
0.0
176
     1
 40
1.0
176
     1
 90
        0
176
     1
 62
    18
420
        0
176
     1
 90
       50
176
     1
 90
        3
176
     1
 62
     5
420
      255
176
     1
290
     0
176
     1
 90
       50
176
     1
 90
       50
176
     1
 90
       50
176
     1
290
     0
176
     1
 90
       50
176
     1
 62
   256
176
     0
 40
1.0
176
     0
 90
        2
176
     1
  1
strokes_ogs.tif
176
     1
290
     0
176
     1
 40
1.0
176
     1
 40
1.0
176
     1
  0
VISUALSTYLE
  5
41
102
{ACAD_REACTORS
330
2A
102
}
330
2A
100
AcDbVisualStyle
  2
Shaded with edges
 70
    26
177
     3
291
     0
 70
    58
 90
        2
176
     1
 90
        2
176
     1
 90
        1
176
     1
 90
        2
176
     1
 40
0.6
176
     1
 40
30.0
176
     1
 62
     7
420
 16777215
176
     1
 90
        1
176
     1
 90
       10
176
     1
 62
     7
176
     1
 62
   257
176
     1
 90
        2
176
     1
 90
        1
176
     1
 40
1.0
176
     1
 90
        8
176
     1
 62
   257
176
     1
 40
1.0
176
     1
 90
        1
176
     1
 90
        6
176
     1
 90
        2
176
     1
 62
     7
176
     1
 90
        3
176
     1
 90
        0
176
     1
 90
        0
176
     1
290
     0
176
     1
 90
        5
176
     1
 40
0.0
176
     1
 90
        0
176
     1
290
     0
176
     1
290
     1
176
     1
290
     1
176
     1
290
     0
176
     1
290
     0
176
     1
290
     0
176
     1
290
     0
176
     1
290
     0
176
     1
290
     0
176
     1
 90
       50
176
     1
 40
0.0
176
     1
 40
1.0
176
     1
 90
        0
176
     1
 62
    18
420
        0
176
     1
 90
       50
176
     1
 90
        3
176
     1
 62
     5
420
      255
176
     1
290
     0
176
     1
 90
       50
176
     1
 90
       50
176
     1
 90
       50
176
     1
290
     0
176
     1
 90
       50
176
     1
 62
   256
176
     0
 40
1.0
176
     0
 90
        2
176
     1
  1
strokes_ogs.tif
176
     1
290
     0
176
     1
 40
1.0
176
     1
 40
1.0
176
     1
  0
VISUALSTYLE
  5
3E
102
{ACAD_REACTORS
330
2A
102
}
330
2A
100
AcDbVisualStyle
  2
Shades of Gray
 70
    23
177
     3
291
     0
 70
    58
 90
        2
176
     1
 90
        2
176
     1
 90
        3
176
     1
 90
        0
176
     1
 40
0.6
176
     1
 40
30.0
176
     1
 62
     7
420
 16777215
176
     1
 90
        2
176
     1
 90
        2
176
     1
 62
     7
176
     1
 62
     7
176
     1
 90
        1
176
     1
 90
        1
176
     1
 40
40.0
176
     1
 90
        8
176
     1
 62
     7
176
     1
 40
1.0
176
     1
 90
        1
176
     1
 90
        6
176
     1
 90
        2
176
     1
 62
     7
176
     1
 90
        3
176
     1
 90
        0
176
     1
 90
        0
176
     1
290
     0
176
     1
 90
        1
176
     1
 40
0.0
176
     1
 90
        0
176
     1
290
     0
176
     1
290
     1
176
     1
290
     1
176
     1
290
     0
176
     1
290
     0
176
     1
290
     0
176
     1
290
     0
176
     1
290
     0
176
     1
290
     0
176
     1
 90
       50
176
     1
 40
0.0
176
     1
 40
1.0
176
     1
 90
        0
176
     1
 62
    18
420
        0
176
     1
 90
       50
176
     1
 90
        3
176
     1
 62
     5
420
      255
176
     1
290
     0
176
     1
 90
       50
176
     1
 90
       50
176
     1
 90
       50
176
     1
290
     0
176
     1
 90
       50
176
     1
 62
   256
176
     0
 40
1.0
176
     0
 90
        2
176
     1
  1
strokes_ogs.tif
176
     1
290
     0
176
     1
 40
1.0
176
     1
 40
1.0
176
     1
  0
VISUALSTYLE
  5
3F
102
{ACAD_REACTORS
330
2A
102
}
330
2A
100
AcDbVisualStyle
  2
Sketchy
 70
    24
177
     3
291
     0
 70
    58
 90
        1
176
     1
 90
        2
176
     1
 90
        2
176
     1
 90
        0
176
     1
 40
0.6
176
     1
 40
30.0
176
     1
 62
     7
420
 16777215
176
     1
 90
        2
176
     1
 90
        2
176
     1
 62
     7
176
     1
 62
     7
176
     1
 90
        1
176
     1
 90
        1
176
     1
 40
40.0
176
     1
 90
       11
176
     1
 62
     7
176
     1
 40
1.0
176
     1
 90
        1
176
     1
 90
        6
176
     1
 90
        2
176
     1
 62
     7
176
     1
 90
        6
176
     1
 90
        0
176
     1
 90
        0
176
     1
290
     0
176
     1
 90
        1
176
     1
 40
0.0
176
     1
 90
        0
176
     1
290
     0
176
     1
290
     1
176
     1
290
     1
176
     1
290
     0
176
     1
290
     0
176
     1
290
     0
176
     1
290
     0
176
     1
290
     0
176
     1
290
     0
176
     1
 90
       50
176
     1
 40
0.0
176
     1
 40
1.0
176
     1
 90
        0
176
     1
 62
    18
420
        0
176
     1
 90
       50
176
     1
 90
        3
176
     1
 62
     5
420
      255
176
     1
290
     0
176
     1
 90
       50
176
     1
 90
       50
176
     1
 90
       50
176
     1
290
     0
176
     1
 90
       50
176
     1
 62
   256
176
     0
 40
1.0
176
     0
 90
        2
176
     1
  1
strokes_ogs.tif
176
     1
290
     0
176
     1
 40
1.0
176
     1
 40
1.0
176
     1
  0
VISUALSTYLE
  5
37
102
{ACAD_REACTORS
330
2A
102
}
330
2A
100
AcDbVisualStyle
  2
Thicken
 70
    13
177
     3
291
     1
 70
    58
 90
        2
176
     1
 90
        2
176
     1
 90
        0
176
     1
 90
        0
176
     1
 40
0.6
176
     1
 40
30.0
176
     1
 62
     7
420
 16777215
176
     1
 90
        1
176
     1
 90
        4
176
     1
 62
     7
176
     1
 62
   257
176
     1
 90
        1
176
     1
 90
        1
176
     1
 40
1.0
176
     1
 90
       12
176
     1
 62
     7
176
     1
 40
1.0
176
     1
 90
        1
176
     1
 90
        6
176
     1
 90
        2
176
     1
 62
     7
176
     1
 90
        5
176
     1
 90
        0
176
     1
 90
        0
176
     1
290
     0
176
     1
 90
        1
176
     1
 40
0.0
176
     1
 90
        0
176
     1
290
     0
176
     1
290
     1
176
     1
290
     1
176
     1
290
     0
176
     1
290
     0
176
     1
290
     0
176
     1
290
     0
176
     1
290
     0
176
     1
290
     0
176
     1
 90
       50
176
     1
 40
0.0
176
     1
 40
1.0
176
     1
 90
        0
176
     1
 62
    18
420
        0
176
     1
 90
       50
176
     1
 90
        3
176
     1
 62
     5
420
      255
176
     1
290
     0
176
     1
 90
       50
176
     1
 90
       50
176
     1
 90
       50
176
     1
290
     0
176
     1
 90
       50
176
     1
 62
   256
176
     0
 40
1.0
176
     0
 90
        2
176
     1
  1
strokes_ogs.tif
176
     1
290
     0
176
     1
 40
1.0
176
     1
 40
1.0
176
     1
  0
VISUALSTYLE
  5
30
102
{ACAD_REACTORS
330
2A
102
}
330
2A
100
AcDbVisualStyle
  2
Wireframe
 70
     5
177
     3
291
     0
 70
    58
 90
        0
176
     1
 90
        2
176
     1
 90
        0
176
     1
 90
        0
176
     1
 40
0.6
176
     1
 40
30.0
176
     1
 62
     7
420
 16777215
176
     1
 90
        1
176
     1
 90
        4
176
     1
 62
     7
176
     1
 62
   257
176
     1
 90
        1
176
     1
 90
        1
176
     1
 40
1.0
176
     1
 90
        0
176
     1
 62
   257
176
     1
 40
1.0
176
     1
 90
        1
176
     1
 90
        6
176
     1
 90
        2
176
     1
 62
     7
176
     1
 90
        3
176
     1
 90
        0
176
     1
 90
        0
176
     1
290
     0
176
     1
 90
        1
176
     1
 40
0.0
176
     1
 90
        0
176
     1
290
     0
176
     1
290
     1
176
     1
290
     1
176
     1
290
     0
176
     1
290
     0
176
     1
290
     0
176
     1
290
     0
176
     1
290
     0
176
     1
290
     0
176
     1
 90
       50
176
     1
 40
0.0
176
     1
 40
1.0
176
     1
 90
        0
176
     1
 62
    18
420
        0
176
     1
 90
       50
176
     1
 90
        3
176
     1
 62
     5
420
      255
176
     1
290
     0
176
     1
 90
       50
176
     1
 90
       50
176
     1
 90
       50
176
     1
290
     0
176
     1
 90
       50
176
     1
 62
   256
176
     0
 40
1.0
176
     0
 90
        2
176
     1
  1
strokes_ogs.tif
176
     1
290
     0
176
     1
 40
1.0
176
     1
 40
1.0
176
     1
  0
VISUALSTYLE
  5
40
102
{ACAD_REACTORS
330
2A
102
}
330
2A
100
AcDbVisualStyle
  2
X-Ray
 70
    25
177
     3
291
     0
 70
    58
 90
        2
176
     1
 90
        2
176
     1
 90
        1
176
     1
 90
        1
176
     1
 40
0.5
176
     1
 40
30.0
176
     1
 62
     7
420
 16777215
176
     1
 90
        1
176
     1
 90
        0
176
     1
 62
     7
176
     1
 62
   257
176
     1
 90
        1
176
     1
 90
        1
176
     1
 40
1.0
176
     1
 90
        8
176
     1
 62
     7
176
     1
 40
1.0
176
     1
 90
        1
176
     1
 90
        6
176
     1
 90
        2
176
     1
 62
     7
176
     1
 90
        3
176
     1
 90
        0
176
     1
 90
        0
176
     1
290
     0
176
     1
 90
       13
176
     1
 40
0.0
176
     1
 90
        0
176
     1
290
     0
176
     1
290
     1
176
     1
290
     1
176
     1
290
     0
176
     1
290
     0
176
     1
290
     0
176
     1
290
     0
176
     1
290
     0
176
     1
290
     0
176
     1
 90
       50
176
     1
 40
0.0
176
     1
 40
1.0
176
     1
 90
        0
176
     1
 62
    18
420
        0
176
     1
 90
       50
176
     1
 90
        3
176
     1
 62
     5
420
      255
176
     1
290
     0
176
     1
 90
       50
176
     1
 90
       50
176
     1
 90
       50
176
     1
290
     0
176
     1
 90
       50
176
     1
 62
   256
176
     0
 40
1.0
176
     0
 90
        2
176
     1
  1
strokes_ogs.tif
176
     1
290
     0
176
     1
 40
1.0
176
     1
 40
1.0
176
     1
  0
DICTIONARYVAR
  5
1E8
102
{ACAD_REACTORS
330
1E7
102
}
330
1E7
100
DictionaryVariables
280
     0
  1
1:1
  0
DICTIONARYVAR
  5
1ED
102
{ACAD_REACTORS
330
1E7
102
}
330
1E7
100
DictionaryVariables
280
     0
  1
Standard
  0
DICTIONARYVAR
  5
1EC
102
{ACAD_REACTORS
330
1E7
102
}
330
1E7
100
DictionaryVariables
280
     0
  1
Standard
  0
DICTIONARY
  5
1E9
330
6A
100
AcDbDictionary
280
     1
281
     1
  3
ACAD_ROUNDTRIP_2008_TABLESTYLE_CELLSTYLEMAP
360
1EA
  0
CELLSTYLEMAP
  5
1EA
102
{ACAD_REACTORS
330
1E9
102
}
330
1E9
100
AcDbCellStyleMap
 90
        3
300
CELLSTYLE
  1
TABLEFORMAT_BEGIN
 90
        5
170
     1
 91
        0
 92
    32768
 62
   257
 93
        1
300
CONTENTFORMAT
  1
CONTENTFORMAT_BEGIN
 90
        0
 91
        0
 92
        4
 93
        0
300

 40
0.0
140
1.0
 94
        5
 62
     0
340
11
144
0.25
309
CONTENTFORMAT_END
171
     1
301
MARGIN
  1
CELLMARGIN_BEGIN
 40
0.06
 40
0.06
 40
0.06
 40
0.06
 40
0.06
 40
0.06
309
CELLMARGIN_END
 94
        6
 95
        1
302
GRIDFORMAT
  1
GRIDFORMAT_BEGIN
 90
        0
 91
        1
 62
     0
 92
       -2
340
14
 93
        0
 40
0.045
309
GRIDFORMAT_END
 95
        2
302
GRIDFORMAT
  1
GRIDFORMAT_BEGIN
 90
        0
 91
        1
 62
     0
 92
       -2
340
14
 93
        0
 40
0.045
309
GRIDFORMAT_END
 95
        4
302
GRIDFORMAT
  1
GRIDFORMAT_BEGIN
 90
        0
 91
        1
 62
     0
 92
       -2
340
14
 93
        0
 40
0.045
309
GRIDFORMAT_END
 95
        8
302
GRIDFORMAT
  1
GRIDFORMAT_BEGIN
 90
        0
 91
        1
 62
     0
 92
       -2
340
14
 93
        0
 40
0.045
309
GRIDFORMAT_END
 95
       16
302
GRIDFORMAT
  1
GRIDFORMAT_BEGIN
 90
        0
 91
        1
 62
     0
 92
       -2
340
14
 93
        0
 40
0.045
309
GRIDFORMAT_END
 95
       32
302
GRIDFORMAT
  1
GRIDFORMAT_BEGIN
 90
        0
 91
        1
 62
     0
 92
       -2
340
14
 93
        0
 40
0.045
309
GRIDFORMAT_END
309
TABLEFORMAT_END
  1
CELLSTYLE_BEGIN
 90
        1
 91
        1
300
_TITLE
309
CELLSTYLE_END
300
CELLSTYLE
  1
TABLEFORMAT_BEGIN
 90
        5
170
     1
 91
        0
 92
        0
 62
   257
 93
        1
300
CONTENTFORMAT
  1
CONTENTFORMAT_BEGIN
 90
        0
 91
        0
 92
        4
 93
        0
300

 40
0.0
140
1.0
 94
        5
 62
     0
340
11
144
0.18
309
CONTENTFORMAT_END
171
     1
301
MARGIN
  1
CELLMARGIN_BEGIN
 40
0.06
 40
0.06
 40
0.06
 40
0.06
 40
0.06
 40
0.06
309
CELLMARGIN_END
 94
        6
 95
        1
302
GRIDFORMAT
  1
GRIDFORMAT_BEGIN
 90
        0
 91
        1
 62
     0
 92
       -2
340
14
 93
        0
 40
0.045
309
GRIDFORMAT_END
 95
        2
302
GRIDFORMAT
  1
GRIDFORMAT_BEGIN
 90
        0
 91
        1
 62
     0
 92
       -2
340
14
 93
        0
 40
0.045
309
GRIDFORMAT_END
 95
        4
302
GRIDFORMAT
  1
GRIDFORMAT_BEGIN
 90
        0
 91
        1
 62
     0
 92
       -2
340
14
 93
        0
 40
0.045
309
GRIDFORMAT_END
 95
        8
302
GRIDFORMAT
  1
GRIDFORMAT_BEGIN
 90
        0
 91
        1
 62
     0
 92
       -2
340
14
 93
        0
 40
0.045
309
GRIDFORMAT_END
 95
       16
302
GRIDFORMAT
  1
GRIDFORMAT_BEGIN
 90
        0
 91
        1
 62
     0
 92
       -2
340
14
 93
        0
 40
0.045
309
GRIDFORMAT_END
 95
       32
302
GRIDFORMAT
  1
GRIDFORMAT_BEGIN
 90
        0
 91
        1
 62
     0
 92
       -2
340
14
 93
        0
 40
0.045
309
GRIDFORMAT_END
309
TABLEFORMAT_END
  1
CELLSTYLE_BEGIN
 90
        2
 91
        1
300
_HEADER
309
CELLSTYLE_END
300
CELLSTYLE
  1
TABLEFORMAT_BEGIN
 90
        5
170
     1
 91
        0
 92
        0
 62
   257
 93
        1
300
CONTENTFORMAT
  1
CONTENTFORMAT_BEGIN
 90
        0
 91
        0
 92
        4
 93
        0
300

 40
0.0
140
1.0
 94
        2
 62
     0
340
11
144
0.18
309
CONTENTFORMAT_END
171
     1
301
MARGIN
  1
CELLMARGIN_BEGIN
 40
0.06
 40
0.06
 40
0.06
 40
0.06
 40
0.06
 40
0.06
309
CELLMARGIN_END
 94
        6
 95
        1
302
GRIDFORMAT
  1
GRIDFORMAT_BEGIN
 90
        0
 91
        1
 62
     0
 92
       -2
340
14
 93
        0
 40
0.045
309
GRIDFORMAT_END
 95
        2
302
GRIDFORMAT
  1
GRIDFORMAT_BEGIN
 90
        0
 91
        1
 62
     0
 92
       -2
340
14
 93
        0
 40
0.045
309
GRIDFORMAT_END
 95
        4
302
GRIDFORMAT
  1
GRIDFORMAT_BEGIN
 90
        0
 91
        1
 62
     0
 92
       -2
340
14
 93
        0
 40
0.045
309
GRIDFORMAT_END
 95
        8
302
GRIDFORMAT
  1
GRIDFORMAT_BEGIN
 90
        0
 91
        1
 62
     0
 92
       -2
340
14
 93
        0
 40
0.045
309
GRIDFORMAT_END
 95
       16
302
GRIDFORMAT
  1
GRIDFORMAT_BEGIN
 90
        0
 91
        1
 62
     0
 92
       -2
340
14
 93
        0
 40
0.045
309
GRIDFORMAT_END
 95
       32
302
GRIDFORMAT
  1
GRIDFORMAT_BEGIN
 90
        0
 91
        1
 62
     0
 92
       -2
340
14
 93
        0
 40
0.045
309
GRIDFORMAT_END
309
TABLEFORMAT_END
  1
CELLSTYLE_BEGIN
 90
        3
 91
        2
300
_DATA
309
CELLSTYLE_END
  0
ENDSEC
  0
EOF