0
SECTION
  2
HEADER
  9
$ACADVER
  1
AC1027
  9
$ACADMAINTVER
 70
     8
  9
$DWGCODEPAGE
  3
ANSI_1252
  9
$REQUIREDVERSIONS
160
                 0
  9
$COMMENTS
  1
File was created by Cadenas
  9
$CUSTOMPROPERTYTAG
  1
NN
  9
$CUSTOMPROPERTY
  1
Type E-Xtra Pillow Block 4-Bolt Base Inch Bore
  9
$CUSTOMPROPERTYTAG
  1
NT
  9
$CUSTOMPROPERTY
  1
Type E Pillow Block Bearing -(4-Bolt Base) -Inch
  9
$CUSTOMPROPERTYTAG
  1
NB
  9
$CUSTOMPROPERTY
  1
023043
  9
$CUSTOMPROPERTYTAG
  1
NBSYN
  9
$CUSTOMPROPERTY
  1
$PN.
  9
$CUSTOMPROPERTYTAG
  1
LINA
  9
$CUSTOMPROPERTY
  1
023043
  9
$CUSTOMPROPERTYTAG
  1
SS
  9
$CUSTOMPROPERTY
  1
6-7/16
  9
$CUSTOMPROPERTYTAG
  1
PN
  9
$CUSTOMPROPERTY
  1
023043
  9
$CUSTOMPROPERTYTAG
  1
DESCRIPTION
  9
$CUSTOMPROPERTY
  1
P4B-E-607R
  9
$CUSTOMPROPERTYTAG
  1
A
  9
$CUSTOMPROPERTY
  1
10-1/2
  9
$CUSTOMPROPERTYTAG
  1
B
  9
$CUSTOMPROPERTY
  1
26
  9
$CUSTOMPROPERTYTAG
  1
C
  9
$CUSTOMPROPERTY
  1
7-1/8
  9
$CUSTOMPROPERTYTAG
  1
DMIN
  9
$CUSTOMPROPERTY
  1
21-1/4
  9
$CUSTOMPROPERTYTAG
  1
DMAX
  9
$CUSTOMPROPERTY
  1
23-1/4
  9
$CUSTOMPROPERTYTAG
  1
E
  9
$CUSTOMPROPERTY
  1
4-5/8
  9
$CUSTOMPROPERTYTAG
  1
F
  9
$CUSTOMPROPERTY
  1
1
  9
$CUSTOMPROPERTYTAG
  1
G
  9
$CUSTOMPROPERTY
  1
2
  9
$CUSTOMPROPERTYTAG
  1
H
  9
$CUSTOMPROPERTY
  1
3-11/16
  9
$CUSTOMPROPERTYTAG
  1
J
  9
$CUSTOMPROPERTY
  1
14-15/16
  9
$CUSTOMPROPERTYTAG
  1
J1
  9
$CUSTOMPROPERTY
  1
14-33/64
  9
$CUSTOMPROPERTYTAG
  1
L
  9
$CUSTOMPROPERTY
  1
11-3/8
  9
$CUSTOMPROPERTYTAG
  1
M
  9
$CUSTOMPROPERTY
  1
7-1/2
  9
$CUSTOMPROPERTYTAG
  1
COMPANY
  9
$CUSTOMPROPERTY
  1
baldor
  9
$INSBASE
 10
0.0
 20
0.0
 30
0.0
  9
$EXTMIN
 10
1.000000000000000E+20
 20
1.000000000000000E+20
 30
1.000000000000000E+20
  9
$EXTMAX
 10
-1.000000000000000E+20
 20
-1.000000000000000E+20
 30
-1.000000000000000E+20
  9
$LIMMIN
 10
0.0
 20
0.0
  9
$LIMMAX
 10
12.0
 20
9.0
  9
$ORTHOMODE
 70
     0
  9
$REGENMODE
 70
     1
  9
$FILLMODE
 70
     1
  9
$QTEXTMODE
 70
     0
  9
$MIRRTEXT
 70
     1
  9
$LTSCALE
 40
1.0
  9
$ATTMODE
 70
     1
  9
$TEXTSIZE
 40
0.2
  9
$TRACEWID
 40
0.05
  9
$TEXTSTYLE
  7
Standard
  9
$CLAYER
  8
0
  9
$CELTYPE
  6
ByLayer
  9
$CECOLOR
 62
   256
  9
$CELTSCALE
 40
1.0
  9
$DISPSILH
 70
     0
  9
$DIMSCALE
 40
1.0
  9
$DIMASZ
 40
0.18
  9
$DIMEXO
 40
0.0625
  9
$DIMDLI
 40
0.38
  9
$DIMRND
 40
0.0
  9
$DIMDLE
 40
0.0
  9
$DIMEXE
 40
0.18
  9
$DIMTP
 40
0.0
  9
$DIMTM
 40
0.0
  9
$DIMTXT
 40
0.18
  9
$DIMCEN
 40
0.09
  9
$DIMTSZ
 40
0.0
  9
$DIMTOL
 70
     0
  9
$DIMLIM
 70
     0
  9
$DIMTIH
 70
     1
  9
$DIMTOH
 70
     1
  9
$DIMSE1
 70
     0
  9
$DIMSE2
 70
     0
  9
$DIMTAD
 70
     0
  9
$DIMZIN
 70
     0
  9
$DIMBLK
  1

  9
$DIMASO
 70
     1
  9
$DIMSHO
 70
     1
  9
$DIMPOST
  1

  9
$DIMAPOST
  1

  9
$DIMALT
 70
     0
  9
$DIMALTD
 70
     2
  9
$DIMALTF
 40
25.4
  9
$DIMLFAC
 40
1.0
  9
$DIMTOFL
 70
     0
  9
$DIMTVP
 40
0.0
  9
$DIMTIX
 70
     0
  9
$DIMSOXD
 70
     0
  9
$DIMSAH
 70
     0
  9
$DIMBLK1
  1

  9
$DIMBLK2
  1

  9
$DIMSTYLE
  2
Standard
  9
$DIMCLRD
 70
     0
  9
$DIMCLRE
 70
     0
  9
$DIMCLRT
 70
     0
  9
$DIMTFAC
 40
1.0
  9
$DIMGAP
 40
0.09
  9
$DIMJUST
 70
     0
  9
$DIMSD1
 70
     0
  9
$DIMSD2
 70
     0
  9
$DIMTOLJ
 70
     1
  9
$DIMTZIN
 70
     0
  9
$DIMALTZ
 70
     0
  9
$DIMALTTZ
 70
     0
  9
$DIMUPT
 70
     0
  9
$DIMDEC
 70
     4
  9
$DIMTDEC
 70
     4
  9
$DIMALTU
 70
     2
  9
$DIMALTTD
 70
     2
  9
$DIMTXSTY
  7
Standard
  9
$DIMAUNIT
 70
     0
  9
$DIMADEC
 70
     0
  9
$DIMALTRND
 40
0.0
  9
$DIMAZIN
 70
     0
  9
$DIMDSEP
 70
    46
  9
$DIMATFIT
 70
     3
  9
$DIMFRAC
 70
     0
  9
$DIMLDRBLK
  1

  9
$DIMLUNIT
 70
     2
  9
$DIMLWD
 70
    -2
  9
$DIMLWE
 70
    -2
  9
$DIMTMOVE
 70
     0
  9
$DIMFXL
 40
1.0
  9
$DIMFXLON
 70
     0
  9
$DIMJOGANG
 40
0.7853981633974483
  9
$DIMTFILL
 70
     0
  9
$DIMTFILLCLR
 70
     0
  9
$DIMARCSYM
 70
     0
  9
$DIMLTYPE
  6

  9
$DIMLTEX1
  6

  9
$DIMLTEX2
  6

  9
$DIMTXTDIRECTION
 70
     0
  9
$LUNITS
 70
     2
  9
$LUPREC
 70
     4
  9
$SKETCHINC
 40
0.1
  9
$FILLETRAD
 40
0.5
  9
$AUNITS
 70
     0
  9
$AUPREC
 70
     0
  9
$MENU
  1
.
  9
$ELEVATION
 40
0.0
  9
$PELEVATION
 40
0.0
  9
$THICKNESS
 40
0.0
  9
$LIMCHECK
 70
     0
  9
$CHAMFERA
 40
0.0
  9
$CHAMFERB
 40
0.0
  9
$CHAMFERC
 40
0.0
  9
$CHAMFERD
 40
0.0
  9
$SKPOLY
 70
     0
  9
$TDCREATE
 40
2458169.000476944
  9
$TDUCREATE
 40
2458168.958810278
  9
$TDUPDATE
 40
2458169.00047713
  9
$TDUUPDATE
 40
2458168.958810463
  9
$TDINDWG
 40
0.0000000116
  9
$TDUSRTIMER
 40
0.0000000116
  9
$USRTIMER
 70
     1
  9
$ANGBASE
 50
0.0
  9
$ANGDIR
 70
     0
  9
$PDMODE
 70
     0
  9
$PDSIZE
 40
0.0
  9
$PLINEWID
 40
0.0
  9
$SPLFRAME
 70
     0
  9
$SPLINETYPE
 70
     6
  9
$SPLINESEGS
 70
     8
  9
$HANDSEED
  5
1FB
  9
$SURFTAB1
 70
     6
  9
$SURFTAB2
 70
     6
  9
$SURFTYPE
 70
     6
  9
$SURFU
 70
     6
  9
$SURFV
 70
     6
  9
$UCSBASE
  2

  9
$UCSNAME
  2

  9
$UCSORG
 10
0.0
 20
0.0
 30
0.0
  9
$UCSXDIR
 10
1.0
 20
0.0
 30
0.0
  9
$UCSYDIR
 10
0.0
 20
1.0
 30
0.0
  9
$UCSORTHOREF
  2

  9
$UCSORTHOVIEW
 70
     0
  9
$UCSORGTOP
 10
0.0
 20
0.0
 30
0.0
  9
$UCSORGBOTTOM
 10
0.0
 20
0.0
 30
0.0
  9
$UCSORGLEFT
 10
0.0
 20
0.0
 30
0.0
  9
$UCSORGRIGHT
 10
0.0
 20
0.0
 30
0.0
  9
$UCSORGFRONT
 10
0.0
 20
0.0
 30
0.0
  9
$UCSORGBACK
 10
0.0
 20
0.0
 30
0.0
  9
$PUCSBASE
  2

  9
$PUCSNAME
  2

  9
$PUCSORG
 10
0.0
 20
0.0
 30
0.0
  9
$PUCSXDIR
 10
1.0
 20
0.0
 30
0.0
  9
$PUCSYDIR
 10
0.0
 20
1.0
 30
0.0
  9
$PUCSORTHOREF
  2

  9
$PUCSORTHOVIEW
 70
     0
  9
$PUCSORGTOP
 10
0.0
 20
0.0
 30
0.0
  9
$PUCSORGBOTTOM
 10
0.0
 20
0.0
 30
0.0
  9
$PUCSORGLEFT
 10
0.0
 20
0.0
 30
0.0
  9
$PUCSORGRIGHT
 10
0.0
 20
0.0
 30
0.0
  9
$PUCSORGFRONT
 10
0.0
 20
0.0
 30
0.0
  9
$PUCSORGBACK
 10
0.0
 20
0.0
 30
0.0
  9
$USERI1
 70
     0
  9
$USERI2
 70
     0
  9
$USERI3
 70
     0
  9
$USERI4
 70
     0
  9
$USERI5
 70
     0
  9
$USERR1
 40
0.0
  9
$USERR2
 40
0.0
  9
$USERR3
 40
0.0
  9
$USERR4
 40
0.0
  9
$USERR5
 40
0.0
  9
$WORLDVIEW
 70
     1
  9
$SHADEDGE
 70
     3
  9
$SHADEDIF
 70
    70
  9
$TILEMODE
 70
     1
  9
$MAXACTVP
 70
    64
  9
$PINSBASE
 10
0.0
 20
0.0
 30
0.0
  9
$PLIMCHECK
 70
     0
  9
$PEXTMIN
 10
1.000000000000000E+20
 20
1.000000000000000E+20
 30
1.000000000000000E+20
  9
$PEXTMAX
 10
-1.000000000000000E+20
 20
-1.000000000000000E+20
 30
-1.000000000000000E+20
  9
$PLIMMIN
 10
0.0
 20
0.0
  9
$PLIMMAX
 10
12.0
 20
9.0
  9
$UNITMODE
 70
     0
  9
$VISRETAIN
 70
     1
  9
$PLINEGEN
 70
     0
  9
$PSLTSCALE
 70
     1
  9
$TREEDEPTH
 70
  3020
  9
$CMLSTYLE
  2
Standard
  9
$CMLJUST
 70
     0
  9
$CMLSCALE
 40
1.0
  9
$PROXYGRAPHICS
 70
     1
  9
$MEASUREMENT
 70
     0
  9
$CELWEIGHT
370
    -1
  9
$ENDCAPS
280
     0
  9
$JOINSTYLE
280
     0
  9
$LWDISPLAY
290
     0
  9
$INSUNITS
 70
     1
  9
$HYPERLINKBASE
  1

  9
$STYLESHEET
  1

  9
$XEDIT
290
     1
  9
$CEPSNTYPE
380
     0
  9
$PSTYLEMODE
290
     1
  9
$FINGERPRINTGUID
  2
{E16DF7AC-D995-4602-ABD7-84AE2F4C6275}
  9
$VERSIONGUID
  2
{FAEB1C32-E019-11D5-929B-00C0DF256EC4}
  9
$EXTNAMES
290
     1
  9
$PSVPSCALE
 40
0.0
  9
$OLESTARTUP
290
     0
  9
$SORTENTS
280
   127
  9
$INDEXCTL
280
     0
  9
$HIDETEXT
280
     1
  9
$XCLIPFRAME
280
     2
  9
$HALOGAP
280
     0
  9
$OBSCOLOR
 70
   257
  9
$OBSLTYPE
280
     0
  9
$INTERSECTIONDISPLAY
280
     0
  9
$INTERSECTIONCOLOR
 70
   257
  9
$DIMASSOC
280
     2
  9
$PROJECTNAME
  1

  9
$CAMERADISPLAY
290
     0
  9
$LENSLENGTH
 40
50.0
  9
$CAMERAHEIGHT
 40
0.0
  9
$STEPSPERSEC
 40
2.0
  9
$STEPSIZE
 40
6.0
  9
$3DDWFPREC
 40
2.0
  9
$PSOLWIDTH
 40
0.25
  9
$PSOLHEIGHT
 40
4.0
  9
$LOFTANG1
 40
1.570796326794897
  9
$LOFTANG2
 40
1.570796326794897
  9
$LOFTMAG1
 40
0.0
  9
$LOFTMAG2
 40
0.0
  9
$LOFTPARAM
 70
     7
  9
$LOFTNORMALS
280
     1
  9
$LATITUDE
 40
37.795
  9
$LONGITUDE
 40
-122.394
  9
$NORTHDIRECTION
 40
0.0
  9
$TIMEZONE
 70
 -8000
  9
$LIGHTGLYPHDISPLAY
280
     1
  9
$TILEMODELIGHTSYNCH
280
     1
  9
$CMATERIAL
347
44
  9
$SOLIDHIST
280
     0
  9
$SHOWHIST
280
     1
  9
$DWFFRAME
280
     2
  9
$DGNFRAME
280
     2
  9
$REALWORLDSCALE
290
     1
  9
$INTERFERECOLOR
 62
   256
  9
$CSHADOW
280
     0
  9
$SHADOWPLANELOCATION
 40
0.0
  0
ENDSEC
  0
SECTION
  2
CLASSES
  0
CLASS
  1
ACDBDICTIONARYWDFLT
  2
AcDbDictionaryWithDefault
  3
ObjectDBX Classes
 90
        0
 91
        4
280
     0
281
     0
  0
CLASS
  1
VISUALSTYLE
  2
AcDbVisualStyle
  3
ObjectDBX Classes
 90
     4095
 91
        4
280
     0
281
     0
  0
CLASS
  1
MATERIAL
  2
AcDbMaterial
  3
ObjectDBX Classes
 90
     1153
 91
        4
280
     0
281
     0
  0
CLASS
  1
SCALE
  2
AcDbScale
  3
ObjectDBX Classes
 90
     1153
 91
        4
280
     0
281
     0
  0
CLASS
  1
TABLESTYLE
  2
AcDbTableStyle
  3
ObjectDBX Classes
 90
     4095
 91
        4
280
     0
281
     0
  0
CLASS
  1
MLEADERSTYLE
  2
AcDbMLeaderStyle
  3
ACDB_MLEADERSTYLE_CLASS
 90
     4095
 91
        4
280
     0
281
     0
  0
CLASS
  1
SUN
  2
AcDbSun
  3
SCENEOE
 90
     1153
 91
        4
280
     0
281
     0
  0
CLASS
  1
DICTIONARYVAR
  2
AcDbDictionaryVar
  3
ObjectDBX Classes
 90
        0
 91
        4
280
     0
281
     0
  0
CLASS
  1
CELLSTYLEMAP
  2
AcDbCellStyleMap
  3
ObjectDBX Classes
 90
     1152
 91
        4
280
     0
281
     0
  0
ENDSEC
  0
SECTION
  2
TABLES
  0
TABLE
  2
VPORT
  5
8
330
0
100
AcDbSymbolTable
 70
     1
  0
VPORT
  5
29
330
8
100
AcDbSymbolTableRecord
100
AcDbViewportTableRecord
  2
*Active
 70
     0
 10
0.0
 20
0.0
 11
1.0
 21
1.0
 12
-0.0000000000000018
 22
-0.0312499999999609
 13
0.0
 23
0.0
 14
0.5
 24
0.5
 15
0.5
 25
0.5
 16
0.0
 26
0.0
 36
1.0
 17
0.0
 27
0.0
 37
0.0
 40
15.23625000000008
 41
0.7732217573221717
 42
50.0
 43
0.0
 44
0.0
 50
0.0
 51
0.0
 71
     0
 72
   100
 73
     1
 74
     3
 75
     0
 76
     0
 77
     0
 78
     0
281
     0
 65
     1
110
0.0
120
0.0
130
0.0
111
1.0
121
0.0
131
0.0
112
0.0
122
1.0
132
0.0
 79
     0
146
0.0
348
2F
 60
     3
 61
     5
292
     1
282
     1
141
0.0
142
0.0
 63
   250
361
6D
  0
ENDTAB
  0
TABLE
  2
LTYPE
  5
5
330
0
100
AcDbSymbolTable
 70
     3
  0
LTYPE
  5
14
330
5
100
AcDbSymbolTableRecord
100
AcDbLinetypeTableRecord
  2
ByBlock
 70
     0
  3

 72
    65
 73
     0
 40
0.0
  0
LTYPE
  5
15
330
5
100
AcDbSymbolTableRecord
100
AcDbLinetypeTableRecord
  2
ByLayer
 70
     0
  3

 72
    65
 73
     0
 40
0.0
  0
LTYPE
  5
16
330
5
100
AcDbSymbolTableRecord
100
AcDbLinetypeTableRecord
  2
Continuous
 70
     0
  3
Solid line
 72
    65
 73
     0
 40
0.0
  0
LTYPE
  5
9E
330
5
100
AcDbSymbolTableRecord
100
AcDbLinetypeTableRecord
  2
Dashed
 70
     0
  3

 72
    65
 73
     2
 40
2.0
 49
1.0
 74
     0
 49
-1.0
 74
     0
  0
LTYPE
  5
139
330
5
100
AcDbSymbolTableRecord
100
AcDbLinetypeTableRecord
  2
Center
 70
     0
  3

 72
    65
 73
     4
 40
1.5
 49
0.45
 74
     0
 49
-0.5
 74
     0
 49
0.05
 74
     0
 49
-0.5
 74
     0
  0
ENDTAB
  0
TABLE
  2
LAYER
  5
2
330
0
100
AcDbSymbolTable
 70
     7
  0
LAYER
  5
10
330
2
100
AcDbSymbolTableRecord
100
AcDbLayerTableRecord
  2
0
 70
     0
 62
     7
  6
Continuous
370
    -3
390
F
347
46
348
0
  0
LAYER
  5
72
330
2
100
AcDbSymbolTableRecord
100
AcDbLayerTableRecord
  2
AM_6
 70
     0
 62
    -2
  6
Continuous
370
    35
390
F
347
46
348
0
  0
LAYER
  5
9F
330
2
100
AcDbSymbolTableRecord
100
AcDbLayerTableRecord
  2
AM_9
 70
     0
 62
     6
  6
Dashed
370
    25
390
F
347
46
348
0
  0
LAYER
  5
B1
330
2
100
AcDbSymbolTableRecord
100
AcDbLayerTableRecord
  2
AM_5
 70
     0
 62
     3
  6
Continuous
370
    25
390
F
347
46
348
0
  0
LAYER
  5
B5
330
2
100
AcDbSymbolTableRecord
100
AcDbLayerTableRecord
  2
AM_4
 70
     0
 62
     7
  6
Continuous
370
    50
390
F
347
46
348
0
  0
LAYER
  5
13A
330
2
100
AcDbSymbolTableRecord
100
AcDbLayerTableRecord
  2
AM_7
 70
     0
 62
     7
  6
Center
370
    25
390
F
347
46
348
0
  0
LAYER
  5
1EA
330
2
100
AcDbSymbolTableRecord
100
AcDbLayerTableRecord
  2
ConnectionPoints
 70
     0
 62
     7
  6
Continuous
370
    50
390
F
347
46
348
0
  0
ENDTAB
  0
TABLE
  2
STYLE
  5
3
330
0
100
AcDbSymbolTable
 70
     1
  0
STYLE
  5
11
330
3
100
AcDbSymbolTableRecord
100
AcDbTextStyleTableRecord
  2
Standard
 70
     0
 40
0.0
 41
1.0
 50
0.0
 71
     0
 42
0.2
  3
txt
  4

  0
ENDTAB
  0
TABLE
  2
VIEW
  5
6
330
0
100
AcDbSymbolTable
 70
     0
  0
ENDTAB
  0
TABLE
  2
UCS
  5
7
330
0
100
AcDbSymbolTable
 70
     0
  0
ENDTAB
  0
TABLE
  2
APPID
  5
9
330
0
100
AcDbSymbolTable
 70
     1
  0
APPID
  5
12
330
9
100
AcDbSymbolTableRecord
100
AcDbRegAppTableRecord
  2
ACAD
 70
     0
  0
ENDTAB
  0
TABLE
  2
DIMSTYLE
  5
A
330
0
100
AcDbSymbolTable
 70
     1
100
AcDbDimStyleTable
  0
DIMSTYLE
105
27
330
A
100
AcDbSymbolTableRecord
100
AcDbDimStyleTableRecord
  2
Standard
 70
     0
178
     0
340
11
  0
ENDTAB
  0
TABLE
  2
BLOCK_RECORD
  5
1
330
0
100
AcDbSymbolTable
 70
     7
  0
BLOCK_RECORD
  5
1F
330
1
100
AcDbSymbolTableRecord
100
AcDbBlockTableRecord
  2
*Model_Space
340
22
 70
     0
280
     1
281
     0
  0
BLOCK_RECORD
  5
1B
330
1
100
AcDbSymbolTableRecord
100
AcDbBlockTableRecord
  2
*Paper_Space
340
1E
 70
     0
280
     1
281
     0
  0
BLOCK_RECORD
  5
23
330
1
100
AcDbSymbolTableRecord
100
AcDbBlockTableRecord
  2
*Paper_Space0
340
26
 70
     0
280
     1
281
     0
  0
BLOCK_RECORD
  5
6E
330
1
100
AcDbSymbolTableRecord
100
AcDbBlockTableRecord
  2
1_023043_2
340
0
102
{BLKREFS
331
6F
102
}
 70
     0
280
     1
281
     0
  0
BLOCK_RECORD
  5
89
330
1
100
AcDbSymbolTableRecord
100
AcDbBlockTableRecord
  2
2_6_7_16C_1_0_in_023043_2
340
0
102
{BLKREFS
331
8A
102
}
 70
     0
280
     1
281
     0
  0
BLOCK_RECORD
  5
C1
330
1
100
AcDbSymbolTableRecord
100
AcDbBlockTableRecord
  2
3_6_7_16C_2_0_in_023043_2
340
0
102
{BLKREFS
331
C2
102
}
 70
     0
280
     1
281
     0
  0
BLOCK_RECORD
  5
F4
330
1
100
AcDbSymbolTableRecord
100
AcDbBlockTableRecord
  2
4_6_7_16I_0_in_023043_2
340
0
102
{BLKREFS
331
F5
102
}
 70
     0
280
     1
281
     0
  0
BLOCK_RECORD
  5
142
330
1
100
AcDbSymbolTableRecord
100
AcDbBlockTableRecord
  2
5_405015E_Inch_0_in_023043_2
340
0
102
{BLKREFS
331
143
102
}
 70
     0
280
     1
281
     0
  0
BLOCK_RECORD
  5
19B
330
1
100
AcDbSymbolTableRecord
100
AcDbBlockTableRecord
  2
6_023043H_0_in_023043_2
340
0
102
{BLKREFS
331
19C
102
}
 70
     0
280
     1
281
     0
  0
ENDTAB
  0
ENDSEC
  0
SECTION
  2
BLOCKS
  0
BLOCK
  5
20
330
1F
100
AcDbEntity
  8
0
100
AcDbBlockBegin
  2
*Model_Space
 70
     0
 10
0.0
 20
0.0
 30
0.0
  3
*Model_Space
  1

  0
ENDBLK
  5
21
330
1F
100
AcDbEntity
  8
0
100
AcDbBlockEnd
  0
BLOCK
  5
1C
330
1B
100
AcDbEntity
 67
     1
  8
0
100
AcDbBlockBegin
  2
*Paper_Space
 70
     0
 10
0.0
 20
0.0
 30
0.0
  3
*Paper_Space
  1

  0
ENDBLK
  5
1D
330
1B
100
AcDbEntity
 67
     1
  8
0
100
AcDbBlockEnd
  0
BLOCK
  5
24
330
23
100
AcDbEntity
  8
0
100
AcDbBlockBegin
  2
*Paper_Space0
 70
     0
 10
0.0
 20
0.0
 30
0.0
  3
*Paper_Space0
  1

  0
ENDBLK
  5
25
330
23
100
AcDbEntity
  8
0
100
AcDbBlockEnd
  0
BLOCK
  5
70
330
6E
100
AcDbEntity
  8
0
100
AcDbBlockBegin
  2
1_023043_2
 70
     2
 10
0.0
 20
0.0
 30
0.0
  3
1_023043_2
  1

  0
ATTDEF
  5
73
330
6E
100
AcDbEntity
  8
AM_6
100
AcDbText
 10
10.775
 20
7.437500000000079
 30
0.0
 40
0.5
  1
Type E-Xtra Pillow Block 4-Bolt Base Inch Bore
100
AcDbAttributeDefinition
  3

  2
NN
 70
     8
280
     0
  0
ATTDEF
  5
74
330
6E
100
AcDbEntity
  8
AM_6
100
AcDbText
 10
10.775
 20
6.937500000000079
 30
0.0
 40
0.5
  1
Type E Pillow Block Bearing -(4-Bolt Base) -Inch
100
AcDbAttributeDefinition
  3

  2
NT
 70
     8
280
     0
  0
ATTDEF
  5
75
330
6E
100
AcDbEntity
  8
AM_6
100
AcDbText
 10
10.775
 20
6.437500000000079
 30
0.0
 40
0.5
  1
023043
100
AcDbAttributeDefinition
  3

  2
NB
 70
     8
280
     0
  0
ATTDEF
  5
76
330
6E
100
AcDbEntity
  8
AM_6
100
AcDbText
 10
10.775
 20
5.937500000000079
 30
0.0
 40
0.5
  1
$PN.
100
AcDbAttributeDefinition
  3

  2
NBSYN
 70
     8
280
     0
  0
ATTDEF
  5
77
330
6E
100
AcDbEntity
  8
AM_6
100
AcDbText
 10
10.775
 20
5.437500000000079
 30
0.0
 40
0.5
  1
023043
100
AcDbAttributeDefinition
  3

  2
LINA
 70
     8
280
     0
  0
ATTDEF
  5
78
330
6E
100
AcDbEntity
  8
AM_6
100
AcDbText
 10
10.775
 20
4.937500000000079
 30
0.0
 40
0.5
  1
6-7/16
100
AcDbAttributeDefinition
  3

  2
SS
 70
     8
280
     0
  0
ATTDEF
  5
79
330
6E
100
AcDbEntity
  8
AM_6
100
AcDbText
 10
10.775
 20
4.437500000000079
 30
0.0
 40
0.5
  1
023043
100
AcDbAttributeDefinition
  3

  2
PN
 70
     8
280
     0
  0
ATTDEF
  5
7A
330
6E
100
AcDbEntity
  8
AM_6
100
AcDbText
 10
10.775
 20
3.937500000000079
 30
0.0
 40
0.5
  1
P4B-E-607R
100
AcDbAttributeDefinition
  3

  2
DESCRIPTION
 70
     8
280
     0
  0
ATTDEF
  5
7B
330
6E
100
AcDbEntity
  8
AM_6
100
AcDbText
 10
10.775
 20
3.437500000000079
 30
0.0
 40
0.5
  1
10-1/2
100
AcDbAttributeDefinition
  3

  2
A
 70
     8
280
     0
  0
ATTDEF
  5
7C
330
6E
100
AcDbEntity
  8
AM_6
100
AcDbText
 10
10.775
 20
2.937500000000079
 30
0.0
 40
0.5
  1
26
100
AcDbAttributeDefinition
  3

  2
B
 70
     8
280
     0
  0
ATTDEF
  5
7D
330
6E
100
AcDbEntity
  8
AM_6
100
AcDbText
 10
10.775
 20
2.437500000000079
 30
0.0
 40
0.5
  1
7-1/8
100
AcDbAttributeDefinition
  3

  2
C
 70
     8
280
     0
  0
ATTDEF
  5
7E
330
6E
100
AcDbEntity
  8
AM_6
100
AcDbText
 10
10.775
 20
1.937500000000079
 30
0.0
 40
0.5
  1
21-1/4
100
AcDbAttributeDefinition
  3

  2
DMIN
 70
     8
280
     0
  0
ATTDEF
  5
7F
330
6E
100
AcDbEntity
  8
AM_6
100
AcDbText
 10
10.775
 20
1.437500000000079
 30
0.0
 40
0.5
  1
23-1/4
100
AcDbAttributeDefinition
  3

  2
DMAX
 70
     8
280
     0
  0
ATTDEF
  5
80
330
6E
100
AcDbEntity
  8
AM_6
100
AcDbText
 10
10.775
 20
0.937500000000079
 30
0.0
 40
0.5
  1
4-5/8
100
AcDbAttributeDefinition
  3

  2
E
 70
     8
280
     0
  0
ATTDEF
  5
81
330
6E
100
AcDbEntity
  8
AM_6
100
AcDbText
 10
10.775
 20
0.437500000000079
 30
0.0
 40
0.5
  1
1
100
AcDbAttributeDefinition
  3

  2
F
 70
     8
280
     0
  0
ATTDEF
  5
82
330
6E
100
AcDbEntity
  8
AM_6
100
AcDbText
 10
10.775
 20
-0.062499999999921
 30
0.0
 40
0.5
  1
2
100
AcDbAttributeDefinition
  3

  2
G
 70
     8
280
     0
  0
ATTDEF
  5
83
330
6E
100
AcDbEntity
  8
AM_6
100
AcDbText
 10
10.775
 20
-0.562499999999921
 30
0.0
 40
0.5
  1
3-11/16
100
AcDbAttributeDefinition
  3

  2
H
 70
     8
280
     0
  0
ATTDEF
  5
84
330
6E
100
AcDbEntity
  8
AM_6
100
AcDbText
 10
10.775
 20
-1.062499999999921
 30
0.0
 40
0.5
  1
14-15/16
100
AcDbAttributeDefinition
  3

  2
J
 70
     8
280
     0
  0
ATTDEF
  5
85
330
6E
100
AcDbEntity
  8
AM_6
100
AcDbText
 10
10.775
 20
-1.562499999999921
 30
0.0
 40
0.5
  1
14-33/64
100
AcDbAttributeDefinition
  3

  2
J1
 70
     8
280
     0
  0
ATTDEF
  5
86
330
6E
100
AcDbEntity
  8
AM_6
100
AcDbText
 10
10.775
 20
-2.062499999999921
 30
0.0
 40
0.5
  1
11-3/8
100
AcDbAttributeDefinition
  3

  2
L
 70
     8
280
     0
  0
ATTDEF
  5
87
330
6E
100
AcDbEntity
  8
AM_6
100
AcDbText
 10
10.775
 20
-2.562499999999921
 30
0.0
 40
0.5
  1
7-1/2
100
AcDbAttributeDefinition
  3

  2
M
 70
     8
280
     0
  0
ATTDEF
  5
88
330
6E
100
AcDbEntity
  8
AM_6
100
AcDbText
 10
10.775
 20
-3.062499999999921
 30
0.0
 40
0.5
  1
baldor
100
AcDbAttributeDefinition
  3

  2
COMPANY
 70
     8
280
     0
  0
INSERT
  5
8A
330
6E
100
AcDbEntity
  8
0
100
AcDbBlockReference
  2
2_6_7_16C_1_0_in_023043_2
 10
0.0
 20
0.0
 30
0.0
  0
INSERT
  5
C2
330
6E
100
AcDbEntity
  8
0
100
AcDbBlockReference
  2
3_6_7_16C_2_0_in_023043_2
 10
0.0
 20
0.0
 30
0.0
  0
INSERT
  5
F5
330
6E
100
AcDbEntity
  8
0
100
AcDbBlockReference
  2
4_6_7_16I_0_in_023043_2
 10
0.0
 20
0.0
 30
0.0
  0
INSERT
  5
143
330
6E
100
AcDbEntity
  8
0
100
AcDbBlockReference
  2
5_405015E_Inch_0_in_023043_2
 10
0.0
 20
0.0
 30
0.0
  0
INSERT
  5
19C
330
6E
100
AcDbEntity
  8
0
100
AcDbBlockReference
  2
6_023043H_0_in_023043_2
 10
0.0
 20
0.0
 30
0.0
  0
ENDBLK
  5
71
330
6E
100
AcDbEntity
  8
0
100
AcDbBlockEnd
  0
BLOCK
  5
8B
330
89
100
AcDbEntity
  8
0
100
AcDbBlockBegin
  2
2_6_7_16C_1_0_in_023043_2
 70
     2
 10
0.0
 20
0.0
 30
0.0
  3
2_6_7_16C_1_0_in_023043_2
  1

  0
ATTDEF
  5
8D
330
89
100
AcDbEntity
  8
AM_6
100
AcDbText
 10
10.25
 20
5.6875
 30
0.0
 40
0.5
  1
E-Type Collar -Inch
100
AcDbAttributeDefinition
  3

  2
NN
 70
     8
280
     0
  0
ATTDEF
  5
8E
330
89
100
AcDbEntity
  8
AM_6
100
AcDbText
 10
10.25
 20
5.1875
 30
0.0
 40
0.5
  1
E-Type Bearings
100
AcDbAttributeDefinition
  3

  2
NT
 70
     8
280
     0
  0
ATTDEF
  5
8F
330
89
100
AcDbEntity
  8
AM_6
100
AcDbText
 10
10.25
 20
4.6875
 30
0.0
 40
0.5
  1
6-7/16C
100
AcDbAttributeDefinition
  3

  2
NB
 70
     8
280
     0
  0
ATTDEF
  5
90
330
89
100
AcDbEntity
  8
AM_6
100
AcDbText
 10
10.25
 20
4.1875
 30
0.0
 40
0.5
  1
$BORE.C
100
AcDbAttributeDefinition
  3

  2
NBSYN
 70
     8
280
     0
  0
ATTDEF
  5
91
330
89
100
AcDbEntity
  8
AM_6
100
AcDbText
 10
10.25
 20
3.6875
 30
0.0
 40
0.5
  1
6-7/16C
100
AcDbAttributeDefinition
  3

  2
LINA
 70
     8
280
     0
  0
ATTDEF
  5
92
330
89
100
AcDbEntity
  8
AM_6
100
AcDbText
 10
10.25
 20
3.1875
 30
0.0
 40
0.5
  1
6-7/16
100
AcDbAttributeDefinition
  3

  2
BORE
 70
     8
280
     0
  0
ATTDEF
  5
93
330
89
100
AcDbEntity
  8
AM_6
100
AcDbText
 10
10.25
 20
2.6875
 30
0.0
 40
0.5
  1
11.37500
100
AcDbAttributeDefinition
  3

  2
L
 70
     8
280
     0
  0
ATTDEF
  5
94
330
89
100
AcDbEntity
  8
AM_6
100
AcDbText
 10
10.25
 20
2.1875
 30
0.0
 40
0.5
  1
10.50
100
AcDbAttributeDefinition
  3

  2
A
 70
     8
280
     0
  0
ATTDEF
  5
95
330
89
100
AcDbEntity
  8
AM_6
100
AcDbText
 10
10.25
 20
1.6875
 30
0.0
 40
0.5
  1
5.71
100
AcDbAttributeDefinition
  3

  2
B
 70
     8
280
     0
  0
ATTDEF
  5
96
330
89
100
AcDbEntity
  8
AM_6
100
AcDbText
 10
10.25
 20
1.1875
 30
0.0
 40
0.5
  1
7.79
100
AcDbAttributeDefinition
  3

  2
C
 70
     8
280
     0
  0
ATTDEF
  5
97
330
89
100
AcDbEntity
  8
AM_6
100
AcDbText
 10
10.25
 20
0.6875
 30
0.0
 40
0.5
  1
11.81
100
AcDbAttributeDefinition
  3

  2
D
 70
     8
280
     0
  0
ATTDEF
  5
98
330
89
100
AcDbEntity
  8
AM_6
100
AcDbText
 10
10.25
 20
0.1875
 30
0.0
 40
0.5
  1
0.94
100
AcDbAttributeDefinition
  3

  2
E
 70
     8
280
     0
  0
ATTDEF
  5
99
330
89
100
AcDbEntity
  8
AM_6
100
AcDbText
 10
10.25
 20
-0.3125
 30
0.0
 40
0.5
  1
0.75
100
AcDbAttributeDefinition
  3

  2
F
 70
     8
280
     0
  0
ATTDEF
  5
9A
330
89
100
AcDbEntity
  8
AM_6
100
AcDbText
 10
10.25
 20
-0.8125
 30
0.0
 40
0.5
  1
7/8-9
100
AcDbAttributeDefinition
  3

  2
CS
 70
     8
280
     0
  0
ATTDEF
  5
9B
330
89
100
AcDbEntity
  8
AM_6
100
AcDbText
 10
10.25
 20
-1.3125
 30
0.0
 40
0.5
  1
0.8750
100
AcDbAttributeDefinition
  3

  2
NDM
 70
     8
280
     0
  0
ATTDEF
  5
9C
330
89
100
AcDbEntity
  8
AM_6
100
AcDbText
 10
10.25
 20
-1.8125
 30
0.0
 40
0.5
  1
0.7550
100
AcDbAttributeDefinition
  3

  2
KDM
 70
     8
280
     0
  0
ATTDEF
  5
9D
330
89
100
AcDbEntity
  8
AM_6
100
AcDbText
 10
10.25
 20
-2.3125
 30
0.0
 40
0.5
  1
baldor
100
AcDbAttributeDefinition
  3

  2
COMPANY
 70
     8
280
     0
  0
LINE
  5
A0
330
89
100
AcDbEntity
  8
AM_9
100
AcDbLine
 10
4.12265
 20
3.896816666666667
 30
0.0
 11
4.121487587966114
 21
3.895654254632781
 31
0.0
  0
LINE
  5
A1
330
89
100
AcDbEntity
  8
AM_9
100
AcDbLine
 10
4.878795270922879
 20
3.895371395743787
 30
0.0
 11
4.87735
 21
3.896816666666667
 31
0.0
  0
LINE
  5
A2
330
89
100
AcDbEntity
  8
AM_9
100
AcDbLine
 10
4.87735
 20
5.62735
 30
0.0
 11
4.936706689917866
 21
5.686706689917867
 31
0.0
  0
LINE
  5
A3
330
89
100
AcDbEntity
  8
AM_9
100
AcDbLine
 10
4.062829696419181
 20
5.687170303580819
 30
0.0
 11
4.12265
 21
5.62735
 31
0.0
  0
LINE
  5
A4
330
89
100
AcDbEntity
  8
AM_9
100
AcDbLine
 10
4.12265
 20
5.62735
 30
0.0
 11
4.87735
 21
5.62735
 31
0.0
  0
LINE
  5
A5
330
89
100
AcDbEntity
  8
AM_9
100
AcDbLine
 10
4.12265
 20
3.896816666666667
 30
0.0
 11
4.87735
 21
3.896816666666667
 31
0.0
  0
LINE
  5
A6
330
89
100
AcDbEntity
  8
AM_9
100
AcDbLine
 10
4.87735
 20
3.896816666666667
 30
0.0
 11
4.87735
 21
5.62735
 31
0.0
  0
LINE
  5
A7
330
89
100
AcDbEntity
  8
AM_9
100
AcDbLine
 10
4.12265
 20
5.62735
 30
0.0
 11
4.12265
 21
3.896816666666667
 31
0.0
  0
LWPOLYLINE
  5
A8
330
89
100
AcDbEntity
  8
AM_9
100
AcDbPolyline
 90
        6
 70
     0
 43
0.0
 10
4.121834476547703
 20
1.672319546376553
 10
4.121169444115488
 20
1.661309018087353
 10
4.124236384294125
 20
1.597591607611077
 10
4.138702611811804
 20
1.535557487532715
 10
4.165141743716533
 20
1.474460597362354
 10
4.229069161146938
 20
1.388617852252547
  0
LWPOLYLINE
  5
A9
330
89
100
AcDbEntity
  8
AM_9
100
AcDbPolyline
 90
       19
 70
     0
 43
0.0
 10
4.877797343261408
 20
1.676748029462233
 10
4.867544258417038
 20
1.734451724592326
 10
4.845784847233897
 20
1.793079028081843
 10
4.812179222220466
 20
1.848701517462763
 10
4.770250830024769
 20
1.895736327969919
 10
4.717977569783495
 20
1.936561837322498
 10
4.662516563209466
 20
1.966229383915774
 10
4.599876972576641
 20
1.987459837708312
 10
4.539426335743865
 20
1.997811733376959
 10
4.475877338448805
 20
1.998986482257648
 10
4.417072571363089
 20
1.991307141353838
 10
4.358959785707204
 20
1.974824326390165
 10
4.305882868183988
 20
1.950765320828414
 10
4.256689509525461
 20
1.918666487610117
 10
4.213346278491157
 20
1.879302117539523
 10
4.176786938632038
 20
1.832925387189842
 10
4.148403908292416
 20
1.780318965686416
 10
4.129446776853479
 20
1.722372652166829
 10
4.121834476547703
 20
1.672319546376553
  0
LWPOLYLINE
  5
AA
330
89
100
AcDbEntity
  8
AM_9
100
AcDbPolyline
 90
       17
 70
     0
 43
0.0
 10
4.229069161146938
 20
1.388617852252547
 10
4.27085689018929
 20
1.352123151756434
 10
4.319105953323903
 20
1.321118084565748
 10
4.376850141007684
 20
1.295746959403493
 10
4.440411079306815
 20
1.279857888347893
 10
4.500889398993057
 20
1.275126776980475
 10
4.563167673247253
 20
1.280447272178787
 10
4.620507705673085
 20
1.29484894556754
 10
4.676070081887564
 20
1.318549138718623
 10
4.726493222099727
 20
1.35014413501087
 10
4.772074409572271
 20
1.389777042573557
 10
4.811190697815157
 20
1.436516886029499
 10
4.842625627987642
 20
1.489544243450927
 10
4.864988639244761
 20
1.547468297835854
 10
4.877194478558189
 20
1.609164937780384
 10
4.878223658253783
 20
1.671549109225771
 10
4.877797343261408
 20
1.676748029462233
  0
LINE
  5
AB
330
89
100
AcDbEntity
  8
AM_9
100
AcDbLine
 10
5.25
 20
3.895
 30
0.0
 11
4.878328848739043
 21
3.895
 31
0.0
  0
LINE
  5
AC
330
89
100
AcDbEntity
  8
AM_9
100
AcDbLine
 10
4.122302367914719
 20
3.895
 30
0.0
 11
3.75
 21
3.895
 31
0.0
  0
LINE
  5
AD
330
89
100
AcDbEntity
  8
AM_9
100
AcDbLine
 10
3.75
 20
-3.895
 30
0.0
 11
5.25
 21
-3.895
 31
0.0
  0
LWPOLYLINE
  5
AE
330
89
100
AcDbEntity
  8
AM_9
100
AcDbPolyline
 90
       21
 70
     0
 43
0.0
 10
4.120833333333336
 20
3.894999999999999
 10
4.122185632263238
 20
3.894849858800306
 10
4.133445509893224
 20
3.893661946290239
 10
4.156315414182498
 20
3.891345813830166
 10
4.190094387805053
 20
3.888199568945307
 10
4.233315233655315
 20
3.884639694283976
 10
4.285247099881655
 20
3.881057739809389
 10
4.341956999600484
 20
3.878031167158387
 10
4.403770883564116
 20
3.875765980573451
 10
4.465216104477724
 20
3.874616532765685
 10
4.527710984815864
 20
3.874544491382232
 10
4.58721300113409
 20
3.87553467359204
 10
4.64429251081989
 20
3.877427405845502
 10
4.697797320079718
 20
3.880058110844971
 10
4.746026995648226
 20
3.883122269807183
 10
4.78949773232921
 20
3.886452487162251
 10
4.825125434055526
 20
3.889578868370095
 10
4.85326171513354
 20
3.892296869010405
 10
4.871345634422552
 20
3.894165037890987
 10
4.878965669311953
 20
3.894973844102574
 10
4.879166666666321
 20
3.894999999999963
  0
LINE
  5
AF
330
89
100
AcDbEntity
  8
AM_9
100
AcDbLine
 10
4.877350000000001
 20
1.646865885988853
 30
0.0
 11
4.877350000000001
 21
2.378220875206525
 31
0.0
  0
LINE
  5
B0
330
89
100
AcDbEntity
  8
AM_9
100
AcDbLine
 10
4.12265
 20
2.378220875206525
 30
0.0
 11
4.12265
 21
1.646865885988853
 31
0.0
  0
LINE
  5
B2
330
89
100
AcDbEntity
  8
AM_5
100
AcDbLine
 10
4.937500000000001
 20
5.6875
 30
0.0
 11
4.937500000000001
 21
3.895
 31
0.0
  0
LINE
  5
B3
330
89
100
AcDbEntity
  8
AM_5
100
AcDbLine
 10
4.0625
 20
5.6875
 30
0.0
 11
4.0625
 21
3.895
 31
0.0
  0
ELLIPSE
  5
B4
330
89
100
AcDbEntity
  8
AM_9
100
AcDbEllipse
 10
4.5
 20
1.646865885988853
 30
0.0
 11
0.3773499999999999
 21
0.0
 31
0.0
210
0.0
220
0.0
230
1.0
 40
0.9063077870366502
 41
0.0
 42
6.283185307179586
  0
LINE
  5
B6
330
89
100
AcDbEntity
  8
AM_4
100
AcDbLine
 10
3.75
 20
-5.6875
 30
0.0
 11
3.75
 21
5.6875
 31
0.0
  0
LWPOLYLINE
  5
B7
330
89
100
AcDbEntity
  8
AM_4
100
AcDbPolyline
 90
       38
 70
     0
 43
0.0
 10
4.196010911557399
 20
2.125351929503076
 10
4.153190188187229
 20
2.168213765293583
 10
4.116965884067236
 20
2.217446747584627
 10
4.087241587237519
 20
2.276237540318833
 10
4.068486283499526
 20
2.340470332316247
 10
4.062502430384268
 20
2.402367716037362
 10
4.068357472614
 20
2.465780458235446
 10
4.085181648090564
 20
2.524410241695028
 10
4.113337681799252
 20
2.580983191681126
 10
4.150939729455639
 20
2.631630580807097
 10
4.198556085348946
 20
2.677170076799046
 10
4.254163993035736
 20
2.715303672375295
 10
4.317733727433488
 20
2.745691426820444
 10
4.386587974997657
 20
2.766695667599453
 10
4.46043891818519
 20
2.777819487434928
 10
4.535024397088582
 20
2.778147320489539
 10
4.61073526109989
 20
2.767295425533068
 10
4.681613132195555
 20
2.74594441454157
 10
4.749253761336989
 20
2.713311447570335
 10
4.80695264618556
 20
2.672627035509146
 10
4.857279475970739
 20
2.622003939716404
 10
4.894528363059957
 20
2.567562088056109
 10
4.921366061866685
 20
2.505973087712641
 10
4.934915283483613
 20
2.445035518561448
 10
4.936708760315646
 20
2.380648298166855
 10
4.926929715631633
 20
2.31984199699149
 10
4.905552624928673
 20
2.259372868019853
 10
4.874304766809393
 20
2.204027596566206
 10
4.832549757549381
 20
2.152512521580402
 10
4.782268284905601
 20
2.107756251815506
 10
4.723282800060346
 20
2.070026045615564
 10
4.657951934173768
 20
2.041386979203791
 10
4.586576144741342
 20
2.02253773180527
 10
4.512847237849173
 20
2.014879524979221
 10
4.436682358159377
 20
2.01887753067076
 10
4.363559187336321
 20
2.034442342448751
 10
4.292273513726863
 20
2.062091537212883
 10
4.196010911537323
 20
2.125351929433344
  0
LINE
  5
B8
330
89
100
AcDbEntity
  8
AM_4
100
AcDbLine
 10
5.0
 20
5.6875
 30
0.0
 11
4.936020121867012
 21
5.6875
 31
0.0
  0
LINE
  5
B9
330
89
100
AcDbEntity
  8
AM_4
100
AcDbLine
 10
4.063114436493866
 20
5.6875
 30
0.0
 11
3.75
 21
5.6875
 31
0.0
  0
LINE
  5
BA
330
89
100
AcDbEntity
  8
AM_4
100
AcDbLine
 10
3.75
 20
-5.6875
 30
0.0
 11
5.0
 21
-5.6875
 31
0.0
  0
LWPOLYLINE
  5
BB
330
89
100
AcDbEntity
  8
AM_4
100
AcDbPolyline
 90
       21
 70
     0
 43
0.0
 10
4.937499999999996
 20
5.687499999999999
 10
4.935806321857254
 20
5.687376614406592
 10
4.923864800592644
 20
5.686541084093225
 10
4.900860903249659
 20
5.684990334116413
 10
4.867657115739941
 20
5.682905983246886
 10
4.824262954757725
 20
5.680451472308988
 10
4.772649995797369
 20
5.677928452339516
 10
4.712062467875226
 20
5.675526482571488
 10
4.645948123585422
 20
5.673582220047386
 10
4.573702804412245
 20
5.67228659679888
 10
4.499456176567572
 20
5.671834959900513
 10
4.423831553019918
 20
5.672317361042161
 10
4.350354274979501
 20
5.673671849594255
 10
4.281145913314811
 20
5.675767061919644
 10
4.218270173054477
 20
5.678340625068775
 10
4.164740960823342
 20
5.681044782945714
 10
4.120971272683568
 20
5.683600090411552
 10
4.089553607708402
 20
5.685624925851069
 10
4.069781617431681
 20
5.686984169349974
 10
4.062615989415238
 20
5.687488913120106
 10
4.062500000000058
 20
5.687499999999996
  0
LINE
  5
BC
330
89
100
AcDbEntity
  8
AM_4
100
AcDbLine
 10
5.25
 20
-5.4375
 30
0.0
 11
5.25
 21
5.4375
 31
0.0
  0
LINE
  5
BD
330
89
100
AcDbEntity
  8
AM_4
100
AcDbLine
 10
5.0
 20
-5.6875
 30
0.0
 11
5.0
 21
5.6875
 31
0.0
  0
ARC
  5
BE
330
89
100
AcDbEntity
  8
AM_4
100
AcDbCircle
 10
4.999999999999999
 20
5.437499999999999
 30
0.0
 40
0.2500000000000009
100
AcDbArc
 50
0.0
 51
90.0
  0
ARC
  5
BF
330
89
100
AcDbEntity
  8
AM_4
100
AcDbCircle
 10
4.999999999999999
 20
-5.437499999999999
 30
0.0
 40
0.2500000000000009
100
AcDbArc
 50
270.0
 51
0.0
  0
ELLIPSE
  5
C0
330
89
100
AcDbEntity
  8
AM_4
100
AcDbEllipse
 10
4.5
 20
2.378220875206526
 30
0.0
 11
0.3773500000000007
 21
0.0
 31
0.0
210
0.0
220
0.0
230
1.0
 40
0.9063077870366498
 41
0.0
 42
6.283185307179586
  0
ENDBLK
  5
8C
330
89
100
AcDbEntity
  8
0
100
AcDbBlockEnd
  0
BLOCK
  5
C3
330
C1
100
AcDbEntity
  8
0
100
AcDbBlockBegin
  2
3_6_7_16C_2_0_in_023043_2
 70
     2
 10
0.0
 20
0.0
 30
0.0
  3
3_6_7_16C_2_0_in_023043_2
  1

  0
ATTDEF
  5
C5
330
C1
100
AcDbEntity
  8
AM_6
100
AcDbText
 10
1.25
 20
5.6875
 30
0.0
 40
0.5
  1
E-Type Collar -Inch
100
AcDbAttributeDefinition
  3

  2
NN
 70
     8
280
     0
  0
ATTDEF
  5
C6
330
C1
100
AcDbEntity
  8
AM_6
100
AcDbText
 10
1.25
 20
5.1875
 30
0.0
 40
0.5
  1
E-Type Bearings
100
AcDbAttributeDefinition
  3

  2
NT
 70
     8
280
     0
  0
ATTDEF
  5
C7
330
C1
100
AcDbEntity
  8
AM_6
100
AcDbText
 10
1.25
 20
4.6875
 30
0.0
 40
0.5
  1
6-7/16C
100
AcDbAttributeDefinition
  3

  2
NB
 70
     8
280
     0
  0
ATTDEF
  5
C8
330
C1
100
AcDbEntity
  8
AM_6
100
AcDbText
 10
1.25
 20
4.1875
 30
0.0
 40
0.5
  1
$BORE.C
100
AcDbAttributeDefinition
  3

  2
NBSYN
 70
     8
280
     0
  0
ATTDEF
  5
C9
330
C1
100
AcDbEntity
  8
AM_6
100
AcDbText
 10
1.25
 20
3.6875
 30
0.0
 40
0.5
  1
6-7/16C
100
AcDbAttributeDefinition
  3

  2
LINA
 70
     8
280
     0
  0
ATTDEF
  5
CA
330
C1
100
AcDbEntity
  8
AM_6
100
AcDbText
 10
1.25
 20
3.1875
 30
0.0
 40
0.5
  1
6-7/16
100
AcDbAttributeDefinition
  3

  2
BORE
 70
     8
280
     0
  0
ATTDEF
  5
CB
330
C1
100
AcDbEntity
  8
AM_6
100
AcDbText
 10
1.25
 20
2.6875
 30
0.0
 40
0.5
  1
11.37500
100
AcDbAttributeDefinition
  3

  2
L
 70
     8
280
     0
  0
ATTDEF
  5
CC
330
C1
100
AcDbEntity
  8
AM_6
100
AcDbText
 10
1.25
 20
2.1875
 30
0.0
 40
0.5
  1
10.50
100
AcDbAttributeDefinition
  3

  2
A
 70
     8
280
     0
  0
ATTDEF
  5
CD
330
C1
100
AcDbEntity
  8
AM_6
100
AcDbText
 10
1.25
 20
1.6875
 30
0.0
 40
0.5
  1
5.71
100
AcDbAttributeDefinition
  3

  2
B
 70
     8
280
     0
  0
ATTDEF
  5
CE
330
C1
100
AcDbEntity
  8
AM_6
100
AcDbText
 10
1.25
 20
1.1875
 30
0.0
 40
0.5
  1
7.79
100
AcDbAttributeDefinition
  3

  2
C
 70
     8
280
     0
  0
ATTDEF
  5
CF
330
C1
100
AcDbEntity
  8
AM_6
100
AcDbText
 10
1.25
 20
0.6875
 30
0.0
 40
0.5
  1
11.81
100
AcDbAttributeDefinition
  3

  2
D
 70
     8
280
     0
  0
ATTDEF
  5
D0
330
C1
100
AcDbEntity
  8
AM_6
100
AcDbText
 10
1.25
 20
0.1875
 30
0.0
 40
0.5
  1
0.94
100
AcDbAttributeDefinition
  3

  2
E
 70
     8
280
     0
  0
ATTDEF
  5
D1
330
C1
100
AcDbEntity
  8
AM_6
100
AcDbText
 10
1.25
 20
-0.3125
 30
0.0
 40
0.5
  1
0.75
100
AcDbAttributeDefinition
  3

  2
F
 70
     8
280
     0
  0
ATTDEF
  5
D2
330
C1
100
AcDbEntity
  8
AM_6
100
AcDbText
 10
1.25
 20
-0.8125
 30
0.0
 40
0.5
  1
7/8-9
100
AcDbAttributeDefinition
  3

  2
CS
 70
     8
280
     0
  0
ATTDEF
  5
D3
330
C1
100
AcDbEntity
  8
AM_6
100
AcDbText
 10
1.25
 20
-1.3125
 30
0.0
 40
0.5
  1
0.8750
100
AcDbAttributeDefinition
  3

  2
NDM
 70
     8
280
     0
  0
ATTDEF
  5
D4
330
C1
100
AcDbEntity
  8
AM_6
100
AcDbText
 10
1.25
 20
-1.8125
 30
0.0
 40
0.5
  1
0.7550
100
AcDbAttributeDefinition
  3

  2
KDM
 70
     8
280
     0
  0
ATTDEF
  5
D5
330
C1
100
AcDbEntity
  8
AM_6
100
AcDbText
 10
1.25
 20
-2.3125
 30
0.0
 40
0.5
  1
baldor
100
AcDbAttributeDefinition
  3

  2
COMPANY
 70
     8
280
     0
  0
LINE
  5
D6
330
C1
100
AcDbEntity
  8
AM_9
100
AcDbLine
 10
-4.12265
 20
3.896816666666667
 30
0.0
 11
-4.12265
 21
5.62735
 31
0.0
  0
LINE
  5
D7
330
C1
100
AcDbEntity
  8
AM_9
100
AcDbLine
 10
-4.87735
 20
5.62735
 30
0.0
 11
-4.87735
 21
3.896816666666667
 31
0.0
  0
LINE
  5
D8
330
C1
100
AcDbEntity
  8
AM_9
100
AcDbLine
 10
-4.87735
 20
5.62735
 30
0.0
 11
-4.12265
 21
5.62735
 31
0.0
  0
LINE
  5
D9
330
C1
100
AcDbEntity
  8
AM_9
100
AcDbLine
 10
-4.12265
 20
5.62735
 30
0.0
 11
-4.0625
 21
5.6875
 31
0.0
  0
LINE
  5
DA
330
C1
100
AcDbEntity
  8
AM_9
100
AcDbLine
 10
-4.937500000000001
 20
5.6875
 30
0.0
 11
-4.87735
 21
5.62735
 31
0.0
  0
LWPOLYLINE
  5
DB
330
C1
100
AcDbEntity
  8
AM_9
100
AcDbPolyline
 90
       16
 70
     0
 43
0.0
 10
-4.878334270313612
 20
1.670014064415566
 10
-4.878965669311953
 20
1.656747154768652
 10
-4.875218553293641
 20
1.59385707521574
 10
-4.859735189559126
 20
1.531029762327944
 10
-4.832976108799749
 20
1.471043477799121
 10
-4.795775922926035
 20
1.416318855090619
 10
-4.748978278974497
 20
1.368125860894839
 10
-4.695685840716608
 20
1.329615080430576
 10
-4.636009819252063
 20
1.300430323774294
 10
-4.575203584378253
 20
1.282737784587343
 10
-4.512066513843192
 20
1.275318677321416
 10
-4.451409507424417
 20
1.278306648453031
 10
-4.392135497704108
 20
1.290847150963727
 10
-4.336298582427331
 20
1.312392938877669
 10
-4.284856668919542
 20
1.342057229450441
 10
-4.216489389683735
 20
1.40193662433025
  0
LWPOLYLINE
  5
DC
330
C1
100
AcDbEntity
  8
AM_9
100
AcDbPolyline
 90
       19
 70
     0
 43
0.0
 10
-4.122385169678437
 20
1.678718615088869
 10
-4.133445509893224
 20
1.738054409163308
 10
-4.156315414182498
 20
1.797278418053228
 10
-4.190094387805052
 20
1.851732283824883
 10
-4.233315233655315
 20
1.898981115750259
 10
-4.285247099881655
 20
1.938621832246018
 10
-4.341956999600483
 20
1.968094034444347
 10
-4.403770883564116
 20
1.988352179088129
 10
-4.465216104477724
 20
1.998189728081816
 10
-4.527710984815864
 20
1.998762134858376
 10
-4.58721300113409
 20
1.990372803372489
 10
-4.64429251081989
 20
1.973615465006924
 10
-4.697797320079717
 20
1.948692580383598
 10
-4.746026995648226
 20
1.91655188088599
 10
-4.789497732329209
 20
1.876180386014523
 10
-4.825125434055526
 20
1.829989299449375
 10
-4.85326171513354
 20
1.776296552992198
 10
-4.871345634422552
 20
1.718834684724172
 10
-4.878334270313612
 20
1.670014064415566
  0
LWPOLYLINE
  5
DD
330
C1
100
AcDbEntity
  8
AM_9
100
AcDbPolyline
 90
        7
 70
     0
 43
0.0
 10
-4.216489389683735
 20
1.40193662433025
 10
-4.182741444352961
 20
1.445366737361481
 10
-4.155919697916356
 20
1.49256904908524
 10
-4.133847239473367
 20
1.551679522376201
 10
-4.122431027409347
 20
1.612855875616528
 10
-4.122185632263238
 20
1.676130273707271
 10
-4.122385169678437
 20
1.678718615088869
  0
LINE
  5
DE
330
C1
100
AcDbEntity
  8
AM_9
100
AcDbLine
 10
-5.25
 20
-3.895
 30
0.0
 11
-3.75
 21
-3.895
 31
0.0
  0
LINE
  5
DF
330
C1
100
AcDbEntity
  8
AM_9
100
AcDbLine
 10
-3.75
 20
3.895
 30
0.0
 11
-4.121903914001641
 21
3.895
 31
0.0
  0
LINE
  5
E0
330
C1
100
AcDbEntity
  8
AM_9
100
AcDbLine
 10
-4.877802762052098
 20
3.895
 30
0.0
 11
-5.25
 21
3.895
 31
0.0
  0
LWPOLYLINE
  5
E1
330
C1
100
AcDbEntity
  8
AM_9
100
AcDbPolyline
 90
       21
 70
     0
 43
0.0
 10
-4.879166666666601
 20
3.894999999999993
 10
-4.878223658253783
 20
3.894898424354094
 10
-4.867544258417038
 20
3.893765352748501
 10
-4.845784847233897
 20
3.891555022098123
 10
-4.812179222220466
 20
3.888401482551795
 10
-4.770250830024768
 20
3.884912009706801
 10
-4.717977569783494
 20
3.881257761781717
 10
-4.662516563209466
 20
3.878230410132877
 10
-4.599876972576641
 20
3.875868837992958
 10
-4.539426335743865
 20
3.874657661056893
 10
-4.475877338448805
 20
3.874517728580833
 10
-4.417072571363089
 20
3.875423290188451
 10
-4.358959785707204
 20
3.877294095687355
 10
-4.305882868183987
 20
3.879847820239446
 10
-4.256689509525461
 20
3.882931930370421
 10
-4.213346278491156
 20
3.886218120711459
 10
-4.176786938632038
 20
3.889401988118562
 10
-4.148403908292416
 20
3.892132401661884
 10
-4.129446776853478
 20
3.894081390242056
 10
-4.121169444115488
 20
3.894963767670314
 10
-4.120833333333682
 20
3.894999999999962
  0
ELLIPSE
  5
E2
330
C1
100
AcDbEntity
  8
AM_9
100
AcDbEllipse
 10
-4.5
 20
1.646865885988854
 30
0.0
 11
0.3773499999999999
 21
0.0
 31
0.0
210
0.0
220
0.0
230
1.0
 40
0.9063077870366489
 41
1.570796326794897
 42
3.141592653589793
  0
LINE
  5
E3
330
C1
100
AcDbEntity
  8
AM_9
100
AcDbLine
 10
-4.12265
 20
1.646865885988853
 30
0.0
 11
-4.12265
 21
2.378220875206525
 31
0.0
  0
LINE
  5
E4
330
C1
100
AcDbEntity
  8
AM_9
100
AcDbLine
 10
-4.87735
 20
2.378220875206525
 30
0.0
 11
-4.87735
 21
1.646865885988853
 31
0.0
  0
ELLIPSE
  5
E5
330
C1
100
AcDbEntity
  8
AM_9
100
AcDbEllipse
 10
-4.5
 20
1.646865885988853
 30
0.0
 11
0.3773499999999999
 21
0.0
 31
0.0
210
0.0
220
0.0
230
1.0
 40
0.9063077870366502
 41
3.141592653589793
 42
7.853981633974483
  0
LINE
  5
E6
330
C1
100
AcDbEntity
  8
AM_9
100
AcDbLine
 10
-4.937499999999959
 20
5.687499999999997
 30
0.0
 11
-4.901377282076035
 21
5.685025324451314
 31
0.0
  0
LINE
  5
E7
330
C1
100
AcDbEntity
  8
AM_5
100
AcDbLine
 10
-4.937500000000001
 20
5.6875
 30
0.0
 11
-4.937500000000001
 21
3.895
 31
0.0
  0
LINE
  5
E8
330
C1
100
AcDbEntity
  8
AM_5
100
AcDbLine
 10
-4.0625
 20
5.6875
 30
0.0
 11
-4.0625
 21
3.895
 31
0.0
  0
LINE
  5
E9
330
C1
100
AcDbEntity
  8
AM_4
100
AcDbLine
 10
-5.25
 20
5.4375
 30
0.0
 11
-5.25
 21
-5.4375
 31
0.0
  0
ARC
  5
EA
330
C1
100
AcDbEntity
  8
AM_4
100
AcDbCircle
 10
-4.999999999999999
 20
-5.437499999999999
 30
0.0
 40
0.2500000000000009
100
AcDbArc
 50
180.0
 51
270.0
  0
ARC
  5
EB
330
C1
100
AcDbEntity
  8
AM_4
100
AcDbCircle
 10
-4.999999999999999
 20
5.437499999999999
 30
0.0
 40
0.2500000000000009
100
AcDbArc
 50
90.0
 51
180.0
  0
LWPOLYLINE
  5
EC
330
C1
100
AcDbEntity
  8
AM_4
100
AcDbPolyline
 90
       38
 70
     0
 43
0.0
 10
-4.166814452299999
 20
2.153178651080149
 10
-4.212589910945172
 20
2.111743601156738
 10
-4.264411463203672
 20
2.076850634960765
 10
-4.329535291891927
 20
2.046000928023562
 10
-4.399172942907521
 20
2.025364274909177
 10
-4.473496256854882
 20
2.015475380057608
 10
-4.548548502738449
 20
2.017154411458839
 10
-4.623215329626518
 20
2.030771291965612
 10
-4.694374309583022
 20
2.055862417612309
 10
-4.759517814420266
 20
2.091685282081029
 10
-4.817116761243158
 20
2.137203307544122
 10
-4.864124204832774
 20
2.189842654010773
 10
-4.900578350330973
 20
2.248932233486664
 10
-4.924325551988668
 20
2.310365256655656
 10
-4.936209354381016
 20
2.374275173778519
 10
-4.935806321857254
 20
2.436723885483529
 10
-4.923864800592644
 20
2.497886707818988
 10
-4.900860903249658
 20
2.555570732774476
 10
-4.867657115739941
 20
2.608837946494046
 10
-4.824262954757724
 20
2.657181840467635
 10
-4.772649995797369
 20
2.698519506495759
 10
-4.712062467875226
 20
2.732894497384302
 10
-4.645948123585421
 20
2.758147641683907
 10
-4.573702804412245
 20
2.774017626374422
 10
-4.499456176567572
 20
2.779333022933989
 10
-4.423831553019917
 20
2.773652744711049
 10
-4.350354274979501
 20
2.757024625856072
 10
-4.28114591331481
 20
2.729625718188593
 10
-4.218270173054476
 20
2.692192018848464
 10
-4.164740960823342
 20
2.646385932878024
 10
-4.120971272683567
 20
2.592848489490387
 10
-4.089553607708402
 20
2.535006175994012
 10
-4.069781617431681
 20
2.472845047288529
 10
-4.062615989415238
 20
2.410420391276169
 10
-4.067233054957995
 20
2.347447926019836
 10
-4.083279017760302
 20
2.286787530875656
 10
-4.110026684538626
 20
2.229070401673035
 10
-4.166814452269284
 20
2.153178651033886
  0
LINE
  5
ED
330
C1
100
AcDbEntity
  8
AM_4
100
AcDbLine
 10
-5.0
 20
-5.6875
 30
0.0
 11
-3.75
 21
-5.6875
 31
0.0
  0
LINE
  5
EE
330
C1
100
AcDbEntity
  8
AM_4
100
AcDbLine
 10
-3.75
 20
5.6875
 30
0.0
 11
-4.0625
 21
5.6875
 31
0.0
  0
LINE
  5
EF
330
C1
100
AcDbEntity
  8
AM_4
100
AcDbLine
 10
-4.936069503699092
 20
5.6875
 30
0.0
 11
-5.0
 21
5.6875
 31
0.0
  0
LINE
  5
F0
330
C1
100
AcDbEntity
  8
AM_4
100
AcDbLine
 10
-5.0
 20
5.6875
 30
0.0
 11
-5.0
 21
-5.6875
 31
0.0
  0
LWPOLYLINE
  5
F1
330
C1
100
AcDbEntity
  8
AM_4
100
AcDbPolyline
 90
       20
 70
     0
 43
0.0
 10
-4.062500000000003
 20
5.6875
 10
-4.068357472614
 20
5.687084381711923
 10
-4.085181648090564
 20
5.685921471965662
 10
-4.113337681799252
 20
5.684077802076663
 10
-4.150939729455639
 20
5.681816098694236
 10
-4.198556085348945
 20
5.67928180458845
 10
-4.254163993035735
 20
5.676789769325546
 10
-4.317733727433487
 20
5.674559578374827
 10
-4.386587974997656
 20
5.672890133962766
 10
-4.460438918185189
 20
5.671963351370866
 10
-4.535024397088582
 20
5.671935588291244
 10
-4.610735261099889
 20
5.672840920065454
 10
-4.681613132195554
 20
5.67454009481642
 10
-4.749253761336989
 20
5.676928381166621
 10
-4.80695264618556
 20
5.679556119716931
 10
-4.857279475970738
 20
5.682290865615335
 10
-4.894528363059957
 20
5.684579944964566
 10
-4.921366061866685
 20
5.686368616166064
 10
-4.934915283483613
 20
5.687315917227322
 10
-4.937499999999959
 20
5.687499999999997
  0
LINE
  5
F2
330
C1
100
AcDbEntity
  8
AM_4
100
AcDbLine
 10
-3.75
 20
5.6875
 30
0.0
 11
-3.75
 21
-5.6875
 31
0.0
  0
ELLIPSE
  5
F3
330
C1
100
AcDbEntity
  8
AM_4
100
AcDbEllipse
 10
-4.499999999999999
 20
2.378220875206524
 30
0.0
 11
0.3773500000000007
 21
0.0
 31
0.0
210
0.0
220
0.0
230
1.0
 40
0.9063077870366498
 41
0.0
 42
6.283185307179586
  0
ENDBLK
  5
C4
330
C1
100
AcDbEntity
  8
0
100
AcDbBlockEnd
  0
BLOCK
  5
F6
330
F4
100
AcDbEntity
  8
0
100
AcDbBlockBegin
  2
4_6_7_16I_0_in_023043_2
 70
     2
 10
0.0
 20
0.0
 30
0.0
  3
4_6_7_16I_0_in_023043_2
  1

  0
ATTDEF
  5
F8
330
F4
100
AcDbEntity
  8
AM_6
100
AcDbText
 10
10.775
 20
5.905
 30
0.0
 40
0.5
  1
E-Type Insert -Inch
100
AcDbAttributeDefinition
  3

  2
NN
 70
     8
280
     0
  0
ATTDEF
  5
F9
330
F4
100
AcDbEntity
  8
AM_6
100
AcDbText
 10
10.775
 20
5.405
 30
0.0
 40
0.5
  1
E-Type Bearings
100
AcDbAttributeDefinition
  3

  2
NT
 70
     8
280
     0
  0
ATTDEF
  5
FA
330
F4
100
AcDbEntity
  8
AM_6
100
AcDbText
 10
10.775
 20
4.905
 30
0.0
 40
0.5
  1
6-7/16I
100
AcDbAttributeDefinition
  3

  2
NB
 70
     8
280
     0
  0
ATTDEF
  5
FB
330
F4
100
AcDbEntity
  8
AM_6
100
AcDbText
 10
10.775
 20
4.405
 30
0.0
 40
0.5
  1
$BORE.I
100
AcDbAttributeDefinition
  3

  2
NBSYN
 70
     8
280
     0
  0
ATTDEF
  5
FC
330
F4
100
AcDbEntity
  8
AM_6
100
AcDbText
 10
10.775
 20
3.905
 30
0.0
 40
0.5
  1
6-7/16I
100
AcDbAttributeDefinition
  3

  2
LINA
 70
     8
280
     0
  0
ATTDEF
  5
FD
330
F4
100
AcDbEntity
  8
AM_6
100
AcDbText
 10
10.775
 20
3.405
 30
0.0
 40
0.5
  1
6-7/16
100
AcDbAttributeDefinition
  3

  2
BORE
 70
     8
280
     0
  0
ATTDEF
  5
FE
330
F4
100
AcDbEntity
  8
AM_6
100
AcDbText
 10
10.775
 20
2.905
 30
0.0
 40
0.5
  1
10.50
100
AcDbAttributeDefinition
  3

  2
A
 70
     8
280
     0
  0
ATTDEF
  5
FF
330
F4
100
AcDbEntity
  8
AM_6
100
AcDbText
 10
10.775
 20
2.405
 30
0.0
 40
0.5
  1
5.71
100
AcDbAttributeDefinition
  3

  2
B
 70
     8
280
     0
  0
ATTDEF
  5
100
330
F4
100
AcDbEntity
  8
AM_6
100
AcDbText
 10
10.775
 20
1.905
 30
0.0
 40
0.5
  1
7.79
100
AcDbAttributeDefinition
  3

  2
C
 70
     8
280
     0
  0
ATTDEF
  5
101
330
F4
100
AcDbEntity
  8
AM_6
100
AcDbText
 10
10.775
 20
1.405
 30
0.0
 40
0.5
  1
11.81
100
AcDbAttributeDefinition
  3

  2
D
 70
     8
280
     0
  0
ATTDEF
  5
102
330
F4
100
AcDbEntity
  8
AM_6
100
AcDbText
 10
10.775
 20
0.9050000000000002
 30
0.0
 40
0.5
  1
0.94
100
AcDbAttributeDefinition
  3

  2
E
 70
     8
280
     0
  0
ATTDEF
  5
103
330
F4
100
AcDbEntity
  8
AM_6
100
AcDbText
 10
10.775
 20
0.4050000000000002
 30
0.0
 40
0.5
  1
0.75
100
AcDbAttributeDefinition
  3

  2
F
 70
     8
280
     0
  0
ATTDEF
  5
104
330
F4
100
AcDbEntity
  8
AM_6
100
AcDbText
 10
10.775
 20
-0.0949999999999998
 30
0.0
 40
0.5
  1
baldor
100
AcDbAttributeDefinition
  3

  2
COMPANY
 70
     8
280
     0
  0
LINE
  5
105
330
F4
100
AcDbEntity
  8
AM_9
100
AcDbLine
 10
4.03
 20
3.895
 30
0.0
 11
4.03
 21
3.21875
 31
0.0
  0
LINE
  5
106
330
F4
100
AcDbEntity
  8
AM_9
100
AcDbLine
 10
4.97
 20
3.21875
 30
0.0
 11
4.97
 21
3.895
 31
0.0
  0
LINE
  5
107
330
F4
100
AcDbEntity
  8
AM_9
100
AcDbLine
 10
-4.97
 20
3.895000000000001
 30
0.0
 11
-4.97
 21
3.21875
 31
0.0
  0
LINE
  5
108
330
F4
100
AcDbEntity
  8
AM_9
100
AcDbLine
 10
-4.03
 20
3.21875
 30
0.0
 11
-4.03
 21
3.895000000000001
 31
0.0
  0
LINE
  5
109
330
F4
100
AcDbEntity
  8
AM_9
100
AcDbLine
 10
-5.25
 20
-3.21875
 30
0.0
 11
5.25
 21
-3.21875
 31
0.0
  0
LINE
  5
10A
330
F4
100
AcDbEntity
  8
AM_9
100
AcDbLine
 10
5.25
 20
3.21875
 30
0.0
 11
4.97
 21
3.21875
 31
0.0
  0
LINE
  5
10B
330
F4
100
AcDbEntity
  8
AM_9
100
AcDbLine
 10
4.031559299369425
 20
3.21875
 30
0.0
 11
-4.03
 21
3.21875
 31
0.0
  0
LINE
  5
10C
330
F4
100
AcDbEntity
  8
AM_9
100
AcDbLine
 10
-4.96844070063058
 20
3.21875
 30
0.0
 11
-5.25
 21
3.21875
 31
0.0
  0
LWPOLYLINE
  5
10D
330
F4
100
AcDbEntity
  8
AM_9
100
AcDbPolyline
 90
       21
 70
     0
 43
0.0
 10
4.030000000000762
 20
3.218749999999889
 10
4.032887819062701
 20
3.218329590343413
 10
4.047723464955046
 20
3.216209823169544
 10
4.07571276729966
 20
3.212393378515856
 10
4.11466995533804
 20
3.207480445118752
 10
4.16560629939509
 20
3.201760564049761
 10
4.224910839402585
 20
3.196111013212493
 10
4.29388425410843
 20
3.190914486977745
 10
4.366805116449734
 20
3.187035054639965
 10
4.445783433354581
 20
3.184712074677838
 10
4.523355759495225
 20
3.184336203041632
 10
4.60250449403345
 20
3.185899988040594
 10
4.676216437614145
 20
3.189122731314275
 10
4.747002235146893
 20
3.193816160436847
 10
4.809463307002288
 20
3.199252897299742
 10
4.864873895665645
 20
3.205087287772086
 10
4.90896562356204
 20
3.210405650966165
 10
4.942522351905279
 20
3.214852655167229
 10
4.96263051227838
 20
3.217682170971981
 10
4.969991590891297
 20
3.218748772117597
 10
4.969999999999861
 20
3.21874999999998
  0
LINE
  5
10E
330
F4
100
AcDbEntity
  8
AM_9
100
AcDbLine
 10
4.509096229939578
 20
3.184263541841208
 30
0.0
 11
4.5
 21
3.184250549579917
 31
0.0
  0
LINE
  5
10F
330
F4
100
AcDbEntity
  8
AM_9
100
AcDbLine
 10
4.969999999999861
 20
3.21874999999998
 30
0.0
 11
4.934845473101051
 21
3.213804933093556
 31
0.0
  0
LWPOLYLINE
  5
110
330
F4
100
AcDbEntity
  8
AM_9
100
AcDbPolyline
 90
       21
 70
     0
 43
0.0
 10
-4.969999999999237
 20
3.218749999999889
 10
-4.967112180937299
 20
3.218329590343413
 10
-4.952276535044954
 20
3.216209823169544
 10
-4.92428723270034
 20
3.212393378515856
 10
-4.885330044661961
 20
3.207480445118752
 10
-4.83439370060491
 20
3.201760564049761
 10
-4.775089160597416
 20
3.196111013212493
 10
-4.70611574589157
 20
3.190914486977745
 10
-4.633194883550266
 20
3.187035054639965
 10
-4.554216566645419
 20
3.184712074677838
 10
-4.476644240504776
 20
3.184336203041632
 10
-4.39749550596655
 20
3.185899988040594
 10
-4.323783562385855
 20
3.189122731314275
 10
-4.252997764853107
 20
3.193816160436847
 10
-4.190536692997712
 20
3.199252897299742
 10
-4.135126104334355
 20
3.205087287772086
 10
-4.09103437643796
 20
3.210405650966165
 10
-4.057477648094721
 20
3.214852655167229
 10
-4.03736948772162
 20
3.217682170971981
 10
-4.030008409108703
 20
3.218748772117597
 10
-4.030000000000139
 20
3.21874999999998
  0
LWPOLYLINE
  5
111
330
F4
100
AcDbEntity
  8
AM_9
100
AcDbPolyline
 90
        4
 70
     0
 43
0.0
 10
4.05683345718656
 20
1.500562437020417
 10
4.041917577490881
 20
1.454891599479405
 10
4.03084142980271
 20
1.385727992594048
 10
4.030000001696225
 20
1.360338719265787
  0
LWPOLYLINE
  5
112
330
F4
100
AcDbEntity
  8
AM_9
100
AcDbPolyline
 90
        9
 70
     0
 43
0.0
 10
4.5
 20
1.771687092117557
 10
4.422684827501962
 20
1.766280806588115
 10
4.345369655003925
 20
1.749559283322723
 10
4.274564909706919
 20
1.722857844403164
 10
4.208185971966613
 20
1.685277376439953
 10
4.151342391138437
 20
1.639414628918162
 10
4.102861662903398
 20
1.583956628712377
 10
4.066646750782662
 20
1.523028075958692
 10
4.05683345718656
 20
1.500562437020417
  0
LINE
  5
113
330
F4
100
AcDbEntity
  8
AM_9
100
AcDbLine
 10
4.03
 20
1.646096752380882
 30
0.0
 11
4.03
 21
1.3602065835425
 31
0.0
  0
LINE
  5
114
330
F4
100
AcDbEntity
  8
AM_9
100
AcDbLine
 10
4.97
 20
1.360288880506932
 30
0.0
 11
4.97
 21
1.646019830723701
 31
0.0
  0
LWPOLYLINE
  5
115
330
F4
100
AcDbEntity
  8
AM_9
100
AcDbPolyline
 90
       21
 70
     0
 43
0.0
 10
4.030000001696225
 20
1.360338719265787
 10
4.032887819062701
 20
1.312977593488153
 10
4.047723464955046
 20
1.243356443658501
 10
4.07571276729966
 20
1.174370747081372
 10
4.11466995533804
 20
1.111642371019077
 10
4.16560629939509
 20
1.053792671210376
 10
4.224910839402585
 20
1.005354367836367
 10
4.29388425410843
 20
0.9657201829350418
 10
4.366805116449734
 20
0.938397507403616
 10
4.44578343335458
 20
0.9227963910435881
 10
4.523355759495224
 20
0.9203202356809886
 10
4.602504494033449
 20
0.9307088390979881
 10
4.676216437614145
 20
0.9528893936271473
 10
4.747002235146893
 20
0.9873666760256463
 10
4.809463307002288
 20
1.03146477450398
 10
4.864873895665645
 20
1.086030181530622
 10
4.90896562356204
 20
1.146858426647507
 10
4.942522351905279
 20
1.215143761804722
 10
4.96263051227838
 20
1.284715055563661
 10
4.969991590891297
 20
1.357753933282383
 10
4.969999999690528
 20
1.360287072060717
  0
LWPOLYLINE
  5
116
330
F4
100
AcDbEntity
  8
AM_9
100
AcDbPolyline
 90
        8
 70
     0
 43
0.0
 10
4.942129376998062
 20
1.503135726020301
 10
4.914000460486468
 20
1.558696877309492
 10
4.870628202290636
 20
1.616751909573827
 10
4.81781803594236
 20
1.666221321967879
 10
4.754389734321689
 20
1.708186152341899
 10
4.685257287987442
 20
1.739476556323093
 10
4.608669841486484
 20
1.76092828601905
 10
4.5
 20
1.771687092117557
  0
LWPOLYLINE
  5
117
330
F4
100
AcDbEntity
  8
AM_9
100
AcDbPolyline
 90
        4
 70
     0
 43
0.0
 10
4.969999999690528
 20
1.360287072060717
 10
4.964077795633446
 20
1.427346932210635
 10
4.944863856205378
 20
1.496228882288992
 10
4.942129376998062
 20
1.503135726020301
  0
LWPOLYLINE
  5
118
330
F4
100
AcDbEntity
  8
AM_9
100
AcDbPolyline
 90
       21
 70
     0
 43
0.0
 10
4.969999998127299
 20
1.646136154800594
 10
4.967027155653033
 20
1.5981128672815
 10
4.95164732362075
 20
1.527460073782699
 10
4.923731453625265
 20
1.459554561515626
 10
4.88379738478638
 20
1.396297479446378
 10
4.833183184752454
 20
1.339689125105746
 10
4.772748416667854
 20
1.291282834369257
 10
4.704593974251282
 20
1.252867576629662
 10
4.630508013453901
 20
1.225837170248118
 10
4.552690896914029
 20
1.210942399341915
 10
4.473841152123443
 20
1.208851369920019
 10
4.395732621094055
 20
1.219313690945668
 10
4.320845144596271
 20
1.242067391907733
 10
4.250969409322818
 20
1.276199442846687
 10
4.187833344128168
 20
1.321006046264681
 10
4.133440077792035
 20
1.374791610618356
 10
4.089230231489109
 20
1.436349227126602
 10
4.056626920712961
 20
1.503439751668175
 10
4.036781889143601
 20
1.573911523054727
 10
4.030000110822347
 20
1.64580560536474
 10
4.030000000005478
 20
1.646096073012555
  0
LINE
  5
119
330
F4
100
AcDbEntity
  8
AM_9
100
AcDbLine
 10
4.399595438297172
 20
2.050752319055602
 30
0.0
 11
4.5
 21
2.060034714515507
 31
0.0
  0
LWPOLYLINE
  5
11A
330
F4
100
AcDbEntity
  8
AM_9
100
AcDbPolyline
 90
       10
 70
     0
 43
0.0
 10
4.030000000005478
 20
1.646096073012555
 10
4.036587798270833
 20
1.716574466296869
 10
4.056079627300697
 20
1.784724808446112
 10
4.088072992907008
 20
1.848336883488139
 10
4.131493911608503
 20
1.905866975457805
 10
4.185639278869862
 20
1.956067200726496
 10
4.248627343599445
 20
1.997441193201865
 10
4.31904793719686
 20
2.028944270741513
 10
4.39463514027361
 20
2.049799509849053
 10
4.399595438297172
 20
2.050752319055602
  0
LWPOLYLINE
  5
11B
330
F4
100
AcDbEntity
  8
AM_9
100
AcDbPolyline
 90
        4
 70
     0
 43
0.0
 10
-4.943166542813441
 20
1.500562437020417
 10
-4.958082422509119
 20
1.454891599479405
 10
-4.96915857019729
 20
1.385727992594048
 10
-4.969999998303775
 20
1.360338719265787
  0
LWPOLYLINE
  5
11C
330
F4
100
AcDbEntity
  8
AM_9
100
AcDbPolyline
 90
        9
 70
     0
 43
0.0
 10
-4.5
 20
1.771687092117557
 10
-4.577315172498038
 20
1.766280806588115
 10
-4.654630344996075
 20
1.749559283322723
 10
-4.725435090293081
 20
1.722857844403164
 10
-4.791814028033387
 20
1.685277376439953
 10
-4.848657608861563
 20
1.639414628918162
 10
-4.897138337096602
 20
1.583956628712377
 10
-4.933353249217337
 20
1.523028075958692
 10
-4.943166542813441
 20
1.500562437020417
  0
LINE
  5
11D
330
F4
100
AcDbEntity
  8
AM_9
100
AcDbLine
 10
-4.97
 20
1.646096752380883
 30
0.0
 11
-4.97
 21
1.3602065835425
 31
0.0
  0
LINE
  5
11E
330
F4
100
AcDbEntity
  8
AM_9
100
AcDbLine
 10
-4.03
 20
1.360288880506932
 30
0.0
 11
-4.03
 21
1.646019830723701
 31
0.0
  0
LWPOLYLINE
  5
11F
330
F4
100
AcDbEntity
  8
AM_9
100
AcDbPolyline
 90
       21
 70
     0
 43
0.0
 10
-4.969999998303775
 20
1.360338719265787
 10
-4.967112180937299
 20
1.312977593488153
 10
-4.952276535044954
 20
1.2433564436585
 10
-4.92428723270034
 20
1.174370747081372
 10
-4.885330044661961
 20
1.111642371019078
 10
-4.83439370060491
 20
1.053792671210376
 10
-4.775089160597416
 20
1.005354367836367
 10
-4.70611574589157
 20
0.9657201829350418
 10
-4.633194883550266
 20
0.938397507403616
 10
-4.55421656664542
 20
0.9227963910435881
 10
-4.476644240504776
 20
0.9203202356809886
 10
-4.397495505966551
 20
0.9307088390979881
 10
-4.323783562385856
 20
0.9528893936271473
 10
-4.252997764853107
 20
0.9873666760256463
 10
-4.190536692997713
 20
1.03146477450398
 10
-4.135126104334355
 20
1.086030181530622
 10
-4.09103437643796
 20
1.146858426647508
 10
-4.057477648094722
 20
1.215143761804722
 10
-4.03736948772162
 20
1.28471505556366
 10
-4.030008409108703
 20
1.357753933282382
 10
-4.030000000309473
 20
1.360287072060717
  0
LWPOLYLINE
  5
120
330
F4
100
AcDbEntity
  8
AM_9
100
AcDbPolyline
 90
        8
 70
     0
 43
0.0
 10
-4.057870623001938
 20
1.503135726020302
 10
-4.085999539513532
 20
1.558696877309492
 10
-4.129371797709365
 20
1.616751909573827
 10
-4.182181964057641
 20
1.666221321967879
 10
-4.245610265678311
 20
1.708186152341899
 10
-4.314742712012558
 20
1.739476556323093
 10
-4.391330158513516
 20
1.76092828601905
 10
-4.5
 20
1.771687092117557
  0
LWPOLYLINE
  5
121
330
F4
100
AcDbEntity
  8
AM_9
100
AcDbPolyline
 90
        4
 70
     0
 43
0.0
 10
-4.030000000309473
 20
1.360287072060717
 10
-4.035922204366555
 20
1.427346932210634
 10
-4.055136143794622
 20
1.496228882288992
 10
-4.057870623001938
 20
1.503135726020302
  0
LWPOLYLINE
  5
122
330
F4
100
AcDbEntity
  8
AM_9
100
AcDbPolyline
 90
       21
 70
     0
 43
0.0
 10
-4.030000001872702
 20
1.646136154800595
 10
-4.032972844346967
 20
1.598112867281501
 10
-4.048352676379251
 20
1.527460073782699
 10
-4.076268546374735
 20
1.459554561515626
 10
-4.116202615213621
 20
1.396297479446378
 10
-4.166816815247547
 20
1.339689125105746
 10
-4.227251583332147
 20
1.291282834369257
 10
-4.295406025748718
 20
1.252867576629663
 10
-4.369491986546099
 20
1.225837170248118
 10
-4.447309103085971
 20
1.210942399341916
 10
-4.526158847876556
 20
1.208851369920019
 10
-4.604267378905946
 20
1.219313690945669
 10
-4.67915485540373
 20
1.242067391907733
 10
-4.749030590677182
 20
1.276199442846688
 10
-4.812166655871831
 20
1.321006046264682
 10
-4.866559922207965
 20
1.374791610618356
 10
-4.910769768510892
 20
1.436349227126603
 10
-4.943373079287039
 20
1.503439751668176
 10
-4.963218110856398
 20
1.573911523054728
 10
-4.969999889177653
 20
1.64580560536474
 10
-4.969999999994523
 20
1.646096073012555
  0
LINE
  5
123
330
F4
100
AcDbEntity
  8
AM_9
100
AcDbLine
 10
-4.595263990009121
 20
2.051688897279626
 30
0.0
 11
-4.5
 21
2.060034714515508
 31
0.0
  0
LWPOLYLINE
  5
124
330
F4
100
AcDbEntity
  8
AM_9
100
AcDbPolyline
 90
       10
 70
     0
 43
0.0
 10
-4.969999999994523
 20
1.646096073012555
 10
-4.963412201729168
 20
1.71657446629687
 10
-4.943920372699303
 20
1.784724808446112
 10
-4.911927007092992
 20
1.848336883488139
 10
-4.868506088391498
 20
1.905866975457805
 10
-4.814360721130138
 20
1.956067200726497
 10
-4.751372656400555
 20
1.997441193201865
 10
-4.680952062803138
 20
2.028944270741514
 10
-4.605364859726389
 20
2.049799509849054
 10
-4.595263990009121
 20
2.051688897279626
  0
LWPOLYLINE
  5
125
330
F4
100
AcDbEntity
  8
AM_9
100
AcDbPolyline
 90
       10
 70
     0
 43
0.0
 10
4.594871100150659
 20
2.051758360817632
 10
4.654929772612525
 20
2.037537739040105
 10
4.726835989576124
 20
2.00990538483377
 10
4.792383722753083
 20
1.97224157966209
 10
4.849899198245763
 20
1.925084950991488
 10
4.8975847340963
 20
1.869853952017236
 10
4.934045329797275
 20
1.807617675877394
 10
4.95822757372844
 20
1.740245748235819
 10
4.969217912021655
 20
1.669847732501759
 10
4.969999998127299
 20
1.646136154800594
  0
LWPOLYLINE
  5
126
330
F4
100
AcDbEntity
  8
AM_9
100
AcDbPolyline
 90
        3
 70
     0
 43
0.0
 10
4.5
 20
2.060034714515507
 10
4.578576213692833
 20
2.05433786129855
 10
4.594871100150659
 20
2.051758360817632
  0
LINE
  5
127
330
F4
100
AcDbEntity
  8
AM_9
100
AcDbLine
 10
3.75
 20
-3.895
 30
0.0
 11
5.25
 21
-3.895
 31
0.0
  0
LINE
  5
128
330
F4
100
AcDbEntity
  8
AM_9
100
AcDbLine
 10
2.854999999999999
 20
-3.895
 30
0.0
 11
3.5625
 21
-3.895
 31
0.0
  0
LINE
  5
129
330
F4
100
AcDbEntity
  8
AM_9
100
AcDbLine
 10
5.25
 20
3.895
 30
0.0
 11
4.96845799208284
 21
3.895
 31
0.0
  0
LINE
  5
12A
330
F4
100
AcDbEntity
  8
AM_9
100
AcDbLine
 10
3.5625
 20
3.895
 30
0.0
 11
2.854999999999999
 21
3.895
 31
0.0
  0
LINE
  5
12B
330
F4
100
AcDbEntity
  8
AM_9
100
AcDbLine
 10
4.03
 20
3.895
 30
0.0
 11
3.750000000000001
 21
3.895
 31
0.0
  0
LWPOLYLINE
  5
12C
330
F4
100
AcDbEntity
  8
AM_9
100
AcDbPolyline
 90
       21
 70
     0
 43
0.0
 10
4.969999999999609
 20
3.894999999999953
 10
4.967027155653033
 20
3.89464239232787
 10
4.952000723715597
 20
3.892869077459377
 10
4.923731453625265
 20
3.889688078084331
 10
4.884476588485105
 20
3.885607706278793
 10
4.833183184752453
 20
3.88086794861688
 10
4.773699883355099
 20
3.876214213140006
 10
4.704593974251282
 20
3.871948307286647
 10
4.63162913908373
 20
3.868779036111512
 10
4.552690896914029
 20
3.866898153639116
 10
4.474975243508617
 20
3.866620131127113
 10
4.395732621094054
 20
3.867944762571451
 10
4.321858876074678
 20
3.870640678238342
 10
4.250969409322818
 20
3.874550455871368
 10
4.18864059145903
 20
3.879055256281738
 10
4.133440077792035
 20
3.883875793143893
 10
4.089746126642593
 20
3.888242950306057
 10
4.056626920712961
 20
3.891876756455229
 10
4.036929725159447
 20
3.894169883228119
 10
4.030000110822347
 20
3.894999986627343
 10
4.030000000000001
 20
3.894999999999999
  0
LWPOLYLINE
  5
12D
330
F4
100
AcDbEntity
  8
AM_9
100
AcDbPolyline
 90
       10
 70
     0
 43
0.0
 10
-4.405225805328906
 20
2.05177544773321
 10
-4.345070227387475
 20
2.037537739040105
 10
-4.273164010423876
 20
2.00990538483377
 10
-4.207616277246917
 20
1.972241579662091
 10
-4.150100801754237
 20
1.925084950991488
 10
-4.1024152659037
 20
1.869853952017237
 10
-4.065954670202726
 20
1.807617675877394
 10
-4.04177242627156
 20
1.740245748235818
 10
-4.030782087978345
 20
1.669847732501759
 10
-4.030000001872702
 20
1.646136154800595
  0
LWPOLYLINE
  5
12E
330
F4
100
AcDbEntity
  8
AM_9
100
AcDbPolyline
 90
        3
 70
     0
 43
0.0
 10
-4.5
 20
2.060034714515508
 10
-4.421423786307167
 20
2.054337861298551
 10
-4.405225805328906
 20
2.05177544773321
  0
LINE
  5
12F
330
F4
100
AcDbEntity
  8
AM_9
100
AcDbLine
 10
-3.562499999999999
 20
-3.895000000000001
 30
0.0
 11
-2.855
 21
-3.895000000000001
 31
0.0
  0
LINE
  5
130
330
F4
100
AcDbEntity
  8
AM_9
100
AcDbLine
 10
-5.25
 20
-3.895000000000001
 30
0.0
 11
-3.75
 21
-3.895000000000001
 31
0.0
  0
LINE
  5
131
330
F4
100
AcDbEntity
  8
AM_9
100
AcDbLine
 10
-3.75
 20
3.895000000000001
 30
0.0
 11
-4.03154200791716
 21
3.895000000000001
 31
0.0
  0
LINE
  5
132
330
F4
100
AcDbEntity
  8
AM_9
100
AcDbLine
 10
-2.855
 20
3.895000000000001
 30
0.0
 11
-3.562499999999999
 21
3.895000000000001
 31
0.0
  0
LINE
  5
133
330
F4
100
AcDbEntity
  8
AM_9
100
AcDbLine
 10
-4.97
 20
3.895000000000001
 30
0.0
 11
-5.25
 21
3.895000000000001
 31
0.0
  0
LWPOLYLINE
  5
134
330
F4
100
AcDbEntity
  8
AM_9
100
AcDbPolyline
 90
       21
 70
     0
 43
0.0
 10
-4.030000000000392
 20
3.894999999999953
 10
-4.032972844346967
 20
3.894642392327872
 10
-4.047999276284403
 20
3.892869077459378
 10
-4.076268546374735
 20
3.889688078084332
 10
-4.115523411514895
 20
3.885607706278794
 10
-4.166816815247547
 20
3.88086794861688
 10
-4.226300116644902
 20
3.876214213140007
 10
-4.295406025748718
 20
3.871948307286648
 10
-4.36837086091627
 20
3.868779036111513
 10
-4.447309103085971
 20
3.866898153639117
 10
-4.525024756491383
 20
3.866620131127114
 10
-4.604267378905946
 20
3.867944762571452
 10
-4.678141123925322
 20
3.870640678238344
 10
-4.749030590677182
 20
3.874550455871368
 10
-4.81135940854097
 20
3.87905525628174
 10
-4.866559922207965
 20
3.883875793143895
 10
-4.910253873357408
 20
3.888242950306059
 10
-4.943373079287039
 20
3.891876756455229
 10
-4.963070274840554
 20
3.894169883228121
 10
-4.969999889177653
 20
3.894999986627345
 10
-4.97
 20
3.895
  0
LINE
  5
135
330
F4
100
AcDbEntity
  8
AM_9
100
AcDbLine
 10
-2.855
 20
-5.905
 30
0.0
 11
2.854999999999999
 21
-5.905
 31
0.0
  0
LINE
  5
136
330
F4
100
AcDbEntity
  8
AM_9
100
AcDbLine
 10
2.854999999999999
 20
5.905
 30
0.0
 11
-2.855
 21
5.905
 31
0.0
  0
LINE
  5
137
330
F4
100
AcDbEntity
  8
AM_9
100
AcDbLine
 10
-2.855
 20
5.905
 30
0.0
 11
-2.855
 21
-5.905
 31
0.0
  0
LINE
  5
138
330
F4
100
AcDbEntity
  8
AM_9
100
AcDbLine
 10
2.854999999999999
 20
5.905
 30
0.0
 11
2.854999999999999
 21
-5.905
 31
0.0
  0
LINE
  5
13B
330
F4
100
AcDbEntity
  8
AM_7
100
AcDbLine
 10
-5.775
 20
0.0
 30
0.0
 11
5.775
 21
0.0
 31
0.0
  0
LINE
  5
13C
330
F4
100
AcDbEntity
  8
AM_7
100
AcDbLine
 10
4.5
 20
-0.1997435897435897
 30
0.0
 11
4.5
 21
5.780041666666667
 31
0.0
  0
LINE
  5
13D
330
F4
100
AcDbEntity
  8
AM_7
100
AcDbLine
 10
-4.5
 20
-0.1997435897435897
 30
0.0
 11
-4.5
 21
5.780041666666667
 31
0.0
  0
LINE
  5
13E
330
F4
100
AcDbEntity
  8
AM_4
100
AcDbLine
 10
3.5625
 20
-3.895
 30
0.0
 11
3.75
 21
-3.895
 31
0.0
  0
LINE
  5
13F
330
F4
100
AcDbEntity
  8
AM_4
100
AcDbLine
 10
3.750000000000001
 20
3.895
 30
0.0
 11
3.5625
 21
3.895
 31
0.0
  0
LINE
  5
140
330
F4
100
AcDbEntity
  8
AM_4
100
AcDbLine
 10
-3.75
 20
-3.895000000000001
 30
0.0
 11
-3.562499999999999
 21
-3.895000000000001
 31
0.0
  0
LINE
  5
141
330
F4
100
AcDbEntity
  8
AM_4
100
AcDbLine
 10
-3.562499999999999
 20
3.895000000000001
 30
0.0
 11
-3.75
 21
3.895000000000001
 31
0.0
  0
ENDBLK
  5
F7
330
F4
100
AcDbEntity
  8
0
100
AcDbBlockEnd
  0
BLOCK
  5
144
330
142
100
AcDbEntity
  8
0
100
AcDbBlockBegin
  2
5_405015E_Inch_0_in_023043_2
 70
     2
 10
0.0
 20
0.0
 30
0.0
  3
5_405015E_Inch_0_in_023043_2
  1

  0
ATTDEF
  5
146
330
142
100
AcDbEntity
  8
AM_6
100
AcDbText
 10
5.218750000000004
 20
5.729443356203928
 30
0.0
 40
0.5
  1
405015E -Inch
100
AcDbAttributeDefinition
  3

  2
NN
 70
     8
280
     0
  0
ATTDEF
  5
147
330
142
100
AcDbEntity
  8
AM_6
100
AcDbText
 10
5.218750000000004
 20
5.229443356203928
 30
0.0
 40
0.5
  1
Grease Fitting
100
AcDbAttributeDefinition
  3

  2
NT
 70
     8
280
     0
  0
ATTDEF
  5
148
330
142
100
AcDbEntity
  8
AM_6
100
AcDbText
 10
5.218750000000004
 20
4.729443356203928
 30
0.0
 40
0.5
  1
405015E-Inch
100
AcDbAttributeDefinition
  3

  2
NB
 70
     8
280
     0
  0
ATTDEF
  5
149
330
142
100
AcDbEntity
  8
AM_6
100
AcDbText
 10
5.218750000000004
 20
4.229443356203928
 30
0.0
 40
0.5
  1
$MN.-Inch
100
AcDbAttributeDefinition
  3

  2
NBSYN
 70
     8
280
     0
  0
ATTDEF
  5
14A
330
142
100
AcDbEntity
  8
AM_6
100
AcDbText
 10
5.218750000000004
 20
3.729443356203928
 30
0.0
 40
0.5
  1
405015E
100
AcDbAttributeDefinition
  3

  2
LINA
 70
     8
280
     0
  0
ATTDEF
  5
14B
330
142
100
AcDbEntity
  8
AM_6
100
AcDbText
 10
5.218750000000004
 20
3.229443356203928
 30
0.0
 40
0.5
  1
405015E
100
AcDbAttributeDefinition
  3

  2
MN
 70
     8
280
     0
  0
ATTDEF
  5
14C
330
142
100
AcDbEntity
  8
AM_6
100
AcDbText
 10
5.218750000000004
 20
2.729443356203928
 30
0.0
 40
0.5
  1
1/8 x 27PTF
100
AcDbAttributeDefinition
  3

  2
T
 70
     8
280
     0
  0
ATTDEF
  5
14D
330
142
100
AcDbEntity
  8
AM_6
100
AcDbText
 10
5.218750000000004
 20
2.229443356203928
 30
0.0
 40
0.5
  1
baldor
100
AcDbAttributeDefinition
  3

  2
COMPANY
 70
     8
280
     0
  0
ELLIPSE
  5
14E
330
142
100
AcDbEntity
  8
AM_9
100
AcDbEllipse
 10
0.0000000000000003
 20
5.391689206547421
 30
0.0
 11
0.218750000000003
 21
0.0
 31
0.0
210
0.0
220
0.0
230
1.0
 40
0.7071067811865475
 41
1.047197551196605
 42
2.094395102393188
  0
LINE
  5
14F
330
142
100
AcDbEntity
  8
AM_9
100
AcDbLine
 10
-0.1093749999999997
 20
5.525645676855879
 30
0.0
 11
0.0000000000000003
 21
5.576709594859925
 31
0.0
  0
LINE
  5
150
330
142
100
AcDbEntity
  8
AM_9
100
AcDbLine
 10
0.0000000000000003
 20
5.576709594859925
 30
0.0
 11
0.1093750000000003
 21
5.525645676855879
 31
0.0
  0
ELLIPSE
  5
151
330
142
100
AcDbEntity
  8
AM_9
100
AcDbEllipse
 10
0.0000000000000003
 20
5.204305909532989
 30
0.0
 11
-0.161902872472269
 21
1.982738345459263E-17
 31
0.0
210
0.0
220
0.0
230
1.0
 40
0.7071067811865478
 41
0.0
 42
6.283185307179586
  0
LINE
  5
152
330
142
100
AcDbEntity
  8
AM_9
100
AcDbLine
 10
-0.0767146440606544
 20
5.609078457298099
 30
0.0
 11
-0.1093749999999997
 21
5.596356354974533
 31
0.0
  0
LINE
  5
153
330
142
100
AcDbEntity
  8
AM_9
100
AcDbLine
 10
0.0000000000000003
 20
5.634596750509458
 30
0.0
 11
-0.0085405938527273
 21
5.632016428280426
 31
0.0
  0
LINE
  5
154
330
142
100
AcDbEntity
  8
AM_9
100
AcDbLine
 10
0.0129538086668093
 20
5.63066058582499
 30
0.0
 11
0.0
 21
5.634596750509458
 31
0.0
  0
LINE
  5
155
330
142
100
AcDbEntity
  8
AM_9
100
AcDbLine
 10
0.1093750000000002
 20
5.596356354974533
 30
0.0
 11
0.0752554344470336
 21
5.609618763623159
 31
0.0
  0
LINE
  5
156
330
142
100
AcDbEntity
  8
AM_9
100
AcDbLine
 10
0.1093750000000003
 20
5.525645676855879
 30
0.0
 11
0.2187500000000003
 21
5.487405281320955
 31
0.0
  0
LINE
  5
157
330
142
100
AcDbEntity
  8
AM_9
100
AcDbLine
 10
0.0000000000000003
 20
5.634596750509458
 30
0.0
 11
0.0000000000000003
 21
5.576709594859925
 31
0.0
  0
LINE
  5
158
330
142
100
AcDbEntity
  8
AM_9
100
AcDbLine
 10
-0.2187499999999996
 20
5.487405281320955
 30
0.0
 11
-0.1093749999999997
 21
5.525645676855879
 31
0.0
  0
LINE
  5
159
330
142
100
AcDbEntity
  8
AM_9
100
AcDbLine
 10
0.1308805943502258
 20
5.587310532522186
 30
0.0
 11
0.1093750000000003
 21
5.596356354974533
 31
0.0
  0
LINE
  5
15A
330
142
100
AcDbEntity
  8
AM_9
100
AcDbLine
 10
-0.1093749999999997
 20
5.596356354974533
 30
0.0
 11
-0.1320941651517043
 21
5.586784312938875
 31
0.0
  0
ELLIPSE
  5
15B
330
142
100
AcDbEntity
  8
AM_9
100
AcDbEllipse
 10
-0.0000000000000019
 20
5.391689206547426
 30
0.0
 11
0.2057518972230717
 21
3.065942186460968E-9
 31
0.0
210
0.0
220
0.0
230
1.0
 40
0.7071067811865498
 41
4.712388969847988
 42
9.456034590673019
  0
ELLIPSE
  5
15C
330
142
100
AcDbEntity
  8
AM_9
100
AcDbEllipse
 10
-0.0000000000000002
 20
5.230267161274442
 30
0.0
 11
0.1986176267812155
 21
0.0
 31
0.0
210
0.0
220
0.0
230
1.0
 40
0.707106781186543
 41
4.71238898038469
 42
6.251928656212831
  0
LINE
  5
15D
330
142
100
AcDbEntity
  8
AM_9
100
AcDbLine
 10
0.1985206121313392
 20
5.225878070981416
 30
0.0
 11
0.2056513978434629
 21
5.387142461782074
 31
0.0
  0
LINE
  5
15E
330
142
100
AcDbEntity
  8
AM_9
100
AcDbLine
 10
-0.2056513978434622
 20
5.387142461782074
 30
0.0
 11
-0.1985206121313385
 21
5.225878070981416
 31
0.0
  0
ELLIPSE
  5
15F
330
142
100
AcDbEntity
  8
AM_9
100
AcDbEllipse
 10
0.0000000000000025
 20
5.391689206547426
 30
0.0
 11
0.2057518972230717
 21
0.0
 31
0.0
210
0.0
220
0.0
230
1.0
 40
0.7071067811865499
 41
3.172849304556566
 42
4.71238898038469
  0
ELLIPSE
  5
160
330
142
100
AcDbEntity
  8
AM_9
100
AcDbEllipse
 10
0.0000000000000003
 20
5.230267161274442
 30
0.0
 11
0.1986176267812154
 21
0.0
 31
0.0
210
0.0
220
0.0
230
1.0
 40
0.7071067811864581
 41
6.251928656212828
 42
10.99557428756428
  0
ELLIPSE
  5
161
330
142
100
AcDbEntity
  8
AM_9
100
AcDbEllipse
 10
0.0000000000000003
 20
5.391689206547427
 30
0.0
 11
0.218750000000003
 21
0.0
 31
0.0
210
0.0
220
0.0
230
1.0
 40
0.7071067811865475
 41
2.094395102393203
 42
7.330382858376174
  0
ELLIPSE
  5
162
330
142
100
AcDbEntity
  8
AM_9
100
AcDbEllipse
 10
0.0000000000001778
 20
5.462399884665786
 30
0.0
 11
0.2187500000003207
 21
0.0
 31
0.0
210
0.0
220
0.0
230
1.0
 40
0.7071067811869296
 41
-4.188790204786399
 42
-4.057286255305099
  0
ELLIPSE
  5
163
330
142
100
AcDbEntity
  8
AM_9
100
AcDbEllipse
 10
-0.0000000000001761
 20
5.462399884665787
 30
0.0
 11
0.2187500000003196
 21
0.0
 31
0.0
210
0.0
220
0.0
230
1.0
 40
0.7071067811869292
 41
0.9156936017153043
 42
2.09439510239179
  0
LINE
  5
164
330
142
100
AcDbEntity
  8
AM_9
100
AcDbLine
 10
-0.0948683298050511
 20
5.568465901844061
 30
0.0
 11
-0.1073548910028986
 21
5.549852035414995
 31
0.0
  0
LINE
  5
165
330
142
100
AcDbEntity
  8
AM_9
100
AcDbLine
 10
0.1073548910028993
 20
5.549852035414995
 30
0.0
 11
0.0948683298050518
 21
5.568465901844061
 31
0.0
  0
ELLIPSE
  5
166
330
142
100
AcDbEntity
  8
AM_9
100
AcDbEllipse
 10
0.0000000000000003
 20
5.536646096690667
 30
0.0
 11
0.1050000000000003
 21
0.0
 31
0.0
210
0.0
220
0.0
230
1.0
 40
0.7071067811865389
 41
0.0
 42
2.698681609516156
  0
ELLIPSE
  5
167
330
142
100
AcDbEntity
  8
AM_9
100
AcDbEllipse
 10
0.000000000000002
 20
5.536646096690675
 30
0.0
 11
0.1050000000000017
 21
0.0
 31
0.0
210
0.0
220
0.0
230
1.0
 40
0.7071067811865382
 41
2.698681609516258
 42
3.141592653589793
  0
ELLIPSE
  5
168
330
142
100
AcDbEntity
  8
AM_9
100
AcDbEllipse
 10
-0.0000000000000009
 20
5.513844110315064
 30
0.0
 11
0.1188200907348994
 21
0.0
 31
0.0
210
0.0
220
0.0
230
1.0
 40
0.7071067811865113
 41
0.4429110440736137
 42
1.407862057867259
  0
ELLIPSE
  5
169
330
142
100
AcDbEntity
  8
AM_9
100
AcDbEllipse
 10
0.0000000000003402
 20
5.513844110314555
 30
0.0
 11
0.118820090735269
 21
1.770557325113848E-9
 31
0.0
210
0.0
220
0.0
230
1.0
 40
0.707106781187832
 41
-3.584503716805044
 42
-3.517813299345731
  0
ELLIPSE
  5
16A
330
142
100
AcDbEntity
  8
AM_9
100
AcDbEllipse
 10
-0.0000000000000006
 20
5.462399884666078
 30
0.0
 11
0.213750000000001
 21
0.0
 31
0.0
210
0.0
220
0.0
230
1.0
 40
0.7071067811865485
 41
1.122396969191188
 42
2.237937434749008
  0
ELLIPSE
  5
16B
330
142
100
AcDbEntity
  8
AM_9
100
AcDbEllipse
 10
0.0000000000000698
 20
5.462399884666225
 30
0.0
 11
0.2137499999998765
 21
0.0
 31
0.0
210
0.0
220
0.0
230
1.0
 40
0.7071067811862538
 41
0.9036552188406368
 42
1.122396969191226
  0
LINE
  5
16C
330
142
100
AcDbEntity
  8
AM_9
100
AcDbLine
 10
0.1050000000000003
 20
5.537965087573205
 30
0.0
 11
0.1050000000000003
 21
5.557859300126262
 31
0.0
  0
LINE
  5
16D
330
142
100
AcDbEntity
  8
AM_9
100
AcDbLine
 10
-0.1049999999999997
 20
5.557859300126262
 30
0.0
 11
-0.1049999999999997
 21
5.537965087573205
 31
0.0
  0
ELLIPSE
  5
16E
330
142
100
AcDbEntity
  8
AM_9
100
AcDbEllipse
 10
0.0000000000000003
 20
5.557859300126262
 30
0.0
 11
0.1049999999999997
 21
0.0
 31
0.0
210
0.0
220
0.0
230
1.0
 40
0.7071067811865432
 41
0.0
 42
3.665191429188091
  0
ELLIPSE
  5
16F
330
142
100
AcDbEntity
  8
AM_9
100
AcDbEllipse
 10
-0.000000000000299
 20
5.513844110314567
 30
0.0
 11
0.1188200907352251
 21
0.0
 31
0.0
210
0.0
220
0.0
230
1.0
 40
0.7071067811878317
 41
0.3762206261048489
 42
0.4429110440771648
  0
ELLIPSE
  5
170
330
142
100
AcDbEntity
  8
AM_9
100
AcDbEllipse
 10
-0.0000000000000076
 20
5.47535280707344
 30
0.0
 11
0.1725340532830303
 21
0.0
 31
0.0
210
0.0
220
0.0
230
1.0
 40
0.7071067811865998
 41
0.7772913431422683
 42
1.407862057867236
  0
LINE
  5
171
330
142
100
AcDbEntity
  8
AM_9
100
AcDbLine
 10
-0.0192743186691519
 20
5.596749823634739
 30
0.0
 11
-0.0279874918769154
 21
5.595736983443748
 31
0.0
  0
LINE
  5
172
330
142
100
AcDbEntity
  8
AM_9
100
AcDbLine
 10
0.0279874918769161
 20
5.595736983443748
 30
0.0
 11
0.0192743186691526
 21
5.596749823634739
 31
0.0
  0
ELLIPSE
  5
173
330
142
100
AcDbEntity
  8
AM_9
100
AcDbEllipse
 10
0.0000000000000003
 20
5.513844110315081
 30
0.0
 11
0.1188200907348694
 21
0.0
 31
0.0
210
0.0
220
0.0
230
1.0
 40
0.7071067811865475
 41
1.407862057867228
 42
2.698681609516374
  0
ELLIPSE
  5
174
330
142
100
AcDbEntity
  8
AM_9
100
AcDbEllipse
 10
0.0000000000000003
 20
5.475352807073395
 30
0.0
 11
0.1725340532831046
 21
0.0
 31
0.0
210
0.0
220
0.0
230
1.0
 40
0.7071067811865475
 41
1.407862057867352
 42
1.733730595722441
  0
ELLIPSE
  5
175
330
142
100
AcDbEntity
  8
AM_9
100
AcDbEllipse
 10
0.0000000000000084
 20
5.47535280707344
 30
0.0
 11
0.1725340532830303
 21
0.0
 31
0.0
210
0.0
220
0.0
230
1.0
 40
0.7071067811865996
 41
1.733730595722558
 42
2.364301310447526
  0
ELLIPSE
  5
176
330
142
100
AcDbEntity
  8
AM_9
100
AcDbEllipse
 10
0.0000000000000027
 20
5.557859300126243
 30
0.0
 11
0.1049999999999974
 21
0.0
 31
0.0
210
0.0
220
0.0
230
1.0
 40
0.7071067811864912
 41
5.759586531581473
 42
6.283185307179586
  0
ELLIPSE
  5
177
330
142
100
AcDbEntity
  8
AM_9
100
AcDbEllipse
 10
0.0000000000000004
 20
5.600285706997457
 30
0.0
 11
0.1349999999999995
 21
0.0
 31
0.0
210
0.0
220
0.0
230
1.0
 40
0.7071067811865409
 41
0.4159140521025364
 42
2.725678601487257
  0
LINE
  5
178
330
142
100
AcDbEntity
  8
AM_4
100
AcDbLine
 10
0.2187500000000003
 20
5.545292436970488
 30
0.0
 11
0.1308805943502258
 21
5.587310532522186
 31
0.0
  0
LINE
  5
179
330
142
100
AcDbEntity
  8
AM_4
100
AcDbLine
 10
-0.1320941651517043
 20
5.586784312938875
 30
0.0
 11
-0.2187499999999996
 21
5.545292436970488
 31
0.0
  0
ELLIPSE
  5
17A
330
142
100
AcDbEntity
  8
AM_4
100
AcDbEllipse
 10
0.000000000000001
 20
5.462399884666078
 30
0.0
 11
0.2187499999999996
 21
0.0
 31
0.0
210
0.0
220
0.0
230
1.0
 40
0.7071067811865424
 41
2.225899051874728
 42
7.198878908894653
  0
ELLIPSE
  5
17B
330
142
100
AcDbEntity
  8
AM_4
100
AcDbEllipse
 10
-0.0000000000000001
 20
5.513844110315061
 30
0.0
 11
0.118820090734897
 21
0.0
 31
0.0
210
0.0
220
0.0
230
1.0
 40
0.7071067811865553
 41
2.765372027488866
 42
4.71238898038469
  0
ELLIPSE
  5
17C
330
142
100
AcDbEntity
  8
AM_4
100
AcDbEllipse
 10
0.0000000000000466
 20
5.462399884667481
 30
0.0
 11
0.2137500000000462
 21
0.0
 31
0.0
210
0.0
220
0.0
230
1.0
 40
0.7071067811865691
 41
3.119725379751308
 42
3.170068885434144
  0
ELLIPSE
  5
17D
330
142
100
AcDbEntity
  8
AM_4
100
AcDbEllipse
 10
0.0000000000000005
 20
5.46239988466608
 30
0.0
 11
0.2137499999999999
 21
3.185123205184936E-9
 31
0.0
210
0.0
220
0.0
230
1.0
 40
0.707106781186548
 41
2.237937420178407
 42
3.119725358673649
  0
ELLIPSE
  5
17E
330
142
100
AcDbEntity
  8
AM_4
100
AcDbEllipse
 10
0.0000000000000009
 20
5.462399884666083
 30
0.0
 11
0.2137499999999994
 21
0.0
 31
0.0
210
0.0
220
0.0
230
1.0
 40
0.707106781186537
 41
3.170068885424907
 42
7.186840526020359
  0
ELLIPSE
  5
17F
330
142
100
AcDbEntity
  8
AM_4
100
AcDbEllipse
 10
-0.0000000000000007
 20
5.536646096690665
 30
0.0
 11
0.1050000000000009
 21
0.0
 31
0.0
210
0.0
220
0.0
230
1.0
 40
0.7071067811865347
 41
4.71238898038469
 42
6.283185307179586
  0
LINE
  5
180
330
142
100
AcDbEntity
  8
AM_4
100
AcDbLine
 10
0.1050000000000003
 20
5.536646096690666
 30
0.0
 11
0.1050000000000003
 21
5.537965087573205
 31
0.0
  0
LINE
  5
181
330
142
100
AcDbEntity
  8
AM_4
100
AcDbLine
 10
-0.1049999999999997
 20
5.537965087573205
 30
0.0
 11
-0.1049999999999997
 21
5.536646096690666
 31
0.0
  0
ELLIPSE
  5
182
330
142
100
AcDbEntity
  8
AM_4
100
AcDbEllipse
 10
0.0000000000000014
 20
5.536646096690665
 30
0.0
 11
0.1050000000000005
 21
0.0
 31
0.0
210
0.0
220
0.0
230
1.0
 40
0.7071067811865375
 41
3.141592653589793
 42
4.71238898038469
  0
ELLIPSE
  5
183
330
142
100
AcDbEntity
  8
AM_4
100
AcDbEllipse
 10
0.0000000000000008
 20
5.513844110315061
 30
0.0
 11
0.118820090734897
 21
0.0
 31
0.0
210
0.0
220
0.0
230
1.0
 40
0.7071067811865555
 41
4.71238898038469
 42
6.659405933280514
  0
ELLIPSE
  5
184
330
142
100
AcDbEntity
  8
AM_4
100
AcDbEllipse
 10
0.0000000000000011
 20
5.475352807073457
 30
0.0
 11
0.172534053283015
 21
0.0
 31
0.0
210
0.0
220
0.0
230
1.0
 40
0.7071067811865439
 41
4.71238898038469
 42
7.060476650321831
  0
ELLIPSE
  5
185
330
142
100
AcDbEntity
  8
AM_4
100
AcDbEllipse
 10
-0.0000000000000004
 20
5.475352807073458
 30
0.0
 11
0.172534053283015
 21
0.0
 31
0.0
210
0.0
220
0.0
230
1.0
 40
0.7071067811865441
 41
2.364301310447549
 42
4.71238898038469
  0
LINE
  5
186
330
142
100
AcDbEntity
  8
AM_4
100
AcDbLine
 10
-0.1093749999999997
 20
5.328443414357624
 30
0.0
 11
0.0000000000000003
 21
5.277379496353577
 31
0.0
  0
LINE
  5
187
330
142
100
AcDbEntity
  8
AM_4
100
AcDbLine
 10
-0.2187499999999996
 20
5.366683809892547
 30
0.0
 11
-0.1093749999999997
 21
5.328443414357624
 31
0.0
  0
LINE
  5
188
330
142
100
AcDbEntity
  8
AM_4
100
AcDbLine
 10
-0.2187499999999996
 20
5.545292436970488
 30
0.0
 11
-0.2187499999999996
 21
5.308796654243015
 31
0.0
  0
LINE
  5
189
330
142
100
AcDbEntity
  8
AM_4
100
AcDbLine
 10
-0.1093749999999997
 20
5.257732736238969
 30
0.0
 11
-0.2187499999999996
 21
5.308796654243015
 31
0.0
  0
LINE
  5
18A
330
142
100
AcDbEntity
  8
AM_4
100
AcDbLine
 10
0.0000000000000003
 20
5.219492340704045
 30
0.0
 11
-0.1093749999999997
 21
5.257732736238969
 31
0.0
  0
LINE
  5
18B
330
142
100
AcDbEntity
  8
AM_4
100
AcDbLine
 10
0.2187500000000003
 20
5.545292436970488
 30
0.0
 11
0.2187500000000003
 21
5.308796654243015
 31
0.0
  0
LINE
  5
18C
330
142
100
AcDbEntity
  8
AM_4
100
AcDbLine
 10
0.1093750000000002
 20
5.328443414357624
 30
0.0
 11
0.2187500000000003
 21
5.366683809892547
 31
0.0
  0
LINE
  5
18D
330
142
100
AcDbEntity
  8
AM_4
100
AcDbLine
 10
0.0000000000000003
 20
5.277379496353577
 30
0.0
 11
0.1093750000000002
 21
5.328443414357624
 31
0.0
  0
LINE
  5
18E
330
142
100
AcDbEntity
  8
AM_4
100
AcDbLine
 10
0.0000000000000003
 20
5.277379496353577
 30
0.0
 11
0.0000000000000003
 21
5.219492340704045
 31
0.0
  0
LINE
  5
18F
330
142
100
AcDbEntity
  8
AM_4
100
AcDbLine
 10
0.1093750000000003
 20
5.257732736238969
 30
0.0
 11
0.0000000000000003
 21
5.219492340704045
 31
0.0
  0
LINE
  5
190
330
142
100
AcDbEntity
  8
AM_4
100
AcDbLine
 10
0.2187500000000003
 20
5.308796654243015
 30
0.0
 11
0.1093750000000003
 21
5.257732736238969
 31
0.0
  0
ELLIPSE
  5
191
330
142
100
AcDbEntity
  8
AM_4
100
AcDbEllipse
 10
-0.0000000000000009
 20
5.55785930012626
 30
0.0
 11
0.1050000000000023
 21
0.0
 31
0.0
210
0.0
220
0.0
230
1.0
 40
0.7071067811865089
 41
4.71238898038469
 42
5.759586531581306
  0
LINE
  5
192
330
142
100
AcDbEntity
  8
AM_4
100
AcDbLine
 10
0.0909326673973664
 20
5.520736194113969
 30
0.0
 11
0.1169134295108996
 21
5.552555999267364
 31
0.0
  0
LINE
  5
193
330
142
100
AcDbEntity
  8
AM_4
100
AcDbLine
 10
-0.1169134295108989
 20
5.552555999267364
 30
0.0
 11
-0.0909326673973657
 21
5.520736194113969
 31
0.0
  0
ELLIPSE
  5
194
330
142
100
AcDbEntity
  8
AM_4
100
AcDbEllipse
 10
0.0000000000000005
 20
5.600285706997454
 30
0.0
 11
0.1349999999999998
 21
0.0
 31
0.0
210
0.0
220
0.0
230
1.0
 40
0.7071067811865458
 41
4.71238898038469
 42
6.699099359282146
  0
ELLIPSE
  5
195
330
142
100
AcDbEntity
  8
AM_4
100
AcDbEllipse
 10
0.0000000000000007
 20
5.600285706997451
 30
0.0
 11
0.1350000000000001
 21
0.0
 31
0.0
210
0.0
220
0.0
230
1.0
 40
0.7071067811865177
 41
2.725678601487198
 42
4.71238898038469
  0
ELLIPSE
  5
196
330
142
100
AcDbEntity
  8
AM_4
100
AcDbEllipse
 10
0.0000000000000017
 20
5.55785930012626
 30
0.0
 11
0.1050000000000023
 21
0.0
 31
0.0
210
0.0
220
0.0
230
1.0
 40
0.7071067811865089
 41
3.665191429188074
 42
4.71238898038469
  0
ELLIPSE
  5
197
330
142
100
AcDbEntity
  8
AM_4
100
AcDbEllipse
 10
-0.000000000000001
 20
5.65685424949238
 30
0.0
 11
0.1026779019331886
 21
0.0
 31
0.0
210
0.0
220
0.0
230
1.0
 40
0.7071067811865434
 41
4.71238898038469
 42
6.699099359282118
  0
LINE
  5
198
330
142
100
AcDbEntity
  8
AM_4
100
AcDbLine
 10
-0.0939243440009284
 20
5.686188266856154
 30
0.0
 11
-0.1234908992236331
 21
5.638853814346263
 31
0.0
  0
LINE
  5
199
330
142
100
AcDbEntity
  8
AM_4
100
AcDbLine
 10
0.1234908992236338
 20
5.638853814346263
 30
0.0
 11
0.093924344000929
 21
5.686188266856154
 31
0.0
  0
ELLIPSE
  5
19A
330
142
100
AcDbEntity
  8
AM_4
100
AcDbEllipse
 10
0.0000000000000003
 20
5.65685424949238
 30
0.0
 11
0.1026779019331867
 21
1.530019967752497E-9
 31
0.0
210
0.0
220
0.0
230
1.0
 40
0.7071067811865477
 41
0.4159140327490976
 42
4.712388969847977
  0
ENDBLK
  5
145
330
142
100
AcDbEntity
  8
0
100
AcDbBlockEnd
  0
BLOCK
  5
19D
330
19B
100
AcDbEntity
  8
0
100
AcDbBlockBegin
  2
6_023043H_0_in_023043_2
 70
     2
 10
0.0
 20
0.0
 30
0.0
  3
6_023043H_0_in_023043_2
  1

  0
ATTDEF
  5
19F
330
19B
100
AcDbEntity
  8
AM_6
100
AcDbText
 10
8.5625
 20
7.437500000000079
 30
0.0
 40
0.5
  1
P4B-E-Housing
100
AcDbAttributeDefinition
  3

  2
NN
 70
     8
280
     0
  0
ATTDEF
  5
1A0
330
19B
100
AcDbEntity
  8
AM_6
100
AcDbText
 10
8.5625
 20
6.937500000000079
 30
0.0
 40
0.5
  1
Type E Pillow Block -Inch (4-Bolt Base)
100
AcDbAttributeDefinition
  3

  2
NT
 70
     8
280
     0
  0
ATTDEF
  5
1A1
330
19B
100
AcDbEntity
  8
AM_6
100
AcDbText
 10
8.5625
 20
6.437500000000079
 30
0.0
 40
0.5
  1
023043H
100
AcDbAttributeDefinition
  3

  2
NB
 70
     8
280
     0
  0
ATTDEF
  5
1A2
330
19B
100
AcDbEntity
  8
AM_6
100
AcDbText
 10
8.5625
 20
5.937500000000079
 30
0.0
 40
0.5
  1
$PN.H
100
AcDbAttributeDefinition
  3

  2
NBSYN
 70
     8
280
     0
  0
ATTDEF
  5
1A3
330
19B
100
AcDbEntity
  8
AM_6
100
AcDbText
 10
8.5625
 20
5.437500000000079
 30
0.0
 40
0.5
  1
023043
100
AcDbAttributeDefinition
  3

  2
LINA
 70
     8
280
     0
  0
ATTDEF
  5
1A4
330
19B
100
AcDbEntity
  8
AM_6
100
AcDbText
 10
8.5625
 20
4.937500000000079
 30
0.0
 40
0.5
  1
6-7/16
100
AcDbAttributeDefinition
  3

  2
SS
 70
     8
280
     0
  0
ATTDEF
  5
1A5
330
19B
100
AcDbEntity
  8
AM_6
100
AcDbText
 10
8.5625
 20
4.437500000000079
 30
0.0
 40
0.5
  1
11.81
100
AcDbAttributeDefinition
  3

  2
BORE
 70
     8
280
     0
  0
ATTDEF
  5
1A6
330
19B
100
AcDbEntity
  8
AM_6
100
AcDbText
 10
8.5625
 20
3.937500000000079
 30
0.0
 40
0.5
  1
023043
100
AcDbAttributeDefinition
  3

  2
PN
 70
     8
280
     0
  0
ATTDEF
  5
1A7
330
19B
100
AcDbEntity
  8
AM_6
100
AcDbText
 10
8.5625
 20
3.437500000000079
 30
0.0
 40
0.5
  1
P4B-E-607R
100
AcDbAttributeDefinition
  3

  2
DESCRIPTION
 70
     8
280
     0
  0
ATTDEF
  5
1A8
330
19B
100
AcDbEntity
  8
AM_6
100
AcDbText
 10
8.5625
 20
2.937500000000079
 30
0.0
 40
0.5
  1
10-1/2
100
AcDbAttributeDefinition
  3

  2
A
 70
     8
280
     0
  0
ATTDEF
  5
1A9
330
19B
100
AcDbEntity
  8
AM_6
100
AcDbText
 10
8.5625
 20
2.437500000000079
 30
0.0
 40
0.5
  1
26
100
AcDbAttributeDefinition
  3

  2
B
 70
     8
280
     0
  0
ATTDEF
  5
1AA
330
19B
100
AcDbEntity
  8
AM_6
100
AcDbText
 10
8.5625
 20
1.937500000000079
 30
0.0
 40
0.5
  1
7-1/8
100
AcDbAttributeDefinition
  3

  2
C
 70
     8
280
     0
  0
ATTDEF
  5
1AB
330
19B
100
AcDbEntity
  8
AM_6
100
AcDbText
 10
8.5625
 20
1.437500000000079
 30
0.0
 40
0.5
  1
21-1/4
100
AcDbAttributeDefinition
  3

  2
DMIN
 70
     8
280
     0
  0
ATTDEF
  5
1AC
330
19B
100
AcDbEntity
  8
AM_6
100
AcDbText
 10
8.5625
 20
0.937500000000079
 30
0.0
 40
0.5
  1
23-1/4
100
AcDbAttributeDefinition
  3

  2
DMAX
 70
     8
280
     0
  0
ATTDEF
  5
1AD
330
19B
100
AcDbEntity
  8
AM_6
100
AcDbText
 10
8.5625
 20
0.437500000000079
 30
0.0
 40
0.5
  1
4-5/8
100
AcDbAttributeDefinition
  3

  2
E
 70
     8
280
     0
  0
ATTDEF
  5
1AE
330
19B
100
AcDbEntity
  8
AM_6
100
AcDbText
 10
8.5625
 20
-0.062499999999921
 30
0.0
 40
0.5
  1
4.625000
100
AcDbAttributeDefinition
  3

  2
E1
 70
     8
280
     0
  0
ATTDEF
  5
1AF
330
19B
100
AcDbEntity
  8
AM_6
100
AcDbText
 10
8.5625
 20
-0.562499999999921
 30
0.0
 40
0.5
  1
1
100
AcDbAttributeDefinition
  3

  2
F
 70
     8
280
     0
  0
ATTDEF
  5
1B0
330
19B
100
AcDbEntity
  8
AM_6
100
AcDbText
 10
8.5625
 20
-1.062499999999921
 30
0.0
 40
0.5
  1
1.0000000
100
AcDbAttributeDefinition
  3

  2
F1
 70
     8
280
     0
  0
ATTDEF
  5
1B1
330
19B
100
AcDbEntity
  8
AM_6
100
AcDbText
 10
8.5625
 20
-1.562499999999921
 30
0.0
 40
0.5
  1
2
100
AcDbAttributeDefinition
  3

  2
G
 70
     8
280
     0
  0
ATTDEF
  5
1B2
330
19B
100
AcDbEntity
  8
AM_6
100
AcDbText
 10
8.5625
 20
-2.062499999999921
 30
0.0
 40
0.5
  1
3-11/16
100
AcDbAttributeDefinition
  3

  2
H
 70
     8
280
     0
  0
ATTDEF
  5
1B3
330
19B
100
AcDbEntity
  8
AM_6
100
AcDbText
 10
8.5625
 20
-2.562499999999921
 30
0.0
 40
0.5
  1
14-15/16
100
AcDbAttributeDefinition
  3

  2
J
 70
     8
280
     0
  0
ATTDEF
  5
1B4
330
19B
100
AcDbEntity
  8
AM_6
100
AcDbText
 10
8.5625
 20
-3.062499999999921
 30
0.0
 40
0.5
  1
14-33/64
100
AcDbAttributeDefinition
  3

  2
J1
 70
     8
280
     0
  0
ATTDEF
  5
1B5
330
19B
100
AcDbEntity
  8
AM_6
100
AcDbText
 10
8.5625
 20
-3.562499999999921
 30
0.0
 40
0.5
  1
11-3/8
100
AcDbAttributeDefinition
  3

  2
L
 70
     8
280
     0
  0
ATTDEF
  5
1B6
330
19B
100
AcDbEntity
  8
AM_6
100
AcDbText
 10
8.5625
 20
-4.062499999999921
 30
0.0
 40
0.5
  1
7-1/2
100
AcDbAttributeDefinition
  3

  2
M
 70
     8
280
     0
  0
ATTDEF
  5
1B7
330
19B
100
AcDbEntity
  8
AM_6
100
AcDbText
 10
8.5625
 20
-4.562499999999921
 30
0.0
 40
0.5
  1
0.940
100
AcDbAttributeDefinition
  3

  2
F2
 70
     8
280
     0
  0
ATTDEF
  5
1B8
330
19B
100
AcDbEntity
  8
AM_6
100
AcDbText
 10
8.5625
 20
-5.062499999999921
 30
0.0
 40
0.5
  1
baldor
100
AcDbAttributeDefinition
  3

  2
COMPANY
 70
     8
280
     0
  0
ELLIPSE
  5
1B9
330
19B
100
AcDbEntity
  8
AM_9
100
AcDbEllipse
 10
0.0000000000000008
 20
5.356333867488096
 30
0.0
 11
0.5000000000000011
 21
0.0
 31
0.0
210
0.0
220
0.0
230
1.0
 40
0.7071067811865481
 41
0.0
 42
1.570796326794897
  0
LWPOLYLINE
  5
1BA
330
19B
100
AcDbEntity
  8
AM_9
100
AcDbPolyline
 90
       11
 70
     0
 43
0.0
 10
0.4999999994817236
 20
5.25912278284615
 10
0.4999870042718104
 20
5.261655141583743
 10
0.4922625607381813
 20
5.320494114892052
 10
0.4707159501752977
 20
5.376974536437888
 10
0.4357747317458107
 20
5.429526371119323
 10
0.3886100025514519
 20
5.476865325403751
 10
0.3302687842601371
 20
5.51780340318835
 10
0.2626220976852079
 20
5.551350905978754
 10
0.1873910266387954
 20
5.576630975207054
 10
0.1068563112560629
 20
5.593138163561147
 10
0.0000000000000003
 20
5.600762470189821
  0
ELLIPSE
  5
1BB
330
19B
100
AcDbEntity
  8
AM_9
100
AcDbEllipse
 10
0.0000000000007461
 20
5.356333867488087
 30
0.0
 11
0.500000000000747
 21
0.0
 31
0.0
210
0.0
220
0.0
230
1.0
 40
0.7071067811865467
 41
3.121853545048346
 42
3.132596742361751
  0
ELLIPSE
  5
1BC
330
19B
100
AcDbEntity
  8
AM_9
100
AcDbEllipse
 10
-0.0000000000000005
 20
5.356333867488096
 30
0.0
 11
0.5000000000000007
 21
0.0
 31
0.0
210
0.0
220
0.0
230
1.0
 40
0.7071067811865487
 41
1.570796326794897
 42
3.121853545048346
  0
ELLIPSE
  5
1BD
330
19B
100
AcDbEntity
  8
AM_9
100
AcDbEllipse
 10
0.0000000000000008
 20
5.391689206547484
 30
0.0
 11
0.4500000000000022
 21
0.0
 31
0.0
210
0.0
220
0.0
230
1.0
 40
0.7071067811864123
 41
1.399877398230754
 42
1.570796326794897
  0
ELLIPSE
  5
1BE
330
19B
100
AcDbEntity
  8
AM_9
100
AcDbEllipse
 10
-0.0000000000000003
 20
5.391689206547484
 30
0.0
 11
0.450000000000001
 21
0.0
 31
0.0
210
0.0
220
0.0
230
1.0
 40
0.7071067811864121
 41
1.570796326794897
 42
1.741715255359039
  0
LWPOLYLINE
  5
1BF
330
19B
100
AcDbEntity
  8
AM_9
100
AcDbPolyline
 90
        3
 70
     0
 43
0.0
 10
0.0000000000000003
 20
5.724531919022043
 10
-0.0330558229548637
 20
5.723735067855462
 10
-0.0382811098788077
 20
5.723462823554816
  0
LWPOLYLINE
  5
1C0
330
19B
100
AcDbEntity
  8
AM_9
100
AcDbPolyline
 90
        3
 70
     0
 43
0.0
 10
0.0403062854438149
 20
5.723346521515336
 10
0.0108741351397435
 20
5.724445772614553
 10
0.0000000000000003
 20
5.724531919022043
  0
LINE
  5
1C1
330
19B
100
AcDbEntity
  8
AM_9
100
AcDbLine
 10
-3.5625
 20
-5.905
 30
0.0
 11
3.5625
 21
-5.905
 31
0.0
  0
LINE
  5
1C2
330
19B
100
AcDbEntity
  8
AM_9
100
AcDbLine
 10
3.5625
 20
5.905
 30
0.0
 11
-3.5625
 21
5.905
 31
0.0
  0
LWPOLYLINE
  5
1C3
330
19B
100
AcDbEntity
  8
AM_9
100
AcDbPolyline
 90
       11
 70
     0
 43
0.0
 10
0.0000000000000003
 20
5.600762470189821
 10
-0.0838281703469267
 20
5.596061270037387
 10
-0.165290833578287
 20
5.582186309105167
 10
-0.2420224556467734
 20
5.559336297979795
 10
-0.3119437088395753
 20
5.52815025936428
 10
-0.3730555264577695
 20
5.489186748254179
 10
-0.4236623901730508
 20
5.443517189988436
 10
-0.4622042606783649
 20
5.392129121054734
 10
-0.4877030546301035
 20
5.336457877487411
 10
-0.499230086667881
 20
5.278023476828805
 10
-0.4999999977454023
 20
5.259140260247046
  0
LINE
  5
1C4
330
19B
100
AcDbEntity
  8
AM_9
100
AcDbLine
 10
-1.812499999999999
 20
-3.8125
 30
0.0
 11
-1.812499999999999
 21
-7.5
 31
0.0
  0
LINE
  5
1C5
330
19B
100
AcDbEntity
  8
AM_9
100
AcDbLine
 10
-2.8125
 20
-3.8125
 30
0.0
 11
-2.8125
 21
-7.5
 31
0.0
  0
LINE
  5
1C6
330
19B
100
AcDbEntity
  8
AM_9
100
AcDbLine
 10
1.812500000000001
 20
-3.8125
 30
0.0
 11
1.812500000000001
 21
-7.5
 31
0.0
  0
LINE
  5
1C7
330
19B
100
AcDbEntity
  8
AM_9
100
AcDbLine
 10
2.8125
 20
-3.8125
 30
0.0
 11
2.8125
 21
-7.5
 31
0.0
  0
LINE
  5
1C8
330
19B
100
AcDbEntity
  8
AM_4
100
AcDbLine
 10
0.5000000000000017
 20
5.259092795900629
 30
0.0
 11
0.5000000000000017
 21
5.356333867488097
 31
0.0
  0
LINE
  5
1C9
330
19B
100
AcDbEntity
  8
AM_4
100
AcDbLine
 10
-0.500000000000001
 20
5.356333867488097
 30
0.0
 11
-0.500000000000001
 21
5.259030440411031
 31
0.0
  0
ELLIPSE
  5
1CA
330
19B
100
AcDbEntity
  8
AM_4
100
AcDbEllipse
 10
0.0000000000000005
 20
5.356333867488097
 30
0.0
 11
0.5000000000000009
 21
0.0
 31
0.0
210
0.0
220
0.0
230
1.0
 40
0.7071067811865485
 41
3.141592653589793
 42
6.26972186261729
  0
LWPOLYLINE
  5
1CB
330
19B
100
AcDbEntity
  8
AM_4
100
AcDbPolyline
 90
       20
 70
     0
 43
0.0
 10
-0.4999999977454023
 20
5.259140260247046
 10
-0.4966999969933093
 20
5.218397197800255
 10
-0.480025621294201
 20
5.159368191904443
 10
-0.4498852993680834
 20
5.102565603416079
 10
-0.4069147615852886
 20
5.049701502208999
 10
-0.3525192730872423
 20
5.002397402871873
 10
-0.2879470550932339
 20
4.96216523545324
 10
-0.2152470743260151
 20
4.930301095888707
 10
-0.1363703577722189
 20
4.907987240989506
 10
-0.053632777871174
 20
4.895832594523436
 10
0.0304809413356081
 20
4.894398078329058
 10
0.1137341400238815
 20
4.90354018317635
 10
0.193660472113432
 20
4.923080828823224
 10
0.2681408833728255
 20
4.952220713317813
 10
0.335083366547285
 20
4.990193835493943
 10
0.3925988509527736
 20
5.035611333252012
 10
0.4389860484670406
 20
5.087206075559832
 10
0.4729893559216111
 20
5.143225053387837
 10
0.4934433526109833
 20
5.201948964172081
 10
0.4999999994817236
 20
5.25912278284615
  0
ELLIPSE
  5
1CC
330
19B
100
AcDbEntity
  8
AM_4
100
AcDbEllipse
 10
0.0000000000000003
 20
5.391689206547424
 30
0.0
 11
0.450000000000001
 21
0.0
 31
0.0
210
0.0
220
0.0
230
1.0
 40
0.7071067811865485
 41
1.741715255359041
 42
7.683062705410338
  0
LWPOLYLINE
  5
1CD
330
19B
100
AcDbEntity
  8
AM_4
100
AcDbPolyline
 90
       13
 70
     0
 43
0.0
 10
-0.0382811098788077
 20
5.723462823554816
 10
-0.0943238006709731
 20
5.717990940833294
 10
-0.154246632445726
 20
5.706757710762944
 10
-0.2119136510766886
 20
5.690164370054742
 10
-0.2664643313257691
 20
5.668400327466685
 10
-0.3170630548302367
 20
5.641718328396972
 10
-0.3628921840980958
 20
5.610448312994101
 10
-0.4031594372096146
 20
5.575019782732562
 10
-0.4371321587484541
 20
5.535977047430784
 10
-0.4641738243805306
 20
5.493999258728076
 10
-0.4838068936637495
 20
5.449885022323279
 10
-0.4957645246790388
 20
5.404489045295891
 10
-0.4999777177794384
 20
5.35983457140674
  0
LWPOLYLINE
  5
1CE
330
19B
100
AcDbEntity
  8
AM_4
100
AcDbPolyline
 90
       14
 70
     0
 43
0.0
 10
0.4999500946483451
 20
5.351094929452326
 10
0.4985366002723613
 20
5.384681791893129
 10
0.4900969150912673
 20
5.429742820682965
 10
0.4743473477361877
 20
5.473475994485735
 10
0.4515117705802607
 20
5.515372512224026
 10
0.4218465148126597
 20
5.554906212610343
 10
0.3857038976120331
 20
5.591509615717047
 10
0.3435811766803304
 20
5.624598686112057
 10
0.296125597367133
 20
5.653623112841903
 10
0.2441018940000126
 20
5.6781092746732
 10
0.1883492342559394
 20
5.697679284027128
 10
0.1297598208729814
 20
5.712048049273879
 10
0.0692264952855536
 20
5.721023724777135
 10
0.0403062854438149
 20
5.723346521515336
  0
ELLIPSE
  5
1CF
330
19B
100
AcDbEntity
  8
AM_4
100
AcDbEllipse
 10
0.0000000000133848
 20
5.356333867488037
 30
0.0
 11
0.5000000000133857
 21
0.0
 31
0.0
210
0.0
220
0.0
230
1.0
 40
0.7071067811865482
 41
3.132596742361837
 42
3.141592653589793
  0
ELLIPSE
  5
1D0
330
19B
100
AcDbEntity
  8
AM_4
100
AcDbEllipse
 10
-0.0000000000025295
 20
5.356333867488122
 30
0.0
 11
0.5000000000025312
 21
0.0
 31
0.0
210
0.0
220
0.0
230
1.0
 40
0.7071067811865476
 41
6.269721862617282
 42
6.283185307179586
  0
LINE
  5
1D1
330
19B
100
AcDbEntity
  8
AM_4
100
AcDbLine
 10
3.5625
 20
7.437500000000079
 30
0.0
 11
-3.5625
 21
7.437500000000079
 31
0.0
  0
LINE
  5
1D2
330
19B
100
AcDbEntity
  8
AM_4
100
AcDbLine
 10
-3.5625
 20
0.0835081411545229
 30
0.0
 11
3.5625
 21
0.0835081411545229
 31
0.0
  0
LINE
  5
1D3
330
19B
100
AcDbEntity
  8
AM_4
100
AcDbLine
 10
-3.5625
 20
-0.158727480804367
 30
0.0
 11
3.5625
 21
-0.158727480804367
 31
0.0
  0
LWPOLYLINE
  5
1D4
330
19B
100
AcDbEntity
  8
AM_4
100
AcDbPolyline
 90
        7
 70
     0
 43
0.0
 10
-3.027111313470702
 20
-5.976807519405726
 10
-3.139611900349378
 20
-5.958781886598162
 10
-3.236957239078706
 20
-5.934924034915365
 10
-3.311115025616663
 20
-5.906467799621882
 10
-3.364665302449656
 20
-5.871897370879019
 10
-3.391433101213705
 20
-5.838440918715126
 10
-3.400568181818181
 20
-5.801068770857882
  0
LINE
  5
1D5
330
19B
100
AcDbEntity
  8
AM_4
100
AcDbLine
 10
-3.400568181818181
 20
-3.8125
 30
0.0
 11
-3.400568181818181
 21
-5.801068770857881
 31
0.0
  0
LWPOLYLINE
  5
1D6
330
19B
100
AcDbEntity
  8
AM_4
100
AcDbPolyline
 90
        7
 70
     0
 43
0.0
 10
3.400568181818182
 20
-5.801068770857882
 10
3.388168254658197
 20
-5.844297977890317
 10
3.34948748421621
 20
-5.883970554755224
 10
3.287094967970299
 20
-5.91721254595022
 10
3.198609340759955
 20
-5.945595101129695
 10
3.119093714658205
 20
-5.962665533069089
 10
3.027111313470706
 20
-5.976807519405726
  0
LINE
  5
1D7
330
19B
100
AcDbEntity
  8
AM_4
100
AcDbLine
 10
3.400568181818182
 20
-3.8125
 30
0.0
 11
3.400568181818183
 21
-5.801068770857881
 31
0.0
  0
LINE
  5
1D8
330
19B
100
AcDbEntity
  8
AM_4
100
AcDbLine
 10
-3.400568181818181
 20
-3.8125
 30
0.0
 11
3.400568181818182
 21
-3.8125
 31
0.0
  0
LINE
  5
1D9
330
19B
100
AcDbEntity
  8
AM_4
100
AcDbLine
 10
-2.509943181818177
 20
-3.8125
 30
0.0
 11
-2.509943181818177
 21
-6.051555005246774
 31
0.0
  0
LINE
  5
1DA
330
19B
100
AcDbEntity
  8
AM_4
100
AcDbLine
 10
2.509943181818181
 20
-3.8125
 30
0.0
 11
2.509943181818181
 21
-6.051555005246774
 31
0.0
  0
LINE
  5
1DB
330
19B
100
AcDbEntity
  8
AM_4
100
AcDbLine
 10
-3.559222720727371
 20
-5.976807519405726
 30
0.0
 11
-3.5625
 21
-5.967867457090678
 31
0.0
  0
LINE
  5
1DC
330
19B
100
AcDbEntity
  8
AM_4
100
AcDbLine
 10
-3.5625
 20
7.437500000000079
 30
0.0
 11
-3.5625
 21
-7.5
 31
0.0
  0
LINE
  5
1DD
330
19B
100
AcDbEntity
  8
AM_4
100
AcDbLine
 10
3.5625
 20
-7.5
 30
0.0
 11
-3.5625
 21
-7.5
 31
0.0
  0
LINE
  5
1DE
330
19B
100
AcDbEntity
  8
AM_4
100
AcDbLine
 10
3.5625
 20
7.437500000000079
 30
0.0
 11
3.5625
 21
-7.5
 31
0.0
  0
LINE
  5
1DF
330
19B
100
AcDbEntity
  8
AM_4
100
AcDbLine
 10
3.5625
 20
-5.967867457090678
 30
0.0
 11
3.559222720727371
 21
-5.976807519405726
 31
0.0
  0
LINE
  5
1E0
330
19B
100
AcDbEntity
  8
AM_4
100
AcDbLine
 10
3.206250000000001
 20
-6.345780683935767
 30
0.0
 11
3.206250000000001
 21
-7.5
 31
0.0
  0
LINE
  5
1E1
330
19B
100
AcDbEntity
  8
AM_4
100
AcDbLine
 10
-3.206250000000002
 20
-6.345780683935767
 30
0.0
 11
-3.206250000000002
 21
-7.5
 31
0.0
  0
LINE
  5
1E2
330
19B
100
AcDbEntity
  8
AM_4
100
AcDbLine
 10
-3.206250000000002
 20
-6.345780683935767
 30
0.0
 11
3.206250000000001
 21
-6.345780683935767
 31
0.0
  0
LWPOLYLINE
  5
1E3
330
19B
100
AcDbEntity
  8
AM_4
100
AcDbPolyline
 90
       10
 70
     0
 43
0.0
 10
3.206250000000001
 20
-6.345780683935767
 10
3.206786380851101
 20
-6.345230368786356
 10
3.295457091320066
 20
-6.254221607727407
 10
3.380957468787269
 20
-6.16622716758395
 10
3.43368652701756
 20
-6.111679688153054
 10
3.481408862978009
 20
-6.061903323566235
 10
3.508111229776804
 20
-6.033715394040339
 10
3.530744581385298
 20
-6.009414000004392
 10
3.548264933019282
 20
-5.989974407501959
 10
3.559222720727371
 20
-5.976807519405726
  0
LINE
  5
1E4
330
19B
100
AcDbEntity
  8
AM_4
100
AcDbLine
 10
3.027111313470711
 20
-5.976807519405726
 30
0.0
 11
3.559222720727371
 21
-5.976807519405726
 31
0.0
  0
LWPOLYLINE
  5
1E5
330
19B
100
AcDbEntity
  8
AM_4
100
AcDbPolyline
 90
        6
 70
     0
 43
0.0
 10
2.509943181818181
 20
-6.051555005246774
 10
2.632581367987886
 20
-6.045045208562818
 10
2.755219554157589
 20
-6.027351225122848
 10
2.87268458746053
 20
-6.004441581349749
 10
2.985391103988146
 20
-5.983007438931148
 10
3.02711131347071
 20
-5.976807519405726
  0
LINE
  5
1E6
330
19B
100
AcDbEntity
  8
AM_4
100
AcDbLine
 10
-2.509943181818177
 20
-6.051555005246774
 30
0.0
 11
2.509943181818181
 21
-6.051555005246774
 31
0.0
  0
LWPOLYLINE
  5
1E7
330
19B
100
AcDbEntity
  8
AM_4
100
AcDbPolyline
 90
        5
 70
     0
 43
0.0
 10
-3.027111313470706
 20
-5.976807519405726
 10
-2.907595550943595
 20
-5.997412700707271
 10
-2.775508311794522
 20
-6.023652565253434
 10
-2.646843613988522
 20
-6.0434918469701
 10
-2.509943181818177
 20
-6.051555005246773
  0
LINE
  5
1E8
330
19B
100
AcDbEntity
  8
AM_4
100
AcDbLine
 10
-3.559222720727371
 20
-5.976807519405726
 30
0.0
 11
-3.027111313470706
 21
-5.976807519405726
 31
0.0
  0
LWPOLYLINE
  5
1E9
330
19B
100
AcDbEntity
  8
AM_4
100
AcDbPolyline
 90
       10
 70
     0
 43
0.0
 10
-3.559222720727371
 20
-5.976807519405726
 10
-3.548264933019282
 20
-5.989974407501959
 10
-3.530744581385298
 20
-6.009414000004392
 10
-3.508111229776803
 20
-6.033715394040339
 10
-3.481408862978008
 20
-6.061903323566235
 10
-3.43368652701756
 20
-6.111679688153055
 10
-3.380957468787269
 20
-6.16622716758395
 10
-3.295457091328217
 20
-6.254221607735352
 10
-3.206786380850903
 20
-6.34523036878616
 10
-3.206250000000002
 20
-6.345780683935772
  0
ENDBLK
  5
19E
330
19B
100
AcDbEntity
  8
0
100
AcDbBlockEnd
  0
ENDSEC
  0
SECTION
  2
ENTITIES
  0
INSERT
  5
6F
330
1F
100
AcDbEntity
  8
0
100
AcDbBlockReference
  2
1_023043_2
 10
0.0
 20
0.0
 30
0.0
  0
POINT
  5
1EB
330
1F
100
AcDbEntity
  8
ConnectionPoints
100
AcDbPoint
 10
-5.25
 20
0.0000000000000001
 30
0.0000000000000003
  0
POINT
  5
1EC
330
1F
100
AcDbEntity
  8
ConnectionPoints
100
AcDbPoint
 10
-5.25
 20
0.0
 30
0.0000000000000003
  0
POINT
  5
1ED
330
1F
100
AcDbEntity
  8
ConnectionPoints
100
AcDbPoint
 10
5.25
 20
0.0
 30
-0.0000000000000003
  0
POINT
  5
1EE
330
1F
100
AcDbEntity
  8
ConnectionPoints
100
AcDbPoint
 10
0.0
 20
0.0
 30
0.0
  0
POINT
  5
1EF
330
1F
100
AcDbEntity
  8
ConnectionPoints
100
AcDbPoint
 10
0.0000000000000003
 20
5.391689206547424
 30
5.391689206547425
  0
POINT
  5
1F0
330
1F
100
AcDbEntity
  8
ConnectionPoints
100
AcDbPoint
 10
0.0000000000000003
 20
5.391689206547424
 30
5.391689206547425
  0
POINT
  5
1F1
330
1F
100
AcDbEntity
  8
ConnectionPoints
100
AcDbPoint
 10
0.0
 20
0.0
 30
0.0
  0
ENDSEC
  0
SECTION
  2
OBJECTS
  0
DICTIONARY
  5
C
330
0
100
AcDbDictionary
281
     1
  3
ACAD_DETAILVIEWSTYLE
350
1F9
  3
ACAD_GROUP
350
D
  3
ACAD_LAYOUT
350
1A
  3
ACAD_MATERIAL
350
43
  3
ACAD_MLEADERSTYLE
350
6B
  3
ACAD_MLINESTYLE
350
17
  3
ACAD_PLOTSETTINGS
350
19
  3
ACAD_PLOTSTYLENAME
350
E
  3
ACAD_SCALELIST
350
47
  3
ACAD_SECTIONVIEWSTYLE
350
1FA
  3
ACAD_TABLESTYLE
350
69
  3
ACAD_VISUALSTYLE
350
2A
  3
ACDB_RECOMPOSE_DATA
350
1F6
  3
AcDbVariableDictionary
350
1F2
  0
SUN
  5
6D
330
29
100
AcDbSun
 90
        1
290
     0
 63
     7
421
 16777215
 40
1.0
291
     1
 91
  2455826
 92
 54000000
292
     0
 70
     2
 71
   256
280
     1
  0
DICTIONARY
  5
1F9
102
{ACAD_REACTORS
330
C
102
}
330
C
100
AcDbDictionary
281
     1
  0
DICTIONARY
  5
D
102
{ACAD_REACTORS
330
C
102
}
330
C
100
AcDbDictionary
281
     1
  0
DICTIONARY
  5
1A
102
{ACAD_REACTORS
330
C
102
}
330
C
100
AcDbDictionary
281
     1
  3
Layout1
350
1E
  3
Layout2
350
26
  3
Model
350
22
  0
DICTIONARY
  5
43
102
{ACAD_REACTORS
330
C
102
}
330
C
100
AcDbDictionary
281
     1
  3
ByBlock
350
45
  3
ByLayer
350
44
  3
Global
350
46
  0
DICTIONARY
  5
6B
102
{ACAD_REACTORS
330
C
102
}
330
C
100
AcDbDictionary
281
     1
  3
Standard
350
6C
  0
DICTIONARY
  5
17
102
{ACAD_REACTORS
330
C
102
}
330
C
100
AcDbDictionary
281
     1
  3
Standard
350
18
  0
DICTIONARY
  5
19
102
{ACAD_REACTORS
330
C
102
}
330
C
100
AcDbDictionary
281
     1
  0
ACDBDICTIONARYWDFLT
  5
E
102
{ACAD_REACTORS
330
C
102
}
330
C
100
AcDbDictionary
281
     1
  3
Normal
350
F
100
AcDbDictionaryWithDefault
340
F
  0
DICTIONARY
  5
47
102
{ACAD_REACTORS
330
C
102
}
330
C
100
AcDbDictionary
281
     1
  3
A0
350
48
  3
A1
350
49
  3
A2
350
4A
  3
A3
350
4B
  3
A4
350
4C
  3
A5
350
4D
  3
A6
350
4E
  3
A7
350
4F
  3
A8
350
50
  3
A9
350
51
  3
B0
350
52
  3
B1
350
53
  3
B2
350
54
  3
B3
350
55
  3
B4
350
56
  3
B5
350
57
  3
B6
350
58
  3
B7
350
59
  3
B8
350
5A
  3
B9
350
5B
  3
C0
350
5C
  3
C1
350
5D
  3
C2
350
5E
  3
C3
350
5F
  3
C4
350
60
  3
C5
350
61
  3
C6
350
62
  3
C7
350
63
  3
C8
350
64
  3
C9
350
65
  3
D0
350
66
  3
D1
350
67
  3
D2
350
68
  0
DICTIONARY
  5
1FA
102
{ACAD_REACTORS
330
C
102
}
330
C
100
AcDbDictionary
281
     1
  0
DICTIONARY
  5
69
102
{ACAD_REACTORS
330
C
102
}
330
C
100
AcDbDictionary
281
     1
  3
Standard
350
6A
  0
DICTIONARY
  5
2A
102
{ACAD_REACTORS
330
C
102
}
330
C
100
AcDbDictionary
281
     1
  3
2dWireframe
350
2F
  3
Basic
350
32
  3
Brighten
350
36
  3
ColorChange
350
3A
  3
Conceptual
350
34
  3
Dim
350
35
  3
EdgeColorOff
350
3D
  3
Facepattern
350
39
  3
Flat
350
2B
  3
FlatWithEdges
350
2C
  3
Gouraud
350
2D
  3
GouraudWithEdges
350
2E
  3
Hidden
350
31
  3
JitterOff
350
3B
  3
Linepattern
350
38
  3
OverhangOff
350
3C
  3
Realistic
350
33
  3
Shaded
350
42
  3
Shaded with edges
350
41
  3
Shades of Gray
350
3E
  3
Sketchy
350
3F
  3
Thicken
350
37
  3
Wireframe
350
30
  3
X-Ray
350
40
  0
XRECORD
  5
1F6
102
{ACAD_REACTORS
330
C
102
}
330
C
100
AcDbXrecord
280
     1
 90
        1
330
6A
  0
DICTIONARY
  5
1F2
102
{ACAD_REACTORS
330
C
102
}
330
C
100
AcDbDictionary
281
     1
  3
CANNOSCALE
350
1F3
  3
CMLEADERSTYLE
350
1F8
  3
CTABLESTYLE
350
1F7
  0
LAYOUT
  5
1E
102
{ACAD_REACTORS
330
1A
102
}
330
1A
100
AcDbPlotSettings
  1

  2
none_device
  4

  6

 40
0.0
 41
0.0
 42
0.0
 43
0.0
 44
0.0
 45
0.0
 46
0.0
 47
0.0
 48
0.0
 49
0.0
140
0.0
141
0.0
142
1.0
143
1.0
 70
   688
 72
     0
 73
     0
 74
     5
  7

 75
    16
 76
     0
 77
     2
 78
   300
147
1.0
148
0.0
149
0.0
100
AcDbLayout
  1
Layout1
 70
     1
 71
     1
 10
0.0
 20
0.0
 11
12.0
 21
9.0
 12
0.0
 22
0.0
 32
0.0
 14
1.000000000000000E+20
 24
1.000000000000000E+20
 34
1.000000000000000E+20
 15
-1.000000000000000E+20
 25
-1.000000000000000E+20
 35
-1.000000000000000E+20
146
0.0
 13
0.0
 23
0.0
 33
0.0
 16
1.0
 26
0.0
 36
0.0
 17
0.0
 27
1.0
 37
0.0
 76
     0
330
1B
  0
LAYOUT
  5
26
102
{ACAD_REACTORS
330
1A
102
}
330
1A
100
AcDbPlotSettings
  1

  2
none_device
  4

  6

 40
0.0
 41
0.0
 42
0.0
 43
0.0
 44
0.0
 45
0.0
 46
0.0
 47
0.0
 48
0.0
 49
0.0
140
0.0
141
0.0
142
1.0
143
1.0
 70
   688
 72
     0
 73
     0
 74
     5
  7

 75
    16
 76
     0
 77
     2
 78
   300
147
1.0
148
0.0
149
0.0
100
AcDbLayout
  1
Layout2
 70
     1
 71
     2
 10
0.0
 20
0.0
 11
0.0
 21
0.0
 12
0.0
 22
0.0
 32
0.0
 14
0.0
 24
0.0
 34
0.0
 15
0.0
 25
0.0
 35
0.0
146
0.0
 13
0.0
 23
0.0
 33
0.0
 16
1.0
 26
0.0
 36
0.0
 17
0.0
 27
1.0
 37
0.0
 76
     0
330
23
  0
LAYOUT
  5
22
102
{ACAD_REACTORS
330
1A
102
}
330
1A
100
AcDbPlotSettings
  1

  2
none_device
  4
Letter_(8.50_x_11.00_Inches)
  6

 40
6.35
 41
6.35
 42
6.35000508
 43
6.35000508
 44
215.9
 45
279.4
 46
0.0
 47
0.0
 48
0.0
 49
0.0
140
0.0
141
0.0
142
1.0
143
1.0
 70
  1712
 72
     0
 73
     0
 74
     0
  7

 75
     0
 76
     0
 77
     2
 78
   300
147
1.0
148
0.0
149
0.0
100
AcDbLayout
  1
Model
 70
     1
 71
     0
 10
0.0
 20
0.0
 11
12.0
 21
9.0
 12
0.0
 22
0.0
 32
0.0
 14
1.000000000000000E+20
 24
1.000000000000000E+20
 34
1.000000000000000E+20
 15
-1.000000000000000E+20
 25
-1.000000000000000E+20
 35
-1.000000000000000E+20
146
0.0
 13
0.0
 23
0.0
 33
0.0
 16
1.0
 26
0.0
 36
0.0
 17
0.0
 27
1.0
 37
0.0
 76
     0
330
1F
331
29
  0
MATERIAL
  5
45
102
{ACAD_REACTORS
330
43
102
}
330
43
100
AcDbMaterial
  1
ByBlock
 72
     1
 94
      127
  0
MATERIAL
  5
44
102
{ACAD_REACTORS
330
43
102
}
330
43
100
AcDbMaterial
  1
ByLayer
 72
     1
 94
      127
  0
MATERIAL
  5
46
102
{ACAD_REACTORS
330
43
102
}
330
43
100
AcDbMaterial
  1
Global
 72
     1
 94
      127
  0
MLEADERSTYLE
  5
6C
102
{ACAD_REACTORS
330
6B
102
}
330
6B
100
AcDbMLeaderStyle
179
     2
170
     2
171
     1
172
     0
 90
        2
 40
0.0
 41
0.0
173
     1
 91
-1056964608
340
14
 92
       -2
290
     1
 42
0.09
291
     1
 43
0.36
  3
Standard
341
0
 44
0.18
300

342
11
174
     1
178
     6
175
     1
176
     0
 93
-1056964608
 45
0.18
292
     0
297
     0
 46
0.18
343
0
 94
-1056964608
 47
1.0
 49
1.0
140
1.0
293
     1
141
0.0
294
     1
177
     0
142
1.0
295
     0
296
     0
143
0.125
271
     0
272
     9
273
     9
298
     0
  0
MLINESTYLE
  5
18
102
{ACAD_REACTORS
330
17
102
}
330
17
100
AcDbMlineStyle
  2
Standard
 70
     0
  3

 62
   256
 51
90.0
 52
90.0
 71
     2
 49
0.5
 62
   256
  6
BYLAYER
 49
-0.5
 62
   256
  6
BYLAYER
  0
ACDBPLACEHOLDER
  5
F
102
{ACAD_REACTORS
330
E
102
}
330
E
  0
SCALE
  5
48
102
{ACAD_REACTORS
330
47
102
}
330
47
100
AcDbScale
 70
     0
300
1:1
140
1.0
141
1.0
290
     1
  0
SCALE
  5
49
102
{ACAD_REACTORS
330
47
102
}
330
47
100
AcDbScale
 70
     0
300
1:2
140
1.0
141
2.0
290
     0
  0
SCALE
  5
4A
102
{ACAD_REACTORS
330
47
102
}
330
47
100
AcDbScale
 70
     0
300
1:4
140
1.0
141
4.0
290
     0
  0
SCALE
  5
4B
102
{ACAD_REACTORS
330
47
102
}
330
47
100
AcDbScale
 70
     0
300
1:5
140
1.0
141
5.0
290
     0
  0
SCALE
  5
4C
102
{ACAD_REACTORS
330
47
102
}
330
47
100
AcDbScale
 70
     0
300
1:8
140
1.0
141
8.0
290
     0
  0
SCALE
  5
4D
102
{ACAD_REACTORS
330
47
102
}
330
47
100
AcDbScale
 70
     0
300
1:10
140
1.0
141
10.0
290
     0
  0
SCALE
  5
4E
102
{ACAD_REACTORS
330
47
102
}
330
47
100
AcDbScale
 70
     0
300
1:16
140
1.0
141
16.0
290
     0
  0
SCALE
  5
4F
102
{ACAD_REACTORS
330
47
102
}
330
47
100
AcDbScale
 70
     0
300
1:20
140
1.0
141
20.0
290
     0
  0
SCALE
  5
50
102
{ACAD_REACTORS
330
47
102
}
330
47
100
AcDbScale
 70
     0
300
1:30
140
1.0
141
30.0
290
     0
  0
SCALE
  5
51
102
{ACAD_REACTORS
330
47
102
}
330
47
100
AcDbScale
 70
     0
300
1:40
140
1.0
141
40.0
290
     0
  0
SCALE
  5
52
102
{ACAD_REACTORS
330
47
102
}
330
47
100
AcDbScale
 70
     0
300
1:50
140
1.0
141
50.0
290
     0
  0
SCALE
  5
53
102
{ACAD_REACTORS
330
47
102
}
330
47
100
AcDbScale
 70
     0
300
1:100
140
1.0
141
100.0
290
     0
  0
SCALE
  5
54
102
{ACAD_REACTORS
330
47
102
}
330
47
100
AcDbScale
 70
     0
300
2:1
140
2.0
141
1.0
290
     0
  0
SCALE
  5
55
102
{ACAD_REACTORS
330
47
102
}
330
47
100
AcDbScale
 70
     0
300
4:1
140
4.0
141
1.0
290
     0
  0
SCALE
  5
56
102
{ACAD_REACTORS
330
47
102
}
330
47
100
AcDbScale
 70
     0
300
8:1
140
8.0
141
1.0
290
     0
  0
SCALE
  5
57
102
{ACAD_REACTORS
330
47
102
}
330
47
100
AcDbScale
 70
     0
300
10:1
140
10.0
141
1.0
290
     0
  0
SCALE
  5
58
102
{ACAD_REACTORS
330
47
102
}
330
47
100
AcDbScale
 70
     0
300
100:1
140
100.0
141
1.0
290
     0
  0
SCALE
  5
59
102
{ACAD_REACTORS
330
47
102
}
330
47
100
AcDbScale
 70
     0
300
1/128" = 1'-0"
140
0.0078125
141
12.0
290
     0
  0
SCALE
  5
5A
102
{ACAD_REACTORS
330
47
102
}
330
47
100
AcDbScale
 70
     0
300
1/64" = 1'-0"
140
0.015625
141
12.0
290
     0
  0
SCALE
  5
5B
102
{ACAD_REACTORS
330
47
102
}
330
47
100
AcDbScale
 70
     0
300
1/32" = 1'-0"
140
0.03125
141
12.0
290
     0
  0
SCALE
  5
5C
102
{ACAD_REACTORS
330
47
102
}
330
47
100
AcDbScale
 70
     0
300
1/16" = 1'-0"
140
0.0625
141
12.0
290
     0
  0
SCALE
  5
5D
102
{ACAD_REACTORS
330
47
102
}
330
47
100
AcDbScale
 70
     0
300
3/32" = 1'-0"
140
0.09375
141
12.0
290
     0
  0
SCALE
  5
5E
102
{ACAD_REACTORS
330
47
102
}
330
47
100
AcDbScale
 70
     0
300
1/8" = 1'-0"
140
0.125
141
12.0
290
     0
  0
SCALE
  5
5F
102
{ACAD_REACTORS
330
47
102
}
330
47
100
AcDbScale
 70
     0
300
3/16" = 1'-0"
140
0.1875
141
12.0
290
     0
  0
SCALE
  5
60
102
{ACAD_REACTORS
330
47
102
}
330
47
100
AcDbScale
 70
     0
300
1/4" = 1'-0"
140
0.25
141
12.0
290
     0
  0
SCALE
  5
61
102
{ACAD_REACTORS
330
47
102
}
330
47
100
AcDbScale
 70
     0
300
3/8" = 1'-0"
140
0.375
141
12.0
290
     0
  0
SCALE
  5
62
102
{ACAD_REACTORS
330
47
102
}
330
47
100
AcDbScale
 70
     0
300
1/2" = 1'-0"
140
0.5
141
12.0
290
     0
  0
SCALE
  5
63
102
{ACAD_REACTORS
330
47
102
}
330
47
100
AcDbScale
 70
     0
300
3/4" = 1'-0"
140
0.75
141
12.0
290
     0
  0
SCALE
  5
64
102
{ACAD_REACTORS
330
47
102
}
330
47
100
AcDbScale
 70
     0
300
1" = 1'-0"
140
1.0
141
12.0
290
     0
  0
SCALE
  5
65
102
{ACAD_REACTORS
330
47
102
}
330
47
100
AcDbScale
 70
     0
300
1-1/2" = 1'-0"
140
1.5
141
12.0
290
     0
  0
SCALE
  5
66
102
{ACAD_REACTORS
330
47
102
}
330
47
100
AcDbScale
 70
     0
300
3" = 1'-0"
140
3.0
141
12.0
290
     0
  0
SCALE
  5
67
102
{ACAD_REACTORS
330
47
102
}
330
47
100
AcDbScale
 70
     0
300
6" = 1'-0"
140
6.0
141
12.0
290
     0
  0
SCALE
  5
68
102
{ACAD_REACTORS
330
47
102
}
330
47
100
AcDbScale
 70
     0
300
1'-0" = 1'-0"
140
12.0
141
12.0
290
     0
  0
TABLESTYLE
  5
6A
102
{ACAD_REACTORS
330
69
102
}
102
{ACAD_XDICTIONARY
360
1F4
102
}
330
69
100
AcDbTableStyle
  3
Standard
 70
     0
 71
     0
 40
0.06
 41
0.06
280
     0
281
     0
  7
Standard
140
0.18
170
     2
 62
     0
 63
   257
283
     0
 90
        4
 91
        0
  1

274
    -2
284
     1
 64
     0
275
    -2
285
     1
 65
     0
276
    -2
286
     1
 66
     0
277
    -2
287
     1
 67
     0
278
    -2
288
     1
 68
     0
279
    -2
289
     1
 69
     0
  7
Standard
140
0.25
170
     5
 62
     0
 63
   257
283
     0
 90
        4
 91
        0
  1

274
    -2
284
     1
 64
     0
275
    -2
285
     1
 65
     0
276
    -2
286
     1
 66
     0
277
    -2
287
     1
 67
     0
278
    -2
288
     1
 68
     0
279
    -2
289
     1
 69
     0
  7
Standard
140
0.18
170
     5
 62
     0
 63
   257
283
     0
 90
        4
 91
        0
  1

274
    -2
284
     1
 64
     0
275
    -2
285
     1
 65
     0
276
    -2
286
     1
 66
     0
277
    -2
287
     1
 67
     0
278
    -2
288
     1
 68
     0
279
    -2
289
     1
 69
     0
  0
VISUALSTYLE
  5
2F
102
{ACAD_REACTORS
330
2A
102
}
330
2A
100
AcDbVisualStyle
  2
2dWireframe
 70
     4
177
     3
291
     0
 70
    58
 90
        0
176
     1
 90
        2
176
     1
 90
        0
176
     1
 90
        0
176
     1
 40
0.6
176
     1
 40
30.0
176
     1
 62
     7
420
 16777215
176
     1
 90
        1
176
     1
 90
        4
176
     1
 62
     7
176
     1
 62
   257
176
     1
 90
        1
176
     1
 90
        1
176
     1
 40
1.0
176
     1
 90
        0
176
     1
 62
   257
176
     1
 40
1.0
176
     1
 90
        1
176
     1
 90
        6
176
     1
 90
        2
176
     1
 62
     7
176
     1
 90
        5
176
     1
 90
        0
176
     1
 90
        0
176
     1
290
     0
176
     1
 90
        1
176
     1
 40
0.0
176
     1
 90
        0
176
     1
290
     1
176
     1
290
     1
176
     1
290
     0
176
     1
290
     0
176
     1
290
     0
176
     1
290
     0
176
     1
290
     0
176
     1
290
     0
176
     1
290
     0
176
     1
 90
       50
176
     1
 40
0.0
176
     1
 40
1.0
176
     1
 90
        0
176
     1
 62
    18
420
        0
176
     1
 90
       50
176
     1
 90
        3
176
     1
 62
     5
420
      255
176
     1
290
     0
176
     1
 90
       50
176
     1
 90
       50
176
     1
 90
       50
176
     1
290
     0
176
     1
 90
       50
176
     1
 62
   256
176
     0
 40
1.0
176
     0
 90
        2
176
     1
  1
strokes_ogs.tif
176
     1
290
     0
176
     1
 40
1.0
176
     1
 40
1.0
176
     1
  0
VISUALSTYLE
  5
32
102
{ACAD_REACTORS
330
2A
102
}
330
2A
100
AcDbVisualStyle
  2
Basic
 70
     7
177
     3
291
     1
 70
    58
 90
        1
176
     1
 90
        0
176
     1
 90
        1
176
     1
 90
        0
176
     1
 40
0.6
176
     1
 40
30.0
176
     1
 62
     7
420
 16777215
176
     1
 90
        0
176
     1
 90
        4
176
     1
 62
     7
176
     1
 62
   257
176
     1
 90
        1
176
     1
 90
        1
176
     1
 40
1.0
176
     1
 90
        8
176
     1
 62
     7
176
     1
 40
1.0
176
     1
 90
        1
176
     1
 90
        6
176
     1
 90
        2
176
     1
 62
     7
176
     1
 90
        5
176
     1
 90
        0
176
     1
 90
        0
176
     1
290
     0
176
     1
 90
        1
176
     1
 40
0.0
176
     1
 90
        0
176
     1
290
     0
176
     1
290
     1
176
     1
290
     1
176
     1
290
     0
176
     1
290
     0
176
     1
290
     0
176
     1
290
     0
176
     1
290
     0
176
     1
290
     0
176
     1
 90
       50
176
     1
 40
0.0
176
     1
 40
1.0
176
     1
 90
        0
176
     1
 62
    18
420
        0
176
     1
 90
       50
176
     1
 90
        3
176
     1
 62
     5
420
      255
176
     1
290
     0
176
     1
 90
       50
176
     1
 90
       50
176
     1
 90
       50
176
     1
290
     0
176
     1
 90
       50
176
     1
 62
   256
176
     0
 40
1.0
176
     0
 90
        2
176
     1
  1
strokes_ogs.tif
176
     1
290
     0
176
     1
 40
1.0
176
     1
 40
1.0
176
     1
  0
VISUALSTYLE
  5
36
102
{ACAD_REACTORS
330
2A
102
}
330
2A
100
AcDbVisualStyle
  2
Brighten
 70
    12
177
     3
291
     1
 70
    58
 90
        2
176
     1
 90
        2
176
     1
 90
        0
176
     1
 90
        0
176
     1
 40
0.6
176
     1
 40
30.0
176
     1
 62
     7
420
 16777215
176
     1
 90
        1
176
     1
 90
        4
176
     1
 62
     7
176
     1
 62
   257
176
     1
 90
        1
176
     1
 90
        1
176
     1
 40
1.0
176
     1
 90
        8
176
     1
 62
     7
176
     1
 40
1.0
176
     1
 90
        1
176
     1
 90
        6
176
     1
 90
        2
176
     1
 62
     7
176
     1
 90
        5
176
     1
 90
        0
176
     1
 90
        0
176
     1
290
     0
176
     1
 90
        1
176
     1
 40
50.0
176
     1
 90
        0
176
     1
290
     0
176
     1
290
     1
176
     1
290
     1
176
     1
290
     0
176
     1
290
     0
176
     1
290
     0
176
     1
290
     0
176
     1
290
     0
176
     1
290
     0
176
     1
 90
       50
176
     1
 40
0.0
176
     1
 40
1.0
176
     1
 90
        0
176
     1
 62
    18
420
        0
176
     1
 90
       50
176
     1
 90
        3
176
     1
 62
     5
420
      255
176
     1
290
     0
176
     1
 90
       50
176
     1
 90
       50
176
     1
 90
       50
176
     1
290
     0
176
     1
 90
       50
176
     1
 62
   256
176
     0
 40
1.0
176
     0
 90
        2
176
     1
  1
strokes_ogs.tif
176
     1
290
     0
176
     1
 40
1.0
176
     1
 40
1.0
176
     1
  0
VISUALSTYLE
  5
3A
102
{ACAD_REACTORS
330
2A
102
}
330
2A
100
AcDbVisualStyle
  2
ColorChange
 70
    16
177
     3
291
     1
 70
    58
 90
        2
176
     1
 90
        2
176
     1
 90
        3
176
     1
 90
        0
176
     1
 40
0.6
176
     1
 40
30.0
176
     1
 62
     8
420
  8421504
176
     1
 90
        1
176
     1
 90
        4
176
     1
 62
     7
176
     1
 62
   257
176
     1
 90
        1
176
     1
 90
        1
176
     1
 40
1.0
176
     1
 90
        8
176
     1
 62
     8
420
  8421504
176
     1
 40
1.0
176
     1
 90
        1
176
     1
 90
        6
176
     1
 90
        2
176
     1
 62
     7
176
     1
 90
        5
176
     1
 90
        0
176
     1
 90
        0
176
     1
290
     0
176
     1
 90
        1
176
     1
 40
0.0
176
     1
 90
        0
176
     1
290
     0
176
     1
290
     1
176
     1
290
     1
176
     1
290
     0
176
     1
290
     0
176
     1
290
     0
176
     1
290
     0
176
     1
290
     0
176
     1
290
     0
176
     1
 90
       50
176
     1
 40
0.0
176
     1
 40
1.0
176
     1
 90
        0
176
     1
 62
    18
420
        0
176
     1
 90
       50
176
     1
 90
        3
176
     1
 62
     5
420
      255
176
     1
290
     0
176
     1
 90
       50
176
     1
 90
       50
176
     1
 90
       50
176
     1
290
     0
176
     1
 90
       50
176
     1
 62
   256
176
     0
 40
1.0
176
     0
 90
        2
176
     1
  1
strokes_ogs.tif
176
     1
290
     0
176
     1
 40
1.0
176
     1
 40
1.0
176
     1
  0
VISUALSTYLE
  5
34
102
{ACAD_REACTORS
330
2A
102
}
330
2A
100
AcDbVisualStyle
  2
Conceptual
 70
     9
177
     3
291
     0
 70
    58
 90
        3
176
     1
 90
        2
176
     1
 90
        0
176
     1
 90
        0
176
     1
 40
0.6
176
     1
 40
30.0
176
     1
 62
     7
420
 16777215
176
     1
 90
        2
176
     1
 90
        2
176
     1
 62
     7
176
     1
 62
   257
176
     1
 90
        1
176
     1
 90
        1
176
     1
 40
179.0
176
     1
 90
        8
176
     1
 62
     7
176
     1
 40
1.0
176
     1
 90
        1
176
     1
 90
        6
176
     1
 90
        2
176
     1
 62
     7
176
     1
 90
        3
176
     1
 90
        0
176
     1
 90
        0
176
     1
290
     0
176
     1
 90
        1
176
     1
 40
0.0
176
     1
 90
        0
176
     1
290
     0
176
     1
290
     1
176
     1
290
     1
176
     1
290
     0
176
     1
290
     0
176
     1
290
     0
176
     1
290
     0
176
     1
290
     0
176
     1
290
     0
176
     1
 90
       50
176
     1
 40
0.0
176
     1
 40
1.0
176
     1
 90
        0
176
     1
 62
    18
420
        0
176
     1
 90
       50
176
     1
 90
        3
176
     1
 62
     5
420
      255
176
     1
290
     0
176
     1
 90
       50
176
     1
 90
       50
176
     1
 90
       50
176
     1
290
     0
176
     1
 90
       50
176
     1
 62
   256
176
     0
 40
1.0
176
     0
 90
        2
176
     1
  1
strokes_ogs.tif
176
     1
290
     0
176
     1
 40
1.0
176
     1
 40
1.0
176
     1
  0
VISUALSTYLE
  5
35
102
{ACAD_REACTORS
330
2A
102
}
330
2A
100
AcDbVisualStyle
  2
Dim
 70
    11
177
     3
291
     1
 70
    58
 90
        2
176
     1
 90
        2
176
     1
 90
        0
176
     1
 90
        0
176
     1
 40
0.6
176
     1
 40
30.0
176
     1
 62
     7
420
 16777215
176
     1
 90
        1
176
     1
 90
        4
176
     1
 62
     7
176
     1
 62
   257
176
     1
 90
        1
176
     1
 90
        1
176
     1
 40
1.0
176
     1
 90
        8
176
     1
 62
     7
176
     1
 40
1.0
176
     1
 90
        1
176
     1
 90
        6
176
     1
 90
        2
176
     1
 62
     7
176
     1
 90
        5
176
     1
 90
        0
176
     1
 90
        0
176
     1
290
     0
176
     1
 90
        1
176
     1
 40
-50.0
176
     1
 90
        0
176
     1
290
     0
176
     1
290
     1
176
     1
290
     1
176
     1
290
     0
176
     1
290
     0
176
     1
290
     0
176
     1
290
     0
176
     1
290
     0
176
     1
290
     0
176
     1
 90
       50
176
     1
 40
0.0
176
     1
 40
1.0
176
     1
 90
        0
176
     1
 62
    18
420
        0
176
     1
 90
       50
176
     1
 90
        3
176
     1
 62
     5
420
      255
176
     1
290
     0
176
     1
 90
       50
176
     1
 90
       50
176
     1
 90
       50
176
     1
290
     0
176
     1
 90
       50
176
     1
 62
   256
176
     0
 40
1.0
176
     0
 90
        2
176
     1
  1
strokes_ogs.tif
176
     1
290
     0
176
     1
 40
1.0
176
     1
 40
1.0
176
     1
  0
VISUALSTYLE
  5
3D
102
{ACAD_REACTORS
330
2A
102
}
330
2A
100
AcDbVisualStyle
  2
EdgeColorOff
 70
    22
177
     3
291
     1
 70
    58
 90
        2
176
     0
 90
        2
176
     0
 90
        0
176
     0
 90
        0
176
     0
 40
0.6
176
     0
 40
30.0
176
     0
 62
     7
420
 16777215
176
     0
 90
        1
176
     0
 90
        4
176
     0
 62
     7
176
     0
 62
   257
176
     0
 90
        1
176
     0
 90
        1
176
     0
 40
1.0
176
     0
 90
        8
176
     2
 62
     7
176
     0
 40
1.0
176
     0
 90
        1
176
     0
 90
        6
176
     0
 90
        2
176
     0
 62
     7
176
     0
 90
        5
176
     0
 90
        0
176
     0
 90
        0
176
     0
290
     0
176
     0
 90
        1
176
     0
 40
0.0
176
     0
 90
        0
176
     0
290
     0
176
     0
290
     1
176
     0
290
     1
176
     0
290
     0
176
     0
290
     0
176
     0
290
     0
176
     0
290
     0
176
     0
290
     0
176
     0
290
     0
176
     0
 90
       50
176
     0
 40
0.0
176
     0
 40
1.0
176
     0
 90
        0
176
     0
 62
    18
420
        0
176
     0
 90
       50
176
     0
 90
        3
176
     0
 62
     5
420
      255
176
     0
290
     0
176
     0
 90
       50
176
     0
 90
       50
176
     0
 90
       50
176
     0
290
     0
176
     0
 90
       50
176
     0
 62
   256
176
     0
 40
1.0
176
     0
 90
        2
176
     0
  1
strokes_ogs.tif
176
     0
290
     0
176
     0
 40
1.0
176
     0
 40
1.0
176
     0
  0
VISUALSTYLE
  5
39
102
{ACAD_REACTORS
330
2A
102
}
330
2A
100
AcDbVisualStyle
  2
Facepattern
 70
    15
177
     3
291
     1
 70
    58
 90
        2
176
     1
 90
        2
176
     1
 90
        0
176
     1
 90
        0
176
     1
 40
0.6
176
     1
 40
30.0
176
     1
 62
     7
420
 16777215
176
     1
 90
        1
176
     1
 90
        4
176
     1
 62
     7
176
     1
 62
   257
176
     1
 90
        1
176
     1
 90
        1
176
     1
 40
1.0
176
     1
 90
        8
176
     1
 62
     7
176
     1
 40
1.0
176
     1
 90
        1
176
     1
 90
        6
176
     1
 90
        2
176
     1
 62
     7
176
     1
 90
        5
176
     1
 90
        0
176
     1
 90
        0
176
     1
290
     0
176
     1
 90
        1
176
     1
 40
0.0
176
     1
 90
        0
176
     1
290
     0
176
     1
290
     1
176
     1
290
     1
176
     1
290
     0
176
     1
290
     0
176
     1
290
     0
176
     1
290
     0
176
     1
290
     0
176
     1
290
     0
176
     1
 90
       50
176
     1
 40
0.0
176
     1
 40
1.0
176
     1
 90
        0
176
     1
 62
    18
420
        0
176
     1
 90
       50
176
     1
 90
        3
176
     1
 62
     5
420
      255
176
     1
290
     0
176
     1
 90
       50
176
     1
 90
       50
176
     1
 90
       50
176
     1
290
     0
176
     1
 90
       50
176
     1
 62
   256
176
     0
 40
1.0
176
     0
 90
        2
176
     1
  1
strokes_ogs.tif
176
     1
290
     0
176
     1
 40
1.0
176
     1
 40
1.0
176
     1
  0
VISUALSTYLE
  5
2B
102
{ACAD_REACTORS
330
2A
102
}
330
2A
100
AcDbVisualStyle
  2
Flat
 70
     0
177
     3
291
     1
 70
    58
 90
        2
176
     1
 90
        1
176
     1
 90
        1
176
     1
 90
        2
176
     1
 40
0.6
176
     1
 40
30.0
176
     1
 62
     7
420
 16777215
176
     1
 90
        0
176
     1
 90
        0
176
     1
 62
     7
176
     1
 62
   257
176
     1
 90
        1
176
     1
 90
        1
176
     1
 40
1.0
176
     1
 90
        8
176
     1
 62
     7
176
     1
 40
1.0
176
     1
 90
        1
176
     1
 90
        6
176
     1
 90
        2
176
     1
 62
     7
176
     1
 90
        5
176
     1
 90
        0
176
     1
 90
        0
176
     1
290
     0
176
     1
 90
       13
176
     1
 40
0.0
176
     1
 90
        0
176
     1
290
     0
176
     1
290
     1
176
     1
290
     1
176
     1
290
     0
176
     1
290
     0
176
     1
290
     0
176
     1
290
     0
176
     1
290
     0
176
     1
290
     0
176
     1
 90
       50
176
     1
 40
0.0
176
     1
 40
1.0
176
     1
 90
        0
176
     1
 62
    18
420
        0
176
     1
 90
       50
176
     1
 90
        3
176
     1
 62
     5
420
      255
176
     1
290
     0
176
     1
 90
       50
176
     1
 90
       50
176
     1
 90
       50
176
     1
290
     0
176
     1
 90
       50
176
     1
 62
   256
176
     0
 40
1.0
176
     0
 90
        2
176
     1
  1
strokes_ogs.tif
176
     1
290
     0
176
     1
 40
1.0
176
     1
 40
1.0
176
     1
  0
VISUALSTYLE
  5
2C
102
{ACAD_REACTORS
330
2A
102
}
330
2A
100
AcDbVisualStyle
  2
FlatWithEdges
 70
     1
177
     3
291
     1
 70
    58
 90
        2
176
     1
 90
        1
176
     1
 90
        1
176
     1
 90
        2
176
     1
 40
0.6
176
     1
 40
30.0
176
     1
 62
     7
420
 16777215
176
     1
 90
        1
176
     1
 90
        0
176
     1
 62
     7
176
     1
 62
   257
176
     1
 90
        1
176
     1
 90
        1
176
     1
 40
1.0
176
     1
 90
        0
176
     1
 62
   257
176
     1
 40
1.0
176
     1
 90
        1
176
     1
 90
        6
176
     1
 90
        2
176
     1
 62
     7
176
     1
 90
        5
176
     1
 90
        0
176
     1
 90
        0
176
     1
290
     0
176
     1
 90
       13
176
     1
 40
0.0
176
     1
 90
        0
176
     1
290
     0
176
     1
290
     1
176
     1
290
     1
176
     1
290
     0
176
     1
290
     0
176
     1
290
     0
176
     1
290
     0
176
     1
290
     0
176
     1
290
     0
176
     1
 90
       50
176
     1
 40
0.0
176
     1
 40
1.0
176
     1
 90
        0
176
     1
 62
    18
420
        0
176
     1
 90
       50
176
     1
 90
        3
176
     1
 62
     5
420
      255
176
     1
290
     0
176
     1
 90
       50
176
     1
 90
       50
176
     1
 90
       50
176
     1
290
     0
176
     1
 90
       50
176
     1
 62
   256
176
     0
 40
1.0
176
     0
 90
        2
176
     1
  1
strokes_ogs.tif
176
     1
290
     0
176
     1
 40
1.0
176
     1
 40
1.0
176
     1
  0
VISUALSTYLE
  5
2D
102
{ACAD_REACTORS
330
2A
102
}
330
2A
100
AcDbVisualStyle
  2
Gouraud
 70
     2
177
     3
291
     1
 70
    58
 90
        2
176
     1
 90
        2
176
     1
 90
        1
176
     1
 90
        2
176
     1
 40
0.6
176
     1
 40
30.0
176
     1
 62
     7
420
 16777215
176
     1
 90
        0
176
     1
 90
        0
176
     1
 62
     7
176
     1
 62
   257
176
     1
 90
        1
176
     1
 90
        1
176
     1
 40
1.0
176
     1
 90
        0
176
     1
 62
     7
176
     1
 40
1.0
176
     1
 90
        1
176
     1
 90
        6
176
     1
 90
        2
176
     1
 62
     7
176
     1
 90
        5
176
     1
 90
        0
176
     1
 90
        0
176
     1
290
     0
176
     1
 90
       13
176
     1
 40
0.0
176
     1
 90
        0
176
     1
290
     0
176
     1
290
     1
176
     1
290
     1
176
     1
290
     0
176
     1
290
     0
176
     1
290
     0
176
     1
290
     0
176
     1
290
     0
176
     1
290
     0
176
     1
 90
       50
176
     1
 40
0.0
176
     1
 40
1.0
176
     1
 90
        0
176
     1
 62
    18
420
        0
176
     1
 90
       50
176
     1
 90
        3
176
     1
 62
     5
420
      255
176
     1
290
     0
176
     1
 90
       50
176
     1
 90
       50
176
     1
 90
       50
176
     1
290
     0
176
     1
 90
       50
176
     1
 62
   256
176
     0
 40
1.0
176
     0
 90
        2
176
     1
  1
strokes_ogs.tif
176
     1
290
     0
176
     1
 40
1.0
176
     1
 40
1.0
176
     1
  0
VISUALSTYLE
  5
2E
102
{ACAD_REACTORS
330
2A
102
}
330
2A
100
AcDbVisualStyle
  2
GouraudWithEdges
 70
     3
177
     3
291
     1
 70
    58
 90
        2
176
     1
 90
        2
176
     1
 90
        1
176
     1
 90
        2
176
     1
 40
0.6
176
     1
 40
30.0
176
     1
 62
     7
420
 16777215
176
     1
 90
        1
176
     1
 90
        0
176
     1
 62
     7
176
     1
 62
   257
176
     1
 90
        1
176
     1
 90
        1
176
     1
 40
1.0
176
     1
 90
        0
176
     1
 62
   257
176
     1
 40
1.0
176
     1
 90
        1
176
     1
 90
        6
176
     1
 90
        2
176
     1
 62
     7
176
     1
 90
        5
176
     1
 90
        0
176
     1
 90
        0
176
     1
290
     0
176
     1
 90
       13
176
     1
 40
0.0
176
     1
 90
        0
176
     1
290
     0
176
     1
290
     1
176
     1
290
     1
176
     1
290
     0
176
     1
290
     0
176
     1
290
     0
176
     1
290
     0
176
     1
290
     0
176
     1
290
     0
176
     1
 90
       50
176
     1
 40
0.0
176
     1
 40
1.0
176
     1
 90
        0
176
     1
 62
    18
420
        0
176
     1
 90
       50
176
     1
 90
        3
176
     1
 62
     5
420
      255
176
     1
290
     0
176
     1
 90
       50
176
     1
 90
       50
176
     1
 90
       50
176
     1
290
     0
176
     1
 90
       50
176
     1
 62
   256
176
     0
 40
1.0
176
     0
 90
        2
176
     1
  1
strokes_ogs.tif
176
     1
290
     0
176
     1
 40
1.0
176
     1
 40
1.0
176
     1
  0
VISUALSTYLE
  5
31
102
{ACAD_REACTORS
330
2A
102
}
330
2A
100
AcDbVisualStyle
  2
Hidden
 70
     6
177
     3
291
     0
 70
    58
 90
        1
176
     1
 90
        2
176
     1
 90
        2
176
     1
 90
        0
176
     1
 40
0.6
176
     1
 40
30.0
176
     1
 62
     7
420
 16777215
176
     1
 90
        2
176
     1
 90
        2
176
     1
 62
     7
176
     1
 62
   257
176
     1
 90
        2
176
     1
 90
        1
176
     1
 40
40.0
176
     1
 90
        0
176
     1
 62
   257
176
     1
 40
1.0
176
     1
 90
        1
176
     1
 90
        6
176
     1
 90
        2
176
     1
 62
     7
176
     1
 90
        3
176
     1
 90
        0
176
     1
 90
        0
176
     1
290
     0
176
     1
 90
        1
176
     1
 40
0.0
176
     1
 90
        0
176
     1
290
     0
176
     1
290
     1
176
     1
290
     1
176
     1
290
     0
176
     1
290
     0
176
     1
290
     0
176
     1
290
     0
176
     1
290
     0
176
     1
290
     0
176
     1
 90
       50
176
     1
 40
0.0
176
     1
 40
1.0
176
     1
 90
        0
176
     1
 62
    18
420
        0
176
     1
 90
       50
176
     1
 90
        3
176
     1
 62
     5
420
      255
176
     1
290
     0
176
     1
 90
       50
176
     1
 90
       50
176
     1
 90
       50
176
     1
290
     0
176
     1
 90
       50
176
     1
 62
   256
176
     0
 40
1.0
176
     0
 90
        2
176
     1
  1
strokes_ogs.tif
176
     1
290
     0
176
     1
 40
1.0
176
     1
 40
1.0
176
     1
  0
VISUALSTYLE
  5
3B
102
{ACAD_REACTORS
330
2A
102
}
330
2A
100
AcDbVisualStyle
  2
JitterOff
 70
    20
177
     3
291
     1
 70
    58
 90
        2
176
     0
 90
        2
176
     0
 90
        0
176
     0
 90
        0
176
     0
 40
0.6
176
     0
 40
30.0
176
     0
 62
     7
420
 16777215
176
     0
 90
        1
176
     0
 90
        4
176
     0
 62
     7
176
     0
 62
   257
176
     0
 90
        1
176
     0
 90
        1
176
     0
 40
1.0
176
     0
 90
       10
176
     2
 62
     7
176
     0
 40
1.0
176
     0
 90
        1
176
     0
 90
        6
176
     0
 90
        2
176
     0
 62
     7
176
     0
 90
        5
176
     0
 90
        0
176
     0
 90
        0
176
     0
290
     0
176
     0
 90
        1
176
     0
 40
0.0
176
     0
 90
        0
176
     0
290
     0
176
     0
290
     1
176
     0
290
     1
176
     0
290
     0
176
     0
290
     0
176
     0
290
     0
176
     0
290
     0
176
     0
290
     0
176
     0
290
     0
176
     0
 90
       50
176
     0
 40
0.0
176
     0
 40
1.0
176
     0
 90
        0
176
     0
 62
    18
420
        0
176
     0
 90
       50
176
     0
 90
        3
176
     0
 62
     5
420
      255
176
     0
290
     0
176
     0
 90
       50
176
     0
 90
       50
176
     0
 90
       50
176
     0
290
     0
176
     0
 90
       50
176
     0
 62
   256
176
     0
 40
1.0
176
     0
 90
        2
176
     0
  1
strokes_ogs.tif
176
     0
290
     0
176
     0
 40
1.0
176
     0
 40
1.0
176
     0
  0
VISUALSTYLE
  5
38
102
{ACAD_REACTORS
330
2A
102
}
330
2A
100
AcDbVisualStyle
  2
Linepattern
 70
    14
177
     3
291
     1
 70
    58
 90
        2
176
     1
 90
        2
176
     1
 90
        0
176
     1
 90
        0
176
     1
 40
0.6
176
     1
 40
30.0
176
     1
 62
     7
420
 16777215
176
     1
 90
        1
176
     1
 90
        4
176
     1
 62
     7
176
     1
 62
   257
176
     1
 90
        7
176
     1
 90
        7
176
     1
 40
1.0
176
     1
 90
        8
176
     1
 62
     7
176
     1
 40
1.0
176
     1
 90
        1
176
     1
 90
        6
176
     1
 90
        2
176
     1
 62
     7
176
     1
 90
        5
176
     1
 90
        0
176
     1
 90
        0
176
     1
290
     0
176
     1
 90
        1
176
     1
 40
0.0
176
     1
 90
        0
176
     1
290
     0
176
     1
290
     1
176
     1
290
     1
176
     1
290
     0
176
     1
290
     0
176
     1
290
     0
176
     1
290
     0
176
     1
290
     0
176
     1
290
     0
176
     1
 90
       50
176
     1
 40
0.0
176
     1
 40
1.0
176
     1
 90
        0
176
     1
 62
    18
420
        0
176
     1
 90
       50
176
     1
 90
        3
176
     1
 62
     5
420
      255
176
     1
290
     0
176
     1
 90
       50
176
     1
 90
       50
176
     1
 90
       50
176
     1
290
     0
176
     1
 90
       50
176
     1
 62
   256
176
     0
 40
1.0
176
     0
 90
        2
176
     1
  1
strokes_ogs.tif
176
     1
290
     0
176
     1
 40
1.0
176
     1
 40
1.0
176
     1
  0
VISUALSTYLE
  5
3C
102
{ACAD_REACTORS
330
2A
102
}
330
2A
100
AcDbVisualStyle
  2
OverhangOff
 70
    21
177
     3
291
     1
 70
    58
 90
        2
176
     0
 90
        2
176
     0
 90
        0
176
     0
 90
        0
176
     0
 40
0.6
176
     0
 40
30.0
176
     0
 62
     7
420
 16777215
176
     0
 90
        1
176
     0
 90
        4
176
     0
 62
     7
176
     0
 62
   257
176
     0
 90
        1
176
     0
 90
        1
176
     0
 40
1.0
176
     0
 90
        9
176
     2
 62
     7
176
     0
 40
1.0
176
     0
 90
        1
176
     0
 90
        6
176
     0
 90
        2
176
     0
 62
     7
176
     0
 90
        5
176
     0
 90
        0
176
     0
 90
        0
176
     0
290
     0
176
     0
 90
        1
176
     0
 40
0.0
176
     0
 90
        0
176
     0
290
     0
176
     0
290
     1
176
     0
290
     1
176
     0
290
     0
176
     0
290
     0
176
     0
290
     0
176
     0
290
     0
176
     0
290
     0
176
     0
290
     0
176
     0
 90
       50
176
     0
 40
0.0
176
     0
 40
1.0
176
     0
 90
        0
176
     0
 62
    18
420
        0
176
     0
 90
       50
176
     0
 90
        3
176
     0
 62
     5
420
      255
176
     0
290
     0
176
     0
 90
       50
176
     0
 90
       50
176
     0
 90
       50
176
     0
290
     0
176
     0
 90
       50
176
     0
 62
   256
176
     0
 40
1.0
176
     0
 90
        2
176
     0
  1
strokes_ogs.tif
176
     0
290
     0
176
     0
 40
1.0
176
     0
 40
1.0
176
     0
  0
VISUALSTYLE
  5
33
102
{ACAD_REACTORS
330
2A
102
}
330
2A
100
AcDbVisualStyle
  2
Realistic
 70
     8
177
     3
291
     0
 70
    58
 90
        2
176
     1
 90
        3
176
     1
 90
        0
176
     1
 90
        2
176
     1
 40
0.6
176
     1
 40
30.0
176
     1
 62
     7
420
 16777215
176
     1
 90
        0
176
     1
 90
        0
176
     1
 62
     7
176
     1
 62
   257
176
     1
 90
        1
176
     1
 90
        1
176
     1
 40
1.0
176
     1
 90
        8
176
     1
 62
   257
176
     1
 40
1.0
176
     1
 90
        1
176
     1
 90
        6
176
     1
 90
        2
176
     1
 62
     7
176
     1
 90
        3
176
     1
 90
        0
176
     1
 90
        0
176
     1
290
     0
176
     1
 90
       13
176
     1
 40
0.0
176
     1
 90
        0
176
     1
290
     0
176
     1
290
     1
176
     1
290
     1
176
     1
290
     0
176
     1
290
     0
176
     1
290
     0
176
     1
290
     0
176
     1
290
     0
176
     1
290
     0
176
     1
 90
       50
176
     1
 40
0.0
176
     1
 40
1.0
176
     1
 90
        0
176
     1
 62
    18
420
        0
176
     1
 90
       50
176
     1
 90
        3
176
     1
 62
     5
420
      255
176
     1
290
     0
176
     1
 90
       50
176
     1
 90
       50
176
     1
 90
       50
176
     1
290
     0
176
     1
 90
       50
176
     1
 62
   256
176
     0
 40
1.0
176
     0
 90
        2
176
     1
  1
strokes_ogs.tif
176
     1
290
     0
176
     1
 40
1.0
176
     1
 40
1.0
176
     1
  0
VISUALSTYLE
  5
42
102
{ACAD_REACTORS
330
2A
102
}
330
2A
100
AcDbVisualStyle
  2
Shaded
 70
    27
177
     3
291
     0
 70
    58
 90
        2
176
     1
 90
        2
176
     1
 90
        1
176
     1
 90
        2
176
     1
 40
0.6
176
     1
 40
30.0
176
     1
 62
     7
420
 16777215
176
     1
 90
        0
176
     1
 90
        4
176
     1
 62
     7
176
     1
 62
   257
176
     1
 90
        1
176
     1
 90
        1
176
     1
 40
1.0
176
     1
 90
        8
176
     1
 62
   257
176
     1
 40
1.0
176
     1
 90
        1
176
     1
 90
        6
176
     1
 90
        2
176
     1
 62
     8
420
  7895160
176
     1
 90
        3
176
     1
 90
        0
176
     1
 90
        0
176
     1
290
     0
176
     1
 90
        5
176
     1
 40
0.0
176
     1
 90
        0
176
     1
290
     0
176
     1
290
     1
176
     1
290
     1
176
     1
290
     0
176
     1
290
     0
176
     1
290
     0
176
     1
290
     0
176
     1
290
     0
176
     1
290
     0
176
     1
 90
       50
176
     1
 40
0.0
176
     1
 40
1.0
176
     1
 90
        0
176
     1
 62
    18
420
        0
176
     1
 90
       50
176
     1
 90
        3
176
     1
 62
     5
420
      255
176
     1
290
     0
176
     1
 90
       50
176
     1
 90
       50
176
     1
 90
       50
176
     1
290
     0
176
     1
 90
       50
176
     1
 62
   256
176
     0
 40
1.0
176
     0
 90
        2
176
     1
  1
strokes_ogs.tif
176
     1
290
     0
176
     1
 40
1.0
176
     1
 40
1.0
176
     1
  0
VISUALSTYLE
  5
41
102
{ACAD_REACTORS
330
2A
102
}
330
2A
100
AcDbVisualStyle
  2
Shaded with edges
 70
    26
177
     3
291
     0
 70
    58
 90
        2
176
     1
 90
        2
176
     1
 90
        1
176
     1
 90
        2
176
     1
 40
0.6
176
     1
 40
30.0
176
     1
 62
     7
420
 16777215
176
     1
 90
        1
176
     1
 90
       10
176
     1
 62
     7
176
     1
 62
   257
176
     1
 90
        2
176
     1
 90
        1
176
     1
 40
1.0
176
     1
 90
        8
176
     1
 62
   257
176
     1
 40
1.0
176
     1
 90
        1
176
     1
 90
        6
176
     1
 90
        2
176
     1
 62
     7
176
     1
 90
        3
176
     1
 90
        0
176
     1
 90
        0
176
     1
290
     0
176
     1
 90
        5
176
     1
 40
0.0
176
     1
 90
        0
176
     1
290
     0
176
     1
290
     1
176
     1
290
     1
176
     1
290
     0
176
     1
290
     0
176
     1
290
     0
176
     1
290
     0
176
     1
290
     0
176
     1
290
     0
176
     1
 90
       50
176
     1
 40
0.0
176
     1
 40
1.0
176
     1
 90
        0
176
     1
 62
    18
420
        0
176
     1
 90
       50
176
     1
 90
        3
176
     1
 62
     5
420
      255
176
     1
290
     0
176
     1
 90
       50
176
     1
 90
       50
176
     1
 90
       50
176
     1
290
     0
176
     1
 90
       50
176
     1
 62
   256
176
     0
 40
1.0
176
     0
 90
        2
176
     1
  1
strokes_ogs.tif
176
     1
290
     0
176
     1
 40
1.0
176
     1
 40
1.0
176
     1
  0
VISUALSTYLE
  5
3E
102
{ACAD_REACTORS
330
2A
102
}
330
2A
100
AcDbVisualStyle
  2
Shades of Gray
 70
    23
177
     3
291
     0
 70
    58
 90
        2
176
     1
 90
        2
176
     1
 90
        3
176
     1
 90
        0
176
     1
 40
0.6
176
     1
 40
30.0
176
     1
 62
     7
420
 16777215
176
     1
 90
        2
176
     1
 90
        2
176
     1
 62
     7
176
     1
 62
     7
176
     1
 90
        1
176
     1
 90
        1
176
     1
 40
40.0
176
     1
 90
        8
176
     1
 62
     7
176
     1
 40
1.0
176
     1
 90
        1
176
     1
 90
        6
176
     1
 90
        2
176
     1
 62
     7
176
     1
 90
        3
176
     1
 90
        0
176
     1
 90
        0
176
     1
290
     0
176
     1
 90
        1
176
     1
 40
0.0
176
     1
 90
        0
176
     1
290
     0
176
     1
290
     1
176
     1
290
     1
176
     1
290
     0
176
     1
290
     0
176
     1
290
     0
176
     1
290
     0
176
     1
290
     0
176
     1
290
     0
176
     1
 90
       50
176
     1
 40
0.0
176
     1
 40
1.0
176
     1
 90
        0
176
     1
 62
    18
420
        0
176
     1
 90
       50
176
     1
 90
        3
176
     1
 62
     5
420
      255
176
     1
290
     0
176
     1
 90
       50
176
     1
 90
       50
176
     1
 90
       50
176
     1
290
     0
176
     1
 90
       50
176
     1
 62
   256
176
     0
 40
1.0
176
     0
 90
        2
176
     1
  1
strokes_ogs.tif
176
     1
290
     0
176
     1
 40
1.0
176
     1
 40
1.0
176
     1
  0
VISUALSTYLE
  5
3F
102
{ACAD_REACTORS
330
2A
102
}
330
2A
100
AcDbVisualStyle
  2
Sketchy
 70
    24
177
     3
291
     0
 70
    58
 90
        1
176
     1
 90
        2
176
     1
 90
        2
176
     1
 90
        0
176
     1
 40
0.6
176
     1
 40
30.0
176
     1
 62
     7
420
 16777215
176
     1
 90
        2
176
     1
 90
        2
176
     1
 62
     7
176
     1
 62
     7
176
     1
 90
        1
176
     1
 90
        1
176
     1
 40
40.0
176
     1
 90
       11
176
     1
 62
     7
176
     1
 40
1.0
176
     1
 90
        1
176
     1
 90
        6
176
     1
 90
        2
176
     1
 62
     7
176
     1
 90
        6
176
     1
 90
        0
176
     1
 90
        0
176
     1
290
     0
176
     1
 90
        1
176
     1
 40
0.0
176
     1
 90
        0
176
     1
290
     0
176
     1
290
     1
176
     1
290
     1
176
     1
290
     0
176
     1
290
     0
176
     1
290
     0
176
     1
290
     0
176
     1
290
     0
176
     1
290
     0
176
     1
 90
       50
176
     1
 40
0.0
176
     1
 40
1.0
176
     1
 90
        0
176
     1
 62
    18
420
        0
176
     1
 90
       50
176
     1
 90
        3
176
     1
 62
     5
420
      255
176
     1
290
     0
176
     1
 90
       50
176
     1
 90
       50
176
     1
 90
       50
176
     1
290
     0
176
     1
 90
       50
176
     1
 62
   256
176
     0
 40
1.0
176
     0
 90
        2
176
     1
  1
strokes_ogs.tif
176
     1
290
     0
176
     1
 40
1.0
176
     1
 40
1.0
176
     1
  0
VISUALSTYLE
  5
37
102
{ACAD_REACTORS
330
2A
102
}
330
2A
100
AcDbVisualStyle
  2
Thicken
 70
    13
177
     3
291
     1
 70
    58
 90
        2
176
     1
 90
        2
176
     1
 90
        0
176
     1
 90
        0
176
     1
 40
0.6
176
     1
 40
30.0
176
     1
 62
     7
420
 16777215
176
     1
 90
        1
176
     1
 90
        4
176
     1
 62
     7
176
     1
 62
   257
176
     1
 90
        1
176
     1
 90
        1
176
     1
 40
1.0
176
     1
 90
       12
176
     1
 62
     7
176
     1
 40
1.0
176
     1
 90
        1
176
     1
 90
        6
176
     1
 90
        2
176
     1
 62
     7
176
     1
 90
        5
176
     1
 90
        0
176
     1
 90
        0
176
     1
290
     0
176
     1
 90
        1
176
     1
 40
0.0
176
     1
 90
        0
176
     1
290
     0
176
     1
290
     1
176
     1
290
     1
176
     1
290
     0
176
     1
290
     0
176
     1
290
     0
176
     1
290
     0
176
     1
290
     0
176
     1
290
     0
176
     1
 90
       50
176
     1
 40
0.0
176
     1
 40
1.0
176
     1
 90
        0
176
     1
 62
    18
420
        0
176
     1
 90
       50
176
     1
 90
        3
176
     1
 62
     5
420
      255
176
     1
290
     0
176
     1
 90
       50
176
     1
 90
       50
176
     1
 90
       50
176
     1
290
     0
176
     1
 90
       50
176
     1
 62
   256
176
     0
 40
1.0
176
     0
 90
        2
176
     1
  1
strokes_ogs.tif
176
     1
290
     0
176
     1
 40
1.0
176
     1
 40
1.0
176
     1
  0
VISUALSTYLE
  5
30
102
{ACAD_REACTORS
330
2A
102
}
330
2A
100
AcDbVisualStyle
  2
Wireframe
 70
     5
177
     3
291
     0
 70
    58
 90
        0
176
     1
 90
        2
176
     1
 90
        0
176
     1
 90
        0
176
     1
 40
0.6
176
     1
 40
30.0
176
     1
 62
     7
420
 16777215
176
     1
 90
        1
176
     1
 90
        4
176
     1
 62
     7
176
     1
 62
   257
176
     1
 90
        1
176
     1
 90
        1
176
     1
 40
1.0
176
     1
 90
        0
176
     1
 62
   257
176
     1
 40
1.0
176
     1
 90
        1
176
     1
 90
        6
176
     1
 90
        2
176
     1
 62
     7
176
     1
 90
        3
176
     1
 90
        0
176
     1
 90
        0
176
     1
290
     0
176
     1
 90
        1
176
     1
 40
0.0
176
     1
 90
        0
176
     1
290
     0
176
     1
290
     1
176
     1
290
     1
176
     1
290
     0
176
     1
290
     0
176
     1
290
     0
176
     1
290
     0
176
     1
290
     0
176
     1
290
     0
176
     1
 90
       50
176
     1
 40
0.0
176
     1
 40
1.0
176
     1
 90
        0
176
     1
 62
    18
420
        0
176
     1
 90
       50
176
     1
 90
        3
176
     1
 62
     5
420
      255
176
     1
290
     0
176
     1
 90
       50
176
     1
 90
       50
176
     1
 90
       50
176
     1
290
     0
176
     1
 90
       50
176
     1
 62
   256
176
     0
 40
1.0
176
     0
 90
        2
176
     1
  1
strokes_ogs.tif
176
     1
290
     0
176
     1
 40
1.0
176
     1
 40
1.0
176
     1
  0
VISUALSTYLE
  5
40
102
{ACAD_REACTORS
330
2A
102
}
330
2A
100
AcDbVisualStyle
  2
X-Ray
 70
    25
177
     3
291
     0
 70
    58
 90
        2
176
     1
 90
        2
176
     1
 90
        1
176
     1
 90
        1
176
     1
 40
0.5
176
     1
 40
30.0
176
     1
 62
     7
420
 16777215
176
     1
 90
        1
176
     1
 90
        0
176
     1
 62
     7
176
     1
 62
   257
176
     1
 90
        1
176
     1
 90
        1
176
     1
 40
1.0
176
     1
 90
        8
176
     1
 62
     7
176
     1
 40
1.0
176
     1
 90
        1
176
     1
 90
        6
176
     1
 90
        2
176
     1
 62
     7
176
     1
 90
        3
176
     1
 90
        0
176
     1
 90
        0
176
     1
290
     0
176
     1
 90
       13
176
     1
 40
0.0
176
     1
 90
        0
176
     1
290
     0
176
     1
290
     1
176
     1
290
     1
176
     1
290
     0
176
     1
290
     0
176
     1
290
     0
176
     1
290
     0
176
     1
290
     0
176
     1
290
     0
176
     1
 90
       50
176
     1
 40
0.0
176
     1
 40
1.0
176
     1
 90
        0
176
     1
 62
    18
420
        0
176
     1
 90
       50
176
     1
 90
        3
176
     1
 62
     5
420
      255
176
     1
290
     0
176
     1
 90
       50
176
     1
 90
       50
176
     1
 90
       50
176
     1
290
     0
176
     1
 90
       50
176
     1
 62
   256
176
     0
 40
1.0
176
     0
 90
        2
176
     1
  1
strokes_ogs.tif
176
     1
290
     0
176
     1
 40
1.0
176
     1
 40
1.0
176
     1
  0
DICTIONARYVAR
  5
1F3
102
{ACAD_REACTORS
330
1F2
102
}
330
1F2
100
DictionaryVariables
280
     0
  1
1:1
  0
DICTIONARYVAR
  5
1F8
102
{ACAD_REACTORS
330
1F2
102
}
330
1F2
100
DictionaryVariables
280
     0
  1
Standard
  0
DICTIONARYVAR
  5
1F7
102
{ACAD_REACTORS
330
1F2
102
}
330
1F2
100
DictionaryVariables
280
     0
  1
Standard
  0
DICTIONARY
  5
1F4
330
6A
100
AcDbDictionary
280
     1
281
     1
  3
ACAD_ROUNDTRIP_2008_TABLESTYLE_CELLSTYLEMAP
360
1F5
  0
CELLSTYLEMAP
  5
1F5
102
{ACAD_REACTORS
330
1F4
102
}
330
1F4
100
AcDbCellStyleMap
 90
        3
300
CELLSTYLE
  1
TABLEFORMAT_BEGIN
 90
        5
170
     1
 91
        0
 92
    32768
 62
   257
 93
        1
300
CONTENTFORMAT
  1
CONTENTFORMAT_BEGIN
 90
        0
 91
        0
 92
        4
 93
        0
300

 40
0.0
140
1.0
 94
        5
 62
     0
340
11
144
0.25
309
CONTENTFORMAT_END
171
     1
301
MARGIN
  1
CELLMARGIN_BEGIN
 40
0.06
 40
0.06
 40
0.06
 40
0.06
 40
0.06
 40
0.06
309
CELLMARGIN_END
 94
        6
 95
        1
302
GRIDFORMAT
  1
GRIDFORMAT_BEGIN
 90
        0
 91
        1
 62
     0
 92
       -2
340
14
 93
        0
 40
0.045
309
GRIDFORMAT_END
 95
        2
302
GRIDFORMAT
  1
GRIDFORMAT_BEGIN
 90
        0
 91
        1
 62
     0
 92
       -2
340
14
 93
        0
 40
0.045
309
GRIDFORMAT_END
 95
        4
302
GRIDFORMAT
  1
GRIDFORMAT_BEGIN
 90
        0
 91
        1
 62
     0
 92
       -2
340
14
 93
        0
 40
0.045
309
GRIDFORMAT_END
 95
        8
302
GRIDFORMAT
  1
GRIDFORMAT_BEGIN
 90
        0
 91
        1
 62
     0
 92
       -2
340
14
 93
        0
 40
0.045
309
GRIDFORMAT_END
 95
       16
302
GRIDFORMAT
  1
GRIDFORMAT_BEGIN
 90
        0
 91
        1
 62
     0
 92
       -2
340
14
 93
        0
 40
0.045
309
GRIDFORMAT_END
 95
       32
302
GRIDFORMAT
  1
GRIDFORMAT_BEGIN
 90
        0
 91
        1
 62
     0
 92
       -2
340
14
 93
        0
 40
0.045
309
GRIDFORMAT_END
309
TABLEFORMAT_END
  1
CELLSTYLE_BEGIN
 90
        1
 91
        1
300
_TITLE
309
CELLSTYLE_END
300
CELLSTYLE
  1
TABLEFORMAT_BEGIN
 90
        5
170
     1
 91
        0
 92
        0
 62
   257
 93
        1
300
CONTENTFORMAT
  1
CONTENTFORMAT_BEGIN
 90
        0
 91
        0
 92
        4
 93
        0
300

 40
0.0
140
1.0
 94
        5
 62
     0
340
11
144
0.18
309
CONTENTFORMAT_END
171
     1
301
MARGIN
  1
CELLMARGIN_BEGIN
 40
0.06
 40
0.06
 40
0.06
 40
0.06
 40
0.06
 40
0.06
309
CELLMARGIN_END
 94
        6
 95
        1
302
GRIDFORMAT
  1
GRIDFORMAT_BEGIN
 90
        0
 91
        1
 62
     0
 92
       -2
340
14
 93
        0
 40
0.045
309
GRIDFORMAT_END
 95
        2
302
GRIDFORMAT
  1
GRIDFORMAT_BEGIN
 90
        0
 91
        1
 62
     0
 92
       -2
340
14
 93
        0
 40
0.045
309
GRIDFORMAT_END
 95
        4
302
GRIDFORMAT
  1
GRIDFORMAT_BEGIN
 90
        0
 91
        1
 62
     0
 92
       -2
340
14
 93
        0
 40
0.045
309
GRIDFORMAT_END
 95
        8
302
GRIDFORMAT
  1
GRIDFORMAT_BEGIN
 90
        0
 91
        1
 62
     0
 92
       -2
340
14
 93
        0
 40
0.045
309
GRIDFORMAT_END
 95
       16
302
GRIDFORMAT
  1
GRIDFORMAT_BEGIN
 90
        0
 91
        1
 62
     0
 92
       -2
340
14
 93
        0
 40
0.045
309
GRIDFORMAT_END
 95
       32
302
GRIDFORMAT
  1
GRIDFORMAT_BEGIN
 90
        0
 91
        1
 62
     0
 92
       -2
340
14
 93
        0
 40
0.045
309
GRIDFORMAT_END
309
TABLEFORMAT_END
  1
CELLSTYLE_BEGIN
 90
        2
 91
        1
300
_HEADER
309
CELLSTYLE_END
300
CELLSTYLE
  1
TABLEFORMAT_BEGIN
 90
        5
170
     1
 91
        0
 92
        0
 62
   257
 93
        1
300
CONTENTFORMAT
  1
CONTENTFORMAT_BEGIN
 90
        0
 91
        0
 92
        4
 93
        0
300

 40
0.0
140
1.0
 94
        2
 62
     0
340
11
144
0.18
309
CONTENTFORMAT_END
171
     1
301
MARGIN
  1
CELLMARGIN_BEGIN
 40
0.06
 40
0.06
 40
0.06
 40
0.06
 40
0.06
 40
0.06
309
CELLMARGIN_END
 94
        6
 95
        1
302
GRIDFORMAT
  1
GRIDFORMAT_BEGIN
 90
        0
 91
        1
 62
     0
 92
       -2
340
14
 93
        0
 40
0.045
309
GRIDFORMAT_END
 95
        2
302
GRIDFORMAT
  1
GRIDFORMAT_BEGIN
 90
        0
 91
        1
 62
     0
 92
       -2
340
14
 93
        0
 40
0.045
309
GRIDFORMAT_END
 95
        4
302
GRIDFORMAT
  1
GRIDFORMAT_BEGIN
 90
        0
 91
        1
 62
     0
 92
       -2
340
14
 93
        0
 40
0.045
309
GRIDFORMAT_END
 95
        8
302
GRIDFORMAT
  1
GRIDFORMAT_BEGIN
 90
        0
 91
        1
 62
     0
 92
       -2
340
14
 93
        0
 40
0.045
309
GRIDFORMAT_END
 95
       16
302
GRIDFORMAT
  1
GRIDFORMAT_BEGIN
 90
        0
 91
        1
 62
     0
 92
       -2
340
14
 93
        0
 40
0.045
309
GRIDFORMAT_END
 95
       32
302
GRIDFORMAT
  1
GRIDFORMAT_BEGIN
 90
        0
 91
        1
 62
     0
 92
       -2
340
14
 93
        0
 40
0.045
309
GRIDFORMAT_END
309
TABLEFORMAT_END
  1
CELLSTYLE_BEGIN
 90
        3
 91
        2
300
_DATA
309
CELLSTYLE_END
  0
ENDSEC
  0
EOF