0
SECTION
  2
HEADER
  9
$ACADVER
  1
AC1027
  9
$ACADMAINTVER
 70
     8
  9
$DWGCODEPAGE
  3
ANSI_1252
  9
$REQUIREDVERSIONS
160
                 0
  9
$COMMENTS
  1
File was created by Cadenas
  9
$CUSTOMPROPERTYTAG
  1
NN
  9
$CUSTOMPROPERTY
  1
Type E-Xtra Pillow Block 4-Bolt Base Inch Bore
  9
$CUSTOMPROPERTYTAG
  1
NT
  9
$CUSTOMPROPERTY
  1
Type E Pillow Block Bearing -(4-Bolt Base) -Inch
  9
$CUSTOMPROPERTYTAG
  1
NB
  9
$CUSTOMPROPERTY
  1
023040
  9
$CUSTOMPROPERTYTAG
  1
NBSYN
  9
$CUSTOMPROPERTY
  1
$PN.
  9
$CUSTOMPROPERTYTAG
  1
LINA
  9
$CUSTOMPROPERTY
  1
023040
  9
$CUSTOMPROPERTYTAG
  1
SS
  9
$CUSTOMPROPERTY
  1
5-7/16
  9
$CUSTOMPROPERTYTAG
  1
PN
  9
$CUSTOMPROPERTY
  1
023040
  9
$CUSTOMPROPERTYTAG
  1
DESCRIPTION
  9
$CUSTOMPROPERTY
  1
P4B-E-507R
  9
$CUSTOMPROPERTYTAG
  1
A
  9
$CUSTOMPROPERTY
  1
9
  9
$CUSTOMPROPERTYTAG
  1
B
  9
$CUSTOMPROPERTY
  1
22
  9
$CUSTOMPROPERTYTAG
  1
C
  9
$CUSTOMPROPERTY
  1
6-1/4
  9
$CUSTOMPROPERTYTAG
  1
DMIN
  9
$CUSTOMPROPERTY
  1
17-3/8
  9
$CUSTOMPROPERTYTAG
  1
DMAX
  9
$CUSTOMPROPERTY
  1
19-1/8
  9
$CUSTOMPROPERTYTAG
  1
E
  9
$CUSTOMPROPERTY
  1
3-3/4
  9
$CUSTOMPROPERTYTAG
  1
F
  9
$CUSTOMPROPERTY
  1
1
  9
$CUSTOMPROPERTYTAG
  1
G
  9
$CUSTOMPROPERTY
  1
2
  9
$CUSTOMPROPERTYTAG
  1
H
  9
$CUSTOMPROPERTY
  1
3-1/4
  9
$CUSTOMPROPERTYTAG
  1
J
  9
$CUSTOMPROPERTY
  1
13-3/16
  9
$CUSTOMPROPERTYTAG
  1
J1
  9
$CUSTOMPROPERTY
  1
12-25/32
  9
$CUSTOMPROPERTYTAG
  1
L
  9
$CUSTOMPROPERTY
  1
9-3/8
  9
$CUSTOMPROPERTYTAG
  1
M
  9
$CUSTOMPROPERTY
  1
6-11/16
  9
$CUSTOMPROPERTYTAG
  1
COMPANY
  9
$CUSTOMPROPERTY
  1
baldor
  9
$INSBASE
 10
0.0
 20
0.0
 30
0.0
  9
$EXTMIN
 10
1.000000000000000E+20
 20
1.000000000000000E+20
 30
1.000000000000000E+20
  9
$EXTMAX
 10
-1.000000000000000E+20
 20
-1.000000000000000E+20
 30
-1.000000000000000E+20
  9
$LIMMIN
 10
0.0
 20
0.0
  9
$LIMMAX
 10
12.0
 20
9.0
  9
$ORTHOMODE
 70
     0
  9
$REGENMODE
 70
     1
  9
$FILLMODE
 70
     1
  9
$QTEXTMODE
 70
     0
  9
$MIRRTEXT
 70
     1
  9
$LTSCALE
 40
1.0
  9
$ATTMODE
 70
     1
  9
$TEXTSIZE
 40
0.2
  9
$TRACEWID
 40
0.05
  9
$TEXTSTYLE
  7
Standard
  9
$CLAYER
  8
0
  9
$CELTYPE
  6
ByLayer
  9
$CECOLOR
 62
   256
  9
$CELTSCALE
 40
1.0
  9
$DISPSILH
 70
     0
  9
$DIMSCALE
 40
1.0
  9
$DIMASZ
 40
0.18
  9
$DIMEXO
 40
0.0625
  9
$DIMDLI
 40
0.38
  9
$DIMRND
 40
0.0
  9
$DIMDLE
 40
0.0
  9
$DIMEXE
 40
0.18
  9
$DIMTP
 40
0.0
  9
$DIMTM
 40
0.0
  9
$DIMTXT
 40
0.18
  9
$DIMCEN
 40
0.09
  9
$DIMTSZ
 40
0.0
  9
$DIMTOL
 70
     0
  9
$DIMLIM
 70
     0
  9
$DIMTIH
 70
     1
  9
$DIMTOH
 70
     1
  9
$DIMSE1
 70
     0
  9
$DIMSE2
 70
     0
  9
$DIMTAD
 70
     0
  9
$DIMZIN
 70
     0
  9
$DIMBLK
  1

  9
$DIMASO
 70
     1
  9
$DIMSHO
 70
     1
  9
$DIMPOST
  1

  9
$DIMAPOST
  1

  9
$DIMALT
 70
     0
  9
$DIMALTD
 70
     2
  9
$DIMALTF
 40
25.4
  9
$DIMLFAC
 40
1.0
  9
$DIMTOFL
 70
     0
  9
$DIMTVP
 40
0.0
  9
$DIMTIX
 70
     0
  9
$DIMSOXD
 70
     0
  9
$DIMSAH
 70
     0
  9
$DIMBLK1
  1

  9
$DIMBLK2
  1

  9
$DIMSTYLE
  2
Standard
  9
$DIMCLRD
 70
     0
  9
$DIMCLRE
 70
     0
  9
$DIMCLRT
 70
     0
  9
$DIMTFAC
 40
1.0
  9
$DIMGAP
 40
0.09
  9
$DIMJUST
 70
     0
  9
$DIMSD1
 70
     0
  9
$DIMSD2
 70
     0
  9
$DIMTOLJ
 70
     1
  9
$DIMTZIN
 70
     0
  9
$DIMALTZ
 70
     0
  9
$DIMALTTZ
 70
     0
  9
$DIMUPT
 70
     0
  9
$DIMDEC
 70
     4
  9
$DIMTDEC
 70
     4
  9
$DIMALTU
 70
     2
  9
$DIMALTTD
 70
     2
  9
$DIMTXSTY
  7
Standard
  9
$DIMAUNIT
 70
     0
  9
$DIMADEC
 70
     0
  9
$DIMALTRND
 40
0.0
  9
$DIMAZIN
 70
     0
  9
$DIMDSEP
 70
    46
  9
$DIMATFIT
 70
     3
  9
$DIMFRAC
 70
     0
  9
$DIMLDRBLK
  1

  9
$DIMLUNIT
 70
     2
  9
$DIMLWD
 70
    -2
  9
$DIMLWE
 70
    -2
  9
$DIMTMOVE
 70
     0
  9
$DIMFXL
 40
1.0
  9
$DIMFXLON
 70
     0
  9
$DIMJOGANG
 40
0.7853981633974483
  9
$DIMTFILL
 70
     0
  9
$DIMTFILLCLR
 70
     0
  9
$DIMARCSYM
 70
     0
  9
$DIMLTYPE
  6

  9
$DIMLTEX1
  6

  9
$DIMLTEX2
  6

  9
$DIMTXTDIRECTION
 70
     0
  9
$LUNITS
 70
     2
  9
$LUPREC
 70
     4
  9
$SKETCHINC
 40
0.1
  9
$FILLETRAD
 40
0.5
  9
$AUNITS
 70
     0
  9
$AUPREC
 70
     0
  9
$MENU
  1
.
  9
$ELEVATION
 40
0.0
  9
$PELEVATION
 40
0.0
  9
$THICKNESS
 40
0.0
  9
$LIMCHECK
 70
     0
  9
$CHAMFERA
 40
0.0
  9
$CHAMFERB
 40
0.0
  9
$CHAMFERC
 40
0.0
  9
$CHAMFERD
 40
0.0
  9
$SKPOLY
 70
     0
  9
$TDCREATE
 40
2458169.000490544
  9
$TDUCREATE
 40
2458168.958823877
  9
$TDUPDATE
 40
2458169.000490718
  9
$TDUUPDATE
 40
2458168.958824051
  9
$TDINDWG
 40
0.0000000116
  9
$TDUSRTIMER
 40
0.0000000116
  9
$USRTIMER
 70
     1
  9
$ANGBASE
 50
0.0
  9
$ANGDIR
 70
     0
  9
$PDMODE
 70
     0
  9
$PDSIZE
 40
0.0
  9
$PLINEWID
 40
0.0
  9
$SPLFRAME
 70
     0
  9
$SPLINETYPE
 70
     6
  9
$SPLINESEGS
 70
     8
  9
$HANDSEED
  5
1EE
  9
$SURFTAB1
 70
     6
  9
$SURFTAB2
 70
     6
  9
$SURFTYPE
 70
     6
  9
$SURFU
 70
     6
  9
$SURFV
 70
     6
  9
$UCSBASE
  2

  9
$UCSNAME
  2

  9
$UCSORG
 10
0.0
 20
0.0
 30
0.0
  9
$UCSXDIR
 10
1.0
 20
0.0
 30
0.0
  9
$UCSYDIR
 10
0.0
 20
1.0
 30
0.0
  9
$UCSORTHOREF
  2

  9
$UCSORTHOVIEW
 70
     0
  9
$UCSORGTOP
 10
0.0
 20
0.0
 30
0.0
  9
$UCSORGBOTTOM
 10
0.0
 20
0.0
 30
0.0
  9
$UCSORGLEFT
 10
0.0
 20
0.0
 30
0.0
  9
$UCSORGRIGHT
 10
0.0
 20
0.0
 30
0.0
  9
$UCSORGFRONT
 10
0.0
 20
0.0
 30
0.0
  9
$UCSORGBACK
 10
0.0
 20
0.0
 30
0.0
  9
$PUCSBASE
  2

  9
$PUCSNAME
  2

  9
$PUCSORG
 10
0.0
 20
0.0
 30
0.0
  9
$PUCSXDIR
 10
1.0
 20
0.0
 30
0.0
  9
$PUCSYDIR
 10
0.0
 20
1.0
 30
0.0
  9
$PUCSORTHOREF
  2

  9
$PUCSORTHOVIEW
 70
     0
  9
$PUCSORGTOP
 10
0.0
 20
0.0
 30
0.0
  9
$PUCSORGBOTTOM
 10
0.0
 20
0.0
 30
0.0
  9
$PUCSORGLEFT
 10
0.0
 20
0.0
 30
0.0
  9
$PUCSORGRIGHT
 10
0.0
 20
0.0
 30
0.0
  9
$PUCSORGFRONT
 10
0.0
 20
0.0
 30
0.0
  9
$PUCSORGBACK
 10
0.0
 20
0.0
 30
0.0
  9
$USERI1
 70
     0
  9
$USERI2
 70
     0
  9
$USERI3
 70
     0
  9
$USERI4
 70
     0
  9
$USERI5
 70
     0
  9
$USERR1
 40
0.0
  9
$USERR2
 40
0.0
  9
$USERR3
 40
0.0
  9
$USERR4
 40
0.0
  9
$USERR5
 40
0.0
  9
$WORLDVIEW
 70
     1
  9
$SHADEDGE
 70
     3
  9
$SHADEDIF
 70
    70
  9
$TILEMODE
 70
     1
  9
$MAXACTVP
 70
    64
  9
$PINSBASE
 10
0.0
 20
0.0
 30
0.0
  9
$PLIMCHECK
 70
     0
  9
$PEXTMIN
 10
1.000000000000000E+20
 20
1.000000000000000E+20
 30
1.000000000000000E+20
  9
$PEXTMAX
 10
-1.000000000000000E+20
 20
-1.000000000000000E+20
 30
-1.000000000000000E+20
  9
$PLIMMIN
 10
0.0
 20
0.0
  9
$PLIMMAX
 10
12.0
 20
9.0
  9
$UNITMODE
 70
     0
  9
$VISRETAIN
 70
     1
  9
$PLINEGEN
 70
     0
  9
$PSLTSCALE
 70
     1
  9
$TREEDEPTH
 70
  3020
  9
$CMLSTYLE
  2
Standard
  9
$CMLJUST
 70
     0
  9
$CMLSCALE
 40
1.0
  9
$PROXYGRAPHICS
 70
     1
  9
$MEASUREMENT
 70
     0
  9
$CELWEIGHT
370
    -1
  9
$ENDCAPS
280
     0
  9
$JOINSTYLE
280
     0
  9
$LWDISPLAY
290
     0
  9
$INSUNITS
 70
     1
  9
$HYPERLINKBASE
  1

  9
$STYLESHEET
  1

  9
$XEDIT
290
     1
  9
$CEPSNTYPE
380
     0
  9
$PSTYLEMODE
290
     1
  9
$FINGERPRINTGUID
  2
{9DCEEF59-4A08-43AD-AB0A-AD3A9A207491}
  9
$VERSIONGUID
  2
{FAEB1C32-E019-11D5-929B-00C0DF256EC4}
  9
$EXTNAMES
290
     1
  9
$PSVPSCALE
 40
0.0
  9
$OLESTARTUP
290
     0
  9
$SORTENTS
280
   127
  9
$INDEXCTL
280
     0
  9
$HIDETEXT
280
     1
  9
$XCLIPFRAME
280
     2
  9
$HALOGAP
280
     0
  9
$OBSCOLOR
 70
   257
  9
$OBSLTYPE
280
     0
  9
$INTERSECTIONDISPLAY
280
     0
  9
$INTERSECTIONCOLOR
 70
   257
  9
$DIMASSOC
280
     2
  9
$PROJECTNAME
  1

  9
$CAMERADISPLAY
290
     0
  9
$LENSLENGTH
 40
50.0
  9
$CAMERAHEIGHT
 40
0.0
  9
$STEPSPERSEC
 40
2.0
  9
$STEPSIZE
 40
6.0
  9
$3DDWFPREC
 40
2.0
  9
$PSOLWIDTH
 40
0.25
  9
$PSOLHEIGHT
 40
4.0
  9
$LOFTANG1
 40
1.570796326794897
  9
$LOFTANG2
 40
1.570796326794897
  9
$LOFTMAG1
 40
0.0
  9
$LOFTMAG2
 40
0.0
  9
$LOFTPARAM
 70
     7
  9
$LOFTNORMALS
280
     1
  9
$LATITUDE
 40
37.795
  9
$LONGITUDE
 40
-122.394
  9
$NORTHDIRECTION
 40
0.0
  9
$TIMEZONE
 70
 -8000
  9
$LIGHTGLYPHDISPLAY
280
     1
  9
$TILEMODELIGHTSYNCH
280
     1
  9
$CMATERIAL
347
44
  9
$SOLIDHIST
280
     0
  9
$SHOWHIST
280
     1
  9
$DWFFRAME
280
     2
  9
$DGNFRAME
280
     2
  9
$REALWORLDSCALE
290
     1
  9
$INTERFERECOLOR
 62
   256
  9
$CSHADOW
280
     0
  9
$SHADOWPLANELOCATION
 40
0.0
  0
ENDSEC
  0
SECTION
  2
CLASSES
  0
CLASS
  1
ACDBDICTIONARYWDFLT
  2
AcDbDictionaryWithDefault
  3
ObjectDBX Classes
 90
        0
 91
        4
280
     0
281
     0
  0
CLASS
  1
VISUALSTYLE
  2
AcDbVisualStyle
  3
ObjectDBX Classes
 90
     4095
 91
        4
280
     0
281
     0
  0
CLASS
  1
MATERIAL
  2
AcDbMaterial
  3
ObjectDBX Classes
 90
     1153
 91
        4
280
     0
281
     0
  0
CLASS
  1
SCALE
  2
AcDbScale
  3
ObjectDBX Classes
 90
     1153
 91
        4
280
     0
281
     0
  0
CLASS
  1
TABLESTYLE
  2
AcDbTableStyle
  3
ObjectDBX Classes
 90
     4095
 91
        4
280
     0
281
     0
  0
CLASS
  1
MLEADERSTYLE
  2
AcDbMLeaderStyle
  3
ACDB_MLEADERSTYLE_CLASS
 90
     4095
 91
        4
280
     0
281
     0
  0
CLASS
  1
SUN
  2
AcDbSun
  3
SCENEOE
 90
     1153
 91
        4
280
     0
281
     0
  0
CLASS
  1
DICTIONARYVAR
  2
AcDbDictionaryVar
  3
ObjectDBX Classes
 90
        0
 91
        4
280
     0
281
     0
  0
CLASS
  1
CELLSTYLEMAP
  2
AcDbCellStyleMap
  3
ObjectDBX Classes
 90
     1152
 91
        4
280
     0
281
     0
  0
ENDSEC
  0
SECTION
  2
TABLES
  0
TABLE
  2
VPORT
  5
8
330
0
100
AcDbSymbolTable
 70
     1
  0
VPORT
  5
29
330
8
100
AcDbSymbolTableRecord
100
AcDbViewportTableRecord
  2
*Active
 70
     0
 10
0.0
 20
0.0
 11
1.0
 21
1.0
 12
0.0
 22
0.0
 13
0.0
 23
0.0
 14
0.5
 24
0.5
 15
0.5
 25
0.5
 16
0.0
 26
0.0
 36
1.0
 17
0.0
 27
-0.0000000000000009
 37
0.0
 40
10.098
 41
2.222222222222223
 42
50.0
 43
0.0
 44
0.0
 50
0.0
 51
0.0
 71
     0
 72
   100
 73
     1
 74
     3
 75
     0
 76
     0
 77
     0
 78
     0
281
     0
 65
     1
110
0.0
120
0.0
130
0.0
111
1.0
121
0.0
131
0.0
112
0.0
122
1.0
132
0.0
 79
     0
146
0.0
348
2F
 60
     3
 61
     5
292
     1
282
     1
141
0.0
142
0.0
 63
   250
361
6D
  0
ENDTAB
  0
TABLE
  2
LTYPE
  5
5
330
0
100
AcDbSymbolTable
 70
     3
  0
LTYPE
  5
14
330
5
100
AcDbSymbolTableRecord
100
AcDbLinetypeTableRecord
  2
ByBlock
 70
     0
  3

 72
    65
 73
     0
 40
0.0
  0
LTYPE
  5
15
330
5
100
AcDbSymbolTableRecord
100
AcDbLinetypeTableRecord
  2
ByLayer
 70
     0
  3

 72
    65
 73
     0
 40
0.0
  0
LTYPE
  5
16
330
5
100
AcDbSymbolTableRecord
100
AcDbLinetypeTableRecord
  2
Continuous
 70
     0
  3
Solid line
 72
    65
 73
     0
 40
0.0
  0
LTYPE
  5
9E
330
5
100
AcDbSymbolTableRecord
100
AcDbLinetypeTableRecord
  2
Dashed
 70
     0
  3

 72
    65
 73
     2
 40
2.0
 49
1.0
 74
     0
 49
-1.0
 74
     0
  0
LTYPE
  5
B1
330
5
100
AcDbSymbolTableRecord
100
AcDbLinetypeTableRecord
  2
Center
 70
     0
  3

 72
    65
 73
     4
 40
1.5
 49
0.45
 74
     0
 49
-0.5
 74
     0
 49
0.05
 74
     0
 49
-0.5
 74
     0
  0
ENDTAB
  0
TABLE
  2
LAYER
  5
2
330
0
100
AcDbSymbolTable
 70
     7
  0
LAYER
  5
10
330
2
100
AcDbSymbolTableRecord
100
AcDbLayerTableRecord
  2
0
 70
     0
 62
     7
  6
Continuous
370
    -3
390
F
347
46
348
0
  0
LAYER
  5
72
330
2
100
AcDbSymbolTableRecord
100
AcDbLayerTableRecord
  2
AM_6
 70
     0
 62
    -2
  6
Continuous
370
    35
390
F
347
46
348
0
  0
LAYER
  5
9F
330
2
100
AcDbSymbolTableRecord
100
AcDbLayerTableRecord
  2
AM_9
 70
     0
 62
     6
  6
Dashed
370
    25
390
F
347
46
348
0
  0
LAYER
  5
B2
330
2
100
AcDbSymbolTableRecord
100
AcDbLayerTableRecord
  2
AM_7
 70
     0
 62
     7
  6
Center
370
    25
390
F
347
46
348
0
  0
LAYER
  5
B4
330
2
100
AcDbSymbolTableRecord
100
AcDbLayerTableRecord
  2
AM_4
 70
     0
 62
     7
  6
Continuous
370
    50
390
F
347
46
348
0
  0
LAYER
  5
C1
330
2
100
AcDbSymbolTableRecord
100
AcDbLayerTableRecord
  2
AM_5
 70
     0
 62
     3
  6
Continuous
370
    25
390
F
347
46
348
0
  0
LAYER
  5
1DD
330
2
100
AcDbSymbolTableRecord
100
AcDbLayerTableRecord
  2
ConnectionPoints
 70
     0
 62
     7
  6
Continuous
370
    50
390
F
347
46
348
0
  0
ENDTAB
  0
TABLE
  2
STYLE
  5
3
330
0
100
AcDbSymbolTable
 70
     1
  0
STYLE
  5
11
330
3
100
AcDbSymbolTableRecord
100
AcDbTextStyleTableRecord
  2
Standard
 70
     0
 40
0.0
 41
1.0
 50
0.0
 71
     0
 42
0.2
  3
txt
  4

  0
ENDTAB
  0
TABLE
  2
VIEW
  5
6
330
0
100
AcDbSymbolTable
 70
     0
  0
ENDTAB
  0
TABLE
  2
UCS
  5
7
330
0
100
AcDbSymbolTable
 70
     0
  0
ENDTAB
  0
TABLE
  2
APPID
  5
9
330
0
100
AcDbSymbolTable
 70
     1
  0
APPID
  5
12
330
9
100
AcDbSymbolTableRecord
100
AcDbRegAppTableRecord
  2
ACAD
 70
     0
  0
ENDTAB
  0
TABLE
  2
DIMSTYLE
  5
A
330
0
100
AcDbSymbolTable
 70
     1
100
AcDbDimStyleTable
  0
DIMSTYLE
105
27
330
A
100
AcDbSymbolTableRecord
100
AcDbDimStyleTableRecord
  2
Standard
 70
     0
178
     0
340
11
  0
ENDTAB
  0
TABLE
  2
BLOCK_RECORD
  5
1
330
0
100
AcDbSymbolTable
 70
     7
  0
BLOCK_RECORD
  5
1F
330
1
100
AcDbSymbolTableRecord
100
AcDbBlockTableRecord
  2
*Model_Space
340
22
 70
     0
280
     1
281
     0
  0
BLOCK_RECORD
  5
1B
330
1
100
AcDbSymbolTableRecord
100
AcDbBlockTableRecord
  2
*Paper_Space
340
1E
 70
     0
280
     1
281
     0
  0
BLOCK_RECORD
  5
23
330
1
100
AcDbSymbolTableRecord
100
AcDbBlockTableRecord
  2
*Paper_Space0
340
26
 70
     0
280
     1
281
     0
  0
BLOCK_RECORD
  5
6E
330
1
100
AcDbSymbolTableRecord
100
AcDbBlockTableRecord
  2
1_023040_4
340
0
102
{BLKREFS
331
6F
102
}
 70
     0
280
     1
281
     0
  0
BLOCK_RECORD
  5
89
330
1
100
AcDbSymbolTableRecord
100
AcDbBlockTableRecord
  2
2_5_7_16C_1_0_in_023040_4
340
0
102
{BLKREFS
331
8A
102
}
 70
     0
280
     1
281
     0
  0
BLOCK_RECORD
  5
C4
330
1
100
AcDbSymbolTableRecord
100
AcDbBlockTableRecord
  2
3_5_7_16C_2_0_in_023040_4
340
0
102
{BLKREFS
331
C5
102
}
 70
     0
280
     1
281
     0
  0
BLOCK_RECORD
  5
FA
330
1
100
AcDbSymbolTableRecord
100
AcDbBlockTableRecord
  2
4_5_7_16I_0_in_023040_4
340
0
102
{BLKREFS
331
FB
102
}
 70
     0
280
     1
281
     0
  0
BLOCK_RECORD
  5
128
330
1
100
AcDbSymbolTableRecord
100
AcDbBlockTableRecord
  2
5_405015E_Inch_0_in_023040_4
340
0
102
{BLKREFS
331
129
102
}
 70
     0
280
     1
281
     0
  0
BLOCK_RECORD
  5
16D
330
1
100
AcDbSymbolTableRecord
100
AcDbBlockTableRecord
  2
6_023040H_0_in_023040_4
340
0
102
{BLKREFS
331
16E
102
}
 70
     0
280
     1
281
     0
  0
ENDTAB
  0
ENDSEC
  0
SECTION
  2
BLOCKS
  0
BLOCK
  5
20
330
1F
100
AcDbEntity
  8
0
100
AcDbBlockBegin
  2
*Model_Space
 70
     0
 10
0.0
 20
0.0
 30
0.0
  3
*Model_Space
  1

  0
ENDBLK
  5
21
330
1F
100
AcDbEntity
  8
0
100
AcDbBlockEnd
  0
BLOCK
  5
1C
330
1B
100
AcDbEntity
 67
     1
  8
0
100
AcDbBlockBegin
  2
*Paper_Space
 70
     0
 10
0.0
 20
0.0
 30
0.0
  3
*Paper_Space
  1

  0
ENDBLK
  5
1D
330
1B
100
AcDbEntity
 67
     1
  8
0
100
AcDbBlockEnd
  0
BLOCK
  5
24
330
23
100
AcDbEntity
  8
0
100
AcDbBlockBegin
  2
*Paper_Space0
 70
     0
 10
0.0
 20
0.0
 30
0.0
  3
*Paper_Space0
  1

  0
ENDBLK
  5
25
330
23
100
AcDbEntity
  8
0
100
AcDbBlockEnd
  0
BLOCK
  5
70
330
6E
100
AcDbEntity
  8
0
100
AcDbBlockBegin
  2
1_023040_4
 70
     2
 10
0.0
 20
0.0
 30
0.0
  3
1_023040_4
  1

  0
ATTDEF
  5
73
330
6E
100
AcDbEntity
  8
AM_6
100
AcDbText
 10
16.0
 20
4.95
 30
0.0
 40
0.5
  1
Type E-Xtra Pillow Block 4-Bolt Base Inch Bore
100
AcDbAttributeDefinition
  3

  2
NN
 70
     8
280
     0
  0
ATTDEF
  5
74
330
6E
100
AcDbEntity
  8
AM_6
100
AcDbText
 10
16.0
 20
4.45
 30
0.0
 40
0.5
  1
Type E Pillow Block Bearing -(4-Bolt Base) -Inch
100
AcDbAttributeDefinition
  3

  2
NT
 70
     8
280
     0
  0
ATTDEF
  5
75
330
6E
100
AcDbEntity
  8
AM_6
100
AcDbText
 10
16.0
 20
3.95
 30
0.0
 40
0.5
  1
023040
100
AcDbAttributeDefinition
  3

  2
NB
 70
     8
280
     0
  0
ATTDEF
  5
76
330
6E
100
AcDbEntity
  8
AM_6
100
AcDbText
 10
16.0
 20
3.45
 30
0.0
 40
0.5
  1
$PN.
100
AcDbAttributeDefinition
  3

  2
NBSYN
 70
     8
280
     0
  0
ATTDEF
  5
77
330
6E
100
AcDbEntity
  8
AM_6
100
AcDbText
 10
16.0
 20
2.95
 30
0.0
 40
0.5
  1
023040
100
AcDbAttributeDefinition
  3

  2
LINA
 70
     8
280
     0
  0
ATTDEF
  5
78
330
6E
100
AcDbEntity
  8
AM_6
100
AcDbText
 10
16.0
 20
2.45
 30
0.0
 40
0.5
  1
5-7/16
100
AcDbAttributeDefinition
  3

  2
SS
 70
     8
280
     0
  0
ATTDEF
  5
79
330
6E
100
AcDbEntity
  8
AM_6
100
AcDbText
 10
16.0
 20
1.95
 30
0.0
 40
0.5
  1
023040
100
AcDbAttributeDefinition
  3

  2
PN
 70
     8
280
     0
  0
ATTDEF
  5
7A
330
6E
100
AcDbEntity
  8
AM_6
100
AcDbText
 10
16.0
 20
1.45
 30
0.0
 40
0.5
  1
P4B-E-507R
100
AcDbAttributeDefinition
  3

  2
DESCRIPTION
 70
     8
280
     0
  0
ATTDEF
  5
7B
330
6E
100
AcDbEntity
  8
AM_6
100
AcDbText
 10
16.0
 20
0.9500000000000002
 30
0.0
 40
0.5
  1
9
100
AcDbAttributeDefinition
  3

  2
A
 70
     8
280
     0
  0
ATTDEF
  5
7C
330
6E
100
AcDbEntity
  8
AM_6
100
AcDbText
 10
16.0
 20
0.4500000000000002
 30
0.0
 40
0.5
  1
22
100
AcDbAttributeDefinition
  3

  2
B
 70
     8
280
     0
  0
ATTDEF
  5
7D
330
6E
100
AcDbEntity
  8
AM_6
100
AcDbText
 10
16.0
 20
-0.0499999999999998
 30
0.0
 40
0.5
  1
6-1/4
100
AcDbAttributeDefinition
  3

  2
C
 70
     8
280
     0
  0
ATTDEF
  5
7E
330
6E
100
AcDbEntity
  8
AM_6
100
AcDbText
 10
16.0
 20
-0.5499999999999998
 30
0.0
 40
0.5
  1
17-3/8
100
AcDbAttributeDefinition
  3

  2
DMIN
 70
     8
280
     0
  0
ATTDEF
  5
7F
330
6E
100
AcDbEntity
  8
AM_6
100
AcDbText
 10
16.0
 20
-1.05
 30
0.0
 40
0.5
  1
19-1/8
100
AcDbAttributeDefinition
  3

  2
DMAX
 70
     8
280
     0
  0
ATTDEF
  5
80
330
6E
100
AcDbEntity
  8
AM_6
100
AcDbText
 10
16.0
 20
-1.55
 30
0.0
 40
0.5
  1
3-3/4
100
AcDbAttributeDefinition
  3

  2
E
 70
     8
280
     0
  0
ATTDEF
  5
81
330
6E
100
AcDbEntity
  8
AM_6
100
AcDbText
 10
16.0
 20
-2.05
 30
0.0
 40
0.5
  1
1
100
AcDbAttributeDefinition
  3

  2
F
 70
     8
280
     0
  0
ATTDEF
  5
82
330
6E
100
AcDbEntity
  8
AM_6
100
AcDbText
 10
16.0
 20
-2.55
 30
0.0
 40
0.5
  1
2
100
AcDbAttributeDefinition
  3

  2
G
 70
     8
280
     0
  0
ATTDEF
  5
83
330
6E
100
AcDbEntity
  8
AM_6
100
AcDbText
 10
16.0
 20
-3.05
 30
0.0
 40
0.5
  1
3-1/4
100
AcDbAttributeDefinition
  3

  2
H
 70
     8
280
     0
  0
ATTDEF
  5
84
330
6E
100
AcDbEntity
  8
AM_6
100
AcDbText
 10
16.0
 20
-3.55
 30
0.0
 40
0.5
  1
13-3/16
100
AcDbAttributeDefinition
  3

  2
J
 70
     8
280
     0
  0
ATTDEF
  5
85
330
6E
100
AcDbEntity
  8
AM_6
100
AcDbText
 10
16.0
 20
-4.05
 30
0.0
 40
0.5
  1
12-25/32
100
AcDbAttributeDefinition
  3

  2
J1
 70
     8
280
     0
  0
ATTDEF
  5
86
330
6E
100
AcDbEntity
  8
AM_6
100
AcDbText
 10
16.0
 20
-4.55
 30
0.0
 40
0.5
  1
9-3/8
100
AcDbAttributeDefinition
  3

  2
L
 70
     8
280
     0
  0
ATTDEF
  5
87
330
6E
100
AcDbEntity
  8
AM_6
100
AcDbText
 10
16.0
 20
-5.05
 30
0.0
 40
0.5
  1
6-11/16
100
AcDbAttributeDefinition
  3

  2
M
 70
     8
280
     0
  0
ATTDEF
  5
88
330
6E
100
AcDbEntity
  8
AM_6
100
AcDbText
 10
16.0
 20
-5.55
 30
0.0
 40
0.5
  1
baldor
100
AcDbAttributeDefinition
  3

  2
COMPANY
 70
     8
280
     0
  0
INSERT
  5
8A
330
6E
100
AcDbEntity
  8
0
100
AcDbBlockReference
  2
2_5_7_16C_1_0_in_023040_4
 10
0.0
 20
0.0
 30
0.0
  0
INSERT
  5
C5
330
6E
100
AcDbEntity
  8
0
100
AcDbBlockReference
  2
3_5_7_16C_2_0_in_023040_4
 10
0.0
 20
0.0
 30
0.0
  0
INSERT
  5
FB
330
6E
100
AcDbEntity
  8
0
100
AcDbBlockReference
  2
4_5_7_16I_0_in_023040_4
 10
0.0
 20
0.0
 30
0.0
  0
INSERT
  5
129
330
6E
100
AcDbEntity
  8
0
100
AcDbBlockReference
  2
5_405015E_Inch_0_in_023040_4
 10
0.0
 20
0.0
 30
0.0
  0
INSERT
  5
16E
330
6E
100
AcDbEntity
  8
0
100
AcDbBlockReference
  2
6_023040H_0_in_023040_4
 10
0.0
 20
0.0
 30
0.0
  0
ENDBLK
  5
71
330
6E
100
AcDbEntity
  8
0
100
AcDbBlockEnd
  0
BLOCK
  5
8B
330
89
100
AcDbEntity
  8
0
100
AcDbBlockBegin
  2
2_5_7_16C_1_0_in_023040_4
 70
     2
 10
0.0
 20
0.0
 30
0.0
  3
2_5_7_16C_1_0_in_023040_4
  1

  0
ATTDEF
  5
8D
330
89
100
AcDbEntity
  8
AM_6
100
AcDbText
 10
9.6875
 20
4.5
 30
0.0
 40
0.5
  1
E-Type Collar -Inch
100
AcDbAttributeDefinition
  3

  2
NN
 70
     8
280
     0
  0
ATTDEF
  5
8E
330
89
100
AcDbEntity
  8
AM_6
100
AcDbText
 10
9.6875
 20
4.0
 30
0.0
 40
0.5
  1
E-Type Bearings
100
AcDbAttributeDefinition
  3

  2
NT
 70
     8
280
     0
  0
ATTDEF
  5
8F
330
89
100
AcDbEntity
  8
AM_6
100
AcDbText
 10
9.6875
 20
3.5
 30
0.0
 40
0.5
  1
5-7/16C
100
AcDbAttributeDefinition
  3

  2
NB
 70
     8
280
     0
  0
ATTDEF
  5
90
330
89
100
AcDbEntity
  8
AM_6
100
AcDbText
 10
9.6875
 20
3.0
 30
0.0
 40
0.5
  1
$BORE.C
100
AcDbAttributeDefinition
  3

  2
NBSYN
 70
     8
280
     0
  0
ATTDEF
  5
91
330
89
100
AcDbEntity
  8
AM_6
100
AcDbText
 10
9.6875
 20
2.5
 30
0.0
 40
0.5
  1
5-7/16C
100
AcDbAttributeDefinition
  3

  2
LINA
 70
     8
280
     0
  0
ATTDEF
  5
92
330
89
100
AcDbEntity
  8
AM_6
100
AcDbText
 10
9.6875
 20
2.0
 30
0.0
 40
0.5
  1
5-7/16
100
AcDbAttributeDefinition
  3

  2
BORE
 70
     8
280
     0
  0
ATTDEF
  5
93
330
89
100
AcDbEntity
  8
AM_6
100
AcDbText
 10
9.6875
 20
1.5
 30
0.0
 40
0.5
  1
9.37500
100
AcDbAttributeDefinition
  3

  2
L
 70
     8
280
     0
  0
ATTDEF
  5
94
330
89
100
AcDbEntity
  8
AM_6
100
AcDbText
 10
9.6875
 20
1.0
 30
0.0
 40
0.5
  1
9.00
100
AcDbAttributeDefinition
  3

  2
A
 70
     8
280
     0
  0
ATTDEF
  5
95
330
89
100
AcDbEntity
  8
AM_6
100
AcDbText
 10
9.6875
 20
0.5
 30
0.0
 40
0.5
  1
4.42
100
AcDbAttributeDefinition
  3

  2
B
 70
     8
280
     0
  0
ATTDEF
  5
96
330
89
100
AcDbEntity
  8
AM_6
100
AcDbText
 10
9.6875
 20
0.0
 30
0.0
 40
0.5
  1
7.00
100
AcDbAttributeDefinition
  3

  2
C
 70
     8
280
     0
  0
ATTDEF
  5
97
330
89
100
AcDbEntity
  8
AM_6
100
AcDbText
 10
9.6875
 20
-0.5
 30
0.0
 40
0.5
  1
9.84
100
AcDbAttributeDefinition
  3

  2
D
 70
     8
280
     0
  0
ATTDEF
  5
98
330
89
100
AcDbEntity
  8
AM_6
100
AcDbText
 10
9.6875
 20
-1.0
 30
0.0
 40
0.5
  1
0.81
100
AcDbAttributeDefinition
  3

  2
E
 70
     8
280
     0
  0
ATTDEF
  5
99
330
89
100
AcDbEntity
  8
AM_6
100
AcDbText
 10
9.6875
 20
-1.5
 30
0.0
 40
0.5
  1
0.69
100
AcDbAttributeDefinition
  3

  2
F
 70
     8
280
     0
  0
ATTDEF
  5
9A
330
89
100
AcDbEntity
  8
AM_6
100
AcDbText
 10
9.6875
 20
-2.0
 30
0.0
 40
0.5
  1
3/4-10
100
AcDbAttributeDefinition
  3

  2
CS
 70
     8
280
     0
  0
ATTDEF
  5
9B
330
89
100
AcDbEntity
  8
AM_6
100
AcDbText
 10
9.6875
 20
-2.5
 30
0.0
 40
0.5
  1
0.7500
100
AcDbAttributeDefinition
  3

  2
NDM
 70
     8
280
     0
  0
ATTDEF
  5
9C
330
89
100
AcDbEntity
  8
AM_6
100
AcDbText
 10
9.6875
 20
-3.0
 30
0.0
 40
0.5
  1
0.6420
100
AcDbAttributeDefinition
  3

  2
KDM
 70
     8
280
     0
  0
ATTDEF
  5
9D
330
89
100
AcDbEntity
  8
AM_6
100
AcDbText
 10
9.6875
 20
-3.5
 30
0.0
 40
0.5
  1
baldor
100
AcDbAttributeDefinition
  3

  2
COMPANY
 70
     8
280
     0
  0
LINE
  5
A0
330
89
100
AcDbEntity
  8
AM_9
100
AcDbLine
 10
3.239068383772883
 20
4.093831165474454
 30
0.0
 11
3.233950372035459
 21
4.100214792859986
 31
0.0
  0
LINE
  5
A1
330
89
100
AcDbEntity
  8
AM_9
100
AcDbLine
 10
3.233965621777053
 20
3.519804227938141
 30
0.0
 11
3.239068383772883
 21
3.526168834525546
 31
0.0
  0
LWPOLYLINE
  5
A2
330
89
100
AcDbEntity
  8
AM_9
100
AcDbPolyline
 90
       26
 70
     0
 43
0.0
 10
3.233734509072821
 20
4.10048403296722
 10
3.230643524455226
 20
4.104202985215875
 10
3.209557635455878
 20
4.123169857375252
 10
3.186099836150669
 20
4.133427724173877
 10
3.161345982725881
 20
4.134112690317585
 10
3.135276488690233
 20
4.124788709410258
 10
3.109963825249578
 20
4.106018916949594
 10
3.08501433621493
 20
4.077147691327608
 10
3.063186742047341
 20
4.041195958172157
 10
3.043695711547308
 20
3.99644985812533
 10
3.029183755306693
 20
3.948942623355321
 10
3.018636453088744
 20
3.895342961651432
 10
3.013435737291932
 20
3.84346902952438
 10
3.012871773859455
 20
3.788960670871929
 10
3.016801196589339
 20
3.73840374554561
 10
3.025141449910997
 20
3.688450342865936
 10
3.037139246807992
 20
3.642853728261712
 10
3.052848209553143
 20
3.600612279713955
 10
3.071607995797823
 20
3.563518075413227
 10
3.093077691813794
 20
3.53227168920601
 10
3.116553795668882
 20
3.508139826089075
 10
3.141440911561148
 20
3.492101954824923
 10
3.166546463702329
 20
3.485237211267195
 10
3.191598629498692
 20
3.488079549359513
 10
3.21487728013682
 20
3.50065039938076
 10
3.233748263708472
 20
3.519533120136839
  0
LWPOLYLINE
  5
A3
330
89
100
AcDbEntity
  8
AM_9
100
AcDbPolyline
 90
        3
 70
     0
 43
0.0
 10
3.233748263708472
 20
3.519533120136839
 10
3.236772511592271
 20
3.52343918154538
 10
3.265699837904942
 20
3.577931529046754
  0
LINE
  5
A4
330
89
100
AcDbEntity
  8
AM_9
100
AcDbLine
 10
3.175838431944477
 20
3.48915
 30
0.0
 11
4.199241185066262
 21
3.48915
 31
0.0
  0
LINE
  5
A5
330
89
100
AcDbEntity
  8
AM_9
100
AcDbLine
 10
4.199241185066262
 20
4.13085
 30
0.0
 11
3.175838431944477
 21
4.13085
 31
0.0
  0
LINE
  5
A6
330
89
100
AcDbEntity
  8
AM_9
100
AcDbLine
 10
4.136011233237856
 20
3.526168834525545
 30
0.0
 11
4.171987763621934
 21
3.481295790777553
 31
0.0
  0
LINE
  5
A7
330
89
100
AcDbEntity
  8
AM_9
100
AcDbLine
 10
4.171723037361719
 20
4.138374019709198
 30
0.0
 11
4.136011233237856
 21
4.093831165474454
 31
0.0
  0
ELLIPSE
  5
A8
330
89
100
AcDbEntity
  8
AM_9
100
AcDbEllipse
 10
4.199241185066191
 20
3.809999999999769
 30
0.0
 11
-5.893918882591742E-17
 21
-0.3208499999997452
 31
0.0
210
0.0
220
0.0
230
1.0
 40
0.4226182617406732
 41
3.503058782366095
 42
5.912645116196919
  0
LWPOLYLINE
  5
A9
330
89
100
AcDbEntity
  8
AM_9
100
AcDbPolyline
 90
       13
 70
     0
 43
0.0
 10
3.265699837904942
 20
3.577931529046754
 10
3.27752922536264
 20
3.613777899738144
 10
3.287304947287079
 20
3.655143261472423
 10
3.295118949351245
 20
3.704632008292193
 10
3.299924534849335
 20
3.759067290633556
 10
3.301339419457126
 20
3.811006635327392
 10
3.299718694505454
 20
3.864479545932162
 10
3.295310633838204
 20
3.913787128642438
 10
3.287944236735377
 20
3.961559657613271
 10
3.277913420585209
 20
4.004844818667789
 10
3.264964550706973
 20
4.043951605169207
 10
3.249211725366941
 20
4.07738288151826
 10
3.233734509072821
 20
4.10048403296722
  0
LWPOLYLINE
  5
AA
330
89
100
AcDbEntity
  8
AM_9
100
AcDbPolyline
 90
       38
 70
     0
 43
0.0
 10
-0.2264713978802052
 20
3.566777720954151
 10
-0.1866040688356409
 20
3.537871982745246
 10
-0.1430207410053319
 20
3.514908838196892
 10
-0.0881731445868554
 20
3.49606566956671
 10
-0.0309753593367946
 20
3.486341782805261
 10
0.0286097722285443
 20
3.486176469961316
 10
0.0873970135032158
 20
3.495838690129264
 10
0.1440695758400525
 20
3.515409664271226
 10
0.1965763240353691
 20
3.544285276711896
 10
0.2424845127530448
 20
3.581222870678159
 10
0.2812457176399051
 20
3.625579925130041
 10
0.3102822607663052
 20
3.674090740985403
 10
0.3303469319531537
 20
3.726957103032341
 10
0.3401875239437296
 20
3.779677312953815
 10
0.3408393745706472
 20
3.833308969403869
 10
0.3325645198157284
 20
3.884494705957199
 10
0.3159745657601882
 20
3.933608872273614
 10
0.29133742434884
 20
3.979625293162202
 10
0.2596585662648017
 20
4.021103676506706
 10
0.2201464343290125
 20
4.05838774881577
 10
0.1751970601984087
 20
4.088930433752789
 10
0.1234406103871884
 20
4.112967577266484
 10
0.0684688038253638
 20
4.128390994401589
 10
0.0096493803091359
 20
4.134838894910945
 10
-0.0494352753320414
 20
4.131571477852354
 10
-0.1079337976473839
 20
4.118282585577379
 10
-0.1633431358194367
 20
4.095372447788156
 10
-0.2135194144160011
 20
4.063555821819895
 10
-0.2574234481215164
 20
4.023564329254332
 10
-0.2923679748759376
 20
3.977991404263549
 10
-0.3187574854442782
 20
3.926981854091751
 10
-0.3347858195964362
 20
3.874863775027873
 10
-0.3415345147264662
 20
3.820746613330301
 10
-0.3388948156273757
 20
3.768601038633707
 10
-0.3275919550607618
 20
3.717633301069049
 10
-0.3080725307044406
 20
3.669597856960695
 10
-0.2810734670790657
 20
3.625342786547154
 10
-0.2264713978802052
 20
3.56677772095415
  0
LINE
  5
AB
330
89
100
AcDbEntity
  8
AM_9
100
AcDbLine
 10
-3.499999999999999
 20
4.5
 30
0.0
 11
-3.499999999999999
 21
3.12
 31
0.0
  0
LINE
  5
AC
330
89
100
AcDbEntity
  8
AM_9
100
AcDbLine
 10
3.499999999999999
 20
3.12
 30
0.0
 11
3.499999999999999
 21
4.5
 31
0.0
  0
LINE
  5
AD
330
89
100
AcDbEntity
  8
AM_9
100
AcDbLine
 10
-4.6875
 20
3.125000000000001
 30
0.0
 11
-4.6875
 21
3.12
 31
0.0
  0
LINE
  5
AE
330
89
100
AcDbEntity
  8
AM_9
100
AcDbLine
 10
4.6875
 20
3.12
 30
0.0
 11
4.6875
 21
3.125000000000001
 31
0.0
  0
LINE
  5
AF
330
89
100
AcDbEntity
  8
AM_9
100
AcDbLine
 10
4.6875
 20
3.12
 30
0.0
 11
-4.6875
 21
3.12
 31
0.0
  0
ELLIPSE
  5
B0
330
89
100
AcDbEntity
  8
AM_9
100
AcDbEllipse
 10
3.175838431944477
 20
3.81
 30
0.0
 11
-5.893918882596425E-17
 21
-0.3208500000000001
 31
0.0
210
0.0
220
0.0
230
1.0
 40
0.4226182617406987
 41
0.0
 42
6.283185307179586
  0
LINE
  5
B3
330
89
100
AcDbEntity
  8
AM_7
100
AcDbLine
 10
-0.3368925
 20
3.81
 30
0.0
 11
0.3368925
 21
3.81
 31
0.0
  0
ELLIPSE
  5
B5
330
89
100
AcDbEntity
  8
AM_4
100
AcDbEllipse
 10
4.199241185066262
 20
3.81
 30
0.0
 11
-5.893918882596425E-17
 21
-0.3208500000000001
 31
0.0
210
0.0
220
0.0
230
1.0
 40
0.4226182617407001
 41
5.912645116196715
 42
9.78624408954641
  0
LWPOLYLINE
  5
B6
330
89
100
AcDbEntity
  8
AM_4
100
AcDbPolyline
 90
       14
 70
     0
 43
0.0
 10
4.172141335445549
 20
3.481104242704049
 10
4.152010941769457
 20
3.510420661036034
 10
4.131372019065268
 20
3.551076620998422
 10
4.113693444236597
 20
3.598627388362114
 10
4.099351046474536
 20
3.65299469223053
 10
4.089276208822208
 20
3.711975343804503
 10
4.083865456069148
 20
3.775252600877684
 10
4.083641379677003
 20
3.839234332385655
 10
4.088797395596963
 20
3.904203981544451
 10
4.098935339361515
 20
3.965066752489545
 10
4.11426605684386
 20
4.023174689897527
 10
4.133058635368531
 20
4.072748467139023
 10
4.155943757689776
 20
4.116011171618436
 10
4.172133332904175
 20
4.138885775143847
  0
LWPOLYLINE
  5
B7
330
89
100
AcDbEntity
  8
AM_4
100
AcDbPolyline
 90
       18
 70
     0
 43
0.0
 10
4.172133332904175
 20
4.138885775143847
 10
4.179908684154971
 20
4.148014092838171
 10
4.206254126988909
 20
4.171092996271996
 10
4.231485901353051
 20
4.182749802047157
 10
4.257303053524628
 20
4.184342090735614
 10
4.280872781377954
 20
4.176033411041014
 10
4.303568998245338
 20
4.157814413883362
 10
4.323705850696946
 20
4.131157188173534
 10
4.341909623506666
 20
4.095526540553969
 10
4.357329073059486
 20
4.052560621742673
 10
4.370035863007761
 20
4.002148851509542
 10
4.379525092507309
 20
3.946220907689508
 10
4.385703580669555
 20
3.885102638550086
 10
4.388227354986086
 20
3.821883110229334
 10
4.386988658167045
 20
3.756552322117058
 10
4.381984149042976
 20
3.693776957569774
 10
4.372939380252723
 20
3.632552741982681
 10
4.351576284924899
 20
3.549637682773664
  0
CIRCLE
  5
B8
330
89
100
AcDbEntity
  8
AM_4
100
AcDbCircle
 10
0.0
 20
3.81
 30
0.0
 40
0.32085
  0
LINE
  5
B9
330
89
100
AcDbEntity
  8
AM_4
100
AcDbLine
 10
4.4575
 20
4.5
 30
0.0
 11
-4.4575
 21
4.5
 31
0.0
  0
ARC
  5
BA
330
89
100
AcDbEntity
  8
AM_4
100
AcDbCircle
 10
-4.457500000000003
 20
4.270000000000002
 30
0.0
 40
0.2299999999999969
100
AcDbArc
 50
90.0
 51
180.0
  0
ARC
  5
BB
330
89
100
AcDbEntity
  8
AM_4
100
AcDbCircle
 10
4.457500000000003
 20
4.270000000000002
 30
0.0
 40
0.2299999999999969
100
AcDbArc
 50
0.0
 51
90.0
  0
LWPOLYLINE
  5
BC
330
89
100
AcDbEntity
  8
AM_4
100
AcDbPolyline
 90
       10
 70
     0
 43
0.0
 10
4.351576284924899
 20
3.549637682773664
 10
4.336702494685285
 20
3.512906223467175
 10
4.319165706373751
 20
3.481817035996845
 10
4.297588960803504
 20
3.456293874143045
 10
4.27320747562311
 20
3.440169406639054
 10
4.248941892772357
 20
3.435003142873065
 10
4.223250480775712
 20
3.43996590272004
 10
4.198754915658336
 20
3.454303154400312
 10
4.1744139918788
 20
3.478319125481349
 10
4.172141335445549
 20
3.481104242704049
  0
LWPOLYLINE
  5
BD
330
89
100
AcDbEntity
  8
AM_4
100
AcDbPolyline
 90
       38
 70
     0
 43
0.0
 10
-0.2338626044798076
 20
3.524361602385094
 10
-0.2720789910639209
 20
3.563591703195929
 10
-0.3041526585708556
 20
3.607996974477881
 10
-0.3324389429501198
 20
3.66381080326645
 10
-0.3513209509723889
 20
3.723487633364932
 10
-0.360371553656444
 20
3.787236012622238
 10
-0.35884030879559
 20
3.851610023333614
 10
-0.3463822273805146
 20
3.915679263300804
 10
-0.3233760377694009
 20
3.976739055043882
 10
-0.290442782801448
 20
4.03262763628717
 10
-0.2484406145250486
 20
4.082037453776945
 10
-0.199690719766993
 20
4.122317849968189
 10
-0.1446979426958097
 20
4.153536165127857
 10
-0.087299618823053
 20
4.173816501838768
 10
-0.0272641295498031
 20
4.183928076510659
 10
0.0316498180634068
 20
4.183515738170174
 10
0.0896597830721506
 20
4.173240539777243
 10
0.1446488800628865
 20
4.153520960504791
 10
0.1956802367413824
 20
4.1250973584031
 10
0.2422558939685996
 20
4.08794626415285
 10
0.2822511828053057
 20
4.043778882244824
 10
0.3156800386619127
 20
3.991875328265236
 10
0.3403152149623605
 20
3.935244445929167
 10
0.3558517555157508
 20
3.873295355276451
 10
0.3610726201979588
 20
3.809629509255028
 10
0.3555199333026936
 20
3.744742855880652
 10
0.3392558387274823
 20
3.68169591043631
 10
0.3124965794485073
 20
3.622307999371157
 10
0.276039750957689
 20
3.568355422311681
 10
0.2316211987179621
 20
3.522454181345396
 10
0.1799382668259134
 20
3.484933884895722
 10
0.1244603770298944
 20
3.458055164999214
 10
0.0651674555336993
 20
3.441165826200963
 10
0.0060607323866737
 20
3.435093307392249
 10
-0.053222263933121
 20
3.439101272764025
 10
-0.1099606661272809
 20
3.452870969926162
 10
-0.1636591723944713
 20
3.475776357329774
 10
-0.2338626044932592
 20
3.524361602354312
  0
LINE
  5
BE
330
89
100
AcDbEntity
  8
AM_4
100
AcDbLine
 10
-4.6875
 20
4.27
 30
0.0
 11
-4.6875
 21
3.125000000000001
 31
0.0
  0
LINE
  5
BF
330
89
100
AcDbEntity
  8
AM_4
100
AcDbLine
 10
4.6875
 20
3.125000000000001
 30
0.0
 11
4.6875
 21
4.27
 31
0.0
  0
LINE
  5
C0
330
89
100
AcDbEntity
  8
AM_4
100
AcDbLine
 10
4.6875
 20
4.27
 30
0.0
 11
-4.6875
 21
4.27
 31
0.0
  0
ARC
  5
C2
330
89
100
AcDbEntity
  8
AM_5
100
AcDbCircle
 10
0.0000000000000451
 20
3.810000000000114
 30
0.0
 40
0.3749999999998781
100
AcDbArc
 50
63.8515706674804
 51
75.00000000000198
  0
ARC
  5
C3
330
89
100
AcDbEntity
  8
AM_5
100
AcDbCircle
 10
0.0000000000000053
 20
3.809999999999997
 30
0.0
 40
0.3750000000000015
100
AcDbArc
 50
75.00000000000071
 51
15.00000000000046
  0
ENDBLK
  5
8C
330
89
100
AcDbEntity
  8
0
100
AcDbBlockEnd
  0
BLOCK
  5
C6
330
C4
100
AcDbEntity
  8
0
100
AcDbBlockBegin
  2
3_5_7_16C_2_0_in_023040_4
 70
     2
 10
0.0
 20
0.0
 30
0.0
  3
3_5_7_16C_2_0_in_023040_4
  1

  0
ATTDEF
  5
C8
330
C4
100
AcDbEntity
  8
AM_6
100
AcDbText
 10
9.6875
 20
-3.12
 30
0.0
 40
0.5
  1
E-Type Collar -Inch
100
AcDbAttributeDefinition
  3

  2
NN
 70
     8
280
     0
  0
ATTDEF
  5
C9
330
C4
100
AcDbEntity
  8
AM_6
100
AcDbText
 10
9.6875
 20
-3.62
 30
0.0
 40
0.5
  1
E-Type Bearings
100
AcDbAttributeDefinition
  3

  2
NT
 70
     8
280
     0
  0
ATTDEF
  5
CA
330
C4
100
AcDbEntity
  8
AM_6
100
AcDbText
 10
9.6875
 20
-4.12
 30
0.0
 40
0.5
  1
5-7/16C
100
AcDbAttributeDefinition
  3

  2
NB
 70
     8
280
     0
  0
ATTDEF
  5
CB
330
C4
100
AcDbEntity
  8
AM_6
100
AcDbText
 10
9.6875
 20
-4.62
 30
0.0
 40
0.5
  1
$BORE.C
100
AcDbAttributeDefinition
  3

  2
NBSYN
 70
     8
280
     0
  0
ATTDEF
  5
CC
330
C4
100
AcDbEntity
  8
AM_6
100
AcDbText
 10
9.6875
 20
-5.12
 30
0.0
 40
0.5
  1
5-7/16C
100
AcDbAttributeDefinition
  3

  2
LINA
 70
     8
280
     0
  0
ATTDEF
  5
CD
330
C4
100
AcDbEntity
  8
AM_6
100
AcDbText
 10
9.6875
 20
-5.62
 30
0.0
 40
0.5
  1
5-7/16
100
AcDbAttributeDefinition
  3

  2
BORE
 70
     8
280
     0
  0
ATTDEF
  5
CE
330
C4
100
AcDbEntity
  8
AM_6
100
AcDbText
 10
9.6875
 20
-6.12
 30
0.0
 40
0.5
  1
9.37500
100
AcDbAttributeDefinition
  3

  2
L
 70
     8
280
     0
  0
ATTDEF
  5
CF
330
C4
100
AcDbEntity
  8
AM_6
100
AcDbText
 10
9.6875
 20
-6.62
 30
0.0
 40
0.5
  1
9.00
100
AcDbAttributeDefinition
  3

  2
A
 70
     8
280
     0
  0
ATTDEF
  5
D0
330
C4
100
AcDbEntity
  8
AM_6
100
AcDbText
 10
9.6875
 20
-7.12
 30
0.0
 40
0.5
  1
4.42
100
AcDbAttributeDefinition
  3

  2
B
 70
     8
280
     0
  0
ATTDEF
  5
D1
330
C4
100
AcDbEntity
  8
AM_6
100
AcDbText
 10
9.6875
 20
-7.62
 30
0.0
 40
0.5
  1
7.00
100
AcDbAttributeDefinition
  3

  2
C
 70
     8
280
     0
  0
ATTDEF
  5
D2
330
C4
100
AcDbEntity
  8
AM_6
100
AcDbText
 10
9.6875
 20
-8.120000000000001
 30
0.0
 40
0.5
  1
9.84
100
AcDbAttributeDefinition
  3

  2
D
 70
     8
280
     0
  0
ATTDEF
  5
D3
330
C4
100
AcDbEntity
  8
AM_6
100
AcDbText
 10
9.6875
 20
-8.620000000000001
 30
0.0
 40
0.5
  1
0.81
100
AcDbAttributeDefinition
  3

  2
E
 70
     8
280
     0
  0
ATTDEF
  5
D4
330
C4
100
AcDbEntity
  8
AM_6
100
AcDbText
 10
9.6875
 20
-9.120000000000001
 30
0.0
 40
0.5
  1
0.69
100
AcDbAttributeDefinition
  3

  2
F
 70
     8
280
     0
  0
ATTDEF
  5
D5
330
C4
100
AcDbEntity
  8
AM_6
100
AcDbText
 10
9.6875
 20
-9.620000000000001
 30
0.0
 40
0.5
  1
3/4-10
100
AcDbAttributeDefinition
  3

  2
CS
 70
     8
280
     0
  0
ATTDEF
  5
D6
330
C4
100
AcDbEntity
  8
AM_6
100
AcDbText
 10
9.6875
 20
-10.12
 30
0.0
 40
0.5
  1
0.7500
100
AcDbAttributeDefinition
  3

  2
NDM
 70
     8
280
     0
  0
ATTDEF
  5
D7
330
C4
100
AcDbEntity
  8
AM_6
100
AcDbText
 10
9.6875
 20
-10.62
 30
0.0
 40
0.5
  1
0.6420
100
AcDbAttributeDefinition
  3

  2
KDM
 70
     8
280
     0
  0
ATTDEF
  5
D8
330
C4
100
AcDbEntity
  8
AM_6
100
AcDbText
 10
9.6875
 20
-11.12
 30
0.0
 40
0.5
  1
baldor
100
AcDbAttributeDefinition
  3

  2
COMPANY
 70
     8
280
     0
  0
LINE
  5
D9
330
C4
100
AcDbEntity
  8
AM_9
100
AcDbLine
 10
3.239068383772883
 20
-3.526168834525547
 30
0.0
 11
3.233953472309782
 21
-3.519789074070591
 31
0.0
  0
LINE
  5
DA
330
C4
100
AcDbEntity
  8
AM_9
100
AcDbLine
 10
3.234013070688118
 20
-4.100136589671582
 30
0.0
 11
3.239068383772883
 21
-4.093831165474453
 31
0.0
  0
LWPOLYLINE
  5
DB
330
C4
100
AcDbEntity
  8
AM_9
100
AcDbPolyline
 90
       26
 70
     0
 43
0.0
 10
3.233736096259923
 20
-3.519517946101018
 10
3.229870973044177
 20
-3.514908838196892
 10
3.208328766664599
 20
-3.49606566956671
 10
3.18504377932284
 20
-3.486341782805261
 10
3.159873950370992
 20
-3.486176469961316
 10
3.13415258441478
 20
-3.495838690129263
 10
3.10849706335113
 20
-3.515409664271226
 10
3.083993448040618
 20
-3.544285276711896
 10
3.061974573300444
 20
-3.581222870678159
 10
3.042959924312042
 20
-3.62557992513004
 10
3.028457880658
 20
-3.674090740985402
 10
3.018305778706269
 20
-3.726957103032341
 10
3.013291401250594
 20
-3.779677312953814
 10
3.01295546396338
 20
-3.833308969403869
 10
3.017179312145588
 20
-3.884494705957199
 10
3.025587657628192
 20
-3.933608872273613
 10
3.037944378253544
 20
-3.979625293162202
 10
3.053599386584943
 20
-4.021103676506706
 10
3.072756062314672
 20
-4.05838774881577
 10
3.094059253639308
 20
-4.088930433752788
 10
3.117930908853384
 20
-4.112967577266483
 10
3.142534065383964
 20
-4.128390994401588
 10
3.167981012276506
 20
-4.134838894910945
 10
3.192653077966046
 20
-4.131571477852354
 10
3.216177519542676
 20
-4.118282585577379
 10
3.233746908298393
 20
-4.100468570407194
  0
LWPOLYLINE
  5
DC
330
C4
100
AcDbEntity
  8
AM_9
100
AcDbPolyline
 90
       13
 70
     0
 43
0.0
 10
3.233746908298393
 20
-4.100468570407194
 10
3.237652709440531
 20
-4.095372447788156
 10
3.256402802336459
 20
-4.063555821819895
 10
3.27227773513814
 20
-4.023564329254331
 10
3.284550864117338
 20
-3.977991404263549
 10
3.293607366342253
 20
-3.926981854091751
 10
3.299021525843275
 20
-3.874863775027873
 10
3.301277422298662
 20
-3.820746613330301
 10
3.300397842179208
 20
-3.768601038633707
 10
3.296598493801979
 20
-3.717633301069048
 10
3.289963082462732
 20
-3.669597856960695
 10
3.280618862045358
 20
-3.625342786547154
 10
3.261140682513206
 20
-3.56677772095415
  0
LINE
  5
DD
330
C4
100
AcDbEntity
  8
AM_9
100
AcDbLine
 10
3.175838431944477
 20
-4.13085
 30
0.0
 11
4.199241185066262
 21
-4.13085
 31
0.0
  0
LINE
  5
DE
330
C4
100
AcDbEntity
  8
AM_9
100
AcDbLine
 10
4.199241185066262
 20
-3.48915
 30
0.0
 11
3.175838431944477
 21
-3.48915
 31
0.0
  0
ELLIPSE
  5
DF
330
C4
100
AcDbEntity
  8
AM_9
100
AcDbEllipse
 10
4.199241185066258
 20
-3.81
 30
0.0
 11
-5.893918882596417E-17
 21
-0.3208499999999996
 31
0.0
210
0.0
220
0.0
230
1.0
 40
0.4226182617406924
 41
3.488947536214484
 42
5.939193580388065
  0
LINE
  5
E0
330
C4
100
AcDbEntity
  8
AM_9
100
AcDbLine
 10
4.136011233237856
 20
-4.093831165474455
 30
0.0
 11
4.171698745196046
 21
-4.138343720416817
 31
0.0
  0
LINE
  5
E1
330
C4
100
AcDbEntity
  8
AM_9
100
AcDbLine
 10
4.171925701121973
 20
-3.481373200501231
 30
0.0
 11
4.136011233237856
 21
-3.526168834525544
 31
0.0
  0
LWPOLYLINE
  5
E2
330
C4
100
AcDbEntity
  8
AM_9
100
AcDbPolyline
 90
       38
 70
     0
 43
0.0
 10
-0.2390584095663648
 20
-3.577931529046754
 10
-0.2722648395365669
 20
-3.613777899738144
 10
-0.3003372698489068
 20
-3.655143261472422
 10
-0.3232144768128337
 20
-3.704632008292192
 10
-0.3374874309210745
 20
-3.759067290633555
 10
-0.3417202845302927
 20
-3.811006635327392
 10
-0.3368727970572749
 20
-3.864479545932162
 10
-0.32378076968577
 20
-3.913787128642438
 10
-0.3021939616911581
 20
-3.961559657613271
 10
-0.2733570490825801
 20
-4.004844818667788
 10
-0.2370206774005426
 20
-4.043951605169207
 10
-0.1940620605970783
 20
-4.077382881518259
 10
-0.1450258445748162
 20
-4.104202985215875
 10
-0.0912367385534934
 20
-4.123169857375251
 10
-0.0335245775732575
 20
-4.133427724173877
 10
0.0251978338216259
 20
-4.134112690317585
 10
0.0848709828630922
 20
-4.124788709410258
 10
0.1408892847306665
 20
-4.106018916949594
 10
0.1944194601845678
 20
-4.077147691327608
 10
0.2399911823404183
 20
-4.041195958172157
 10
0.2797607415361314
 20
-3.99644985812533
 10
0.308837163667397
 20
-3.94894262335532
 10
0.3296965847548285
 20
-3.895342961651431
 10
0.339899826886698
 20
-3.843469029524379
 10
0.341003049206371
 20
-3.788960670871929
 10
0.3333032866201283
 20
-3.73840374554561
 10
0.3168583385354283
 20
-3.688450342865935
 10
0.2929523339706839
 20
-3.642853728261711
 10
0.2611908257049833
 20
-3.600612279713955
 10
0.2225426903665983
 20
-3.563518075413227
 10
0.1772930081778244
 20
-3.532271689206009
 10
0.1264774257096365
 20
-3.508139826089074
 10
0.0709494518719552
 20
-3.492101954824923
 10
0.013034913073409
 20
-3.485237211267195
 10
-0.0468643835958457
 20
-3.488079549359513
 10
-0.1046279420823026
 20
-3.500650399380759
 10
-0.1610303292242245
 20
-3.52343918154538
 10
-0.2390584095663649
 20
-3.577931529046753
  0
LINE
  5
E3
330
C4
100
AcDbEntity
  8
AM_9
100
AcDbLine
 10
3.238965312250856
 20
-3.526444255754542
 30
0.0
 11
3.233736096259923
 21
-3.519517946101018
 31
0.0
  0
LWPOLYLINE
  5
E4
330
C4
100
AcDbEntity
  8
AM_9
100
AcDbPolyline
 90
        3
 70
     0
 43
0.0
 10
3.261140682513206
 20
-3.56677772095415
 10
3.246425974641352
 20
-3.537871982745246
 10
3.238965312250856
 20
-3.526444255754542
  0
LINE
  5
E5
330
C4
100
AcDbEntity
  8
AM_9
100
AcDbLine
 10
3.5
 20
-4.5
 30
0.0
 11
3.5
 21
-3.12
 31
0.0
  0
LINE
  5
E6
330
C4
100
AcDbEntity
  8
AM_9
100
AcDbLine
 10
-3.5
 20
-3.12
 30
0.0
 11
-3.5
 21
-4.5
 31
0.0
  0
LINE
  5
E7
330
C4
100
AcDbEntity
  8
AM_9
100
AcDbLine
 10
-4.6875
 20
-3.12
 30
0.0
 11
4.6875
 21
-3.12
 31
0.0
  0
LINE
  5
E8
330
C4
100
AcDbEntity
  8
AM_9
100
AcDbLine
 10
4.6875
 20
-3.125
 30
0.0
 11
4.6875
 21
-3.12
 31
0.0
  0
LINE
  5
E9
330
C4
100
AcDbEntity
  8
AM_9
100
AcDbLine
 10
-4.6875
 20
-3.12
 30
0.0
 11
-4.6875
 21
-3.125
 31
0.0
  0
ARC
  5
EA
330
C4
100
AcDbEntity
  8
AM_5
100
AcDbCircle
 10
0.0
 20
-3.81
 30
0.0
 40
0.3749999999999996
100
AcDbArc
 50
75.0
 51
14.99999999999997
  0
ELLIPSE
  5
EB
330
C4
100
AcDbEntity
  8
AM_9
100
AcDbEllipse
 10
3.175838431944476
 20
-3.81
 30
0.0
 11
-5.893918882596409E-17
 21
-0.3208499999999992
 31
0.0
210
0.0
220
0.0
230
1.0
 40
0.4226182617406985
 41
0.0
 42
6.283185307179586
  0
LINE
  5
EC
330
C4
100
AcDbEntity
  8
AM_7
100
AcDbLine
 10
-0.3368925
 20
-3.81
 30
0.0
 11
0.3368925
 21
-3.81
 31
0.0
  0
ELLIPSE
  5
ED
330
C4
100
AcDbEntity
  8
AM_4
100
AcDbEllipse
 10
4.199241185066262
 20
-3.81
 30
0.0
 11
-5.893918882596425E-17
 21
-0.3208500000000001
 31
0.0
210
0.0
220
0.0
230
1.0
 40
0.4226182617407001
 41
5.939193580388046
 42
9.772132843394086
  0
LWPOLYLINE
  5
EE
330
C4
100
AcDbEntity
  8
AM_4
100
AcDbPolyline
 90
       15
 70
     0
 43
0.0
 10
4.172123858664186
 20
-4.138873955635195
 10
4.161916420455939
 20
-4.1250973584031
 10
4.140257478642904
 20
-4.087946264152849
 10
4.121324742361636
 20
-4.043778882244824
 10
4.105261730362362
 20
-3.991875328265235
 10
4.093283424619256
 20
-3.935244445929166
 10
4.085671352711573
 20
-3.873295355276451
 10
4.083099548124928
 20
-3.809629509255027
 10
4.085834656103367
 20
-3.744742855880652
 10
4.093800916774788
 20
-3.68169591043631
 10
4.106800965208222
 20
-3.622307999371157
 10
4.124285643685218
 20
-3.568355422311681
 10
4.145238959760349
 20
-3.522454181345395
 10
4.169141348637481
 20
-3.484933884895722
 10
4.172127056497614
 20
-3.481122054740599
  0
LWPOLYLINE
  5
EF
330
C4
100
AcDbEntity
  8
AM_4
100
AcDbPolyline
 90
        8
 70
     0
 43
0.0
 10
4.172127056497614
 20
-3.481122054740599
 10
4.194216338831273
 20
-3.458055164999213
 10
4.220366225203001
 20
-3.441165826200962
 10
4.245747864111761
 20
-3.435093307392248
 10
4.27053660721101
 20
-3.439101272764024
 10
4.293616287944477
 20
-3.452870969926161
 10
4.314893000638401
 20
-3.475776357329774
 10
4.34186186179426
 20
-3.52436160235912
  0
LWPOLYLINE
  5
F0
330
C4
100
AcDbEntity
  8
AM_4
100
AcDbPolyline
 90
       19
 70
     0
 43
0.0
 10
4.34186186179426
 20
-3.52436160235912
 10
4.356140584240749
 20
-3.563591703195929
 10
4.367905695337052
 20
-3.60799697447788
 10
4.378116692844626
 20
-3.66381080326645
 10
4.384843617336027
 20
-3.723487633364932
 10
4.388046784467718
 20
-3.787236012622238
 10
4.387503718876043
 20
-3.851610023333614
 10
4.38309277762135
 20
-3.915679263300804
 10
4.374861036785206
 20
-3.976739055043881
 10
4.362901434812483
 20
-4.032627636287169
 10
4.347342184238536
 20
-4.082037453776945
 10
4.328851114075398
 20
-4.122317849968188
 10
4.307445175470649
 20
-4.153536165127857
 10
4.284470506258816
 20
-4.173816501838767
 10
4.259768210082733
 20
-4.183928076510659
 10
4.234840398787391
 20
-4.183515738170173
 10
4.209648678004815
 20
-4.173240539777243
 10
4.185160080472643
 20
-4.15352096050479
 10
4.172123858664186
 20
-4.138873955635195
  0
LINE
  5
F1
330
C4
100
AcDbEntity
  8
AM_4
100
AcDbLine
 10
4.6875
 20
-4.27
 30
0.0
 11
4.6875
 21
-3.125
 31
0.0
  0
LINE
  5
F2
330
C4
100
AcDbEntity
  8
AM_4
100
AcDbLine
 10
-4.6875
 20
-3.125
 30
0.0
 11
-4.6875
 21
-4.27
 31
0.0
  0
LWPOLYLINE
  5
F3
330
C4
100
AcDbEntity
  8
AM_4
100
AcDbPolyline
 90
       38
 70
     0
 43
0.0
 10
-0.2597794813463822
 20
-3.549637682805729
 10
-0.2202375445653236
 20
-3.512906223467175
 10
-0.1746177858635453
 20
-3.481817035996845
 10
-0.1198731529713579
 20
-3.456293874143045
 10
-0.0597096778396922
 20
-3.440169406639054
 10
-0.0014773427631152
 20
-3.435003142873065
 10
0.058530537374914
 20
-3.43996590272004
 10
0.1142874073050877
 20
-3.454303154400311
 10
0.168383429537737
 20
-3.478319125481348
 10
0.217094653455037
 20
-3.510420661036034
 10
0.2611094835263664
 20
-3.551076620998421
 10
0.2981882708260638
 20
-3.598627388362114
 10
0.3278656943407344
 20
-3.652994692230529
 10
0.348503419809064
 20
-3.711975343804502
 10
0.3595174343331589
 20
-3.775252600877684
 10
0.3599725234604463
 20
-3.839234332385655
 10
0.3494800274298943
 20
-3.90420398154445
 10
0.3287206215167134
 20
-3.965066752489545
 10
0.296996005291736
 20
-4.023174689897526
 10
0.2575424521185
 20
-4.072748467139023
 10
0.2086153830691056
 20
-4.116011171618435
 10
0.1562812062190888
 20
-4.14801409283817
 10
0.0973623855870074
 20
-4.171092996271995
 10
0.0394711624971018
 20
-4.182749802047156
 10
-0.0213654550901186
 20
-4.184342090735613
 10
-0.0784392801061381
 20
-4.176033411041014
 10
-0.1348991439382342
 20
-4.157814413883361
 10
-0.1863282835414878
 20
-4.131157188173533
 10
-0.2339891814927265
 20
-4.095526540553968
 10
-0.2752937325121443
 20
-4.052560621742673
 10
-0.3100190028516532
 20
-4.002148851509542
 10
-0.336379454622856
 20
-3.946220907689507
 10
-0.3537484182070931
 20
-3.885102638550086
 10
-0.3608912349438326
 20
-3.821883110229334
 10
-0.3573819407606621
 20
-3.756552322117057
 10
-0.3432725687607869
 20
-3.693776957569774
 10
-0.3180449833183899
 20
-3.63255274198268
 10
-0.2597794813832827
 20
-3.549637682782766
  0
CIRCLE
  5
F4
330
C4
100
AcDbEntity
  8
AM_4
100
AcDbCircle
 10
0.0
 20
-3.81
 30
0.0
 40
0.32085
  0
LINE
  5
F5
330
C4
100
AcDbEntity
  8
AM_4
100
AcDbLine
 10
-4.4575
 20
-4.5
 30
0.0
 11
4.457499999983631
 21
-4.5
 31
0.0
  0
LINE
  5
F6
330
C4
100
AcDbEntity
  8
AM_4
100
AcDbLine
 10
-4.6875
 20
-4.27
 30
0.0
 11
4.6875
 21
-4.27
 31
0.0
  0
ARC
  5
F7
330
C4
100
AcDbEntity
  8
AM_4
100
AcDbCircle
 10
4.457500000000003
 20
-4.270000000000002
 30
0.0
 40
0.2299999999999969
100
AcDbArc
 50
270.0
 51
0.0
  0
ARC
  5
F8
330
C4
100
AcDbEntity
  8
AM_4
100
AcDbCircle
 10
-4.457500000000003
 20
-4.270000000000002
 30
0.0
 40
0.2299999999999969
100
AcDbArc
 50
180.0
 51
270.0
  0
CIRCLE
  5
F9
330
C4
100
AcDbEntity
  8
AM_5
100
AcDbCircle
 10
-0.0000000000000002
 20
-3.81
 30
0.0
 40
0.3749999999999999
  0
ENDBLK
  5
C7
330
C4
100
AcDbEntity
  8
0
100
AcDbBlockEnd
  0
BLOCK
  5
FC
330
FA
100
AcDbEntity
  8
0
100
AcDbBlockBegin
  2
4_5_7_16I_0_in_023040_4
 70
     2
 10
0.0
 20
0.0
 30
0.0
  3
4_5_7_16I_0_in_023040_4
  1

  0
ATTDEF
  5
FE
330
FA
100
AcDbEntity
  8
AM_6
100
AcDbText
 10
9.92
 20
4.95
 30
0.0
 40
0.5
  1
E-Type Insert -Inch
100
AcDbAttributeDefinition
  3

  2
NN
 70
     8
280
     0
  0
ATTDEF
  5
FF
330
FA
100
AcDbEntity
  8
AM_6
100
AcDbText
 10
9.92
 20
4.45
 30
0.0
 40
0.5
  1
E-Type Bearings
100
AcDbAttributeDefinition
  3

  2
NT
 70
     8
280
     0
  0
ATTDEF
  5
100
330
FA
100
AcDbEntity
  8
AM_6
100
AcDbText
 10
9.92
 20
3.95
 30
0.0
 40
0.5
  1
5-7/16I
100
AcDbAttributeDefinition
  3

  2
NB
 70
     8
280
     0
  0
ATTDEF
  5
101
330
FA
100
AcDbEntity
  8
AM_6
100
AcDbText
 10
9.92
 20
3.45
 30
0.0
 40
0.5
  1
$BORE.I
100
AcDbAttributeDefinition
  3

  2
NBSYN
 70
     8
280
     0
  0
ATTDEF
  5
102
330
FA
100
AcDbEntity
  8
AM_6
100
AcDbText
 10
9.92
 20
2.95
 30
0.0
 40
0.5
  1
5-7/16I
100
AcDbAttributeDefinition
  3

  2
LINA
 70
     8
280
     0
  0
ATTDEF
  5
103
330
FA
100
AcDbEntity
  8
AM_6
100
AcDbText
 10
9.92
 20
2.45
 30
0.0
 40
0.5
  1
5-7/16
100
AcDbAttributeDefinition
  3

  2
BORE
 70
     8
280
     0
  0
ATTDEF
  5
104
330
FA
100
AcDbEntity
  8
AM_6
100
AcDbText
 10
9.92
 20
1.95
 30
0.0
 40
0.5
  1
9.00
100
AcDbAttributeDefinition
  3

  2
A
 70
     8
280
     0
  0
ATTDEF
  5
105
330
FA
100
AcDbEntity
  8
AM_6
100
AcDbText
 10
9.92
 20
1.45
 30
0.0
 40
0.5
  1
4.42
100
AcDbAttributeDefinition
  3

  2
B
 70
     8
280
     0
  0
ATTDEF
  5
106
330
FA
100
AcDbEntity
  8
AM_6
100
AcDbText
 10
9.92
 20
0.9500000000000002
 30
0.0
 40
0.5
  1
7.00
100
AcDbAttributeDefinition
  3

  2
C
 70
     8
280
     0
  0
ATTDEF
  5
107
330
FA
100
AcDbEntity
  8
AM_6
100
AcDbText
 10
9.92
 20
0.4500000000000002
 30
0.0
 40
0.5
  1
9.84
100
AcDbAttributeDefinition
  3

  2
D
 70
     8
280
     0
  0
ATTDEF
  5
108
330
FA
100
AcDbEntity
  8
AM_6
100
AcDbText
 10
9.92
 20
-0.0499999999999998
 30
0.0
 40
0.5
  1
0.81
100
AcDbAttributeDefinition
  3

  2
E
 70
     8
280
     0
  0
ATTDEF
  5
109
330
FA
100
AcDbEntity
  8
AM_6
100
AcDbText
 10
9.92
 20
-0.5499999999999998
 30
0.0
 40
0.5
  1
0.69
100
AcDbAttributeDefinition
  3

  2
F
 70
     8
280
     0
  0
ATTDEF
  5
10A
330
FA
100
AcDbEntity
  8
AM_6
100
AcDbText
 10
9.92
 20
-1.05
 30
0.0
 40
0.5
  1
baldor
100
AcDbAttributeDefinition
  3

  2
COMPANY
 70
     8
280
     0
  0
LINE
  5
10B
330
FA
100
AcDbEntity
  8
AM_9
100
AcDbLine
 10
3.171938784219899
 20
-3.405
 30
0.0
 11
2.463995768987201
 21
-3.405
 31
0.0
  0
LINE
  5
10C
330
FA
100
AcDbEntity
  8
AM_9
100
AcDbLine
 10
2.463843164499372
 20
-4.215
 30
0.0
 11
3.172076422705179
 21
-4.215
 31
0.0
  0
LWPOLYLINE
  5
10D
330
FA
100
AcDbEntity
  8
AM_9
100
AcDbPolyline
 90
       21
 70
     0
 43
0.0
 10
2.464009849064536
 20
-4.214999998557358
 10
2.482599823935825
 20
-4.212520881193988
 10
2.508518750953086
 20
-4.199757970620703
 10
2.532544209814517
 20
-4.175670308467998
 10
2.553000924475249
 20
-4.1421337055732
 10
2.570718883006203
 20
-4.098281257106046
 10
2.584730245968719
 20
-4.047198411760856
 10
2.595641927031538
 20
-3.987778876780719
 10
2.602879613650517
 20
-3.924947577571218
 10
2.606911713124234
 20
-3.856887186164003
 10
2.60755149539216
 20
-3.790058588213136
 10
2.6048991134757
 20
-3.721866092956021
 10
2.599115387540771
 20
-3.65836649759929
 10
2.58981651738855
 20
-3.597381983553587
 10
2.577369530473915
 20
-3.543545012076583
 10
2.561103209525374
 20
-3.495774838157514
 10
2.541814653011025
 20
-3.457736979779955
 10
2.518684857516761
 20
-3.428772681068524
 10
2.493474625076999
 20
-3.411399838088986
 10
2.465163236836167
 20
-3.405008985666165
 10
2.464031117843793
 20
-3.405000000321682
  0
LWPOLYLINE
  5
10E
330
FA
100
AcDbEntity
  8
AM_9
100
AcDbPolyline
 90
       10
 70
     0
 43
0.0
 10
2.464031117843793
 20
-3.405000000321682
 10
2.43638393941667
 20
-3.410056361344747
 10
2.406092927208844
 20
-3.426556899226424
 10
2.377012869179799
 20
-3.453090727845768
 10
2.348561225066312
 20
-3.490395901377715
 10
2.323182515286352
 20
-3.535850349122599
 10
2.300811455184888
 20
-3.590458592581818
 10
2.283604057061022
 20
-3.65000683095254
 10
2.27153510795536
 20
-3.715993255117473
 10
2.265371280880814
 20
-3.81
  0
LWPOLYLINE
  5
10F
330
FA
100
AcDbEntity
  8
AM_9
100
AcDbPolyline
 90
       20
 70
     0
 43
0.0
 10
3.172061857862106
 20
-3.40500000163858
 10
3.191076629194924
 20
-3.407574530370224
 10
3.217806558209297
 20
-3.420856685919622
 10
3.242219548643245
 20
-3.444953294289766
 10
3.263827936999748
 20
-3.4794104746613
 10
3.282279572939474
 20
-3.523076802320453
 10
3.297385671361079
 20
-3.575180352516381
 10
3.30894640380363
 20
-3.633928104446068
 10
3.316857438175373
 20
-3.697773786582526
 10
3.321127211678525
 20
-3.764824288031526
 10
3.321716927525937
 20
-3.832790715516276
 10
3.318697162722772
 20
-3.900111654530522
 10
3.312061341095144
 20
-3.964667153042737
 10
3.301861868154476
 20
-4.024893330275078
 10
3.288034646400712
 20
-4.079277530315812
 10
3.27076249482973
 20
-4.126116075725764
 10
3.250072024984271
 20
-4.164151119083312
 10
3.22639187535036
 20
-4.192181214241248
 10
3.200181627568662
 20
-4.209219473280568
 10
3.172076969538832
 20
-4.214999999999439
  0
LWPOLYLINE
  5
110
330
FA
100
AcDbEntity
  8
AM_9
100
AcDbPolyline
 90
       11
 70
     0
 43
0.0
 10
3.172076969538832
 20
-4.214999999999439
 10
3.172037539274414
 20
-4.214999989097896
 10
3.142854100807572
 20
-4.209256181018032
 10
3.11337490819046
 20
-4.192384168213229
 10
3.08457132060283
 20
-4.164730334501765
 10
3.057450697160443
 20
-4.127222911812291
 10
3.032929174619107
 20
-4.080495159515984
 10
3.012109777000418
 20
-4.026156818571475
 10
2.99589136136719
 20
-3.965445035299481
 10
2.984979811440742
 20
-3.900299408638496
 10
2.979608556249472
 20
-3.81
  0
LINE
  5
111
330
FA
100
AcDbEntity
  8
AM_9
100
AcDbLine
 10
3.1719387842199
 20
4.215
 30
0.0
 11
2.463995768987201
 21
4.215
 31
0.0
  0
LINE
  5
112
330
FA
100
AcDbEntity
  8
AM_9
100
AcDbLine
 10
2.463843164499372
 20
3.405
 30
0.0
 11
3.17207642270518
 21
3.405
 31
0.0
  0
LWPOLYLINE
  5
113
330
FA
100
AcDbEntity
  8
AM_9
100
AcDbPolyline
 90
       21
 70
     0
 43
0.0
 10
2.464009849064536
 20
3.405000001442642
 10
2.482599823935825
 20
3.407479118806013
 10
2.508518750953086
 20
3.420242029379297
 10
2.532544209814517
 20
3.444329691532002
 10
2.553000924475249
 20
3.4778662944268
 10
2.570718883006203
 20
3.521718742893954
 10
2.584730245968719
 20
3.572801588239143
 10
2.595641927031538
 20
3.632221123219281
 10
2.602879613650517
 20
3.695052422428782
 10
2.606911713124234
 20
3.763112813835997
 10
2.60755149539216
 20
3.829941411786864
 10
2.6048991134757
 20
3.89813390704398
 10
2.599115387540771
 20
3.961633502400711
 10
2.58981651738855
 20
4.022618016446413
 10
2.577369530473915
 20
4.076454987923417
 10
2.561103209525374
 20
4.124225161842486
 10
2.541814653011025
 20
4.162263020220045
 10
2.518684857516761
 20
4.191227318931476
 10
2.493474625076999
 20
4.208600161911014
 10
2.465163236836167
 20
4.214991014333835
 10
2.464031117843793
 20
4.214999999678318
  0
LWPOLYLINE
  5
114
330
FA
100
AcDbEntity
  8
AM_9
100
AcDbPolyline
 90
       10
 70
     0
 43
0.0
 10
2.464031117843793
 20
4.214999999678318
 10
2.43638393941667
 20
4.209943638655254
 10
2.406092927208844
 20
4.193443100773576
 10
2.377012869179799
 20
4.166909272154232
 10
2.348561225066312
 20
4.129604098622285
 10
2.323182515286352
 20
4.084149650877402
 10
2.300811455184888
 20
4.029541407418182
 10
2.283604057061022
 20
3.969993169047461
 10
2.27153510795536
 20
3.904006744882527
 10
2.265371280880814
 20
3.81
  0
LWPOLYLINE
  5
115
330
FA
100
AcDbEntity
  8
AM_9
100
AcDbPolyline
 90
       20
 70
     0
 43
0.0
 10
3.172061857862107
 20
4.21499999836142
 10
3.191076629194924
 20
4.212425469629776
 10
3.217806558209299
 20
4.199143314080378
 10
3.242219548643245
 20
4.175046705710234
 10
3.263827936999748
 20
4.1405895253387
 10
3.282279572939475
 20
4.096923197679547
 10
3.297385671361079
 20
4.04481964748362
 10
3.308946403803631
 20
3.986071895553932
 10
3.316857438175374
 20
3.922226213417474
 10
3.321127211678526
 20
3.855175711968474
 10
3.321716927525938
 20
3.787209284483724
 10
3.318697162722772
 20
3.719888345469477
 10
3.312061341095146
 20
3.655332846957262
 10
3.301861868154478
 20
3.595106669724922
 10
3.288034646400713
 20
3.540722469684188
 10
3.270762494829731
 20
3.493883924274237
 10
3.250072024984271
 20
3.455848880916689
 10
3.226391875350361
 20
3.427818785758753
 10
3.200181627568663
 20
3.410780526719432
 10
3.172076969538833
 20
3.405000000000562
  0
LWPOLYLINE
  5
116
330
FA
100
AcDbEntity
  8
AM_9
100
AcDbPolyline
 90
       11
 70
     0
 43
0.0
 10
3.172076969538833
 20
3.405000000000562
 10
3.172037539274414
 20
3.405000010902104
 10
3.142854100807574
 20
3.410743818981968
 10
3.113374908190461
 20
3.427615831786772
 10
3.084571320602831
 20
3.455269665498236
 10
3.057450697160444
 20
3.492777088187709
 10
3.032929174619108
 20
3.539504840484016
 10
3.012109777000419
 20
3.593843181428526
 10
2.995891361367191
 20
3.654554964700519
 10
2.984979811440744
 20
3.719700591361504
 10
2.979608556249472
 20
3.81
  0
LWPOLYLINE
  5
117
330
FA
100
AcDbEntity
  8
AM_9
100
AcDbPolyline
 90
       11
 70
     0
 43
0.0
 10
2.265371280880814
 20
3.81
 10
2.26844949548155
 20
3.74339395252227
 10
2.277884255264829
 20
3.676787905044539
 10
2.292683102348213
 20
3.615791226031746
 10
2.312966520760936
 20
3.558606424722829
 10
2.336887066013918
 20
3.509618990313364
 10
2.364616039747961
 20
3.46783466632584
 10
2.393626672590801
 20
3.436611264017625
 10
2.424323719754863
 20
3.415285556765289
 10
2.45365524027305
 20
3.405729798062167
 10
2.464009849064536
 20
3.405000001442642
  0
LWPOLYLINE
  5
118
330
FA
100
AcDbEntity
  8
AM_9
100
AcDbPolyline
 90
       11
 70
     0
 43
0.0
 10
2.265371280880814
 20
-3.81
 10
2.26844949548155
 20
-3.87660604747773
 10
2.277884255264829
 20
-3.943212094955461
 10
2.292683102348213
 20
-4.004208773968254
 10
2.312966520760936
 20
-4.061393575277171
 10
2.336887066013918
 20
-4.110381009686636
 10
2.364616039747961
 20
-4.15216533367416
 10
2.393626672590801
 20
-4.183388735982375
 10
2.424323719754863
 20
-4.204714443234711
 10
2.45365524027305
 20
-4.214270201937833
 10
2.464009849064536
 20
-4.214999998557358
  0
LINE
  5
119
330
FA
100
AcDbEntity
  8
AM_9
100
AcDbLine
 10
2.71875
 20
-4.5
 30
0.0
 11
2.71875
 21
4.5
 31
0.0
  0
LINE
  5
11A
330
FA
100
AcDbEntity
  8
AM_9
100
AcDbLine
 10
-2.71875
 20
4.5
 30
0.0
 11
-2.71875
 21
-4.5
 31
0.0
  0
LWPOLYLINE
  5
11B
330
FA
100
AcDbEntity
  8
AM_9
100
AcDbPolyline
 90
       38
 70
     0
 43
0.0
 10
-0.405
 20
-3.81
 10
-0.3994574277016458
 20
-3.743226027121456
 10
-0.3823479386423601
 20
-3.676452054242912
 10
-0.3551263639404938
 20
-3.615294412934801
 10
-0.3170245866195553
 20
-3.557967439645787
 10
-0.2710054101111498
 20
-3.509033111969959
 10
-0.215881964469557
 20
-3.467334014794633
 10
-0.1560755747728182
 20
-3.436281636844891
 10
-0.0899831941932801
 20
-3.415122772544713
 10
-0.0235028301397627
 20
-3.40568252947044
 10
0.045593216526737
 20
-3.407574530370224
 10
0.11115244281459
 20
-3.420551499609577
 10
0.1754021170057699
 20
-3.444953294289766
 10
0.2331251695677425
 20
-3.478823830395345
 10
0.2858322561107187
 20
-3.523076802320453
 10
0.3293916040467439
 20
-3.574360081515221
 10
0.3647241253276853
 20
-3.633928104446067
 10
0.3888608319792951
 20
-3.696808775285491
 10
0.402472551918937
 20
-3.764824288031525
 10
0.4044121171447442
 20
-3.831813745815556
 10
0.3948479323964758
 20
-3.900111654530522
 10
0.3746636113043245
 20
-3.963792647302796
 10
0.3432868430384224
 20
-4.024893330275077
 10
0.3031317292221957
 20
-4.078581746845837
 10
0.2531711410641891
 20
-4.126116075725763
 10
0.1972710350794489
 20
-4.163707702373984
 10
0.1340243242142503
 20
-4.192181214241247
 10
0.0689179912847683
 20
-4.209093110034829
 10
-0.0000939718278231
 20
-4.214999989097896
 10
-0.0667704284517963
 20
-4.209458020177795
 10
-0.1334441752189933
 20
-4.192384168213229
 10
-0.1945214400271596
 20
-4.165227264395289
 10
-0.2517828910417293
 20
-4.127222911812291
 10
-0.3007516902003901
 20
-4.081244208862804
 10
-0.3424926711406514
 20
-4.026156818571475
 10
-0.3735931190467321
 20
-3.966375130378633
 10
-0.3948050364414539
 20
-3.900299408638497
 10
-0.405
 20
-3.81
  0
LWPOLYLINE
  5
11C
330
FA
100
AcDbEntity
  8
AM_9
100
AcDbPolyline
 90
       11
 70
     0
 43
0.0
 10
2.979608556249472
 20
-3.81
 10
2.982642785732025
 20
-3.742268349645285
 10
2.991505640284774
 20
-3.676452054242912
 10
3.005882227700574
 20
-3.614468020863638
 10
3.025057490094325
 20
-3.557967439645787
 10
3.048388814600721
 20
-3.508413232780841
 10
3.074801773279356
 20
-3.467334014794632
 10
3.103385434814739
 20
-3.435939150596955
 10
3.133000204265102
 20
-3.415122772544713
 10
3.162487859654904
 20
-3.405667960086059
 10
3.172061857862106
 20
-3.40500000163858
  0
LINE
  5
11D
330
FA
100
AcDbEntity
  8
AM_9
100
AcDbLine
 10
3.5
 20
-4.5
 30
0.0
 11
3.5
 21
-2.21
 31
0.0
  0
LINE
  5
11E
330
FA
100
AcDbEntity
  8
AM_9
100
AcDbLine
 10
-3.5
 20
-2.21
 30
0.0
 11
-3.5
 21
-4.5
 31
0.0
  0
LWPOLYLINE
  5
11F
330
FA
100
AcDbEntity
  8
AM_9
100
AcDbPolyline
 90
       38
 70
     0
 43
0.0
 10
-0.405
 20
3.81
 10
-0.3994574277016458
 20
3.876773972878544
 10
-0.3823479386423601
 20
3.943547945757088
 10
-0.3551263639404938
 20
4.0047055870652
 10
-0.3170245866195553
 20
4.062032560354213
 10
-0.2710054101111498
 20
4.110966888030042
 10
-0.215881964469557
 20
4.152665985205367
 10
-0.1560755747728181
 20
4.183718363155109
 10
-0.0899831941932801
 20
4.204877227455287
 10
-0.0235028301397626
 20
4.21431747052956
 10
0.045593216526737
 20
4.212425469629776
 10
0.11115244281459
 20
4.199448500390423
 10
0.1754021170057699
 20
4.175046705710234
 10
0.2331251695677425
 20
4.141176169604655
 10
0.2858322561107187
 20
4.096923197679548
 10
0.3293916040467439
 20
4.045639918484778
 10
0.3647241253276853
 20
3.986071895553933
 10
0.3888608319792951
 20
3.923191224714509
 10
0.402472551918937
 20
3.855175711968475
 10
0.4044121171447442
 20
3.788186254184444
 10
0.3948479323964758
 20
3.719888345469478
 10
0.3746636113043243
 20
3.656207352697204
 10
0.3432868430384224
 20
3.595106669724922
 10
0.3031317292221954
 20
3.541418253154162
 10
0.253171141064189
 20
3.493883924274237
 10
0.1972710350794489
 20
3.456292297626016
 10
0.1340243242142504
 20
3.427818785758753
 10
0.0689179912847684
 20
3.41090688996517
 10
-0.0000939718278232
 20
3.405000010902104
 10
-0.0667704284517963
 20
3.410541979822205
 10
-0.1334441752189933
 20
3.427615831786772
 10
-0.1945214400271596
 20
3.454772735604711
 10
-0.2517828910417293
 20
3.492777088187709
 10
-0.3007516902003901
 20
3.538755791137196
 10
-0.3424926711406514
 20
3.593843181428525
 10
-0.3735931190467321
 20
3.653624869621368
 10
-0.3948050364414539
 20
3.719700591361503
 10
-0.405
 20
3.81
  0
LWPOLYLINE
  5
120
330
FA
100
AcDbEntity
  8
AM_9
100
AcDbPolyline
 90
       11
 70
     0
 43
0.0
 10
2.979608556249472
 20
3.81
 10
2.982642785732026
 20
3.877731650354715
 10
2.991505640284775
 20
3.943547945757089
 10
3.005882227700576
 20
4.005531979136362
 10
3.025057490094327
 20
4.062032560354213
 10
3.048388814600723
 20
4.111586767219158
 10
3.074801773279357
 20
4.152665985205368
 10
3.10338543481474
 20
4.184060849403045
 10
3.133000204265103
 20
4.204877227455287
 10
3.162487859654905
 20
4.214332039913941
 10
3.172061857862107
 20
4.21499999836142
  0
LINE
  5
121
330
FA
100
AcDbEntity
  8
AM_9
100
AcDbLine
 10
3.500000000000001
 20
2.21
 30
0.0
 11
3.500000000000001
 21
4.5
 31
0.0
  0
LINE
  5
122
330
FA
100
AcDbEntity
  8
AM_9
100
AcDbLine
 10
-3.500000000000001
 20
4.5
 30
0.0
 11
-3.500000000000001
 21
2.21
 31
0.0
  0
LINE
  5
123
330
FA
100
AcDbEntity
  8
AM_9
100
AcDbLine
 10
-4.92
 20
-2.21
 30
0.0
 11
4.92
 21
-2.21
 31
0.0
  0
LINE
  5
124
330
FA
100
AcDbEntity
  8
AM_9
100
AcDbLine
 10
-4.92
 20
2.21
 30
0.0
 11
4.92
 21
2.21
 31
0.0
  0
LINE
  5
125
330
FA
100
AcDbEntity
  8
AM_9
100
AcDbLine
 10
4.92
 20
-2.21
 30
0.0
 11
4.92
 21
2.21
 31
0.0
  0
LINE
  5
126
330
FA
100
AcDbEntity
  8
AM_9
100
AcDbLine
 10
-4.92
 20
2.21
 30
0.0
 11
-4.92
 21
-2.21
 31
0.0
  0
LINE
  5
127
330
FA
100
AcDbEntity
  8
AM_7
100
AcDbLine
 10
0.0
 20
-4.95
 30
0.0
 11
0.0
 21
4.95
 31
0.0
  0
ENDBLK
  5
FD
330
FA
100
AcDbEntity
  8
0
100
AcDbBlockEnd
  0
BLOCK
  5
12A
330
128
100
AcDbEntity
  8
0
100
AcDbBlockBegin
  2
5_405015E_Inch_0_in_023040_4
 70
     2
 10
0.0
 20
0.0
 30
0.0
  3
5_405015E_Inch_0_in_023040_4
  1

  0
ATTDEF
  5
12C
330
128
100
AcDbEntity
  8
AM_6
100
AcDbText
 10
10.0521827763721
 20
0.2187500000000002
 30
0.0
 40
0.5
  1
405015E -Inch
100
AcDbAttributeDefinition
  3

  2
NN
 70
     8
280
     0
  0
ATTDEF
  5
12D
330
128
100
AcDbEntity
  8
AM_6
100
AcDbText
 10
10.0521827763721
 20
-0.2812499999999998
 30
0.0
 40
0.5
  1
Grease Fitting
100
AcDbAttributeDefinition
  3

  2
NT
 70
     8
280
     0
  0
ATTDEF
  5
12E
330
128
100
AcDbEntity
  8
AM_6
100
AcDbText
 10
10.0521827763721
 20
-0.7812499999999998
 30
0.0
 40
0.5
  1
405015E-Inch
100
AcDbAttributeDefinition
  3

  2
NB
 70
     8
280
     0
  0
ATTDEF
  5
12F
330
128
100
AcDbEntity
  8
AM_6
100
AcDbText
 10
10.0521827763721
 20
-1.28125
 30
0.0
 40
0.5
  1
$MN.-Inch
100
AcDbAttributeDefinition
  3

  2
NBSYN
 70
     8
280
     0
  0
ATTDEF
  5
130
330
128
100
AcDbEntity
  8
AM_6
100
AcDbText
 10
10.0521827763721
 20
-1.78125
 30
0.0
 40
0.5
  1
405015E
100
AcDbAttributeDefinition
  3

  2
LINA
 70
     8
280
     0
  0
ATTDEF
  5
131
330
128
100
AcDbEntity
  8
AM_6
100
AcDbText
 10
10.0521827763721
 20
-2.28125
 30
0.0
 40
0.5
  1
405015E
100
AcDbAttributeDefinition
  3

  2
MN
 70
     8
280
     0
  0
ATTDEF
  5
132
330
128
100
AcDbEntity
  8
AM_6
100
AcDbText
 10
10.0521827763721
 20
-2.78125
 30
0.0
 40
0.5
  1
1/8 x 27PTF
100
AcDbAttributeDefinition
  3

  2
T
 70
     8
280
     0
  0
ATTDEF
  5
133
330
128
100
AcDbEntity
  8
AM_6
100
AcDbText
 10
10.0521827763721
 20
-3.28125
 30
0.0
 40
0.5
  1
baldor
100
AcDbAttributeDefinition
  3

  2
COMPANY
 70
     8
280
     0
  0
LWPOLYLINE
  5
134
330
128
100
AcDbEntity
  8
AM_9
100
AcDbPolyline
 90
        3
 70
     0
 43
0.0
 10
4.899433881004687
 20
0.0000000000000003
 10
4.872503752410824
 20
-0.0544416102741493
 10
4.84836996300064
 20
-0.1093749999999997
  0
LWPOLYLINE
  5
135
330
128
100
AcDbEntity
  8
AM_9
100
AcDbPolyline
 90
        3
 70
     0
 43
0.0
 10
4.84836996300064
 20
0.1093750000000003
 10
4.872388417168442
 20
0.0546875000000003
 10
4.899433881004687
 20
0.0000000000000003
  0
ELLIPSE
  5
136
330
128
100
AcDbEntity
  8
AM_9
100
AcDbEllipse
 10
4.52703019567775
 20
0.0000000000000003
 30
0.0
 11
9.913691727296317E-18
 21
0.161902872472269
 31
0.0
210
0.0
220
0.0
230
1.0
 40
0.7071067811865478
 41
0.0
 42
6.283185307179586
  0
LINE
  5
137
330
128
100
AcDbEntity
  8
AM_9
100
AcDbLine
 10
4.953971045440195
 20
-0.0110521052217383
 30
0.0
 11
4.957321036654219
 21
0.0000000000000003
 31
0.0
  0
LINE
  5
138
330
128
100
AcDbEntity
  8
AM_9
100
AcDbLine
 10
4.919080641119296
 20
-0.1093749999999997
 30
0.0
 11
4.933594422803413
 21
-0.0718512757016737
 31
0.0
  0
LINE
  5
139
330
128
100
AcDbEntity
  8
AM_9
100
AcDbLine
 10
4.932111317734446
 20
0.0758820520366739
 30
0.0
 11
4.919080641119296
 21
0.1093750000000002
 31
0.0
  0
LINE
  5
13A
330
128
100
AcDbEntity
  8
AM_9
100
AcDbLine
 10
4.957321036654219
 20
0.0000000000000003
 30
0.0
 11
4.953079658709377
 21
0.0139402317461122
 31
0.0
  0
LWPOLYLINE
  5
13B
330
128
100
AcDbEntity
  8
AM_9
100
AcDbPolyline
 90
        3
 70
     0
 43
0.0
 10
4.810129567465717
 20
0.2187500000000002
 10
4.827650827520897
 20
0.1643083897258507
 10
4.84836996300064
 20
0.1093750000000003
  0
LINE
  5
13C
330
128
100
AcDbEntity
  8
AM_9
100
AcDbLine
 10
4.957321036654219
 20
0.0000000000000003
 30
0.0
 11
4.899433881004687
 21
0.0000000000000003
 31
0.0
  0
LWPOLYLINE
  5
13D
330
128
100
AcDbEntity
  8
AM_9
100
AcDbPolyline
 90
        3
 70
     0
 43
0.0
 10
4.84836996300064
 20
-0.1093749999999997
 10
4.827736260398957
 20
-0.1640624999999997
 10
4.810129567465717
 20
-0.2187499999999997
  0
LINE
  5
13E
330
128
100
AcDbEntity
  8
AM_9
100
AcDbLine
 10
4.919080641119296
 20
0.1093750000000002
 30
0.0
 11
4.909803251107687
 21
0.1314151105203121
 31
0.0
  0
LINE
  5
13F
330
128
100
AcDbEntity
  8
AM_9
100
AcDbLine
 10
4.909963314408484
 20
-0.1310457238828993
 30
0.0
 11
4.919080641119296
 21
-0.1093749999999997
 31
0.0
  0
LINE
  5
140
330
128
100
AcDbEntity
  8
AM_9
100
AcDbLine
 10
4.548602357126177
 20
-0.1985206121313386
 30
0.0
 11
4.709866747926836
 21
-0.2056513978434623
 31
0.0
  0
LINE
  5
141
330
128
100
AcDbEntity
  8
AM_9
100
AcDbLine
 10
4.709866747926835
 20
0.2056513978434628
 30
0.0
 11
4.548602357126177
 21
0.1985206121313391
 31
0.0
  0
ELLIPSE
  5
142
330
128
100
AcDbEntity
  8
AM_9
100
AcDbEllipse
 10
4.785124170810812
 20
-0.0000000000000302
 30
0.0
 11
-4.018372309703165E-17
 21
-0.2187500000000497
 31
0.0
210
0.0
220
0.0
230
1.0
 40
0.7071067811865469
 41
0.9156936017151356
 42
2.225899051874877
  0
LINE
  5
143
330
128
100
AcDbEntity
  8
AM_9
100
AcDbLine
 10
4.891190187988822
 20
0.0948683298050517
 30
0.0
 11
4.872576321559757
 21
0.1073548910028992
 31
0.0
  0
LINE
  5
144
330
128
100
AcDbEntity
  8
AM_9
100
AcDbLine
 10
4.872576321559757
 20
-0.1073548910028987
 30
0.0
 11
4.891190187988822
 21
-0.0948683298050511
 31
0.0
  0
ELLIPSE
  5
145
330
128
100
AcDbEntity
  8
AM_9
100
AcDbEllipse
 10
4.859370382835427
 20
0.0000000000000018
 30
0.0
 11
-1.928818708657132E-17
 21
-0.1050000000000027
 31
0.0
210
0.0
220
0.0
230
1.0
 40
0.7071067811865395
 41
0.0
 42
3.141592653589793
  0
ELLIPSE
  5
146
330
128
100
AcDbEntity
  8
AM_9
100
AcDbEllipse
 10
4.78512417081081
 20
-0.0000000000000289
 30
0.0
 11
-3.926523799767157E-17
 21
-0.213750000000052
 31
0.0
210
0.0
220
0.0
230
1.0
 40
0.7071067811865459
 41
0.9036552188406315
 42
2.237937434749375
  0
LINE
  5
147
330
128
100
AcDbEntity
  8
AM_9
100
AcDbLine
 10
4.860689373717966
 20
-0.1049999999999997
 30
0.0
 11
4.880583586271024
 21
-0.1049999999999997
 31
0.0
  0
LINE
  5
148
330
128
100
AcDbEntity
  8
AM_9
100
AcDbLine
 10
4.880583586271024
 20
0.1050000000000003
 30
0.0
 11
4.860689373717966
 21
0.1050000000000003
 31
0.0
  0
ELLIPSE
  5
149
330
128
100
AcDbEntity
  8
AM_9
100
AcDbEllipse
 10
4.880583586271025
 20
0.0000000000000014
 30
0.0
 11
-1.928818708657100E-17
 21
-0.105000000000001
 31
0.0
210
0.0
220
0.0
230
1.0
 40
0.7071067811865343
 41
5.759586531581276
 42
9.948376736367695
  0
ELLIPSE
  5
14A
330
128
100
AcDbEntity
  8
AM_9
100
AcDbEllipse
 10
4.836568396459767
 20
0.000000000000015
 30
0.0
 11
-2.182689656891315E-17
 21
-0.1188200907347865
 31
0.0
210
0.0
220
0.0
230
1.0
 40
0.7071067811876688
 41
0.3762206261009391
 42
2.765372027488765
  0
LINE
  5
14B
330
128
100
AcDbEntity
  8
AM_9
100
AcDbLine
 10
4.9194741097795
 20
0.0192743186691528
 30
0.0
 11
4.918461269588509
 21
0.0279874918769164
 31
0.0
  0
LINE
  5
14C
330
128
100
AcDbEntity
  8
AM_9
100
AcDbLine
 10
4.918461269588509
 20
-0.0279874918769158
 30
0.0
 11
4.9194741097795
 21
-0.0192743186691522
 31
0.0
  0
ELLIPSE
  5
14D
330
128
100
AcDbEntity
  8
AM_9
100
AcDbEllipse
 10
4.798077093218209
 20
0.0000000000000036
 30
0.0
 11
-3.169399141454601E-17
 21
-0.1725340532830233
 31
0.0
210
0.0
220
0.0
230
1.0
 40
0.7071067811865664
 41
0.7772913431419246
 42
2.364301310447845
  0
ELLIPSE
  5
14E
330
128
100
AcDbEntity
  8
AM_9
100
AcDbEllipse
 10
4.923009993142217
 20
0.0000000000000013
 30
0.0
 11
-2.479909768273358E-17
 21
-0.1349999999999983
 31
0.0
210
0.0
220
0.0
230
1.0
 40
0.7071067811865539
 41
0.4159140521025444
 42
2.725678601487242
  0
ELLIPSE
  5
14F
330
128
100
AcDbEntity
  8
AM_9
100
AcDbEllipse
 10
4.714413492692185
 20
-0.0000000000000002
 30
0.0
 11
-3.779601035290906E-17
 21
-0.2057518972230694
 31
0.0
210
0.0
220
0.0
230
1.0
 40
0.7071067811865491
 41
0.0
 42
6.283185307179586
  0
ELLIPSE
  5
150
330
128
100
AcDbEntity
  8
AM_9
100
AcDbEllipse
 10
4.552991447419206
 20
0.0000000000000005
 30
0.0
 11
-3.648546613377875E-17
 21
-0.1986176267812148
 31
0.0
210
0.0
220
0.0
230
1.0
 40
0.7071067811865409
 41
0.0
 42
6.283185307179586
  0
ELLIPSE
  5
151
330
128
100
AcDbEntity
  8
AM_9
100
AcDbEllipse
 10
4.714413492692182
 20
0.0000000000000003
 30
0.0
 11
-4.018372309702158E-17
 21
-0.2187499999999948
 31
0.0
210
0.0
220
0.0
230
1.0
 40
0.7071067811865496
 41
0.0
 42
6.283185307179586
  0
LWPOLYLINE
  5
152
330
128
100
AcDbEntity
  8
AM_4
100
AcDbPolyline
 90
        3
 70
     0
 43
0.0
 10
4.909803251107687
 20
0.1314151105203121
 10
4.895062186951494
 20
0.1640625000000002
 10
4.868016723115248
 20
0.2187500000000002
  0
LWPOLYLINE
  5
153
330
128
100
AcDbEntity
  8
AM_4
100
AcDbPolyline
 90
        3
 70
     0
 43
0.0
 10
4.868016723115248
 20
-0.2187499999999997
 10
4.894946851709111
 20
-0.1643083897258501
 10
4.909963314408484
 20
-0.1310457238828993
  0
ELLIPSE
  5
154
330
128
100
AcDbEntity
  8
AM_4
100
AcDbEllipse
 10
4.785124170810842
 20
0.0000000000000046
 30
0.0
 11
-4.018372309702171E-17
 21
-0.2187499999999956
 31
0.0
210
0.0
220
0.0
230
1.0
 40
0.7071067811865472
 41
2.225899051874867
 42
7.198878908894484
  0
ELLIPSE
  5
155
330
128
100
AcDbEntity
  8
AM_4
100
AcDbEllipse
 10
4.836568396459822
 20
0.0000000000000003
 30
0.0
 11
-2.182689656893357E-17
 21
-0.1188200907348977
 31
0.0
210
0.0
220
0.0
230
1.0
 40
0.7071067811865438
 41
2.765372027488874
 42
6.659405933280505
  0
ELLIPSE
  5
156
330
128
100
AcDbEntity
  8
AM_4
100
AcDbEllipse
 10
4.785124170810841
 20
0.0000000000000004
 30
0.0
 11
-3.926523799766201E-17
 21
-0.21375
 31
0.0
210
0.0
220
0.0
230
1.0
 40
0.7071067811865476
 41
2.237937434749394
 42
7.186840526019981
  0
LINE
  5
157
330
128
100
AcDbEntity
  8
AM_4
100
AcDbLine
 10
4.859370382835428
 20
-0.1049999999999997
 30
0.0
 11
4.860689373717966
 21
-0.1049999999999997
 31
0.0
  0
LINE
  5
158
330
128
100
AcDbEntity
  8
AM_4
100
AcDbLine
 10
4.860689373717966
 20
0.1050000000000003
 30
0.0
 11
4.859370382835428
 21
0.1050000000000003
 31
0.0
  0
ELLIPSE
  5
159
330
128
100
AcDbEntity
  8
AM_4
100
AcDbEllipse
 10
4.859370382835428
 20
0.0000000000000003
 30
0.0
 11
-1.928818708657087E-17
 21
-0.1050000000000003
 31
0.0
210
0.0
220
0.0
230
1.0
 40
0.7071067811865476
 41
3.141592653589793
 42
6.283185307179586
  0
ELLIPSE
  5
15A
330
128
100
AcDbEntity
  8
AM_4
100
AcDbEllipse
 10
4.798077093218219
 20
0.0000000000000003
 30
0.0
 11
-3.169399141454455E-17
 21
-0.1725340532830154
 31
0.0
210
0.0
220
0.0
230
1.0
 40
0.7071067811865475
 41
2.364301310447899
 42
7.060476650321482
  0
LINE
  5
15B
330
128
100
AcDbEntity
  8
AM_4
100
AcDbLine
 10
4.868016723115248
 20
-0.2187499999999997
 30
0.0
 11
4.631520940387777
 21
-0.2187499999999997
 31
0.0
  0
LWPOLYLINE
  5
15C
330
128
100
AcDbEntity
  8
AM_4
100
AcDbPolyline
 90
        3
 70
     0
 43
0.0
 10
4.651167700502385
 20
-0.1093749999999997
 10
4.671801403104068
 20
-0.1640624999999997
 10
4.689408096037309
 20
-0.2187499999999997
  0
LWPOLYLINE
  5
15D
330
128
100
AcDbEntity
  8
AM_4
100
AcDbPolyline
 90
        3
 70
     0
 43
0.0
 10
4.600103782498339
 20
0.0000000000000003
 10
4.627033911092201
 20
-0.0544416102741493
 10
4.651167700502385
 20
-0.1093749999999997
  0
LWPOLYLINE
  5
15E
330
128
100
AcDbEntity
  8
AM_4
100
AcDbPolyline
 90
        3
 70
     0
 43
0.0
 10
4.58045702238373
 20
-0.1093749999999997
 10
4.559823319782048
 20
-0.0546874999999997
 10
4.542216626848806
 20
0.0000000000000003
  0
LWPOLYLINE
  5
15F
330
128
100
AcDbEntity
  8
AM_4
100
AcDbPolyline
 90
        3
 70
     0
 43
0.0
 10
4.631520940387777
 20
-0.2187499999999997
 10
4.604590811793914
 20
-0.1643083897258501
 10
4.58045702238373
 20
-0.1093749999999997
  0
LINE
  5
160
330
128
100
AcDbEntity
  8
AM_4
100
AcDbLine
 10
4.600103782498339
 20
0.0000000000000003
 30
0.0
 11
4.542216626848806
 21
0.0000000000000003
 31
0.0
  0
LWPOLYLINE
  5
161
330
128
100
AcDbEntity
  8
AM_4
100
AcDbPolyline
 90
        3
 70
     0
 43
0.0
 10
4.651167700502385
 20
0.1093750000000002
 10
4.627149246334583
 20
0.0546875000000002
 10
4.600103782498339
 20
0.0000000000000003
  0
LWPOLYLINE
  5
162
330
128
100
AcDbEntity
  8
AM_4
100
AcDbPolyline
 90
        3
 70
     0
 43
0.0
 10
4.689408096037309
 20
0.2187500000000002
 10
4.671886835982129
 20
0.1643083897258506
 10
4.651167700502385
 20
0.1093750000000002
  0
LINE
  5
163
330
128
100
AcDbEntity
  8
AM_4
100
AcDbLine
 10
4.868016723115248
 20
0.2187500000000002
 30
0.0
 11
4.631520940387777
 21
0.2187500000000002
 31
0.0
  0
LWPOLYLINE
  5
164
330
128
100
AcDbEntity
  8
AM_4
100
AcDbPolyline
 90
        3
 70
     0
 43
0.0
 10
4.58045702238373
 20
0.1093750000000003
 10
4.604475476551532
 20
0.1640625000000002
 10
4.631520940387777
 20
0.2187500000000002
  0
LWPOLYLINE
  5
165
330
128
100
AcDbEntity
  8
AM_4
100
AcDbPolyline
 90
        3
 70
     0
 43
0.0
 10
4.542216626848806
 20
0.0000000000000003
 10
4.559737886903987
 20
0.0544416102741499
 10
4.58045702238373
 20
0.1093750000000003
  0
LINE
  5
166
330
128
100
AcDbEntity
  8
AM_4
100
AcDbLine
 10
4.843460480258731
 20
-0.0909326673973658
 30
0.0
 11
4.875280285412125
 21
-0.1169134295108989
 31
0.0
  0
LINE
  5
167
330
128
100
AcDbEntity
  8
AM_4
100
AcDbLine
 10
4.875280285412125
 20
0.1169134295108995
 30
0.0
 11
4.843460480258731
 21
0.0909326673973664
 31
0.0
  0
ELLIPSE
  5
168
330
128
100
AcDbEntity
  8
AM_4
100
AcDbEllipse
 10
4.923009993142216
 20
0.0000000000000003
 30
0.0
 11
-2.479909768273392E-17
 21
-0.1350000000000001
 31
0.0
210
0.0
220
0.0
230
1.0
 40
0.7071067811865441
 41
2.725678601487231
 42
6.699099359282149
  0
ELLIPSE
  5
169
330
128
100
AcDbEntity
  8
AM_4
100
AcDbEllipse
 10
4.880583586271023
 20
0.0000000000000003
 30
0.0
 11
-1.928818708657075E-17
 21
-0.1049999999999997
 31
0.0
210
0.0
220
0.0
230
1.0
 40
0.7071067811865518
 41
3.66519142918807
 42
5.759586531581307
  0
LINE
  5
16A
330
128
100
AcDbEntity
  8
AM_4
100
AcDbLine
 10
5.008912553000916
 20
0.093924344000929
 30
0.0
 11
4.961578100491026
 21
0.1234908992236338
 31
0.0
  0
LINE
  5
16B
330
128
100
AcDbEntity
  8
AM_4
100
AcDbLine
 10
4.961578100491026
 20
-0.1234908992236332
 30
0.0
 11
5.008912553000916
 21
-0.0939243440009284
 31
0.0
  0
ELLIPSE
  5
16C
330
128
100
AcDbEntity
  8
AM_4
100
AcDbEllipse
 10
4.979578535637141
 20
0.0000000000000016
 30
0.0
 11
-1.886162459184643E-17
 21
-0.1026779019331867
 31
0.0
210
0.0
220
0.0
230
1.0
 40
0.7071067811865477
 41
0.0
 42
6.283185307179586
  0
ENDBLK
  5
12B
330
128
100
AcDbEntity
  8
0
100
AcDbBlockEnd
  0
BLOCK
  5
16F
330
16D
100
AcDbEntity
  8
0
100
AcDbBlockBegin
  2
6_023040H_0_in_023040_4
 70
     2
 10
0.0
 20
0.0
 30
0.0
  3
6_023040H_0_in_023040_4
  1

  0
ATTDEF
  5
171
330
16D
100
AcDbEntity
  8
AM_6
100
AcDbText
 10
16.0
 20
3.125000000000001
 30
0.0
 40
0.5
  1
P4B-E-Housing
100
AcDbAttributeDefinition
  3

  2
NN
 70
     8
280
     0
  0
ATTDEF
  5
172
330
16D
100
AcDbEntity
  8
AM_6
100
AcDbText
 10
16.0
 20
2.625000000000001
 30
0.0
 40
0.5
  1
Type E Pillow Block -Inch (4-Bolt Base)
100
AcDbAttributeDefinition
  3

  2
NT
 70
     8
280
     0
  0
ATTDEF
  5
173
330
16D
100
AcDbEntity
  8
AM_6
100
AcDbText
 10
16.0
 20
2.125000000000001
 30
0.0
 40
0.5
  1
023040H
100
AcDbAttributeDefinition
  3

  2
NB
 70
     8
280
     0
  0
ATTDEF
  5
174
330
16D
100
AcDbEntity
  8
AM_6
100
AcDbText
 10
16.0
 20
1.625000000000001
 30
0.0
 40
0.5
  1
$PN.H
100
AcDbAttributeDefinition
  3

  2
NBSYN
 70
     8
280
     0
  0
ATTDEF
  5
175
330
16D
100
AcDbEntity
  8
AM_6
100
AcDbText
 10
16.0
 20
1.125000000000001
 30
0.0
 40
0.5
  1
023040
100
AcDbAttributeDefinition
  3

  2
LINA
 70
     8
280
     0
  0
ATTDEF
  5
176
330
16D
100
AcDbEntity
  8
AM_6
100
AcDbText
 10
16.0
 20
0.6250000000000009
 30
0.0
 40
0.5
  1
5-7/16
100
AcDbAttributeDefinition
  3

  2
SS
 70
     8
280
     0
  0
ATTDEF
  5
177
330
16D
100
AcDbEntity
  8
AM_6
100
AcDbText
 10
16.0
 20
0.1250000000000009
 30
0.0
 40
0.5
  1
9.84
100
AcDbAttributeDefinition
  3

  2
BORE
 70
     8
280
     0
  0
ATTDEF
  5
178
330
16D
100
AcDbEntity
  8
AM_6
100
AcDbText
 10
16.0
 20
-0.3749999999999991
 30
0.0
 40
0.5
  1
023040
100
AcDbAttributeDefinition
  3

  2
PN
 70
     8
280
     0
  0
ATTDEF
  5
179
330
16D
100
AcDbEntity
  8
AM_6
100
AcDbText
 10
16.0
 20
-0.8749999999999991
 30
0.0
 40
0.5
  1
P4B-E-507R
100
AcDbAttributeDefinition
  3

  2
DESCRIPTION
 70
     8
280
     0
  0
ATTDEF
  5
17A
330
16D
100
AcDbEntity
  8
AM_6
100
AcDbText
 10
16.0
 20
-1.374999999999999
 30
0.0
 40
0.5
  1
9
100
AcDbAttributeDefinition
  3

  2
A
 70
     8
280
     0
  0
ATTDEF
  5
17B
330
16D
100
AcDbEntity
  8
AM_6
100
AcDbText
 10
16.0
 20
-1.874999999999999
 30
0.0
 40
0.5
  1
22
100
AcDbAttributeDefinition
  3

  2
B
 70
     8
280
     0
  0
ATTDEF
  5
17C
330
16D
100
AcDbEntity
  8
AM_6
100
AcDbText
 10
16.0
 20
-2.374999999999999
 30
0.0
 40
0.5
  1
6-1/4
100
AcDbAttributeDefinition
  3

  2
C
 70
     8
280
     0
  0
ATTDEF
  5
17D
330
16D
100
AcDbEntity
  8
AM_6
100
AcDbText
 10
16.0
 20
-2.874999999999999
 30
0.0
 40
0.5
  1
17-3/8
100
AcDbAttributeDefinition
  3

  2
DMIN
 70
     8
280
     0
  0
ATTDEF
  5
17E
330
16D
100
AcDbEntity
  8
AM_6
100
AcDbText
 10
16.0
 20
-3.374999999999999
 30
0.0
 40
0.5
  1
19-1/8
100
AcDbAttributeDefinition
  3

  2
DMAX
 70
     8
280
     0
  0
ATTDEF
  5
17F
330
16D
100
AcDbEntity
  8
AM_6
100
AcDbText
 10
16.0
 20
-3.874999999999999
 30
0.0
 40
0.5
  1
3-3/4
100
AcDbAttributeDefinition
  3

  2
E
 70
     8
280
     0
  0
ATTDEF
  5
180
330
16D
100
AcDbEntity
  8
AM_6
100
AcDbText
 10
16.0
 20
-4.374999999999999
 30
0.0
 40
0.5
  1
3.750000
100
AcDbAttributeDefinition
  3

  2
E1
 70
     8
280
     0
  0
ATTDEF
  5
181
330
16D
100
AcDbEntity
  8
AM_6
100
AcDbText
 10
16.0
 20
-4.874999999999999
 30
0.0
 40
0.5
  1
1
100
AcDbAttributeDefinition
  3

  2
F
 70
     8
280
     0
  0
ATTDEF
  5
182
330
16D
100
AcDbEntity
  8
AM_6
100
AcDbText
 10
16.0
 20
-5.374999999999999
 30
0.0
 40
0.5
  1
1.0000000
100
AcDbAttributeDefinition
  3

  2
F1
 70
     8
280
     0
  0
ATTDEF
  5
183
330
16D
100
AcDbEntity
  8
AM_6
100
AcDbText
 10
16.0
 20
-5.874999999999999
 30
0.0
 40
0.5
  1
2
100
AcDbAttributeDefinition
  3

  2
G
 70
     8
280
     0
  0
ATTDEF
  5
184
330
16D
100
AcDbEntity
  8
AM_6
100
AcDbText
 10
16.0
 20
-6.374999999999999
 30
0.0
 40
0.5
  1
3-1/4
100
AcDbAttributeDefinition
  3

  2
H
 70
     8
280
     0
  0
ATTDEF
  5
185
330
16D
100
AcDbEntity
  8
AM_6
100
AcDbText
 10
16.0
 20
-6.874999999999999
 30
0.0
 40
0.5
  1
13-3/16
100
AcDbAttributeDefinition
  3

  2
J
 70
     8
280
     0
  0
ATTDEF
  5
186
330
16D
100
AcDbEntity
  8
AM_6
100
AcDbText
 10
16.0
 20
-7.374999999999999
 30
0.0
 40
0.5
  1
12-25/32
100
AcDbAttributeDefinition
  3

  2
J1
 70
     8
280
     0
  0
ATTDEF
  5
187
330
16D
100
AcDbEntity
  8
AM_6
100
AcDbText
 10
16.0
 20
-7.874999999999999
 30
0.0
 40
0.5
  1
9-3/8
100
AcDbAttributeDefinition
  3

  2
L
 70
     8
280
     0
  0
ATTDEF
  5
188
330
16D
100
AcDbEntity
  8
AM_6
100
AcDbText
 10
16.0
 20
-8.375
 30
0.0
 40
0.5
  1
6-11/16
100
AcDbAttributeDefinition
  3

  2
M
 70
     8
280
     0
  0
ATTDEF
  5
189
330
16D
100
AcDbEntity
  8
AM_6
100
AcDbText
 10
16.0
 20
-8.875
 30
0.0
 40
0.5
  1
0.810
100
AcDbAttributeDefinition
  3

  2
F2
 70
     8
280
     0
  0
ATTDEF
  5
18A
330
16D
100
AcDbEntity
  8
AM_6
100
AcDbText
 10
16.0
 20
-9.375
 30
0.0
 40
0.5
  1
baldor
100
AcDbAttributeDefinition
  3

  2
COMPANY
 70
     8
280
     0
  0
LINE
  5
18B
330
16D
100
AcDbEntity
  8
AM_9
100
AcDbLine
 10
6.492567234530817
 20
-3.125
 30
0.0
 11
6.492567234530817
 21
3.125
 31
0.0
  0
LINE
  5
18C
330
16D
100
AcDbEntity
  8
AM_9
100
AcDbLine
 10
6.484365200591026
 20
3.125
 30
0.0
 11
6.484365200591026
 21
-3.125
 31
0.0
  0
LINE
  5
18D
330
16D
100
AcDbEntity
  8
AM_9
100
AcDbLine
 10
-6.492567234530815
 20
-3.125
 30
0.0
 11
-6.492567234530815
 21
3.125
 31
0.0
  0
LINE
  5
18E
330
16D
100
AcDbEntity
  8
AM_9
100
AcDbLine
 10
-6.484365200591026
 20
-3.125
 30
0.0
 11
-6.484365200591026
 21
3.125
 31
0.0
  0
LINE
  5
18F
330
16D
100
AcDbEntity
  8
AM_9
100
AcDbLine
 10
4.92
 20
-3.125
 30
0.0
 11
4.92
 21
3.125
 31
0.0
  0
LINE
  5
190
330
16D
100
AcDbEntity
  8
AM_9
100
AcDbLine
 10
-4.92
 20
3.125
 30
0.0
 11
-4.92
 21
-3.125
 31
0.0
  0
LWPOLYLINE
  5
191
330
16D
100
AcDbEntity
  8
AM_9
100
AcDbPolyline
 90
       10
 70
     0
 43
0.0
 10
4.933899290937858
 20
0.0583471082242392
 10
4.927626449669495
 20
0.1133409250951307
 10
4.910662178110773
 20
0.1932317517800355
 10
4.885097344632502
 20
0.2676927100919266
 10
4.851312626100689
 20
0.3346675049291358
 10
4.810225086055354
 20
0.3922327841321901
 10
4.762596170415992
 20
0.4387099850749767
 10
4.70976025557996
 20
0.472808202989536
 10
4.653066122663672
 20
0.4933535823852628
 10
4.596180152234573
 20
0.499999999612163
  0
LWPOLYLINE
  5
192
330
16D
100
AcDbEntity
  8
AM_9
100
AcDbPolyline
 90
       11
 70
     0
 43
0.0
 10
4.596160773794785
 20
-0.4999999977817133
 10
4.636450684956788
 20
-0.4967193446696976
 10
4.693783020299712
 20
-0.4800888459505519
 10
4.747705014238584
 20
-0.4500106495276762
 10
4.796807646946513
 20
-0.4071081592264975
 10
4.83989962369407
 20
-0.3527893638545723
 10
4.875950469274652
 20
-0.2882556144785297
 10
4.904112288985186
 20
-0.2155821227681588
 10
4.923643050418253
 20
-0.1367142984190412
 10
4.934222274674746
 20
-0.0539706326529388
 10
4.934562010648552
 20
-0.0489408356480405
  0
ELLIPSE
  5
193
330
16D
100
AcDbEntity
  8
AM_9
100
AcDbEllipse
 10
4.714413492692183
 20
0.0000000000000003
 30
0.0
 11
-8.266365894244711E-17
 21
-0.4500000000000042
 31
0.0
210
0.0
220
0.0
230
1.0
 40
0.7071067811865475
 41
1.399877398231107
 42
1.741715255358686
  0
LWPOLYLINE
  5
194
330
16D
100
AcDbEntity
  8
AM_9
100
AcDbPolyline
 90
        3
 70
     0
 43
0.0
 10
5.04622185135911
 20
-0.0376548949558433
 10
5.047183269058521
 20
0.0100057917823244
 10
5.045949792391356
 20
0.0423100979836757
  0
ELLIPSE
  5
195
330
16D
100
AcDbEntity
  8
AM_9
100
AcDbEllipse
 10
4.679058153632858
 20
0.0000000000000004
 30
0.0
 11
-9.184850993605155E-17
 21
-0.5000000000000003
 31
0.0
210
0.0
220
0.0
230
1.0
 40
0.7071067811865475
 41
0.030515061221962
 42
3.141592653589793
  0
LINE
  5
196
330
16D
100
AcDbEntity
  8
AM_9
100
AcDbLine
 10
-6.489676068961695
 20
-3.125
 30
0.0
 11
-6.489676068961695
 21
3.125
 31
0.0
  0
LINE
  5
197
330
16D
100
AcDbEntity
  8
AM_9
100
AcDbLine
 10
6.489676068961694
 20
-3.125
 30
0.0
 11
6.489676068961694
 21
3.125
 31
0.0
  0
LINE
  5
198
330
16D
100
AcDbEntity
  8
AM_7
100
AcDbLine
 10
-10.153125
 20
1.875
 30
0.0
 11
-8.096875
 21
1.875
 31
0.0
  0
LINE
  5
199
330
16D
100
AcDbEntity
  8
AM_7
100
AcDbLine
 10
-9.5625
 20
1.284375
 30
0.0
 11
-9.5625
 21
2.465625
 31
0.0
  0
LINE
  5
19A
330
16D
100
AcDbEntity
  8
AM_7
100
AcDbLine
 10
8.096875
 20
-1.875
 30
0.0
 11
10.153125
 21
-1.875
 31
0.0
  0
LINE
  5
19B
330
16D
100
AcDbEntity
  8
AM_7
100
AcDbLine
 10
9.5625
 20
-2.465625
 30
0.0
 11
9.5625
 21
-1.284375
 31
0.0
  0
LINE
  5
19C
330
16D
100
AcDbEntity
  8
AM_7
100
AcDbLine
 10
8.096875
 20
1.875
 30
0.0
 11
10.153125
 21
1.875
 31
0.0
  0
LINE
  5
19D
330
16D
100
AcDbEntity
  8
AM_7
100
AcDbLine
 10
8.6875
 20
1.284374999999999
 30
0.0
 11
8.6875
 21
2.465625
 31
0.0
  0
LINE
  5
19E
330
16D
100
AcDbEntity
  8
AM_7
100
AcDbLine
 10
-10.153125
 20
-1.874999999999999
 30
0.0
 11
-8.096875
 21
-1.874999999999999
 31
0.0
  0
LINE
  5
19F
330
16D
100
AcDbEntity
  8
AM_7
100
AcDbLine
 10
-8.6875
 20
-2.465624999999999
 30
0.0
 11
-8.6875
 21
-1.284374999999999
 31
0.0
  0
LINE
  5
1A0
330
16D
100
AcDbEntity
  8
AM_7
100
AcDbLine
 10
8.6875
 20
-2.465625
 30
0.0
 11
8.6875
 21
-1.284375
 31
0.0
  0
LINE
  5
1A1
330
16D
100
AcDbEntity
  8
AM_7
100
AcDbLine
 10
-8.6875
 20
1.284375
 30
0.0
 11
-8.6875
 21
2.465625
 31
0.0
  0
LINE
  5
1A2
330
16D
100
AcDbEntity
  8
AM_7
100
AcDbLine
 10
-9.5625
 20
-2.465624999999999
 30
0.0
 11
-9.5625
 21
-1.284374999999999
 31
0.0
  0
LINE
  5
1A3
330
16D
100
AcDbEntity
  8
AM_7
100
AcDbLine
 10
9.5625
 20
1.284374999999999
 30
0.0
 11
9.5625
 21
2.465625
 31
0.0
  0
LWPOLYLINE
  5
1A4
330
16D
100
AcDbEntity
  8
AM_4
100
AcDbPolyline
 90
       11
 70
     0
 43
0.0
 10
11.0
 20
2.8125
 10
10.9999995929854
 20
2.813004364904867
 10
10.99713480849737
 20
2.854720082505816
 10
10.98076089479922
 20
2.920457478358123
 10
10.94922270657733
 20
2.983255599796432
 10
10.91560453911844
 20
3.026089496208586
 10
10.87252579909043
 20
3.064336660696862
 10
10.83905454303749
 20
3.085778576840847
 10
10.80145456175321
 20
3.103482143533989
 10
10.75962873887606
 20
3.116527456546756
 10
10.71491586945369
 20
3.123795069190146
  0
LWPOLYLINE
  5
1A5
330
16D
100
AcDbEntity
  8
AM_4
100
AcDbPolyline
 90
       11
 70
     0
 43
0.0
 10
10.71491586945369
 20
-3.123795069190147
 10
10.75962873887606
 20
-3.116527456546757
 10
10.80145456175321
 20
-3.103482143533989
 10
10.83905454303749
 20
-3.085778576840847
 10
10.87252579909043
 20
-3.064336660696862
 10
10.91560453911844
 20
-3.026089496208586
 10
10.94922270657733
 20
-2.983255599796433
 10
10.98076089479922
 20
-2.920457478358125
 10
10.99713480849737
 20
-2.854720082505814
 10
10.9999995929854
 20
-2.813004364904513
 10
11.0
 20
-2.812500000000002
  0
LINE
  5
1A6
330
16D
100
AcDbEntity
  8
AM_4
100
AcDbLine
 10
11.0
 20
-2.812500000000002
 30
0.0
 11
11.0
 21
2.8125
 31
0.0
  0
LWPOLYLINE
  5
1A7
330
16D
100
AcDbEntity
  8
AM_4
100
AcDbPolyline
 90
       11
 70
     0
 43
0.0
 10
-10.7149158470412
 20
3.123795071164021
 10
-10.75890028068327
 20
3.116733873719463
 10
-10.80145453803427
 20
3.103482152822807
 10
-10.8386912904428
 20
3.085991213193846
 10
-10.8725257771618
 20
3.064336676807949
 10
-10.91510491089156
 20
3.026631395498288
 10
-10.94922268800928
 20
2.983255628256285
 10
-10.9804359463951
 20
2.92133373240686
 10
-10.99713480300031
 20
2.85472012282025
 10
-10.9999995929854
 20
2.813004364904759
 10
-11.0
 20
2.812500000000004
  0
LWPOLYLINE
  5
1A8
330
16D
100
AcDbEntity
  8
AM_4
100
AcDbPolyline
 90
       11
 70
     0
 43
0.0
 10
-11.0
 20
-2.812500000000002
 10
-10.9999995929854
 20
-2.813004364905102
 10
-10.99713480300031
 20
-2.854720122820257
 10
-10.98108120091078
 20
-2.919580943551058
 10
-10.94922268800928
 20
-2.983255628256289
 10
-10.91611414107939
 20
-3.025553571898088
 10
-10.8725257771618
 20
-3.064336676807951
 10
-10.83943278680566
 20
-3.085579985157216
 10
-10.80145453803427
 20
-3.10348215282281
 10
-10.76038569224034
 20
-3.116381433895932
 10
-10.7149158470412
 20
-3.123795071164024
  0
LINE
  5
1A9
330
16D
100
AcDbEntity
  8
AM_4
100
AcDbLine
 10
-11.0
 20
-2.812500000000002
 30
0.0
 11
-11.0
 21
2.812500000000001
 31
0.0
  0
LINE
  5
1AA
330
16D
100
AcDbEntity
  8
AM_4
100
AcDbLine
 10
-9.5625
 20
1.3125
 30
0.0
 11
-8.6875
 21
1.3125
 31
0.0
  0
LINE
  5
1AB
330
16D
100
AcDbEntity
  8
AM_4
100
AcDbLine
 10
-8.6875
 20
2.4375
 30
0.0
 11
-9.5625
 21
2.4375
 31
0.0
  0
ARC
  5
1AC
330
16D
100
AcDbEntity
  8
AM_4
100
AcDbCircle
 10
-8.6875
 20
-1.875
 30
0.0
 40
0.5625
100
AcDbArc
 50
270.0
 51
90.0
  0
ARC
  5
1AD
330
16D
100
AcDbEntity
  8
AM_4
100
AcDbCircle
 10
-9.5625
 20
1.875
 30
0.0
 40
0.5624999999999998
100
AcDbArc
 50
90.0
 51
270.0
  0
ARC
  5
1AE
330
16D
100
AcDbEntity
  8
AM_4
100
AcDbCircle
 10
-10.09375000000001
 20
-2.20170454545455
 30
0.0
 40
0.7812499999999929
100
AcDbArc
 50
180.0
 51
270.0
  0
LINE
  5
1AF
330
16D
100
AcDbEntity
  8
AM_4
100
AcDbLine
 10
-10.875
 20
2.201704545454543
 30
0.0
 11
-10.875
 21
-2.201704545454548
 31
0.0
  0
LINE
  5
1B0
330
16D
100
AcDbEntity
  8
AM_4
100
AcDbLine
 10
-9.5625
 20
-2.437499999999999
 30
0.0
 11
-8.6875
 21
-2.4375
 31
0.0
  0
LINE
  5
1B1
330
16D
100
AcDbEntity
  8
AM_4
100
AcDbLine
 10
-7.486156379679496
 20
2.982954545454545
 30
0.0
 11
-10.09375
 21
2.982954545454545
 31
0.0
  0
LINE
  5
1B2
330
16D
100
AcDbEntity
  8
AM_4
100
AcDbLine
 10
-10.09375000000001
 20
-2.982954545454543
 30
0.0
 11
-7.486156379679496
 21
-2.982954545454545
 31
0.0
  0
ARC
  5
1B3
330
16D
100
AcDbEntity
  8
AM_4
100
AcDbCircle
 10
-8.6875
 20
1.875
 30
0.0
 40
0.5624999999999998
100
AcDbArc
 50
270.0
 51
90.0
  0
LINE
  5
1B4
330
16D
100
AcDbEntity
  8
AM_4
100
AcDbLine
 10
-8.6875
 20
-1.312499999999999
 30
0.0
 11
-9.5625
 21
-1.312499999999999
 31
0.0
  0
ARC
  5
1B5
330
16D
100
AcDbEntity
  8
AM_4
100
AcDbCircle
 10
-9.5625
 20
-1.874999999999999
 30
0.0
 40
0.5624999999999998
100
AcDbArc
 50
90.0
 51
270.0
  0
ARC
  5
1B6
330
16D
100
AcDbEntity
  8
AM_4
100
AcDbCircle
 10
-10.09375
 20
2.201704545454542
 30
0.0
 40
0.7812500000000031
100
AcDbArc
 50
90.0
 51
180.0
  0
LINE
  5
1B7
330
16D
100
AcDbEntity
  8
AM_4
100
AcDbLine
 10
10.875
 20
-2.201704545454542
 30
0.0
 11
10.875
 21
2.201704545454545
 31
0.0
  0
ARC
  5
1B8
330
16D
100
AcDbEntity
  8
AM_4
100
AcDbCircle
 10
10.09374999999999
 20
-2.20170454545454
 30
0.0
 40
0.7812500000000058
100
AcDbArc
 50
270.0
 51
0.0
  0
ARC
  5
1B9
330
16D
100
AcDbEntity
  8
AM_4
100
AcDbCircle
 10
8.6875
 20
-1.875
 30
0.0
 40
0.5624999999999998
100
AcDbArc
 50
90.0
 51
270.0
  0
ARC
  5
1BA
330
16D
100
AcDbEntity
  8
AM_4
100
AcDbCircle
 10
10.09375
 20
2.201704545454542
 30
0.0
 40
0.7812500000000018
100
AcDbArc
 50
0.0
 51
90.0
  0
LINE
  5
1BB
330
16D
100
AcDbEntity
  8
AM_4
100
AcDbLine
 10
7.486156379679499
 20
-2.982954545454545
 30
0.0
 11
10.09375
 21
-2.982954545454545
 31
0.0
  0
LINE
  5
1BC
330
16D
100
AcDbEntity
  8
AM_4
100
AcDbLine
 10
8.6875
 20
-1.3125
 30
0.0
 11
9.5625
 21
-1.3125
 31
0.0
  0
ARC
  5
1BD
330
16D
100
AcDbEntity
  8
AM_4
100
AcDbCircle
 10
9.5625
 20
-1.875
 30
0.0
 40
0.5624999999999998
100
AcDbArc
 50
270.0
 51
90.0
  0
LINE
  5
1BE
330
16D
100
AcDbEntity
  8
AM_4
100
AcDbLine
 10
9.5625
 20
-2.4375
 30
0.0
 11
8.6875
 21
-2.4375
 31
0.0
  0
ARC
  5
1BF
330
16D
100
AcDbEntity
  8
AM_4
100
AcDbCircle
 10
8.6875
 20
1.875
 30
0.0
 40
0.5625
100
AcDbArc
 50
90.0
 51
270.0
  0
LINE
  5
1C0
330
16D
100
AcDbEntity
  8
AM_4
100
AcDbLine
 10
9.5625
 20
2.4375
 30
0.0
 11
8.6875
 21
2.4375
 31
0.0
  0
ARC
  5
1C1
330
16D
100
AcDbEntity
  8
AM_4
100
AcDbCircle
 10
9.5625
 20
1.875
 30
0.0
 40
0.5624999999999998
100
AcDbArc
 50
270.0
 51
90.0
  0
LINE
  5
1C2
330
16D
100
AcDbEntity
  8
AM_4
100
AcDbLine
 10
8.6875
 20
1.3125
 30
0.0
 11
9.5625
 21
1.3125
 31
0.0
  0
LINE
  5
1C3
330
16D
100
AcDbEntity
  8
AM_4
100
AcDbLine
 10
10.09375
 20
2.982954545454544
 30
0.0
 11
7.486156379679499
 21
2.982954545454545
 31
0.0
  0
LINE
  5
1C4
330
16D
100
AcDbEntity
  8
AM_4
100
AcDbLine
 10
10.6875
 20
3.125000000000001
 30
0.0
 11
10.7149158694537
 21
3.123795069190147
 31
0.0
  0
LINE
  5
1C5
330
16D
100
AcDbEntity
  8
AM_4
100
AcDbLine
 10
10.7149158694537
 20
-3.123795069190147
 30
0.0
 11
10.6875
 21
-3.125000000000001
 31
0.0
  0
LINE
  5
1C6
330
16D
100
AcDbEntity
  8
AM_4
100
AcDbLine
 10
10.7149158694537
 20
-3.123795069190147
 30
0.0
 11
10.71491586945369
 21
-2.675523630259952
 31
0.0
  0
LINE
  5
1C7
330
16D
100
AcDbEntity
  8
AM_4
100
AcDbLine
 10
7.486156379679499
 20
2.982954545454545
 30
0.0
 11
7.486156379679499
 21
-2.982954545454545
 31
0.0
  0
LINE
  5
1C8
330
16D
100
AcDbEntity
  8
AM_4
100
AcDbLine
 10
10.71491586945369
 20
2.675523630259951
 30
0.0
 11
10.7149158694537
 21
3.123795069190146
 31
0.0
  0
LINE
  5
1C9
330
16D
100
AcDbEntity
  8
AM_4
100
AcDbLine
 10
-10.6875
 20
-3.125000000000002
 30
0.0
 11
10.6875
 21
-3.125000000000001
 31
0.0
  0
LINE
  5
1CA
330
16D
100
AcDbEntity
  8
AM_4
100
AcDbLine
 10
-10.6875
 20
3.125
 30
0.0
 11
10.6875
 21
3.125000000000001
 31
0.0
  0
LINE
  5
1CB
330
16D
100
AcDbEntity
  8
AM_4
100
AcDbLine
 10
-10.71491584704119
 20
3.123795071164021
 30
0.0
 11
-10.6875
 21
3.125
 31
0.0
  0
LINE
  5
1CC
330
16D
100
AcDbEntity
  8
AM_4
100
AcDbLine
 10
-10.7149158470412
 20
2.67552365964222
 30
0.0
 11
-10.71491584704119
 21
3.123795071164021
 31
0.0
  0
LINE
  5
1CD
330
16D
100
AcDbEntity
  8
AM_4
100
AcDbLine
 10
-7.486156379679496
 20
-2.982954545454545
 30
0.0
 11
-7.486156379679496
 21
2.982954545454545
 31
0.0
  0
LINE
  5
1CE
330
16D
100
AcDbEntity
  8
AM_4
100
AcDbLine
 10
-10.71491584704119
 20
-3.123795071164024
 30
0.0
 11
-10.7149158470412
 21
-2.675523659642221
 31
0.0
  0
LINE
  5
1CF
330
16D
100
AcDbEntity
  8
AM_4
100
AcDbLine
 10
-10.6875
 20
-3.125000000000002
 30
0.0
 11
-10.71491584704119
 21
-3.123795071164024
 31
0.0
  0
LINE
  5
1D0
330
16D
100
AcDbEntity
  8
AM_4
100
AcDbLine
 10
4.596106604648011
 20
-0.4999999999999992
 30
0.0
 11
4.679058153632858
 21
-0.4999999999999992
 31
0.0
  0
LINE
  5
1D1
330
16D
100
AcDbEntity
  8
AM_4
100
AcDbLine
 10
4.679058153632858
 20
0.4999999999999997
 30
0.0
 11
4.596180525140153
 21
0.4999999999999997
 31
0.0
  0
ELLIPSE
  5
1D2
330
16D
100
AcDbEntity
  8
AM_4
100
AcDbEllipse
 10
4.679058153632873
 20
-0.0000000000007131
 30
0.0
 11
-9.184850993592034E-17
 21
-0.4999999999992861
 31
0.0
210
0.0
220
0.0
230
1.0
 40
0.7071067811865468
 41
0.0
 42
0.0305150612219623
  0
ELLIPSE
  5
1D3
330
16D
100
AcDbEntity
  8
AM_4
100
AcDbEllipse
 10
4.679058153632822
 20
0.0000000000039949
 30
0.0
 11
-9.184850993531758E-17
 21
-0.4999999999960049
 31
0.0
210
0.0
220
0.0
230
1.0
 40
0.7071067811865472
 41
3.141592653589793
 42
3.159006738507795
  0
LWPOLYLINE
  5
1D4
330
16D
100
AcDbEntity
  8
AM_4
100
AcDbPolyline
 90
       11
 70
     0
 43
0.0
 10
4.596180152234573
 20
0.499999999612163
 10
4.594033967470241
 20
0.4999906721438049
 10
4.534441213363348
 20
0.4923666128789688
 10
4.475870522546618
 20
0.4709338568218391
 10
4.420095236380908
 20
0.4361193689582462
 10
4.368781552965933
 20
0.3890903965216259
 10
4.32350975887684
 20
0.3308511247274287
 10
4.285791921806775
 20
0.2632916349459413
 10
4.256968867351329
 20
0.1881039329901787
 10
4.237935258202535
 20
0.1075858066465007
 10
4.229022304362556
 20
0.0000000000000003
  0
ELLIPSE
  5
1D5
330
16D
100
AcDbEntity
  8
AM_4
100
AcDbEllipse
 10
4.679058153632858
 20
0.0000000000000008
 30
0.0
 11
-9.184850993605145E-17
 21
-0.4999999999999998
 31
0.0
210
0.0
220
0.0
230
1.0
 40
0.7071067811865482
 41
3.159006738507756
 42
6.283185307179586
  0
ELLIPSE
  5
1D6
330
16D
100
AcDbEntity
  8
AM_4
100
AcDbEllipse
 10
4.714413492692185
 20
-0.0000000000000001
 30
0.0
 11
-8.266365894244659E-17
 21
-0.4500000000000014
 31
0.0
210
0.0
220
0.0
230
1.0
 40
0.7071067811865479
 41
1.741715255358687
 42
7.683062705410693
  0
LINE
  5
1D7
330
16D
100
AcDbEntity
  8
AM_4
100
AcDbLine
 10
4.675942257005048
 20
0.4999823472801224
 30
0.0
 11
4.672296719828151
 21
0.4999168707809535
 31
0.0
  0
LWPOLYLINE
  5
1D8
330
16D
100
AcDbEntity
  8
AM_4
100
AcDbPolyline
 90
       15
 70
     0
 43
0.0
 10
5.045949792391356
 20
0.0423100979836757
 10
5.043967735539008
 20
0.0670339366217938
 10
5.036017169553873
 20
0.1232297491060845
 10
5.023409075138032
 20
0.1778835853794122
 10
5.006266807554502
 20
0.2303021135366555
 10
4.984759510595618
 20
0.2798090418347423
 10
4.95910458266903
 20
0.3257465745786351
 10
4.929583110677859
 20
0.3674658709909211
 10
4.896549088059396
 20
0.4043461083816536
 10
4.860443475473797
 20
0.4358116932770861
 10
4.821805110820493
 20
0.461360580758112
 10
4.781258912226082
 20
0.4806067544902209
 10
4.739474305618766
 20
0.4933155002276244
 10
4.69710576617228
 20
0.4994074112823256
 10
4.675942257005048
 20
0.4999823472801224
  0
LWPOLYLINE
  5
1D9
330
16D
100
AcDbEntity
  8
AM_4
100
AcDbPolyline
 90
       15
 70
     0
 43
0.0
 10
4.690923970779014
 20
-0.4997439338907297
 10
4.718526165861357
 20
-0.497159109213455
 10
4.760034757669716
 20
-0.4879214803917294
 10
4.800350659250711
 20
-0.4724399701948812
 10
4.839062115757741
 20
-0.4508872991244789
 10
4.875738740922425
 20
-0.4234698731450005
 10
4.909920975445975
 20
-0.3904710740406798
 10
4.941139348400878
 20
-0.3522824621394907
 10
4.968948995826346
 20
-0.3094067025181053
 10
4.992959764557155
 20
-0.2624361779536171
 10
5.012851164320471
 20
-0.2120233681961093
 10
5.028371957904664
 20
-0.1588633642182185
 10
5.03934049040101
 20
-0.1036625675048355
 10
5.045634247692572
 20
-0.0471332275823501
 10
5.04622185135911
 20
-0.0376548949558433
  0
LWPOLYLINE
  5
1DA
330
16D
100
AcDbEntity
  8
AM_4
100
AcDbPolyline
 90
       11
 70
     0
 43
0.0
 10
4.229022304362556
 20
0.0000000000000003
 10
4.234447196565332
 20
-0.0837952950295833
 10
4.250372813553379
 20
-0.1652252252097492
 10
4.276398266584137
 20
-0.2419240980208235
 10
4.311499657284889
 20
-0.3118190283586702
 10
4.354717053062555
 20
-0.3729413658543486
 10
4.40447992885704
 20
-0.4235653484076863
 10
4.459350319738464
 20
-0.4621413546385231
 10
4.517504899784315
 20
-0.4876716413659399
 10
4.577083176033955
 20
-0.499221589565905
 10
4.596160773794785
 20
-0.4999999977817133
  0
LINE
  5
1DB
330
16D
100
AcDbEntity
  8
AM_4
100
AcDbLine
 10
6.499999999999999
 20
-3.125
 30
0.0
 11
6.499999999999999
 21
3.125
 31
0.0
  0
LINE
  5
1DC
330
16D
100
AcDbEntity
  8
AM_4
100
AcDbLine
 10
-6.499999999999999
 20
3.125
 30
0.0
 11
-6.499999999999999
 21
-3.125
 31
0.0
  0
ENDBLK
  5
170
330
16D
100
AcDbEntity
  8
0
100
AcDbBlockEnd
  0
ENDSEC
  0
SECTION
  2
ENTITIES
  0
INSERT
  5
6F
330
1F
100
AcDbEntity
  8
0
100
AcDbBlockReference
  2
1_023040_4
 10
0.0
 20
0.0
 30
0.0
  0
POINT
  5
1DE
330
1F
100
AcDbEntity
  8
ConnectionPoints
100
AcDbPoint
 10
0.0
 20
-4.5
 30
0.0000000000000004
  0
POINT
  5
1DF
330
1F
100
AcDbEntity
  8
ConnectionPoints
100
AcDbPoint
 10
0.0
 20
-4.5
 30
0.0000000000000003
  0
POINT
  5
1E0
330
1F
100
AcDbEntity
  8
ConnectionPoints
100
AcDbPoint
 10
0.0
 20
4.5
 30
-0.0000000000000003
  0
POINT
  5
1E1
330
1F
100
AcDbEntity
  8
ConnectionPoints
100
AcDbPoint
 10
0.0
 20
0.0
 30
0.0
  0
POINT
  5
1E2
330
1F
100
AcDbEntity
  8
ConnectionPoints
100
AcDbPoint
 10
4.714413492692185
 20
0.0000000000000003
 30
4.714413492692184
  0
POINT
  5
1E3
330
1F
100
AcDbEntity
  8
ConnectionPoints
100
AcDbPoint
 10
4.714413492692185
 20
0.0000000000000003
 30
4.714413492692184
  0
POINT
  5
1E4
330
1F
100
AcDbEntity
  8
ConnectionPoints
100
AcDbPoint
 10
0.0
 20
0.0
 30
0.0
  0
ENDSEC
  0
SECTION
  2
OBJECTS
  0
DICTIONARY
  5
C
330
0
100
AcDbDictionary
281
     1
  3
ACAD_DETAILVIEWSTYLE
350
1EC
  3
ACAD_GROUP
350
D
  3
ACAD_LAYOUT
350
1A
  3
ACAD_MATERIAL
350
43
  3
ACAD_MLEADERSTYLE
350
6B
  3
ACAD_MLINESTYLE
350
17
  3
ACAD_PLOTSETTINGS
350
19
  3
ACAD_PLOTSTYLENAME
350
E
  3
ACAD_SCALELIST
350
47
  3
ACAD_SECTIONVIEWSTYLE
350
1ED
  3
ACAD_TABLESTYLE
350
69
  3
ACAD_VISUALSTYLE
350
2A
  3
ACDB_RECOMPOSE_DATA
350
1E9
  3
AcDbVariableDictionary
350
1E5
  0
SUN
  5
6D
330
29
100
AcDbSun
 90
        1
290
     0
 63
     7
421
 16777215
 40
1.0
291
     1
 91
  2455826
 92
 54000000
292
     0
 70
     2
 71
   256
280
     1
  0
DICTIONARY
  5
1EC
102
{ACAD_REACTORS
330
C
102
}
330
C
100
AcDbDictionary
281
     1
  0
DICTIONARY
  5
D
102
{ACAD_REACTORS
330
C
102
}
330
C
100
AcDbDictionary
281
     1
  0
DICTIONARY
  5
1A
102
{ACAD_REACTORS
330
C
102
}
330
C
100
AcDbDictionary
281
     1
  3
Layout1
350
1E
  3
Layout2
350
26
  3
Model
350
22
  0
DICTIONARY
  5
43
102
{ACAD_REACTORS
330
C
102
}
330
C
100
AcDbDictionary
281
     1
  3
ByBlock
350
45
  3
ByLayer
350
44
  3
Global
350
46
  0
DICTIONARY
  5
6B
102
{ACAD_REACTORS
330
C
102
}
330
C
100
AcDbDictionary
281
     1
  3
Standard
350
6C
  0
DICTIONARY
  5
17
102
{ACAD_REACTORS
330
C
102
}
330
C
100
AcDbDictionary
281
     1
  3
Standard
350
18
  0
DICTIONARY
  5
19
102
{ACAD_REACTORS
330
C
102
}
330
C
100
AcDbDictionary
281
     1
  0
ACDBDICTIONARYWDFLT
  5
E
102
{ACAD_REACTORS
330
C
102
}
330
C
100
AcDbDictionary
281
     1
  3
Normal
350
F
100
AcDbDictionaryWithDefault
340
F
  0
DICTIONARY
  5
47
102
{ACAD_REACTORS
330
C
102
}
330
C
100
AcDbDictionary
281
     1
  3
A0
350
48
  3
A1
350
49
  3
A2
350
4A
  3
A3
350
4B
  3
A4
350
4C
  3
A5
350
4D
  3
A6
350
4E
  3
A7
350
4F
  3
A8
350
50
  3
A9
350
51
  3
B0
350
52
  3
B1
350
53
  3
B2
350
54
  3
B3
350
55
  3
B4
350
56
  3
B5
350
57
  3
B6
350
58
  3
B7
350
59
  3
B8
350
5A
  3
B9
350
5B
  3
C0
350
5C
  3
C1
350
5D
  3
C2
350
5E
  3
C3
350
5F
  3
C4
350
60
  3
C5
350
61
  3
C6
350
62
  3
C7
350
63
  3
C8
350
64
  3
C9
350
65
  3
D0
350
66
  3
D1
350
67
  3
D2
350
68
  0
DICTIONARY
  5
1ED
102
{ACAD_REACTORS
330
C
102
}
330
C
100
AcDbDictionary
281
     1
  0
DICTIONARY
  5
69
102
{ACAD_REACTORS
330
C
102
}
330
C
100
AcDbDictionary
281
     1
  3
Standard
350
6A
  0
DICTIONARY
  5
2A
102
{ACAD_REACTORS
330
C
102
}
330
C
100
AcDbDictionary
281
     1
  3
2dWireframe
350
2F
  3
Basic
350
32
  3
Brighten
350
36
  3
ColorChange
350
3A
  3
Conceptual
350
34
  3
Dim
350
35
  3
EdgeColorOff
350
3D
  3
Facepattern
350
39
  3
Flat
350
2B
  3
FlatWithEdges
350
2C
  3
Gouraud
350
2D
  3
GouraudWithEdges
350
2E
  3
Hidden
350
31
  3
JitterOff
350
3B
  3
Linepattern
350
38
  3
OverhangOff
350
3C
  3
Realistic
350
33
  3
Shaded
350
42
  3
Shaded with edges
350
41
  3
Shades of Gray
350
3E
  3
Sketchy
350
3F
  3
Thicken
350
37
  3
Wireframe
350
30
  3
X-Ray
350
40
  0
XRECORD
  5
1E9
102
{ACAD_REACTORS
330
C
102
}
330
C
100
AcDbXrecord
280
     1
 90
        1
330
6A
  0
DICTIONARY
  5
1E5
102
{ACAD_REACTORS
330
C
102
}
330
C
100
AcDbDictionary
281
     1
  3
CANNOSCALE
350
1E6
  3
CMLEADERSTYLE
350
1EB
  3
CTABLESTYLE
350
1EA
  0
LAYOUT
  5
1E
102
{ACAD_REACTORS
330
1A
102
}
330
1A
100
AcDbPlotSettings
  1

  2
none_device
  4

  6

 40
0.0
 41
0.0
 42
0.0
 43
0.0
 44
0.0
 45
0.0
 46
0.0
 47
0.0
 48
0.0
 49
0.0
140
0.0
141
0.0
142
1.0
143
1.0
 70
   688
 72
     0
 73
     0
 74
     5
  7

 75
    16
 76
     0
 77
     2
 78
   300
147
1.0
148
0.0
149
0.0
100
AcDbLayout
  1
Layout1
 70
     1
 71
     1
 10
0.0
 20
0.0
 11
12.0
 21
9.0
 12
0.0
 22
0.0
 32
0.0
 14
1.000000000000000E+20
 24
1.000000000000000E+20
 34
1.000000000000000E+20
 15
-1.000000000000000E+20
 25
-1.000000000000000E+20
 35
-1.000000000000000E+20
146
0.0
 13
0.0
 23
0.0
 33
0.0
 16
1.0
 26
0.0
 36
0.0
 17
0.0
 27
1.0
 37
0.0
 76
     0
330
1B
  0
LAYOUT
  5
26
102
{ACAD_REACTORS
330
1A
102
}
330
1A
100
AcDbPlotSettings
  1

  2
none_device
  4

  6

 40
0.0
 41
0.0
 42
0.0
 43
0.0
 44
0.0
 45
0.0
 46
0.0
 47
0.0
 48
0.0
 49
0.0
140
0.0
141
0.0
142
1.0
143
1.0
 70
   688
 72
     0
 73
     0
 74
     5
  7

 75
    16
 76
     0
 77
     2
 78
   300
147
1.0
148
0.0
149
0.0
100
AcDbLayout
  1
Layout2
 70
     1
 71
     2
 10
0.0
 20
0.0
 11
0.0
 21
0.0
 12
0.0
 22
0.0
 32
0.0
 14
0.0
 24
0.0
 34
0.0
 15
0.0
 25
0.0
 35
0.0
146
0.0
 13
0.0
 23
0.0
 33
0.0
 16
1.0
 26
0.0
 36
0.0
 17
0.0
 27
1.0
 37
0.0
 76
     0
330
23
  0
LAYOUT
  5
22
102
{ACAD_REACTORS
330
1A
102
}
330
1A
100
AcDbPlotSettings
  1

  2
none_device
  4
Letter_(8.50_x_11.00_Inches)
  6

 40
6.35
 41
6.35
 42
6.35000508
 43
6.35000508
 44
215.9
 45
279.4
 46
0.0
 47
0.0
 48
0.0
 49
0.0
140
0.0
141
0.0
142
1.0
143
1.0
 70
  1712
 72
     0
 73
     0
 74
     0
  7

 75
     0
 76
     0
 77
     2
 78
   300
147
1.0
148
0.0
149
0.0
100
AcDbLayout
  1
Model
 70
     1
 71
     0
 10
0.0
 20
0.0
 11
12.0
 21
9.0
 12
0.0
 22
0.0
 32
0.0
 14
1.000000000000000E+20
 24
1.000000000000000E+20
 34
1.000000000000000E+20
 15
-1.000000000000000E+20
 25
-1.000000000000000E+20
 35
-1.000000000000000E+20
146
0.0
 13
0.0
 23
0.0
 33
0.0
 16
1.0
 26
0.0
 36
0.0
 17
0.0
 27
1.0
 37
0.0
 76
     0
330
1F
331
29
  0
MATERIAL
  5
45
102
{ACAD_REACTORS
330
43
102
}
330
43
100
AcDbMaterial
  1
ByBlock
 72
     1
 94
      127
  0
MATERIAL
  5
44
102
{ACAD_REACTORS
330
43
102
}
330
43
100
AcDbMaterial
  1
ByLayer
 72
     1
 94
      127
  0
MATERIAL
  5
46
102
{ACAD_REACTORS
330
43
102
}
330
43
100
AcDbMaterial
  1
Global
 72
     1
 94
      127
  0
MLEADERSTYLE
  5
6C
102
{ACAD_REACTORS
330
6B
102
}
330
6B
100
AcDbMLeaderStyle
179
     2
170
     2
171
     1
172
     0
 90
        2
 40
0.0
 41
0.0
173
     1
 91
-1056964608
340
14
 92
       -2
290
     1
 42
0.09
291
     1
 43
0.36
  3
Standard
341
0
 44
0.18
300

342
11
174
     1
178
     6
175
     1
176
     0
 93
-1056964608
 45
0.18
292
     0
297
     0
 46
0.18
343
0
 94
-1056964608
 47
1.0
 49
1.0
140
1.0
293
     1
141
0.0
294
     1
177
     0
142
1.0
295
     0
296
     0
143
0.125
271
     0
272
     9
273
     9
298
     0
  0
MLINESTYLE
  5
18
102
{ACAD_REACTORS
330
17
102
}
330
17
100
AcDbMlineStyle
  2
Standard
 70
     0
  3

 62
   256
 51
90.0
 52
90.0
 71
     2
 49
0.5
 62
   256
  6
BYLAYER
 49
-0.5
 62
   256
  6
BYLAYER
  0
ACDBPLACEHOLDER
  5
F
102
{ACAD_REACTORS
330
E
102
}
330
E
  0
SCALE
  5
48
102
{ACAD_REACTORS
330
47
102
}
330
47
100
AcDbScale
 70
     0
300
1:1
140
1.0
141
1.0
290
     1
  0
SCALE
  5
49
102
{ACAD_REACTORS
330
47
102
}
330
47
100
AcDbScale
 70
     0
300
1:2
140
1.0
141
2.0
290
     0
  0
SCALE
  5
4A
102
{ACAD_REACTORS
330
47
102
}
330
47
100
AcDbScale
 70
     0
300
1:4
140
1.0
141
4.0
290
     0
  0
SCALE
  5
4B
102
{ACAD_REACTORS
330
47
102
}
330
47
100
AcDbScale
 70
     0
300
1:5
140
1.0
141
5.0
290
     0
  0
SCALE
  5
4C
102
{ACAD_REACTORS
330
47
102
}
330
47
100
AcDbScale
 70
     0
300
1:8
140
1.0
141
8.0
290
     0
  0
SCALE
  5
4D
102
{ACAD_REACTORS
330
47
102
}
330
47
100
AcDbScale
 70
     0
300
1:10
140
1.0
141
10.0
290
     0
  0
SCALE
  5
4E
102
{ACAD_REACTORS
330
47
102
}
330
47
100
AcDbScale
 70
     0
300
1:16
140
1.0
141
16.0
290
     0
  0
SCALE
  5
4F
102
{ACAD_REACTORS
330
47
102
}
330
47
100
AcDbScale
 70
     0
300
1:20
140
1.0
141
20.0
290
     0
  0
SCALE
  5
50
102
{ACAD_REACTORS
330
47
102
}
330
47
100
AcDbScale
 70
     0
300
1:30
140
1.0
141
30.0
290
     0
  0
SCALE
  5
51
102
{ACAD_REACTORS
330
47
102
}
330
47
100
AcDbScale
 70
     0
300
1:40
140
1.0
141
40.0
290
     0
  0
SCALE
  5
52
102
{ACAD_REACTORS
330
47
102
}
330
47
100
AcDbScale
 70
     0
300
1:50
140
1.0
141
50.0
290
     0
  0
SCALE
  5
53
102
{ACAD_REACTORS
330
47
102
}
330
47
100
AcDbScale
 70
     0
300
1:100
140
1.0
141
100.0
290
     0
  0
SCALE
  5
54
102
{ACAD_REACTORS
330
47
102
}
330
47
100
AcDbScale
 70
     0
300
2:1
140
2.0
141
1.0
290
     0
  0
SCALE
  5
55
102
{ACAD_REACTORS
330
47
102
}
330
47
100
AcDbScale
 70
     0
300
4:1
140
4.0
141
1.0
290
     0
  0
SCALE
  5
56
102
{ACAD_REACTORS
330
47
102
}
330
47
100
AcDbScale
 70
     0
300
8:1
140
8.0
141
1.0
290
     0
  0
SCALE
  5
57
102
{ACAD_REACTORS
330
47
102
}
330
47
100
AcDbScale
 70
     0
300
10:1
140
10.0
141
1.0
290
     0
  0
SCALE
  5
58
102
{ACAD_REACTORS
330
47
102
}
330
47
100
AcDbScale
 70
     0
300
100:1
140
100.0
141
1.0
290
     0
  0
SCALE
  5
59
102
{ACAD_REACTORS
330
47
102
}
330
47
100
AcDbScale
 70
     0
300
1/128" = 1'-0"
140
0.0078125
141
12.0
290
     0
  0
SCALE
  5
5A
102
{ACAD_REACTORS
330
47
102
}
330
47
100
AcDbScale
 70
     0
300
1/64" = 1'-0"
140
0.015625
141
12.0
290
     0
  0
SCALE
  5
5B
102
{ACAD_REACTORS
330
47
102
}
330
47
100
AcDbScale
 70
     0
300
1/32" = 1'-0"
140
0.03125
141
12.0
290
     0
  0
SCALE
  5
5C
102
{ACAD_REACTORS
330
47
102
}
330
47
100
AcDbScale
 70
     0
300
1/16" = 1'-0"
140
0.0625
141
12.0
290
     0
  0
SCALE
  5
5D
102
{ACAD_REACTORS
330
47
102
}
330
47
100
AcDbScale
 70
     0
300
3/32" = 1'-0"
140
0.09375
141
12.0
290
     0
  0
SCALE
  5
5E
102
{ACAD_REACTORS
330
47
102
}
330
47
100
AcDbScale
 70
     0
300
1/8" = 1'-0"
140
0.125
141
12.0
290
     0
  0
SCALE
  5
5F
102
{ACAD_REACTORS
330
47
102
}
330
47
100
AcDbScale
 70
     0
300
3/16" = 1'-0"
140
0.1875
141
12.0
290
     0
  0
SCALE
  5
60
102
{ACAD_REACTORS
330
47
102
}
330
47
100
AcDbScale
 70
     0
300
1/4" = 1'-0"
140
0.25
141
12.0
290
     0
  0
SCALE
  5
61
102
{ACAD_REACTORS
330
47
102
}
330
47
100
AcDbScale
 70
     0
300
3/8" = 1'-0"
140
0.375
141
12.0
290
     0
  0
SCALE
  5
62
102
{ACAD_REACTORS
330
47
102
}
330
47
100
AcDbScale
 70
     0
300
1/2" = 1'-0"
140
0.5
141
12.0
290
     0
  0
SCALE
  5
63
102
{ACAD_REACTORS
330
47
102
}
330
47
100
AcDbScale
 70
     0
300
3/4" = 1'-0"
140
0.75
141
12.0
290
     0
  0
SCALE
  5
64
102
{ACAD_REACTORS
330
47
102
}
330
47
100
AcDbScale
 70
     0
300
1" = 1'-0"
140
1.0
141
12.0
290
     0
  0
SCALE
  5
65
102
{ACAD_REACTORS
330
47
102
}
330
47
100
AcDbScale
 70
     0
300
1-1/2" = 1'-0"
140
1.5
141
12.0
290
     0
  0
SCALE
  5
66
102
{ACAD_REACTORS
330
47
102
}
330
47
100
AcDbScale
 70
     0
300
3" = 1'-0"
140
3.0
141
12.0
290
     0
  0
SCALE
  5
67
102
{ACAD_REACTORS
330
47
102
}
330
47
100
AcDbScale
 70
     0
300
6" = 1'-0"
140
6.0
141
12.0
290
     0
  0
SCALE
  5
68
102
{ACAD_REACTORS
330
47
102
}
330
47
100
AcDbScale
 70
     0
300
1'-0" = 1'-0"
140
12.0
141
12.0
290
     0
  0
TABLESTYLE
  5
6A
102
{ACAD_REACTORS
330
69
102
}
102
{ACAD_XDICTIONARY
360
1E7
102
}
330
69
100
AcDbTableStyle
  3
Standard
 70
     0
 71
     0
 40
0.06
 41
0.06
280
     0
281
     0
  7
Standard
140
0.18
170
     2
 62
     0
 63
   257
283
     0
 90
        4
 91
        0
  1

274
    -2
284
     1
 64
     0
275
    -2
285
     1
 65
     0
276
    -2
286
     1
 66
     0
277
    -2
287
     1
 67
     0
278
    -2
288
     1
 68
     0
279
    -2
289
     1
 69
     0
  7
Standard
140
0.25
170
     5
 62
     0
 63
   257
283
     0
 90
        4
 91
        0
  1

274
    -2
284
     1
 64
     0
275
    -2
285
     1
 65
     0
276
    -2
286
     1
 66
     0
277
    -2
287
     1
 67
     0
278
    -2
288
     1
 68
     0
279
    -2
289
     1
 69
     0
  7
Standard
140
0.18
170
     5
 62
     0
 63
   257
283
     0
 90
        4
 91
        0
  1

274
    -2
284
     1
 64
     0
275
    -2
285
     1
 65
     0
276
    -2
286
     1
 66
     0
277
    -2
287
     1
 67
     0
278
    -2
288
     1
 68
     0
279
    -2
289
     1
 69
     0
  0
VISUALSTYLE
  5
2F
102
{ACAD_REACTORS
330
2A
102
}
330
2A
100
AcDbVisualStyle
  2
2dWireframe
 70
     4
177
     3
291
     0
 70
    58
 90
        0
176
     1
 90
        2
176
     1
 90
        0
176
     1
 90
        0
176
     1
 40
0.6
176
     1
 40
30.0
176
     1
 62
     7
420
 16777215
176
     1
 90
        1
176
     1
 90
        4
176
     1
 62
     7
176
     1
 62
   257
176
     1
 90
        1
176
     1
 90
        1
176
     1
 40
1.0
176
     1
 90
        0
176
     1
 62
   257
176
     1
 40
1.0
176
     1
 90
        1
176
     1
 90
        6
176
     1
 90
        2
176
     1
 62
     7
176
     1
 90
        5
176
     1
 90
        0
176
     1
 90
        0
176
     1
290
     0
176
     1
 90
        1
176
     1
 40
0.0
176
     1
 90
        0
176
     1
290
     1
176
     1
290
     1
176
     1
290
     0
176
     1
290
     0
176
     1
290
     0
176
     1
290
     0
176
     1
290
     0
176
     1
290
     0
176
     1
290
     0
176
     1
 90
       50
176
     1
 40
0.0
176
     1
 40
1.0
176
     1
 90
        0
176
     1
 62
    18
420
        0
176
     1
 90
       50
176
     1
 90
        3
176
     1
 62
     5
420
      255
176
     1
290
     0
176
     1
 90
       50
176
     1
 90
       50
176
     1
 90
       50
176
     1
290
     0
176
     1
 90
       50
176
     1
 62
   256
176
     0
 40
1.0
176
     0
 90
        2
176
     1
  1
strokes_ogs.tif
176
     1
290
     0
176
     1
 40
1.0
176
     1
 40
1.0
176
     1
  0
VISUALSTYLE
  5
32
102
{ACAD_REACTORS
330
2A
102
}
330
2A
100
AcDbVisualStyle
  2
Basic
 70
     7
177
     3
291
     1
 70
    58
 90
        1
176
     1
 90
        0
176
     1
 90
        1
176
     1
 90
        0
176
     1
 40
0.6
176
     1
 40
30.0
176
     1
 62
     7
420
 16777215
176
     1
 90
        0
176
     1
 90
        4
176
     1
 62
     7
176
     1
 62
   257
176
     1
 90
        1
176
     1
 90
        1
176
     1
 40
1.0
176
     1
 90
        8
176
     1
 62
     7
176
     1
 40
1.0
176
     1
 90
        1
176
     1
 90
        6
176
     1
 90
        2
176
     1
 62
     7
176
     1
 90
        5
176
     1
 90
        0
176
     1
 90
        0
176
     1
290
     0
176
     1
 90
        1
176
     1
 40
0.0
176
     1
 90
        0
176
     1
290
     0
176
     1
290
     1
176
     1
290
     1
176
     1
290
     0
176
     1
290
     0
176
     1
290
     0
176
     1
290
     0
176
     1
290
     0
176
     1
290
     0
176
     1
 90
       50
176
     1
 40
0.0
176
     1
 40
1.0
176
     1
 90
        0
176
     1
 62
    18
420
        0
176
     1
 90
       50
176
     1
 90
        3
176
     1
 62
     5
420
      255
176
     1
290
     0
176
     1
 90
       50
176
     1
 90
       50
176
     1
 90
       50
176
     1
290
     0
176
     1
 90
       50
176
     1
 62
   256
176
     0
 40
1.0
176
     0
 90
        2
176
     1
  1
strokes_ogs.tif
176
     1
290
     0
176
     1
 40
1.0
176
     1
 40
1.0
176
     1
  0
VISUALSTYLE
  5
36
102
{ACAD_REACTORS
330
2A
102
}
330
2A
100
AcDbVisualStyle
  2
Brighten
 70
    12
177
     3
291
     1
 70
    58
 90
        2
176
     1
 90
        2
176
     1
 90
        0
176
     1
 90
        0
176
     1
 40
0.6
176
     1
 40
30.0
176
     1
 62
     7
420
 16777215
176
     1
 90
        1
176
     1
 90
        4
176
     1
 62
     7
176
     1
 62
   257
176
     1
 90
        1
176
     1
 90
        1
176
     1
 40
1.0
176
     1
 90
        8
176
     1
 62
     7
176
     1
 40
1.0
176
     1
 90
        1
176
     1
 90
        6
176
     1
 90
        2
176
     1
 62
     7
176
     1
 90
        5
176
     1
 90
        0
176
     1
 90
        0
176
     1
290
     0
176
     1
 90
        1
176
     1
 40
50.0
176
     1
 90
        0
176
     1
290
     0
176
     1
290
     1
176
     1
290
     1
176
     1
290
     0
176
     1
290
     0
176
     1
290
     0
176
     1
290
     0
176
     1
290
     0
176
     1
290
     0
176
     1
 90
       50
176
     1
 40
0.0
176
     1
 40
1.0
176
     1
 90
        0
176
     1
 62
    18
420
        0
176
     1
 90
       50
176
     1
 90
        3
176
     1
 62
     5
420
      255
176
     1
290
     0
176
     1
 90
       50
176
     1
 90
       50
176
     1
 90
       50
176
     1
290
     0
176
     1
 90
       50
176
     1
 62
   256
176
     0
 40
1.0
176
     0
 90
        2
176
     1
  1
strokes_ogs.tif
176
     1
290
     0
176
     1
 40
1.0
176
     1
 40
1.0
176
     1
  0
VISUALSTYLE
  5
3A
102
{ACAD_REACTORS
330
2A
102
}
330
2A
100
AcDbVisualStyle
  2
ColorChange
 70
    16
177
     3
291
     1
 70
    58
 90
        2
176
     1
 90
        2
176
     1
 90
        3
176
     1
 90
        0
176
     1
 40
0.6
176
     1
 40
30.0
176
     1
 62
     8
420
  8421504
176
     1
 90
        1
176
     1
 90
        4
176
     1
 62
     7
176
     1
 62
   257
176
     1
 90
        1
176
     1
 90
        1
176
     1
 40
1.0
176
     1
 90
        8
176
     1
 62
     8
420
  8421504
176
     1
 40
1.0
176
     1
 90
        1
176
     1
 90
        6
176
     1
 90
        2
176
     1
 62
     7
176
     1
 90
        5
176
     1
 90
        0
176
     1
 90
        0
176
     1
290
     0
176
     1
 90
        1
176
     1
 40
0.0
176
     1
 90
        0
176
     1
290
     0
176
     1
290
     1
176
     1
290
     1
176
     1
290
     0
176
     1
290
     0
176
     1
290
     0
176
     1
290
     0
176
     1
290
     0
176
     1
290
     0
176
     1
 90
       50
176
     1
 40
0.0
176
     1
 40
1.0
176
     1
 90
        0
176
     1
 62
    18
420
        0
176
     1
 90
       50
176
     1
 90
        3
176
     1
 62
     5
420
      255
176
     1
290
     0
176
     1
 90
       50
176
     1
 90
       50
176
     1
 90
       50
176
     1
290
     0
176
     1
 90
       50
176
     1
 62
   256
176
     0
 40
1.0
176
     0
 90
        2
176
     1
  1
strokes_ogs.tif
176
     1
290
     0
176
     1
 40
1.0
176
     1
 40
1.0
176
     1
  0
VISUALSTYLE
  5
34
102
{ACAD_REACTORS
330
2A
102
}
330
2A
100
AcDbVisualStyle
  2
Conceptual
 70
     9
177
     3
291
     0
 70
    58
 90
        3
176
     1
 90
        2
176
     1
 90
        0
176
     1
 90
        0
176
     1
 40
0.6
176
     1
 40
30.0
176
     1
 62
     7
420
 16777215
176
     1
 90
        2
176
     1
 90
        2
176
     1
 62
     7
176
     1
 62
   257
176
     1
 90
        1
176
     1
 90
        1
176
     1
 40
179.0
176
     1
 90
        8
176
     1
 62
     7
176
     1
 40
1.0
176
     1
 90
        1
176
     1
 90
        6
176
     1
 90
        2
176
     1
 62
     7
176
     1
 90
        3
176
     1
 90
        0
176
     1
 90
        0
176
     1
290
     0
176
     1
 90
        1
176
     1
 40
0.0
176
     1
 90
        0
176
     1
290
     0
176
     1
290
     1
176
     1
290
     1
176
     1
290
     0
176
     1
290
     0
176
     1
290
     0
176
     1
290
     0
176
     1
290
     0
176
     1
290
     0
176
     1
 90
       50
176
     1
 40
0.0
176
     1
 40
1.0
176
     1
 90
        0
176
     1
 62
    18
420
        0
176
     1
 90
       50
176
     1
 90
        3
176
     1
 62
     5
420
      255
176
     1
290
     0
176
     1
 90
       50
176
     1
 90
       50
176
     1
 90
       50
176
     1
290
     0
176
     1
 90
       50
176
     1
 62
   256
176
     0
 40
1.0
176
     0
 90
        2
176
     1
  1
strokes_ogs.tif
176
     1
290
     0
176
     1
 40
1.0
176
     1
 40
1.0
176
     1
  0
VISUALSTYLE
  5
35
102
{ACAD_REACTORS
330
2A
102
}
330
2A
100
AcDbVisualStyle
  2
Dim
 70
    11
177
     3
291
     1
 70
    58
 90
        2
176
     1
 90
        2
176
     1
 90
        0
176
     1
 90
        0
176
     1
 40
0.6
176
     1
 40
30.0
176
     1
 62
     7
420
 16777215
176
     1
 90
        1
176
     1
 90
        4
176
     1
 62
     7
176
     1
 62
   257
176
     1
 90
        1
176
     1
 90
        1
176
     1
 40
1.0
176
     1
 90
        8
176
     1
 62
     7
176
     1
 40
1.0
176
     1
 90
        1
176
     1
 90
        6
176
     1
 90
        2
176
     1
 62
     7
176
     1
 90
        5
176
     1
 90
        0
176
     1
 90
        0
176
     1
290
     0
176
     1
 90
        1
176
     1
 40
-50.0
176
     1
 90
        0
176
     1
290
     0
176
     1
290
     1
176
     1
290
     1
176
     1
290
     0
176
     1
290
     0
176
     1
290
     0
176
     1
290
     0
176
     1
290
     0
176
     1
290
     0
176
     1
 90
       50
176
     1
 40
0.0
176
     1
 40
1.0
176
     1
 90
        0
176
     1
 62
    18
420
        0
176
     1
 90
       50
176
     1
 90
        3
176
     1
 62
     5
420
      255
176
     1
290
     0
176
     1
 90
       50
176
     1
 90
       50
176
     1
 90
       50
176
     1
290
     0
176
     1
 90
       50
176
     1
 62
   256
176
     0
 40
1.0
176
     0
 90
        2
176
     1
  1
strokes_ogs.tif
176
     1
290
     0
176
     1
 40
1.0
176
     1
 40
1.0
176
     1
  0
VISUALSTYLE
  5
3D
102
{ACAD_REACTORS
330
2A
102
}
330
2A
100
AcDbVisualStyle
  2
EdgeColorOff
 70
    22
177
     3
291
     1
 70
    58
 90
        2
176
     0
 90
        2
176
     0
 90
        0
176
     0
 90
        0
176
     0
 40
0.6
176
     0
 40
30.0
176
     0
 62
     7
420
 16777215
176
     0
 90
        1
176
     0
 90
        4
176
     0
 62
     7
176
     0
 62
   257
176
     0
 90
        1
176
     0
 90
        1
176
     0
 40
1.0
176
     0
 90
        8
176
     2
 62
     7
176
     0
 40
1.0
176
     0
 90
        1
176
     0
 90
        6
176
     0
 90
        2
176
     0
 62
     7
176
     0
 90
        5
176
     0
 90
        0
176
     0
 90
        0
176
     0
290
     0
176
     0
 90
        1
176
     0
 40
0.0
176
     0
 90
        0
176
     0
290
     0
176
     0
290
     1
176
     0
290
     1
176
     0
290
     0
176
     0
290
     0
176
     0
290
     0
176
     0
290
     0
176
     0
290
     0
176
     0
290
     0
176
     0
 90
       50
176
     0
 40
0.0
176
     0
 40
1.0
176
     0
 90
        0
176
     0
 62
    18
420
        0
176
     0
 90
       50
176
     0
 90
        3
176
     0
 62
     5
420
      255
176
     0
290
     0
176
     0
 90
       50
176
     0
 90
       50
176
     0
 90
       50
176
     0
290
     0
176
     0
 90
       50
176
     0
 62
   256
176
     0
 40
1.0
176
     0
 90
        2
176
     0
  1
strokes_ogs.tif
176
     0
290
     0
176
     0
 40
1.0
176
     0
 40
1.0
176
     0
  0
VISUALSTYLE
  5
39
102
{ACAD_REACTORS
330
2A
102
}
330
2A
100
AcDbVisualStyle
  2
Facepattern
 70
    15
177
     3
291
     1
 70
    58
 90
        2
176
     1
 90
        2
176
     1
 90
        0
176
     1
 90
        0
176
     1
 40
0.6
176
     1
 40
30.0
176
     1
 62
     7
420
 16777215
176
     1
 90
        1
176
     1
 90
        4
176
     1
 62
     7
176
     1
 62
   257
176
     1
 90
        1
176
     1
 90
        1
176
     1
 40
1.0
176
     1
 90
        8
176
     1
 62
     7
176
     1
 40
1.0
176
     1
 90
        1
176
     1
 90
        6
176
     1
 90
        2
176
     1
 62
     7
176
     1
 90
        5
176
     1
 90
        0
176
     1
 90
        0
176
     1
290
     0
176
     1
 90
        1
176
     1
 40
0.0
176
     1
 90
        0
176
     1
290
     0
176
     1
290
     1
176
     1
290
     1
176
     1
290
     0
176
     1
290
     0
176
     1
290
     0
176
     1
290
     0
176
     1
290
     0
176
     1
290
     0
176
     1
 90
       50
176
     1
 40
0.0
176
     1
 40
1.0
176
     1
 90
        0
176
     1
 62
    18
420
        0
176
     1
 90
       50
176
     1
 90
        3
176
     1
 62
     5
420
      255
176
     1
290
     0
176
     1
 90
       50
176
     1
 90
       50
176
     1
 90
       50
176
     1
290
     0
176
     1
 90
       50
176
     1
 62
   256
176
     0
 40
1.0
176
     0
 90
        2
176
     1
  1
strokes_ogs.tif
176
     1
290
     0
176
     1
 40
1.0
176
     1
 40
1.0
176
     1
  0
VISUALSTYLE
  5
2B
102
{ACAD_REACTORS
330
2A
102
}
330
2A
100
AcDbVisualStyle
  2
Flat
 70
     0
177
     3
291
     1
 70
    58
 90
        2
176
     1
 90
        1
176
     1
 90
        1
176
     1
 90
        2
176
     1
 40
0.6
176
     1
 40
30.0
176
     1
 62
     7
420
 16777215
176
     1
 90
        0
176
     1
 90
        0
176
     1
 62
     7
176
     1
 62
   257
176
     1
 90
        1
176
     1
 90
        1
176
     1
 40
1.0
176
     1
 90
        8
176
     1
 62
     7
176
     1
 40
1.0
176
     1
 90
        1
176
     1
 90
        6
176
     1
 90
        2
176
     1
 62
     7
176
     1
 90
        5
176
     1
 90
        0
176
     1
 90
        0
176
     1
290
     0
176
     1
 90
       13
176
     1
 40
0.0
176
     1
 90
        0
176
     1
290
     0
176
     1
290
     1
176
     1
290
     1
176
     1
290
     0
176
     1
290
     0
176
     1
290
     0
176
     1
290
     0
176
     1
290
     0
176
     1
290
     0
176
     1
 90
       50
176
     1
 40
0.0
176
     1
 40
1.0
176
     1
 90
        0
176
     1
 62
    18
420
        0
176
     1
 90
       50
176
     1
 90
        3
176
     1
 62
     5
420
      255
176
     1
290
     0
176
     1
 90
       50
176
     1
 90
       50
176
     1
 90
       50
176
     1
290
     0
176
     1
 90
       50
176
     1
 62
   256
176
     0
 40
1.0
176
     0
 90
        2
176
     1
  1
strokes_ogs.tif
176
     1
290
     0
176
     1
 40
1.0
176
     1
 40
1.0
176
     1
  0
VISUALSTYLE
  5
2C
102
{ACAD_REACTORS
330
2A
102
}
330
2A
100
AcDbVisualStyle
  2
FlatWithEdges
 70
     1
177
     3
291
     1
 70
    58
 90
        2
176
     1
 90
        1
176
     1
 90
        1
176
     1
 90
        2
176
     1
 40
0.6
176
     1
 40
30.0
176
     1
 62
     7
420
 16777215
176
     1
 90
        1
176
     1
 90
        0
176
     1
 62
     7
176
     1
 62
   257
176
     1
 90
        1
176
     1
 90
        1
176
     1
 40
1.0
176
     1
 90
        0
176
     1
 62
   257
176
     1
 40
1.0
176
     1
 90
        1
176
     1
 90
        6
176
     1
 90
        2
176
     1
 62
     7
176
     1
 90
        5
176
     1
 90
        0
176
     1
 90
        0
176
     1
290
     0
176
     1
 90
       13
176
     1
 40
0.0
176
     1
 90
        0
176
     1
290
     0
176
     1
290
     1
176
     1
290
     1
176
     1
290
     0
176
     1
290
     0
176
     1
290
     0
176
     1
290
     0
176
     1
290
     0
176
     1
290
     0
176
     1
 90
       50
176
     1
 40
0.0
176
     1
 40
1.0
176
     1
 90
        0
176
     1
 62
    18
420
        0
176
     1
 90
       50
176
     1
 90
        3
176
     1
 62
     5
420
      255
176
     1
290
     0
176
     1
 90
       50
176
     1
 90
       50
176
     1
 90
       50
176
     1
290
     0
176
     1
 90
       50
176
     1
 62
   256
176
     0
 40
1.0
176
     0
 90
        2
176
     1
  1
strokes_ogs.tif
176
     1
290
     0
176
     1
 40
1.0
176
     1
 40
1.0
176
     1
  0
VISUALSTYLE
  5
2D
102
{ACAD_REACTORS
330
2A
102
}
330
2A
100
AcDbVisualStyle
  2
Gouraud
 70
     2
177
     3
291
     1
 70
    58
 90
        2
176
     1
 90
        2
176
     1
 90
        1
176
     1
 90
        2
176
     1
 40
0.6
176
     1
 40
30.0
176
     1
 62
     7
420
 16777215
176
     1
 90
        0
176
     1
 90
        0
176
     1
 62
     7
176
     1
 62
   257
176
     1
 90
        1
176
     1
 90
        1
176
     1
 40
1.0
176
     1
 90
        0
176
     1
 62
     7
176
     1
 40
1.0
176
     1
 90
        1
176
     1
 90
        6
176
     1
 90
        2
176
     1
 62
     7
176
     1
 90
        5
176
     1
 90
        0
176
     1
 90
        0
176
     1
290
     0
176
     1
 90
       13
176
     1
 40
0.0
176
     1
 90
        0
176
     1
290
     0
176
     1
290
     1
176
     1
290
     1
176
     1
290
     0
176
     1
290
     0
176
     1
290
     0
176
     1
290
     0
176
     1
290
     0
176
     1
290
     0
176
     1
 90
       50
176
     1
 40
0.0
176
     1
 40
1.0
176
     1
 90
        0
176
     1
 62
    18
420
        0
176
     1
 90
       50
176
     1
 90
        3
176
     1
 62
     5
420
      255
176
     1
290
     0
176
     1
 90
       50
176
     1
 90
       50
176
     1
 90
       50
176
     1
290
     0
176
     1
 90
       50
176
     1
 62
   256
176
     0
 40
1.0
176
     0
 90
        2
176
     1
  1
strokes_ogs.tif
176
     1
290
     0
176
     1
 40
1.0
176
     1
 40
1.0
176
     1
  0
VISUALSTYLE
  5
2E
102
{ACAD_REACTORS
330
2A
102
}
330
2A
100
AcDbVisualStyle
  2
GouraudWithEdges
 70
     3
177
     3
291
     1
 70
    58
 90
        2
176
     1
 90
        2
176
     1
 90
        1
176
     1
 90
        2
176
     1
 40
0.6
176
     1
 40
30.0
176
     1
 62
     7
420
 16777215
176
     1
 90
        1
176
     1
 90
        0
176
     1
 62
     7
176
     1
 62
   257
176
     1
 90
        1
176
     1
 90
        1
176
     1
 40
1.0
176
     1
 90
        0
176
     1
 62
   257
176
     1
 40
1.0
176
     1
 90
        1
176
     1
 90
        6
176
     1
 90
        2
176
     1
 62
     7
176
     1
 90
        5
176
     1
 90
        0
176
     1
 90
        0
176
     1
290
     0
176
     1
 90
       13
176
     1
 40
0.0
176
     1
 90
        0
176
     1
290
     0
176
     1
290
     1
176
     1
290
     1
176
     1
290
     0
176
     1
290
     0
176
     1
290
     0
176
     1
290
     0
176
     1
290
     0
176
     1
290
     0
176
     1
 90
       50
176
     1
 40
0.0
176
     1
 40
1.0
176
     1
 90
        0
176
     1
 62
    18
420
        0
176
     1
 90
       50
176
     1
 90
        3
176
     1
 62
     5
420
      255
176
     1
290
     0
176
     1
 90
       50
176
     1
 90
       50
176
     1
 90
       50
176
     1
290
     0
176
     1
 90
       50
176
     1
 62
   256
176
     0
 40
1.0
176
     0
 90
        2
176
     1
  1
strokes_ogs.tif
176
     1
290
     0
176
     1
 40
1.0
176
     1
 40
1.0
176
     1
  0
VISUALSTYLE
  5
31
102
{ACAD_REACTORS
330
2A
102
}
330
2A
100
AcDbVisualStyle
  2
Hidden
 70
     6
177
     3
291
     0
 70
    58
 90
        1
176
     1
 90
        2
176
     1
 90
        2
176
     1
 90
        0
176
     1
 40
0.6
176
     1
 40
30.0
176
     1
 62
     7
420
 16777215
176
     1
 90
        2
176
     1
 90
        2
176
     1
 62
     7
176
     1
 62
   257
176
     1
 90
        2
176
     1
 90
        1
176
     1
 40
40.0
176
     1
 90
        0
176
     1
 62
   257
176
     1
 40
1.0
176
     1
 90
        1
176
     1
 90
        6
176
     1
 90
        2
176
     1
 62
     7
176
     1
 90
        3
176
     1
 90
        0
176
     1
 90
        0
176
     1
290
     0
176
     1
 90
        1
176
     1
 40
0.0
176
     1
 90
        0
176
     1
290
     0
176
     1
290
     1
176
     1
290
     1
176
     1
290
     0
176
     1
290
     0
176
     1
290
     0
176
     1
290
     0
176
     1
290
     0
176
     1
290
     0
176
     1
 90
       50
176
     1
 40
0.0
176
     1
 40
1.0
176
     1
 90
        0
176
     1
 62
    18
420
        0
176
     1
 90
       50
176
     1
 90
        3
176
     1
 62
     5
420
      255
176
     1
290
     0
176
     1
 90
       50
176
     1
 90
       50
176
     1
 90
       50
176
     1
290
     0
176
     1
 90
       50
176
     1
 62
   256
176
     0
 40
1.0
176
     0
 90
        2
176
     1
  1
strokes_ogs.tif
176
     1
290
     0
176
     1
 40
1.0
176
     1
 40
1.0
176
     1
  0
VISUALSTYLE
  5
3B
102
{ACAD_REACTORS
330
2A
102
}
330
2A
100
AcDbVisualStyle
  2
JitterOff
 70
    20
177
     3
291
     1
 70
    58
 90
        2
176
     0
 90
        2
176
     0
 90
        0
176
     0
 90
        0
176
     0
 40
0.6
176
     0
 40
30.0
176
     0
 62
     7
420
 16777215
176
     0
 90
        1
176
     0
 90
        4
176
     0
 62
     7
176
     0
 62
   257
176
     0
 90
        1
176
     0
 90
        1
176
     0
 40
1.0
176
     0
 90
       10
176
     2
 62
     7
176
     0
 40
1.0
176
     0
 90
        1
176
     0
 90
        6
176
     0
 90
        2
176
     0
 62
     7
176
     0
 90
        5
176
     0
 90
        0
176
     0
 90
        0
176
     0
290
     0
176
     0
 90
        1
176
     0
 40
0.0
176
     0
 90
        0
176
     0
290
     0
176
     0
290
     1
176
     0
290
     1
176
     0
290
     0
176
     0
290
     0
176
     0
290
     0
176
     0
290
     0
176
     0
290
     0
176
     0
290
     0
176
     0
 90
       50
176
     0
 40
0.0
176
     0
 40
1.0
176
     0
 90
        0
176
     0
 62
    18
420
        0
176
     0
 90
       50
176
     0
 90
        3
176
     0
 62
     5
420
      255
176
     0
290
     0
176
     0
 90
       50
176
     0
 90
       50
176
     0
 90
       50
176
     0
290
     0
176
     0
 90
       50
176
     0
 62
   256
176
     0
 40
1.0
176
     0
 90
        2
176
     0
  1
strokes_ogs.tif
176
     0
290
     0
176
     0
 40
1.0
176
     0
 40
1.0
176
     0
  0
VISUALSTYLE
  5
38
102
{ACAD_REACTORS
330
2A
102
}
330
2A
100
AcDbVisualStyle
  2
Linepattern
 70
    14
177
     3
291
     1
 70
    58
 90
        2
176
     1
 90
        2
176
     1
 90
        0
176
     1
 90
        0
176
     1
 40
0.6
176
     1
 40
30.0
176
     1
 62
     7
420
 16777215
176
     1
 90
        1
176
     1
 90
        4
176
     1
 62
     7
176
     1
 62
   257
176
     1
 90
        7
176
     1
 90
        7
176
     1
 40
1.0
176
     1
 90
        8
176
     1
 62
     7
176
     1
 40
1.0
176
     1
 90
        1
176
     1
 90
        6
176
     1
 90
        2
176
     1
 62
     7
176
     1
 90
        5
176
     1
 90
        0
176
     1
 90
        0
176
     1
290
     0
176
     1
 90
        1
176
     1
 40
0.0
176
     1
 90
        0
176
     1
290
     0
176
     1
290
     1
176
     1
290
     1
176
     1
290
     0
176
     1
290
     0
176
     1
290
     0
176
     1
290
     0
176
     1
290
     0
176
     1
290
     0
176
     1
 90
       50
176
     1
 40
0.0
176
     1
 40
1.0
176
     1
 90
        0
176
     1
 62
    18
420
        0
176
     1
 90
       50
176
     1
 90
        3
176
     1
 62
     5
420
      255
176
     1
290
     0
176
     1
 90
       50
176
     1
 90
       50
176
     1
 90
       50
176
     1
290
     0
176
     1
 90
       50
176
     1
 62
   256
176
     0
 40
1.0
176
     0
 90
        2
176
     1
  1
strokes_ogs.tif
176
     1
290
     0
176
     1
 40
1.0
176
     1
 40
1.0
176
     1
  0
VISUALSTYLE
  5
3C
102
{ACAD_REACTORS
330
2A
102
}
330
2A
100
AcDbVisualStyle
  2
OverhangOff
 70
    21
177
     3
291
     1
 70
    58
 90
        2
176
     0
 90
        2
176
     0
 90
        0
176
     0
 90
        0
176
     0
 40
0.6
176
     0
 40
30.0
176
     0
 62
     7
420
 16777215
176
     0
 90
        1
176
     0
 90
        4
176
     0
 62
     7
176
     0
 62
   257
176
     0
 90
        1
176
     0
 90
        1
176
     0
 40
1.0
176
     0
 90
        9
176
     2
 62
     7
176
     0
 40
1.0
176
     0
 90
        1
176
     0
 90
        6
176
     0
 90
        2
176
     0
 62
     7
176
     0
 90
        5
176
     0
 90
        0
176
     0
 90
        0
176
     0
290
     0
176
     0
 90
        1
176
     0
 40
0.0
176
     0
 90
        0
176
     0
290
     0
176
     0
290
     1
176
     0
290
     1
176
     0
290
     0
176
     0
290
     0
176
     0
290
     0
176
     0
290
     0
176
     0
290
     0
176
     0
290
     0
176
     0
 90
       50
176
     0
 40
0.0
176
     0
 40
1.0
176
     0
 90
        0
176
     0
 62
    18
420
        0
176
     0
 90
       50
176
     0
 90
        3
176
     0
 62
     5
420
      255
176
     0
290
     0
176
     0
 90
       50
176
     0
 90
       50
176
     0
 90
       50
176
     0
290
     0
176
     0
 90
       50
176
     0
 62
   256
176
     0
 40
1.0
176
     0
 90
        2
176
     0
  1
strokes_ogs.tif
176
     0
290
     0
176
     0
 40
1.0
176
     0
 40
1.0
176
     0
  0
VISUALSTYLE
  5
33
102
{ACAD_REACTORS
330
2A
102
}
330
2A
100
AcDbVisualStyle
  2
Realistic
 70
     8
177
     3
291
     0
 70
    58
 90
        2
176
     1
 90
        3
176
     1
 90
        0
176
     1
 90
        2
176
     1
 40
0.6
176
     1
 40
30.0
176
     1
 62
     7
420
 16777215
176
     1
 90
        0
176
     1
 90
        0
176
     1
 62
     7
176
     1
 62
   257
176
     1
 90
        1
176
     1
 90
        1
176
     1
 40
1.0
176
     1
 90
        8
176
     1
 62
   257
176
     1
 40
1.0
176
     1
 90
        1
176
     1
 90
        6
176
     1
 90
        2
176
     1
 62
     7
176
     1
 90
        3
176
     1
 90
        0
176
     1
 90
        0
176
     1
290
     0
176
     1
 90
       13
176
     1
 40
0.0
176
     1
 90
        0
176
     1
290
     0
176
     1
290
     1
176
     1
290
     1
176
     1
290
     0
176
     1
290
     0
176
     1
290
     0
176
     1
290
     0
176
     1
290
     0
176
     1
290
     0
176
     1
 90
       50
176
     1
 40
0.0
176
     1
 40
1.0
176
     1
 90
        0
176
     1
 62
    18
420
        0
176
     1
 90
       50
176
     1
 90
        3
176
     1
 62
     5
420
      255
176
     1
290
     0
176
     1
 90
       50
176
     1
 90
       50
176
     1
 90
       50
176
     1
290
     0
176
     1
 90
       50
176
     1
 62
   256
176
     0
 40
1.0
176
     0
 90
        2
176
     1
  1
strokes_ogs.tif
176
     1
290
     0
176
     1
 40
1.0
176
     1
 40
1.0
176
     1
  0
VISUALSTYLE
  5
42
102
{ACAD_REACTORS
330
2A
102
}
330
2A
100
AcDbVisualStyle
  2
Shaded
 70
    27
177
     3
291
     0
 70
    58
 90
        2
176
     1
 90
        2
176
     1
 90
        1
176
     1
 90
        2
176
     1
 40
0.6
176
     1
 40
30.0
176
     1
 62
     7
420
 16777215
176
     1
 90
        0
176
     1
 90
        4
176
     1
 62
     7
176
     1
 62
   257
176
     1
 90
        1
176
     1
 90
        1
176
     1
 40
1.0
176
     1
 90
        8
176
     1
 62
   257
176
     1
 40
1.0
176
     1
 90
        1
176
     1
 90
        6
176
     1
 90
        2
176
     1
 62
     8
420
  7895160
176
     1
 90
        3
176
     1
 90
        0
176
     1
 90
        0
176
     1
290
     0
176
     1
 90
        5
176
     1
 40
0.0
176
     1
 90
        0
176
     1
290
     0
176
     1
290
     1
176
     1
290
     1
176
     1
290
     0
176
     1
290
     0
176
     1
290
     0
176
     1
290
     0
176
     1
290
     0
176
     1
290
     0
176
     1
 90
       50
176
     1
 40
0.0
176
     1
 40
1.0
176
     1
 90
        0
176
     1
 62
    18
420
        0
176
     1
 90
       50
176
     1
 90
        3
176
     1
 62
     5
420
      255
176
     1
290
     0
176
     1
 90
       50
176
     1
 90
       50
176
     1
 90
       50
176
     1
290
     0
176
     1
 90
       50
176
     1
 62
   256
176
     0
 40
1.0
176
     0
 90
        2
176
     1
  1
strokes_ogs.tif
176
     1
290
     0
176
     1
 40
1.0
176
     1
 40
1.0
176
     1
  0
VISUALSTYLE
  5
41
102
{ACAD_REACTORS
330
2A
102
}
330
2A
100
AcDbVisualStyle
  2
Shaded with edges
 70
    26
177
     3
291
     0
 70
    58
 90
        2
176
     1
 90
        2
176
     1
 90
        1
176
     1
 90
        2
176
     1
 40
0.6
176
     1
 40
30.0
176
     1
 62
     7
420
 16777215
176
     1
 90
        1
176
     1
 90
       10
176
     1
 62
     7
176
     1
 62
   257
176
     1
 90
        2
176
     1
 90
        1
176
     1
 40
1.0
176
     1
 90
        8
176
     1
 62
   257
176
     1
 40
1.0
176
     1
 90
        1
176
     1
 90
        6
176
     1
 90
        2
176
     1
 62
     7
176
     1
 90
        3
176
     1
 90
        0
176
     1
 90
        0
176
     1
290
     0
176
     1
 90
        5
176
     1
 40
0.0
176
     1
 90
        0
176
     1
290
     0
176
     1
290
     1
176
     1
290
     1
176
     1
290
     0
176
     1
290
     0
176
     1
290
     0
176
     1
290
     0
176
     1
290
     0
176
     1
290
     0
176
     1
 90
       50
176
     1
 40
0.0
176
     1
 40
1.0
176
     1
 90
        0
176
     1
 62
    18
420
        0
176
     1
 90
       50
176
     1
 90
        3
176
     1
 62
     5
420
      255
176
     1
290
     0
176
     1
 90
       50
176
     1
 90
       50
176
     1
 90
       50
176
     1
290
     0
176
     1
 90
       50
176
     1
 62
   256
176
     0
 40
1.0
176
     0
 90
        2
176
     1
  1
strokes_ogs.tif
176
     1
290
     0
176
     1
 40
1.0
176
     1
 40
1.0
176
     1
  0
VISUALSTYLE
  5
3E
102
{ACAD_REACTORS
330
2A
102
}
330
2A
100
AcDbVisualStyle
  2
Shades of Gray
 70
    23
177
     3
291
     0
 70
    58
 90
        2
176
     1
 90
        2
176
     1
 90
        3
176
     1
 90
        0
176
     1
 40
0.6
176
     1
 40
30.0
176
     1
 62
     7
420
 16777215
176
     1
 90
        2
176
     1
 90
        2
176
     1
 62
     7
176
     1
 62
     7
176
     1
 90
        1
176
     1
 90
        1
176
     1
 40
40.0
176
     1
 90
        8
176
     1
 62
     7
176
     1
 40
1.0
176
     1
 90
        1
176
     1
 90
        6
176
     1
 90
        2
176
     1
 62
     7
176
     1
 90
        3
176
     1
 90
        0
176
     1
 90
        0
176
     1
290
     0
176
     1
 90
        1
176
     1
 40
0.0
176
     1
 90
        0
176
     1
290
     0
176
     1
290
     1
176
     1
290
     1
176
     1
290
     0
176
     1
290
     0
176
     1
290
     0
176
     1
290
     0
176
     1
290
     0
176
     1
290
     0
176
     1
 90
       50
176
     1
 40
0.0
176
     1
 40
1.0
176
     1
 90
        0
176
     1
 62
    18
420
        0
176
     1
 90
       50
176
     1
 90
        3
176
     1
 62
     5
420
      255
176
     1
290
     0
176
     1
 90
       50
176
     1
 90
       50
176
     1
 90
       50
176
     1
290
     0
176
     1
 90
       50
176
     1
 62
   256
176
     0
 40
1.0
176
     0
 90
        2
176
     1
  1
strokes_ogs.tif
176
     1
290
     0
176
     1
 40
1.0
176
     1
 40
1.0
176
     1
  0
VISUALSTYLE
  5
3F
102
{ACAD_REACTORS
330
2A
102
}
330
2A
100
AcDbVisualStyle
  2
Sketchy
 70
    24
177
     3
291
     0
 70
    58
 90
        1
176
     1
 90
        2
176
     1
 90
        2
176
     1
 90
        0
176
     1
 40
0.6
176
     1
 40
30.0
176
     1
 62
     7
420
 16777215
176
     1
 90
        2
176
     1
 90
        2
176
     1
 62
     7
176
     1
 62
     7
176
     1
 90
        1
176
     1
 90
        1
176
     1
 40
40.0
176
     1
 90
       11
176
     1
 62
     7
176
     1
 40
1.0
176
     1
 90
        1
176
     1
 90
        6
176
     1
 90
        2
176
     1
 62
     7
176
     1
 90
        6
176
     1
 90
        0
176
     1
 90
        0
176
     1
290
     0
176
     1
 90
        1
176
     1
 40
0.0
176
     1
 90
        0
176
     1
290
     0
176
     1
290
     1
176
     1
290
     1
176
     1
290
     0
176
     1
290
     0
176
     1
290
     0
176
     1
290
     0
176
     1
290
     0
176
     1
290
     0
176
     1
 90
       50
176
     1
 40
0.0
176
     1
 40
1.0
176
     1
 90
        0
176
     1
 62
    18
420
        0
176
     1
 90
       50
176
     1
 90
        3
176
     1
 62
     5
420
      255
176
     1
290
     0
176
     1
 90
       50
176
     1
 90
       50
176
     1
 90
       50
176
     1
290
     0
176
     1
 90
       50
176
     1
 62
   256
176
     0
 40
1.0
176
     0
 90
        2
176
     1
  1
strokes_ogs.tif
176
     1
290
     0
176
     1
 40
1.0
176
     1
 40
1.0
176
     1
  0
VISUALSTYLE
  5
37
102
{ACAD_REACTORS
330
2A
102
}
330
2A
100
AcDbVisualStyle
  2
Thicken
 70
    13
177
     3
291
     1
 70
    58
 90
        2
176
     1
 90
        2
176
     1
 90
        0
176
     1
 90
        0
176
     1
 40
0.6
176
     1
 40
30.0
176
     1
 62
     7
420
 16777215
176
     1
 90
        1
176
     1
 90
        4
176
     1
 62
     7
176
     1
 62
   257
176
     1
 90
        1
176
     1
 90
        1
176
     1
 40
1.0
176
     1
 90
       12
176
     1
 62
     7
176
     1
 40
1.0
176
     1
 90
        1
176
     1
 90
        6
176
     1
 90
        2
176
     1
 62
     7
176
     1
 90
        5
176
     1
 90
        0
176
     1
 90
        0
176
     1
290
     0
176
     1
 90
        1
176
     1
 40
0.0
176
     1
 90
        0
176
     1
290
     0
176
     1
290
     1
176
     1
290
     1
176
     1
290
     0
176
     1
290
     0
176
     1
290
     0
176
     1
290
     0
176
     1
290
     0
176
     1
290
     0
176
     1
 90
       50
176
     1
 40
0.0
176
     1
 40
1.0
176
     1
 90
        0
176
     1
 62
    18
420
        0
176
     1
 90
       50
176
     1
 90
        3
176
     1
 62
     5
420
      255
176
     1
290
     0
176
     1
 90
       50
176
     1
 90
       50
176
     1
 90
       50
176
     1
290
     0
176
     1
 90
       50
176
     1
 62
   256
176
     0
 40
1.0
176
     0
 90
        2
176
     1
  1
strokes_ogs.tif
176
     1
290
     0
176
     1
 40
1.0
176
     1
 40
1.0
176
     1
  0
VISUALSTYLE
  5
30
102
{ACAD_REACTORS
330
2A
102
}
330
2A
100
AcDbVisualStyle
  2
Wireframe
 70
     5
177
     3
291
     0
 70
    58
 90
        0
176
     1
 90
        2
176
     1
 90
        0
176
     1
 90
        0
176
     1
 40
0.6
176
     1
 40
30.0
176
     1
 62
     7
420
 16777215
176
     1
 90
        1
176
     1
 90
        4
176
     1
 62
     7
176
     1
 62
   257
176
     1
 90
        1
176
     1
 90
        1
176
     1
 40
1.0
176
     1
 90
        0
176
     1
 62
   257
176
     1
 40
1.0
176
     1
 90
        1
176
     1
 90
        6
176
     1
 90
        2
176
     1
 62
     7
176
     1
 90
        3
176
     1
 90
        0
176
     1
 90
        0
176
     1
290
     0
176
     1
 90
        1
176
     1
 40
0.0
176
     1
 90
        0
176
     1
290
     0
176
     1
290
     1
176
     1
290
     1
176
     1
290
     0
176
     1
290
     0
176
     1
290
     0
176
     1
290
     0
176
     1
290
     0
176
     1
290
     0
176
     1
 90
       50
176
     1
 40
0.0
176
     1
 40
1.0
176
     1
 90
        0
176
     1
 62
    18
420
        0
176
     1
 90
       50
176
     1
 90
        3
176
     1
 62
     5
420
      255
176
     1
290
     0
176
     1
 90
       50
176
     1
 90
       50
176
     1
 90
       50
176
     1
290
     0
176
     1
 90
       50
176
     1
 62
   256
176
     0
 40
1.0
176
     0
 90
        2
176
     1
  1
strokes_ogs.tif
176
     1
290
     0
176
     1
 40
1.0
176
     1
 40
1.0
176
     1
  0
VISUALSTYLE
  5
40
102
{ACAD_REACTORS
330
2A
102
}
330
2A
100
AcDbVisualStyle
  2
X-Ray
 70
    25
177
     3
291
     0
 70
    58
 90
        2
176
     1
 90
        2
176
     1
 90
        1
176
     1
 90
        1
176
     1
 40
0.5
176
     1
 40
30.0
176
     1
 62
     7
420
 16777215
176
     1
 90
        1
176
     1
 90
        0
176
     1
 62
     7
176
     1
 62
   257
176
     1
 90
        1
176
     1
 90
        1
176
     1
 40
1.0
176
     1
 90
        8
176
     1
 62
     7
176
     1
 40
1.0
176
     1
 90
        1
176
     1
 90
        6
176
     1
 90
        2
176
     1
 62
     7
176
     1
 90
        3
176
     1
 90
        0
176
     1
 90
        0
176
     1
290
     0
176
     1
 90
       13
176
     1
 40
0.0
176
     1
 90
        0
176
     1
290
     0
176
     1
290
     1
176
     1
290
     1
176
     1
290
     0
176
     1
290
     0
176
     1
290
     0
176
     1
290
     0
176
     1
290
     0
176
     1
290
     0
176
     1
 90
       50
176
     1
 40
0.0
176
     1
 40
1.0
176
     1
 90
        0
176
     1
 62
    18
420
        0
176
     1
 90
       50
176
     1
 90
        3
176
     1
 62
     5
420
      255
176
     1
290
     0
176
     1
 90
       50
176
     1
 90
       50
176
     1
 90
       50
176
     1
290
     0
176
     1
 90
       50
176
     1
 62
   256
176
     0
 40
1.0
176
     0
 90
        2
176
     1
  1
strokes_ogs.tif
176
     1
290
     0
176
     1
 40
1.0
176
     1
 40
1.0
176
     1
  0
DICTIONARYVAR
  5
1E6
102
{ACAD_REACTORS
330
1E5
102
}
330
1E5
100
DictionaryVariables
280
     0
  1
1:1
  0
DICTIONARYVAR
  5
1EB
102
{ACAD_REACTORS
330
1E5
102
}
330
1E5
100
DictionaryVariables
280
     0
  1
Standard
  0
DICTIONARYVAR
  5
1EA
102
{ACAD_REACTORS
330
1E5
102
}
330
1E5
100
DictionaryVariables
280
     0
  1
Standard
  0
DICTIONARY
  5
1E7
330
6A
100
AcDbDictionary
280
     1
281
     1
  3
ACAD_ROUNDTRIP_2008_TABLESTYLE_CELLSTYLEMAP
360
1E8
  0
CELLSTYLEMAP
  5
1E8
102
{ACAD_REACTORS
330
1E7
102
}
330
1E7
100
AcDbCellStyleMap
 90
        3
300
CELLSTYLE
  1
TABLEFORMAT_BEGIN
 90
        5
170
     1
 91
        0
 92
    32768
 62
   257
 93
        1
300
CONTENTFORMAT
  1
CONTENTFORMAT_BEGIN
 90
        0
 91
        0
 92
        4
 93
        0
300

 40
0.0
140
1.0
 94
        5
 62
     0
340
11
144
0.25
309
CONTENTFORMAT_END
171
     1
301
MARGIN
  1
CELLMARGIN_BEGIN
 40
0.06
 40
0.06
 40
0.06
 40
0.06
 40
0.06
 40
0.06
309
CELLMARGIN_END
 94
        6
 95
        1
302
GRIDFORMAT
  1
GRIDFORMAT_BEGIN
 90
        0
 91
        1
 62
     0
 92
       -2
340
14
 93
        0
 40
0.045
309
GRIDFORMAT_END
 95
        2
302
GRIDFORMAT
  1
GRIDFORMAT_BEGIN
 90
        0
 91
        1
 62
     0
 92
       -2
340
14
 93
        0
 40
0.045
309
GRIDFORMAT_END
 95
        4
302
GRIDFORMAT
  1
GRIDFORMAT_BEGIN
 90
        0
 91
        1
 62
     0
 92
       -2
340
14
 93
        0
 40
0.045
309
GRIDFORMAT_END
 95
        8
302
GRIDFORMAT
  1
GRIDFORMAT_BEGIN
 90
        0
 91
        1
 62
     0
 92
       -2
340
14
 93
        0
 40
0.045
309
GRIDFORMAT_END
 95
       16
302
GRIDFORMAT
  1
GRIDFORMAT_BEGIN
 90
        0
 91
        1
 62
     0
 92
       -2
340
14
 93
        0
 40
0.045
309
GRIDFORMAT_END
 95
       32
302
GRIDFORMAT
  1
GRIDFORMAT_BEGIN
 90
        0
 91
        1
 62
     0
 92
       -2
340
14
 93
        0
 40
0.045
309
GRIDFORMAT_END
309
TABLEFORMAT_END
  1
CELLSTYLE_BEGIN
 90
        1
 91
        1
300
_TITLE
309
CELLSTYLE_END
300
CELLSTYLE
  1
TABLEFORMAT_BEGIN
 90
        5
170
     1
 91
        0
 92
        0
 62
   257
 93
        1
300
CONTENTFORMAT
  1
CONTENTFORMAT_BEGIN
 90
        0
 91
        0
 92
        4
 93
        0
300

 40
0.0
140
1.0
 94
        5
 62
     0
340
11
144
0.18
309
CONTENTFORMAT_END
171
     1
301
MARGIN
  1
CELLMARGIN_BEGIN
 40
0.06
 40
0.06
 40
0.06
 40
0.06
 40
0.06
 40
0.06
309
CELLMARGIN_END
 94
        6
 95
        1
302
GRIDFORMAT
  1
GRIDFORMAT_BEGIN
 90
        0
 91
        1
 62
     0
 92
       -2
340
14
 93
        0
 40
0.045
309
GRIDFORMAT_END
 95
        2
302
GRIDFORMAT
  1
GRIDFORMAT_BEGIN
 90
        0
 91
        1
 62
     0
 92
       -2
340
14
 93
        0
 40
0.045
309
GRIDFORMAT_END
 95
        4
302
GRIDFORMAT
  1
GRIDFORMAT_BEGIN
 90
        0
 91
        1
 62
     0
 92
       -2
340
14
 93
        0
 40
0.045
309
GRIDFORMAT_END
 95
        8
302
GRIDFORMAT
  1
GRIDFORMAT_BEGIN
 90
        0
 91
        1
 62
     0
 92
       -2
340
14
 93
        0
 40
0.045
309
GRIDFORMAT_END
 95
       16
302
GRIDFORMAT
  1
GRIDFORMAT_BEGIN
 90
        0
 91
        1
 62
     0
 92
       -2
340
14
 93
        0
 40
0.045
309
GRIDFORMAT_END
 95
       32
302
GRIDFORMAT
  1
GRIDFORMAT_BEGIN
 90
        0
 91
        1
 62
     0
 92
       -2
340
14
 93
        0
 40
0.045
309
GRIDFORMAT_END
309
TABLEFORMAT_END
  1
CELLSTYLE_BEGIN
 90
        2
 91
        1
300
_HEADER
309
CELLSTYLE_END
300
CELLSTYLE
  1
TABLEFORMAT_BEGIN
 90
        5
170
     1
 91
        0
 92
        0
 62
   257
 93
        1
300
CONTENTFORMAT
  1
CONTENTFORMAT_BEGIN
 90
        0
 91
        0
 92
        4
 93
        0
300

 40
0.0
140
1.0
 94
        2
 62
     0
340
11
144
0.18
309
CONTENTFORMAT_END
171
     1
301
MARGIN
  1
CELLMARGIN_BEGIN
 40
0.06
 40
0.06
 40
0.06
 40
0.06
 40
0.06
 40
0.06
309
CELLMARGIN_END
 94
        6
 95
        1
302
GRIDFORMAT
  1
GRIDFORMAT_BEGIN
 90
        0
 91
        1
 62
     0
 92
       -2
340
14
 93
        0
 40
0.045
309
GRIDFORMAT_END
 95
        2
302
GRIDFORMAT
  1
GRIDFORMAT_BEGIN
 90
        0
 91
        1
 62
     0
 92
       -2
340
14
 93
        0
 40
0.045
309
GRIDFORMAT_END
 95
        4
302
GRIDFORMAT
  1
GRIDFORMAT_BEGIN
 90
        0
 91
        1
 62
     0
 92
       -2
340
14
 93
        0
 40
0.045
309
GRIDFORMAT_END
 95
        8
302
GRIDFORMAT
  1
GRIDFORMAT_BEGIN
 90
        0
 91
        1
 62
     0
 92
       -2
340
14
 93
        0
 40
0.045
309
GRIDFORMAT_END
 95
       16
302
GRIDFORMAT
  1
GRIDFORMAT_BEGIN
 90
        0
 91
        1
 62
     0
 92
       -2
340
14
 93
        0
 40
0.045
309
GRIDFORMAT_END
 95
       32
302
GRIDFORMAT
  1
GRIDFORMAT_BEGIN
 90
        0
 91
        1
 62
     0
 92
       -2
340
14
 93
        0
 40
0.045
309
GRIDFORMAT_END
309
TABLEFORMAT_END
  1
CELLSTYLE_BEGIN
 90
        3
 91
        2
300
_DATA
309
CELLSTYLE_END
  0
ENDSEC
  0
EOF