0
SECTION
  2
HEADER
  9
$ACADVER
  1
AC1027
  9
$ACADMAINTVER
 70
     8
  9
$DWGCODEPAGE
  3
ANSI_1252
  9
$REQUIREDVERSIONS
160
                 0
  9
$COMMENTS
  1
File was created by Cadenas
  9
$CUSTOMPROPERTYTAG
  1
NN
  9
$CUSTOMPROPERTY
  1
Type E-Xtra Pillow Block 2-Bolt Base Inch Bore
  9
$CUSTOMPROPERTYTAG
  1
NT
  9
$CUSTOMPROPERTY
  1
Type E Pillow Block Bearing -(2-Bolt Base)-Inch
  9
$CUSTOMPROPERTYTAG
  1
NB
  9
$CUSTOMPROPERTY
  1
023017
  9
$CUSTOMPROPERTYTAG
  1
NBSYN
  9
$CUSTOMPROPERTY
  1
$PN.
  9
$CUSTOMPROPERTYTAG
  1
LINA
  9
$CUSTOMPROPERTY
  1
023017
  9
$CUSTOMPROPERTYTAG
  1
SS
  9
$CUSTOMPROPERTY
  1
2-15/16
  9
$CUSTOMPROPERTYTAG
  1
PN
  9
$CUSTOMPROPERTY
  1
023017
  9
$CUSTOMPROPERTYTAG
  1
DESCRIPTION
  9
$CUSTOMPROPERTY
  1
P2B-E-215R
  9
$CUSTOMPROPERTYTAG
  1
A
  9
$CUSTOMPROPERTY
  1
4-1/2
  9
$CUSTOMPROPERTYTAG
  1
B
  9
$CUSTOMPROPERTY
  1
12
  9
$CUSTOMPROPERTYTAG
  1
C
  9
$CUSTOMPROPERTY
  1
3
  9
$CUSTOMPROPERTYTAG
  1
DMIN
  9
$CUSTOMPROPERTY
  1
9-5/16
  9
$CUSTOMPROPERTYTAG
  1
DMAX
  9
$CUSTOMPROPERTY
  1
9-11/16
  9
$CUSTOMPROPERTYTAG
  1
F
  9
$CUSTOMPROPERTY
  1
3/4
  9
$CUSTOMPROPERTYTAG
  1
G
  9
$CUSTOMPROPERTY
  1
1
  9
$CUSTOMPROPERTYTAG
  1
H
  9
$CUSTOMPROPERTY
  1
1-7/8
  9
$CUSTOMPROPERTYTAG
  1
J
  9
$CUSTOMPROPERTY
  1
6-1/4
  9
$CUSTOMPROPERTYTAG
  1
J1
  9
$CUSTOMPROPERTY
  1
6-11/32
  9
$CUSTOMPROPERTYTAG
  1
L
  9
$CUSTOMPROPERTY
  1
4-23/32
  9
$CUSTOMPROPERTYTAG
  1
M
  9
$CUSTOMPROPERTY
  1
3-1/8
  9
$CUSTOMPROPERTYTAG
  1
COMPANY
  9
$CUSTOMPROPERTY
  1
baldor
  9
$INSBASE
 10
0.0
 20
0.0
 30
0.0
  9
$EXTMIN
 10
1.000000000000000E+20
 20
1.000000000000000E+20
 30
1.000000000000000E+20
  9
$EXTMAX
 10
-1.000000000000000E+20
 20
-1.000000000000000E+20
 30
-1.000000000000000E+20
  9
$LIMMIN
 10
0.0
 20
0.0
  9
$LIMMAX
 10
12.0
 20
9.0
  9
$ORTHOMODE
 70
     0
  9
$REGENMODE
 70
     1
  9
$FILLMODE
 70
     1
  9
$QTEXTMODE
 70
     0
  9
$MIRRTEXT
 70
     1
  9
$LTSCALE
 40
1.0
  9
$ATTMODE
 70
     1
  9
$TEXTSIZE
 40
0.2
  9
$TRACEWID
 40
0.05
  9
$TEXTSTYLE
  7
Standard
  9
$CLAYER
  8
0
  9
$CELTYPE
  6
ByLayer
  9
$CECOLOR
 62
   256
  9
$CELTSCALE
 40
1.0
  9
$DISPSILH
 70
     0
  9
$DIMSCALE
 40
1.0
  9
$DIMASZ
 40
0.18
  9
$DIMEXO
 40
0.0625
  9
$DIMDLI
 40
0.38
  9
$DIMRND
 40
0.0
  9
$DIMDLE
 40
0.0
  9
$DIMEXE
 40
0.18
  9
$DIMTP
 40
0.0
  9
$DIMTM
 40
0.0
  9
$DIMTXT
 40
0.18
  9
$DIMCEN
 40
0.09
  9
$DIMTSZ
 40
0.0
  9
$DIMTOL
 70
     0
  9
$DIMLIM
 70
     0
  9
$DIMTIH
 70
     1
  9
$DIMTOH
 70
     1
  9
$DIMSE1
 70
     0
  9
$DIMSE2
 70
     0
  9
$DIMTAD
 70
     0
  9
$DIMZIN
 70
     0
  9
$DIMBLK
  1

  9
$DIMASO
 70
     1
  9
$DIMSHO
 70
     1
  9
$DIMPOST
  1

  9
$DIMAPOST
  1

  9
$DIMALT
 70
     0
  9
$DIMALTD
 70
     2
  9
$DIMALTF
 40
25.4
  9
$DIMLFAC
 40
1.0
  9
$DIMTOFL
 70
     0
  9
$DIMTVP
 40
0.0
  9
$DIMTIX
 70
     0
  9
$DIMSOXD
 70
     0
  9
$DIMSAH
 70
     0
  9
$DIMBLK1
  1

  9
$DIMBLK2
  1

  9
$DIMSTYLE
  2
Standard
  9
$DIMCLRD
 70
     0
  9
$DIMCLRE
 70
     0
  9
$DIMCLRT
 70
     0
  9
$DIMTFAC
 40
1.0
  9
$DIMGAP
 40
0.09
  9
$DIMJUST
 70
     0
  9
$DIMSD1
 70
     0
  9
$DIMSD2
 70
     0
  9
$DIMTOLJ
 70
     1
  9
$DIMTZIN
 70
     0
  9
$DIMALTZ
 70
     0
  9
$DIMALTTZ
 70
     0
  9
$DIMUPT
 70
     0
  9
$DIMDEC
 70
     4
  9
$DIMTDEC
 70
     4
  9
$DIMALTU
 70
     2
  9
$DIMALTTD
 70
     2
  9
$DIMTXSTY
  7
Standard
  9
$DIMAUNIT
 70
     0
  9
$DIMADEC
 70
     0
  9
$DIMALTRND
 40
0.0
  9
$DIMAZIN
 70
     0
  9
$DIMDSEP
 70
    46
  9
$DIMATFIT
 70
     3
  9
$DIMFRAC
 70
     0
  9
$DIMLDRBLK
  1

  9
$DIMLUNIT
 70
     2
  9
$DIMLWD
 70
    -2
  9
$DIMLWE
 70
    -2
  9
$DIMTMOVE
 70
     0
  9
$DIMFXL
 40
1.0
  9
$DIMFXLON
 70
     0
  9
$DIMJOGANG
 40
0.7853981633974483
  9
$DIMTFILL
 70
     0
  9
$DIMTFILLCLR
 70
     0
  9
$DIMARCSYM
 70
     0
  9
$DIMLTYPE
  6

  9
$DIMLTEX1
  6

  9
$DIMLTEX2
  6

  9
$DIMTXTDIRECTION
 70
     0
  9
$LUNITS
 70
     2
  9
$LUPREC
 70
     4
  9
$SKETCHINC
 40
0.1
  9
$FILLETRAD
 40
0.5
  9
$AUNITS
 70
     0
  9
$AUPREC
 70
     0
  9
$MENU
  1
.
  9
$ELEVATION
 40
0.0
  9
$PELEVATION
 40
0.0
  9
$THICKNESS
 40
0.0
  9
$LIMCHECK
 70
     0
  9
$CHAMFERA
 40
0.0
  9
$CHAMFERB
 40
0.0
  9
$CHAMFERC
 40
0.0
  9
$CHAMFERD
 40
0.0
  9
$SKPOLY
 70
     0
  9
$TDCREATE
 40
2458169.017137859
  9
$TDUCREATE
 40
2458168.975471192
  9
$TDUPDATE
 40
2458169.017138044
  9
$TDUUPDATE
 40
2458168.975471377
  9
$TDINDWG
 40
0.0000000116
  9
$TDUSRTIMER
 40
0.0000000116
  9
$USRTIMER
 70
     1
  9
$ANGBASE
 50
0.0
  9
$ANGDIR
 70
     0
  9
$PDMODE
 70
     0
  9
$PDSIZE
 40
0.0
  9
$PLINEWID
 40
0.0
  9
$SPLFRAME
 70
     0
  9
$SPLINETYPE
 70
     6
  9
$SPLINESEGS
 70
     8
  9
$HANDSEED
  5
207
  9
$SURFTAB1
 70
     6
  9
$SURFTAB2
 70
     6
  9
$SURFTYPE
 70
     6
  9
$SURFU
 70
     6
  9
$SURFV
 70
     6
  9
$UCSBASE
  2

  9
$UCSNAME
  2

  9
$UCSORG
 10
0.0
 20
0.0
 30
0.0
  9
$UCSXDIR
 10
1.0
 20
0.0
 30
0.0
  9
$UCSYDIR
 10
0.0
 20
1.0
 30
0.0
  9
$UCSORTHOREF
  2

  9
$UCSORTHOVIEW
 70
     0
  9
$UCSORGTOP
 10
0.0
 20
0.0
 30
0.0
  9
$UCSORGBOTTOM
 10
0.0
 20
0.0
 30
0.0
  9
$UCSORGLEFT
 10
0.0
 20
0.0
 30
0.0
  9
$UCSORGRIGHT
 10
0.0
 20
0.0
 30
0.0
  9
$UCSORGFRONT
 10
0.0
 20
0.0
 30
0.0
  9
$UCSORGBACK
 10
0.0
 20
0.0
 30
0.0
  9
$PUCSBASE
  2

  9
$PUCSNAME
  2

  9
$PUCSORG
 10
0.0
 20
0.0
 30
0.0
  9
$PUCSXDIR
 10
1.0
 20
0.0
 30
0.0
  9
$PUCSYDIR
 10
0.0
 20
1.0
 30
0.0
  9
$PUCSORTHOREF
  2

  9
$PUCSORTHOVIEW
 70
     0
  9
$PUCSORGTOP
 10
0.0
 20
0.0
 30
0.0
  9
$PUCSORGBOTTOM
 10
0.0
 20
0.0
 30
0.0
  9
$PUCSORGLEFT
 10
0.0
 20
0.0
 30
0.0
  9
$PUCSORGRIGHT
 10
0.0
 20
0.0
 30
0.0
  9
$PUCSORGFRONT
 10
0.0
 20
0.0
 30
0.0
  9
$PUCSORGBACK
 10
0.0
 20
0.0
 30
0.0
  9
$USERI1
 70
     0
  9
$USERI2
 70
     0
  9
$USERI3
 70
     0
  9
$USERI4
 70
     0
  9
$USERI5
 70
     0
  9
$USERR1
 40
0.0
  9
$USERR2
 40
0.0
  9
$USERR3
 40
0.0
  9
$USERR4
 40
0.0
  9
$USERR5
 40
0.0
  9
$WORLDVIEW
 70
     1
  9
$SHADEDGE
 70
     3
  9
$SHADEDIF
 70
    70
  9
$TILEMODE
 70
     1
  9
$MAXACTVP
 70
    64
  9
$PINSBASE
 10
0.0
 20
0.0
 30
0.0
  9
$PLIMCHECK
 70
     0
  9
$PEXTMIN
 10
1.000000000000000E+20
 20
1.000000000000000E+20
 30
1.000000000000000E+20
  9
$PEXTMAX
 10
-1.000000000000000E+20
 20
-1.000000000000000E+20
 30
-1.000000000000000E+20
  9
$PLIMMIN
 10
0.0
 20
0.0
  9
$PLIMMAX
 10
12.0
 20
9.0
  9
$UNITMODE
 70
     0
  9
$VISRETAIN
 70
     1
  9
$PLINEGEN
 70
     0
  9
$PSLTSCALE
 70
     1
  9
$TREEDEPTH
 70
  3020
  9
$CMLSTYLE
  2
Standard
  9
$CMLJUST
 70
     0
  9
$CMLSCALE
 40
1.0
  9
$PROXYGRAPHICS
 70
     1
  9
$MEASUREMENT
 70
     0
  9
$CELWEIGHT
370
    -1
  9
$ENDCAPS
280
     0
  9
$JOINSTYLE
280
     0
  9
$LWDISPLAY
290
     0
  9
$INSUNITS
 70
     1
  9
$HYPERLINKBASE
  1

  9
$STYLESHEET
  1

  9
$XEDIT
290
     1
  9
$CEPSNTYPE
380
     0
  9
$PSTYLEMODE
290
     1
  9
$FINGERPRINTGUID
  2
{F6B0A2A6-4A32-4711-A2DA-CBC618BBD967}
  9
$VERSIONGUID
  2
{FAEB1C32-E019-11D5-929B-00C0DF256EC4}
  9
$EXTNAMES
290
     1
  9
$PSVPSCALE
 40
0.0
  9
$OLESTARTUP
290
     0
  9
$SORTENTS
280
   127
  9
$INDEXCTL
280
     0
  9
$HIDETEXT
280
     1
  9
$XCLIPFRAME
280
     2
  9
$HALOGAP
280
     0
  9
$OBSCOLOR
 70
   257
  9
$OBSLTYPE
280
     0
  9
$INTERSECTIONDISPLAY
280
     0
  9
$INTERSECTIONCOLOR
 70
   257
  9
$DIMASSOC
280
     2
  9
$PROJECTNAME
  1

  9
$CAMERADISPLAY
290
     0
  9
$LENSLENGTH
 40
50.0
  9
$CAMERAHEIGHT
 40
0.0
  9
$STEPSPERSEC
 40
2.0
  9
$STEPSIZE
 40
6.0
  9
$3DDWFPREC
 40
2.0
  9
$PSOLWIDTH
 40
0.25
  9
$PSOLHEIGHT
 40
4.0
  9
$LOFTANG1
 40
1.570796326794897
  9
$LOFTANG2
 40
1.570796326794897
  9
$LOFTMAG1
 40
0.0
  9
$LOFTMAG2
 40
0.0
  9
$LOFTPARAM
 70
     7
  9
$LOFTNORMALS
280
     1
  9
$LATITUDE
 40
37.795
  9
$LONGITUDE
 40
-122.394
  9
$NORTHDIRECTION
 40
0.0
  9
$TIMEZONE
 70
 -8000
  9
$LIGHTGLYPHDISPLAY
280
     1
  9
$TILEMODELIGHTSYNCH
280
     1
  9
$CMATERIAL
347
44
  9
$SOLIDHIST
280
     0
  9
$SHOWHIST
280
     1
  9
$DWFFRAME
280
     2
  9
$DGNFRAME
280
     2
  9
$REALWORLDSCALE
290
     1
  9
$INTERFERECOLOR
 62
   256
  9
$CSHADOW
280
     0
  9
$SHADOWPLANELOCATION
 40
0.0
  0
ENDSEC
  0
SECTION
  2
CLASSES
  0
CLASS
  1
ACDBDICTIONARYWDFLT
  2
AcDbDictionaryWithDefault
  3
ObjectDBX Classes
 90
        0
 91
        4
280
     0
281
     0
  0
CLASS
  1
VISUALSTYLE
  2
AcDbVisualStyle
  3
ObjectDBX Classes
 90
     4095
 91
        4
280
     0
281
     0
  0
CLASS
  1
MATERIAL
  2
AcDbMaterial
  3
ObjectDBX Classes
 90
     1153
 91
        4
280
     0
281
     0
  0
CLASS
  1
SCALE
  2
AcDbScale
  3
ObjectDBX Classes
 90
     1153
 91
        4
280
     0
281
     0
  0
CLASS
  1
TABLESTYLE
  2
AcDbTableStyle
  3
ObjectDBX Classes
 90
     4095
 91
        4
280
     0
281
     0
  0
CLASS
  1
MLEADERSTYLE
  2
AcDbMLeaderStyle
  3
ACDB_MLEADERSTYLE_CLASS
 90
     4095
 91
        4
280
     0
281
     0
  0
CLASS
  1
SUN
  2
AcDbSun
  3
SCENEOE
 90
     1153
 91
        4
280
     0
281
     0
  0
CLASS
  1
DICTIONARYVAR
  2
AcDbDictionaryVar
  3
ObjectDBX Classes
 90
        0
 91
        4
280
     0
281
     0
  0
CLASS
  1
CELLSTYLEMAP
  2
AcDbCellStyleMap
  3
ObjectDBX Classes
 90
     1152
 91
        4
280
     0
281
     0
  0
ENDSEC
  0
SECTION
  2
TABLES
  0
TABLE
  2
VPORT
  5
8
330
0
100
AcDbSymbolTable
 70
     1
  0
VPORT
  5
29
330
8
100
AcDbSymbolTableRecord
100
AcDbViewportTableRecord
  2
*Active
 70
     0
 10
0.0
 20
0.0
 11
1.0
 21
1.0
 12
0.0
 22
0.0125430494413941
 13
0.0
 23
0.0
 14
0.5
 24
0.5
 15
0.5
 25
0.5
 16
0.0
 26
0.0
 36
1.0
 17
0.0
 27
0.0
 37
0.0
 40
6.400587820860444
 41
0.7888337979747072
 42
50.0
 43
0.0
 44
0.0
 50
0.0
 51
0.0
 71
     0
 72
   100
 73
     1
 74
     3
 75
     0
 76
     0
 77
     0
 78
     0
281
     0
 65
     1
110
0.0
120
0.0
130
0.0
111
1.0
121
0.0
131
0.0
112
0.0
122
1.0
132
0.0
 79
     0
146
0.0
348
2F
 60
     3
 61
     5
292
     1
282
     1
141
0.0
142
0.0
 63
   250
361
6D
  0
ENDTAB
  0
TABLE
  2
LTYPE
  5
5
330
0
100
AcDbSymbolTable
 70
     3
  0
LTYPE
  5
14
330
5
100
AcDbSymbolTableRecord
100
AcDbLinetypeTableRecord
  2
ByBlock
 70
     0
  3

 72
    65
 73
     0
 40
0.0
  0
LTYPE
  5
15
330
5
100
AcDbSymbolTableRecord
100
AcDbLinetypeTableRecord
  2
ByLayer
 70
     0
  3

 72
    65
 73
     0
 40
0.0
  0
LTYPE
  5
16
330
5
100
AcDbSymbolTableRecord
100
AcDbLinetypeTableRecord
  2
Continuous
 70
     0
  3
Solid line
 72
    65
 73
     0
 40
0.0
  0
LTYPE
  5
9D
330
5
100
AcDbSymbolTableRecord
100
AcDbLinetypeTableRecord
  2
Dashed
 70
     0
  3

 72
    65
 73
     2
 40
2.0
 49
1.0
 74
     0
 49
-1.0
 74
     0
  0
LTYPE
  5
148
330
5
100
AcDbSymbolTableRecord
100
AcDbLinetypeTableRecord
  2
Center
 70
     0
  3

 72
    65
 73
     4
 40
1.5
 49
0.45
 74
     0
 49
-0.5
 74
     0
 49
0.05
 74
     0
 49
-0.5
 74
     0
  0
ENDTAB
  0
TABLE
  2
LAYER
  5
2
330
0
100
AcDbSymbolTable
 70
     7
  0
LAYER
  5
10
330
2
100
AcDbSymbolTableRecord
100
AcDbLayerTableRecord
  2
0
 70
     0
 62
     7
  6
Continuous
370
    -3
390
F
347
46
348
0
  0
LAYER
  5
72
330
2
100
AcDbSymbolTableRecord
100
AcDbLayerTableRecord
  2
AM_6
 70
     0
 62
    -2
  6
Continuous
370
    35
390
F
347
46
348
0
  0
LAYER
  5
9E
330
2
100
AcDbSymbolTableRecord
100
AcDbLayerTableRecord
  2
AM_9
 70
     0
 62
     6
  6
Dashed
370
    25
390
F
347
46
348
0
  0
LAYER
  5
B6
330
2
100
AcDbSymbolTableRecord
100
AcDbLayerTableRecord
  2
AM_5
 70
     0
 62
     3
  6
Continuous
370
    25
390
F
347
46
348
0
  0
LAYER
  5
B9
330
2
100
AcDbSymbolTableRecord
100
AcDbLayerTableRecord
  2
AM_4
 70
     0
 62
     7
  6
Continuous
370
    50
390
F
347
46
348
0
  0
LAYER
  5
149
330
2
100
AcDbSymbolTableRecord
100
AcDbLayerTableRecord
  2
AM_7
 70
     0
 62
     7
  6
Center
370
    25
390
F
347
46
348
0
  0
LAYER
  5
1F6
330
2
100
AcDbSymbolTableRecord
100
AcDbLayerTableRecord
  2
ConnectionPoints
 70
     0
 62
     7
  6
Continuous
370
    50
390
F
347
46
348
0
  0
ENDTAB
  0
TABLE
  2
STYLE
  5
3
330
0
100
AcDbSymbolTable
 70
     1
  0
STYLE
  5
11
330
3
100
AcDbSymbolTableRecord
100
AcDbTextStyleTableRecord
  2
Standard
 70
     0
 40
0.0
 41
1.0
 50
0.0
 71
     0
 42
0.2
  3
txt
  4

  0
ENDTAB
  0
TABLE
  2
VIEW
  5
6
330
0
100
AcDbSymbolTable
 70
     0
  0
ENDTAB
  0
TABLE
  2
UCS
  5
7
330
0
100
AcDbSymbolTable
 70
     0
  0
ENDTAB
  0
TABLE
  2
APPID
  5
9
330
0
100
AcDbSymbolTable
 70
     1
  0
APPID
  5
12
330
9
100
AcDbSymbolTableRecord
100
AcDbRegAppTableRecord
  2
ACAD
 70
     0
  0
ENDTAB
  0
TABLE
  2
DIMSTYLE
  5
A
330
0
100
AcDbSymbolTable
 70
     1
100
AcDbDimStyleTable
  0
DIMSTYLE
105
27
330
A
100
AcDbSymbolTableRecord
100
AcDbDimStyleTableRecord
  2
Standard
 70
     0
178
     0
340
11
  0
ENDTAB
  0
TABLE
  2
BLOCK_RECORD
  5
1
330
0
100
AcDbSymbolTable
 70
     7
  0
BLOCK_RECORD
  5
1F
330
1
100
AcDbSymbolTableRecord
100
AcDbBlockTableRecord
  2
*Model_Space
340
22
 70
     0
280
     1
281
     0
  0
BLOCK_RECORD
  5
1B
330
1
100
AcDbSymbolTableRecord
100
AcDbBlockTableRecord
  2
*Paper_Space
340
1E
 70
     0
280
     1
281
     0
  0
BLOCK_RECORD
  5
23
330
1
100
AcDbSymbolTableRecord
100
AcDbBlockTableRecord
  2
*Paper_Space0
340
26
 70
     0
280
     1
281
     0
  0
BLOCK_RECORD
  5
6E
330
1
100
AcDbSymbolTableRecord
100
AcDbBlockTableRecord
  2
1_023017_2
340
0
102
{BLKREFS
331
6F
102
}
 70
     0
280
     1
281
     0
  0
BLOCK_RECORD
  5
88
330
1
100
AcDbSymbolTableRecord
100
AcDbBlockTableRecord
  2
2_2_15_16C_1_0_in_023017_2
340
0
102
{BLKREFS
331
89
102
}
 70
     0
280
     1
281
     0
  0
BLOCK_RECORD
  5
C5
330
1
100
AcDbSymbolTableRecord
100
AcDbBlockTableRecord
  2
3_2_15_16C_2_0_in_023017_2
340
0
102
{BLKREFS
331
C6
102
}
 70
     0
280
     1
281
     0
  0
BLOCK_RECORD
  5
FD
330
1
100
AcDbSymbolTableRecord
100
AcDbBlockTableRecord
  2
4_2_15_16I_0_in_023017_2
340
0
102
{BLKREFS
331
FE
102
}
 70
     0
280
     1
281
     0
  0
BLOCK_RECORD
  5
151
330
1
100
AcDbSymbolTableRecord
100
AcDbBlockTableRecord
  2
5_405015E_Inch_0_in_023017_2
340
0
102
{BLKREFS
331
152
102
}
 70
     0
280
     1
281
     0
  0
BLOCK_RECORD
  5
1AF
330
1
100
AcDbSymbolTableRecord
100
AcDbBlockTableRecord
  2
6_023017H_0_in_023017_2
340
0
102
{BLKREFS
331
1B0
102
}
 70
     0
280
     1
281
     0
  0
ENDTAB
  0
ENDSEC
  0
SECTION
  2
BLOCKS
  0
BLOCK
  5
20
330
1F
100
AcDbEntity
  8
0
100
AcDbBlockBegin
  2
*Model_Space
 70
     0
 10
0.0
 20
0.0
 30
0.0
  3
*Model_Space
  1

  0
ENDBLK
  5
21
330
1F
100
AcDbEntity
  8
0
100
AcDbBlockEnd
  0
BLOCK
  5
1C
330
1B
100
AcDbEntity
 67
     1
  8
0
100
AcDbBlockBegin
  2
*Paper_Space
 70
     0
 10
0.0
 20
0.0
 30
0.0
  3
*Paper_Space
  1

  0
ENDBLK
  5
1D
330
1B
100
AcDbEntity
 67
     1
  8
0
100
AcDbBlockEnd
  0
BLOCK
  5
24
330
23
100
AcDbEntity
  8
0
100
AcDbBlockBegin
  2
*Paper_Space0
 70
     0
 10
0.0
 20
0.0
 30
0.0
  3
*Paper_Space0
  1

  0
ENDBLK
  5
25
330
23
100
AcDbEntity
  8
0
100
AcDbBlockEnd
  0
BLOCK
  5
70
330
6E
100
AcDbEntity
  8
0
100
AcDbBlockBegin
  2
1_023017_2
 70
     2
 10
0.0
 20
0.0
 30
0.0
  3
1_023017_2
  1

  0
ATTDEF
  5
73
330
6E
100
AcDbEntity
  8
AM_6
100
AcDbText
 10
7.475
 20
3.150086098882789
 30
0.0
 40
0.5
  1
Type E-Xtra Pillow Block 2-Bolt Base Inch Bore
100
AcDbAttributeDefinition
  3

  2
NN
 70
     8
280
     0
  0
ATTDEF
  5
74
330
6E
100
AcDbEntity
  8
AM_6
100
AcDbText
 10
7.475
 20
2.650086098882789
 30
0.0
 40
0.5
  1
Type E Pillow Block Bearing -(2-Bolt Base)-Inch
100
AcDbAttributeDefinition
  3

  2
NT
 70
     8
280
     0
  0
ATTDEF
  5
75
330
6E
100
AcDbEntity
  8
AM_6
100
AcDbText
 10
7.475
 20
2.150086098882789
 30
0.0
 40
0.5
  1
023017
100
AcDbAttributeDefinition
  3

  2
NB
 70
     8
280
     0
  0
ATTDEF
  5
76
330
6E
100
AcDbEntity
  8
AM_6
100
AcDbText
 10
7.475
 20
1.650086098882789
 30
0.0
 40
0.5
  1
$PN.
100
AcDbAttributeDefinition
  3

  2
NBSYN
 70
     8
280
     0
  0
ATTDEF
  5
77
330
6E
100
AcDbEntity
  8
AM_6
100
AcDbText
 10
7.475
 20
1.150086098882789
 30
0.0
 40
0.5
  1
023017
100
AcDbAttributeDefinition
  3

  2
LINA
 70
     8
280
     0
  0
ATTDEF
  5
78
330
6E
100
AcDbEntity
  8
AM_6
100
AcDbText
 10
7.475
 20
0.650086098882789
 30
0.0
 40
0.5
  1
2-15/16
100
AcDbAttributeDefinition
  3

  2
SS
 70
     8
280
     0
  0
ATTDEF
  5
79
330
6E
100
AcDbEntity
  8
AM_6
100
AcDbText
 10
7.475
 20
0.150086098882789
 30
0.0
 40
0.5
  1
023017
100
AcDbAttributeDefinition
  3

  2
PN
 70
     8
280
     0
  0
ATTDEF
  5
7A
330
6E
100
AcDbEntity
  8
AM_6
100
AcDbText
 10
7.475
 20
-0.349913901117211
 30
0.0
 40
0.5
  1
P2B-E-215R
100
AcDbAttributeDefinition
  3

  2
DESCRIPTION
 70
     8
280
     0
  0
ATTDEF
  5
7B
330
6E
100
AcDbEntity
  8
AM_6
100
AcDbText
 10
7.475
 20
-0.849913901117211
 30
0.0
 40
0.5
  1
4-1/2
100
AcDbAttributeDefinition
  3

  2
A
 70
     8
280
     0
  0
ATTDEF
  5
7C
330
6E
100
AcDbEntity
  8
AM_6
100
AcDbText
 10
7.475
 20
-1.349913901117211
 30
0.0
 40
0.5
  1
12
100
AcDbAttributeDefinition
  3

  2
B
 70
     8
280
     0
  0
ATTDEF
  5
7D
330
6E
100
AcDbEntity
  8
AM_6
100
AcDbText
 10
7.475
 20
-1.849913901117211
 30
0.0
 40
0.5
  1
3
100
AcDbAttributeDefinition
  3

  2
C
 70
     8
280
     0
  0
ATTDEF
  5
7E
330
6E
100
AcDbEntity
  8
AM_6
100
AcDbText
 10
7.475
 20
-2.349913901117211
 30
0.0
 40
0.5
  1
9-5/16
100
AcDbAttributeDefinition
  3

  2
DMIN
 70
     8
280
     0
  0
ATTDEF
  5
7F
330
6E
100
AcDbEntity
  8
AM_6
100
AcDbText
 10
7.475
 20
-2.849913901117211
 30
0.0
 40
0.5
  1
9-11/16
100
AcDbAttributeDefinition
  3

  2
DMAX
 70
     8
280
     0
  0
ATTDEF
  5
80
330
6E
100
AcDbEntity
  8
AM_6
100
AcDbText
 10
7.475
 20
-3.349913901117211
 30
0.0
 40
0.5
  1
3/4
100
AcDbAttributeDefinition
  3

  2
F
 70
     8
280
     0
  0
ATTDEF
  5
81
330
6E
100
AcDbEntity
  8
AM_6
100
AcDbText
 10
7.475
 20
-3.849913901117211
 30
0.0
 40
0.5
  1
1
100
AcDbAttributeDefinition
  3

  2
G
 70
     8
280
     0
  0
ATTDEF
  5
82
330
6E
100
AcDbEntity
  8
AM_6
100
AcDbText
 10
7.475
 20
-4.349913901117211
 30
0.0
 40
0.5
  1
1-7/8
100
AcDbAttributeDefinition
  3

  2
H
 70
     8
280
     0
  0
ATTDEF
  5
83
330
6E
100
AcDbEntity
  8
AM_6
100
AcDbText
 10
7.475
 20
-4.849913901117211
 30
0.0
 40
0.5
  1
6-1/4
100
AcDbAttributeDefinition
  3

  2
J
 70
     8
280
     0
  0
ATTDEF
  5
84
330
6E
100
AcDbEntity
  8
AM_6
100
AcDbText
 10
7.475
 20
-5.349913901117211
 30
0.0
 40
0.5
  1
6-11/32
100
AcDbAttributeDefinition
  3

  2
J1
 70
     8
280
     0
  0
ATTDEF
  5
85
330
6E
100
AcDbEntity
  8
AM_6
100
AcDbText
 10
7.475
 20
-5.849913901117211
 30
0.0
 40
0.5
  1
4-23/32
100
AcDbAttributeDefinition
  3

  2
L
 70
     8
280
     0
  0
ATTDEF
  5
86
330
6E
100
AcDbEntity
  8
AM_6
100
AcDbText
 10
7.475
 20
-6.349913901117211
 30
0.0
 40
0.5
  1
3-1/8
100
AcDbAttributeDefinition
  3

  2
M
 70
     8
280
     0
  0
ATTDEF
  5
87
330
6E
100
AcDbEntity
  8
AM_6
100
AcDbText
 10
7.475
 20
-6.849913901117211
 30
0.0
 40
0.5
  1
baldor
100
AcDbAttributeDefinition
  3

  2
COMPANY
 70
     8
280
     0
  0
INSERT
  5
89
330
6E
100
AcDbEntity
  8
0
100
AcDbBlockReference
  2
2_2_15_16C_1_0_in_023017_2
 10
0.0
 20
0.0
 30
0.0
  0
INSERT
  5
C6
330
6E
100
AcDbEntity
  8
0
100
AcDbBlockReference
  2
3_2_15_16C_2_0_in_023017_2
 10
0.0
 20
0.0
 30
0.0
  0
INSERT
  5
FE
330
6E
100
AcDbEntity
  8
0
100
AcDbBlockReference
  2
4_2_15_16I_0_in_023017_2
 10
0.0
 20
0.0
 30
0.0
  0
INSERT
  5
152
330
6E
100
AcDbEntity
  8
0
100
AcDbBlockReference
  2
5_405015E_Inch_0_in_023017_2
 10
0.0
 20
0.0
 30
0.0
  0
INSERT
  5
1B0
330
6E
100
AcDbEntity
  8
0
100
AcDbBlockReference
  2
6_023017H_0_in_023017_2
 10
0.0
 20
0.0
 30
0.0
  0
ENDBLK
  5
71
330
6E
100
AcDbEntity
  8
0
100
AcDbBlockEnd
  0
BLOCK
  5
8A
330
88
100
AcDbEntity
  8
0
100
AcDbBlockBegin
  2
2_2_15_16C_1_0_in_023017_2
 70
     2
 10
0.0
 20
0.0
 30
0.0
  3
2_2_15_16C_1_0_in_023017_2
  1

  0
ATTDEF
  5
8C
330
88
100
AcDbEntity
  8
AM_6
100
AcDbText
 10
7.250000000000001
 20
2.359375
 30
0.0
 40
0.5
  1
E-Type Collar -Inch
100
AcDbAttributeDefinition
  3

  2
NN
 70
     8
280
     0
  0
ATTDEF
  5
8D
330
88
100
AcDbEntity
  8
AM_6
100
AcDbText
 10
7.250000000000001
 20
1.859375
 30
0.0
 40
0.5
  1
E-Type Bearings
100
AcDbAttributeDefinition
  3

  2
NT
 70
     8
280
     0
  0
ATTDEF
  5
8E
330
88
100
AcDbEntity
  8
AM_6
100
AcDbText
 10
7.250000000000001
 20
1.359375
 30
0.0
 40
0.5
  1
2-15/16C
100
AcDbAttributeDefinition
  3

  2
NB
 70
     8
280
     0
  0
ATTDEF
  5
8F
330
88
100
AcDbEntity
  8
AM_6
100
AcDbText
 10
7.250000000000001
 20
0.8593750000000004
 30
0.0
 40
0.5
  1
$BORE.C
100
AcDbAttributeDefinition
  3

  2
NBSYN
 70
     8
280
     0
  0
ATTDEF
  5
90
330
88
100
AcDbEntity
  8
AM_6
100
AcDbText
 10
7.250000000000001
 20
0.3593750000000004
 30
0.0
 40
0.5
  1
2-15/16C
100
AcDbAttributeDefinition
  3

  2
LINA
 70
     8
280
     0
  0
ATTDEF
  5
91
330
88
100
AcDbEntity
  8
AM_6
100
AcDbText
 10
7.250000000000001
 20
-0.1406249999999996
 30
0.0
 40
0.5
  1
2-15/16
100
AcDbAttributeDefinition
  3

  2
BORE
 70
     8
280
     0
  0
ATTDEF
  5
92
330
88
100
AcDbEntity
  8
AM_6
100
AcDbText
 10
7.250000000000001
 20
-0.6406249999999996
 30
0.0
 40
0.5
  1
4.71875
100
AcDbAttributeDefinition
  3

  2
L
 70
     8
280
     0
  0
ATTDEF
  5
93
330
88
100
AcDbEntity
  8
AM_6
100
AcDbText
 10
7.250000000000001
 20
-1.140625
 30
0.0
 40
0.5
  1
4.50
100
AcDbAttributeDefinition
  3

  2
A
 70
     8
280
     0
  0
ATTDEF
  5
94
330
88
100
AcDbEntity
  8
AM_6
100
AcDbText
 10
7.250000000000001
 20
-1.640625
 30
0.0
 40
0.5
  1
1.94
100
AcDbAttributeDefinition
  3

  2
B
 70
     8
280
     0
  0
ATTDEF
  5
95
330
88
100
AcDbEntity
  8
AM_6
100
AcDbText
 10
7.250000000000001
 20
-2.140625
 30
0.0
 40
0.5
  1
3.47
100
AcDbAttributeDefinition
  3

  2
C
 70
     8
280
     0
  0
ATTDEF
  5
96
330
88
100
AcDbEntity
  8
AM_6
100
AcDbText
 10
7.250000000000001
 20
-2.640625
 30
0.0
 40
0.5
  1
4.78
100
AcDbAttributeDefinition
  3

  2
D
 70
     8
280
     0
  0
ATTDEF
  5
97
330
88
100
AcDbEntity
  8
AM_6
100
AcDbText
 10
7.250000000000001
 20
-3.140625
 30
0.0
 40
0.5
  1
0.54
100
AcDbAttributeDefinition
  3

  2
E
 70
     8
280
     0
  0
ATTDEF
  5
98
330
88
100
AcDbEntity
  8
AM_6
100
AcDbText
 10
7.250000000000001
 20
-3.640625
 30
0.0
 40
0.5
  1
0.44
100
AcDbAttributeDefinition
  3

  2
F
 70
     8
280
     0
  0
ATTDEF
  5
99
330
88
100
AcDbEntity
  8
AM_6
100
AcDbText
 10
7.250000000000001
 20
-4.140625
 30
0.0
 40
0.5
  1
1/2-13
100
AcDbAttributeDefinition
  3

  2
CS
 70
     8
280
     0
  0
ATTDEF
  5
9A
330
88
100
AcDbEntity
  8
AM_6
100
AcDbText
 10
7.250000000000001
 20
-4.640625
 30
0.0
 40
0.5
  1
0.5000
100
AcDbAttributeDefinition
  3

  2
NDM
 70
     8
280
     0
  0
ATTDEF
  5
9B
330
88
100
AcDbEntity
  8
AM_6
100
AcDbText
 10
7.250000000000001
 20
-5.140625
 30
0.0
 40
0.5
  1
0.4170
100
AcDbAttributeDefinition
  3

  2
KDM
 70
     8
280
     0
  0
ATTDEF
  5
9C
330
88
100
AcDbEntity
  8
AM_6
100
AcDbText
 10
7.250000000000001
 20
-5.640625
 30
0.0
 40
0.5
  1
baldor
100
AcDbAttributeDefinition
  3

  2
COMPANY
 70
     8
280
     0
  0
LINE
  5
9F
330
88
100
AcDbEntity
  8
AM_9
100
AcDbLine
 10
1.60165
 20
1.743316666666666
 30
0.0
 11
1.593692063818954
 21
1.73535873048562
 31
0.0
  0
LINE
  5
A0
330
88
100
AcDbEntity
  8
AM_9
100
AcDbLine
 10
2.026401677631181
 20
1.735264989035485
 30
0.0
 11
2.01835
 21
1.743316666666666
 31
0.0
  0
LINE
  5
A1
330
88
100
AcDbEntity
  8
AM_9
100
AcDbLine
 10
2.01835
 20
2.317725
 30
0.0
 11
2.05956198299665
 21
2.35893698299665
 31
0.0
  0
LINE
  5
A2
330
88
100
AcDbEntity
  8
AM_9
100
AcDbLine
 10
1.560112557122459
 20
2.359262442877541
 30
0.0
 11
1.60165
 21
2.317725
 31
0.0
  0
LINE
  5
A3
330
88
100
AcDbEntity
  8
AM_9
100
AcDbLine
 10
1.60165
 20
2.317725
 30
0.0
 11
2.01835
 21
2.317725
 31
0.0
  0
LINE
  5
A4
330
88
100
AcDbEntity
  8
AM_9
100
AcDbLine
 10
1.60165
 20
1.743316666666666
 30
0.0
 11
2.01835
 21
1.743316666666666
 31
0.0
  0
LINE
  5
A5
330
88
100
AcDbEntity
  8
AM_9
100
AcDbLine
 10
2.01835
 20
1.743316666666666
 30
0.0
 11
2.01835
 21
2.317725
 31
0.0
  0
LINE
  5
A6
330
88
100
AcDbEntity
  8
AM_9
100
AcDbLine
 10
1.60165
 20
2.317725
 30
0.0
 11
1.60165
 21
1.743316666666666
 31
0.0
  0
ELLIPSE
  5
A7
330
88
100
AcDbEntity
  8
AM_9
100
AcDbEllipse
 10
1.809999999999999
 20
0.7367574593302577
 30
0.0
 11
0.2083499999999993
 21
3.104656934738150E-9
 31
0.0
210
0.0
220
0.0
230
1.0
 40
0.9063077870366485
 41
2.443456527349716
 42
3.141592638688632
  0
ELLIPSE
  5
A8
330
88
100
AcDbEntity
  8
AM_9
100
AcDbEllipse
 10
1.810000000000004
 20
0.7367574593302594
 30
0.0
 11
0.2083499999999956
 21
0.0
 31
0.0
210
0.0
220
0.0
230
1.0
 40
0.9063077870366489
 41
3.141592653589793
 42
6.981321418191387
  0
LINE
  5
A9
330
88
100
AcDbEntity
  8
AM_9
100
AcDbLine
 10
2.01835
 20
0.736757459330257
 30
0.0
 11
2.01835
 21
0.9795129106929624
 31
0.0
  0
LINE
  5
AA
330
88
100
AcDbEntity
  8
AM_9
100
AcDbLine
 10
1.60165
 20
0.9795129106929624
 30
0.0
 11
1.60165
 21
0.736757459330257
 31
0.0
  0
LWPOLYLINE
  5
AB
330
88
100
AcDbEntity
  8
AM_9
100
AcDbPolyline
 90
       39
 70
     0
 43
0.0
 10
1.654460767138978
 20
0.583721682818935
 10
1.678197992660089
 20
0.5621914304862247
 10
1.705704398860351
 20
0.5437817440865208
 10
1.738752577690727
 20
0.5286101330073821
 10
1.775308884043453
 20
0.5190210942237669
 10
1.809448280293217
 20
0.5161190449049239
 10
1.844659609339304
 20
0.519015792295342
 10
1.876729276553558
 20
0.5270396867747148
 10
1.907831273095757
 20
0.5402710588245739
 10
1.93634634917952
 20
0.5580495763906975
 10
1.962214827786413
 20
0.5803142753877915
 10
1.984972569846916
 20
0.6070374533197813
 10
2.003458188147673
 20
0.6373402601943328
 10
2.017103700389159
 20
0.6709887290329132
 10
2.024960235219265
 20
0.7068459548476023
 10
2.026411114352762
 20
0.7434194750101198
 10
2.021067220647529
 20
0.7803295335151329
 10
2.009189965200795
 20
0.8148593693106497
 10
1.990340734915682
 20
0.8476777130326709
 10
1.966484769650647
 20
0.8754861606673194
 10
1.936410334238764
 20
0.8997111918724506
 10
1.904571293770885
 20
0.9172133521964033
 10
1.8683464517832
 20
0.9298273669908831
 10
1.834026229611861
 20
0.9359405638623237
 10
1.797831398016388
 20
0.9368513382657403
 10
1.764888599907363
 20
0.9328134877579397
 10
1.732295213212401
 20
0.9239419010702572
 10
1.702422082354892
 20
0.9108887685538871
 10
1.674654236130354
 20
0.8934395013134132
 10
1.64965509630899
 20
0.8716330573039578
 10
1.628388550425192
 20
0.8458669307679773
 10
1.611321425731918
 20
0.8159806573729141
 10
1.599573200158219
 20
0.7828936477108869
 10
1.593831299756221
 20
0.7474362685283912
 10
1.594633464860007
 20
0.710202540741052
 10
1.602112024932895
 20
0.6735643456235487
 10
1.616602020644807
 20
0.6372212244336629
 10
1.633235434007992
 20
0.6095458402862494
 10
1.654460767138978
 20
0.583721682818935
  0
LINE
  5
AC
330
88
100
AcDbEntity
  8
AM_9
100
AcDbLine
 10
2.25
 20
1.735
 30
0.0
 11
2.026045048667588
 21
1.735
 31
0.0
  0
LINE
  5
AD
330
88
100
AcDbEntity
  8
AM_9
100
AcDbLine
 10
1.594172398070024
 20
1.735
 30
0.0
 11
1.37
 21
1.735
 31
0.0
  0
LINE
  5
AE
330
88
100
AcDbEntity
  8
AM_9
100
AcDbLine
 10
1.37
 20
-1.735
 30
0.0
 11
2.25
 21
-1.735
 31
0.0
  0
LWPOLYLINE
  5
AF
330
88
100
AcDbEntity
  8
AM_9
100
AcDbPolyline
 90
       21
 70
     0
 43
0.0
 10
1.593333333333417
 20
1.734999999999989
 10
1.593960288434045
 20
1.734907118711451
 10
1.60017042818074
 20
1.734039130040588
 10
1.613187605814695
 20
1.732289344884671
 10
1.632629757231117
 20
1.729883667903581
 10
1.657641421991179
 20
1.727145362185531
 10
1.68785489446845
 20
1.724379603752346
 10
1.720626323758072
 20
1.722066215237736
 10
1.756437628082113
 20
1.720344091750088
 10
1.791318106206523
 20
1.719504029424383
 10
1.826778266969307
 20
1.719474752753205
 10
1.860006309297697
 20
1.720225087541898
 10
1.89185500592187
 20
1.721629502908366
 10
1.921822817727664
 20
1.723574843478317
 10
1.948868925596456
 20
1.725836063197507
 10
1.973714244414009
 20
1.728337819984525
 10
1.994175428933712
 20
1.730698950424888
 10
2.010743085542843
 20
1.732805942327863
 10
2.02156688754621
 20
1.734280483442391
 10
2.026455950329134
 20
1.734966500839165
 10
2.026666666666074
 20
1.734999999999916
  0
LINE
  5
B0
330
88
100
AcDbEntity
  8
AM_9
100
AcDbLine
 10
1.652095283153148
 20
1.727716805260199
 30
0.0
 11
1.649555668756486
 21
1.727985576745294
 31
0.0
  0
LINE
  5
B1
330
88
100
AcDbEntity
  8
AM_9
100
AcDbLine
 10
2.026666666666074
 20
1.734999999999916
 30
0.0
 11
2.0144284640282
 21
1.733301025058875
 31
0.0
  0
LINE
  5
B2
330
88
100
AcDbEntity
  8
AM_9
100
AcDbLine
 10
1.37
 20
-2.359375
 30
0.0
 11
1.37
 21
2.359375
 31
0.0
  0
LINE
  5
B3
330
88
100
AcDbEntity
  8
AM_9
100
AcDbLine
 10
1.5
 20
2.359375
 30
0.0
 11
1.37
 21
2.359375
 31
0.0
  0
LINE
  5
B4
330
88
100
AcDbEntity
  8
AM_9
100
AcDbLine
 10
1.37
 20
-2.359375
 30
0.0
 11
1.5
 21
-2.359375
 31
0.0
  0
LINE
  5
B5
330
88
100
AcDbEntity
  8
AM_9
100
AcDbLine
 10
1.560000000000052
 20
2.359374999999995
 30
0.0
 11
1.572978084010233
 21
2.358163302224951
 31
0.0
  0
LINE
  5
B7
330
88
100
AcDbEntity
  8
AM_5
100
AcDbLine
 10
2.06
 20
2.359375
 30
0.0
 11
2.06
 21
1.735000000000001
 31
0.0
  0
LINE
  5
B8
330
88
100
AcDbEntity
  8
AM_5
100
AcDbLine
 10
1.56
 20
2.359375
 30
0.0
 11
1.56
 21
1.735000000000001
 31
0.0
  0
ELLIPSE
  5
BA
330
88
100
AcDbEntity
  8
AM_4
100
AcDbEllipse
 10
1.81
 20
0.7367574593302573
 30
0.0
 11
0.20835
 21
0.0
 31
0.0
210
0.0
220
0.0
230
1.0
 40
0.9063077870366487
 41
0.6981361110117978
 42
2.443456542577997
  0
LINE
  5
BB
330
88
100
AcDbEntity
  8
AM_4
100
AcDbLine
 10
2.25
 20
-2.212708333333333
 30
0.0
 11
2.25
 21
2.212708333333333
 31
0.0
  0
ARC
  5
BC
330
88
100
AcDbEntity
  8
AM_4
100
AcDbCircle
 10
2.103333333333333
 20
2.212708333333333
 30
0.0
 40
0.1466666666666669
100
AcDbArc
 50
0.0
 51
90.0
  0
ARC
  5
BD
330
88
100
AcDbEntity
  8
AM_4
100
AcDbCircle
 10
2.103333333333333
 20
-2.212708333333333
 30
0.0
 40
0.1466666666666674
100
AcDbArc
 50
270.0
 51
0.0
  0
LINE
  5
BE
330
88
100
AcDbEntity
  8
AM_4
100
AcDbLine
 10
2.103333333333333
 20
-2.359375
 30
0.0
 11
2.103333333333333
 21
2.359375
 31
0.0
  0
LWPOLYLINE
  5
BF
330
88
100
AcDbEntity
  8
AM_4
100
AcDbPolyline
 90
       39
 70
     0
 43
0.0
 10
1.637404745047907
 20
0.8385093147337453
 10
1.612786521970041
 20
0.862737203503287
 10
1.591865539762076
 20
0.8906225716712176
 10
1.574620141961734
 20
0.9239338725103374
 10
1.563628037766915
 20
0.9603962989784924
 10
1.560011506727427
 20
0.9950473933885903
 10
1.56304783600187
 20
1.030532815533235
 10
1.572179289720224
 20
1.063067470946235
 10
1.587572465257049
 20
1.094438538791401
 10
1.608288276301587
 20
1.12267065910018
 10
1.634542345156681
 20
1.148095216534088
 10
1.665630273573559
 20
1.169746465729017
 10
1.701214275261731
 20
1.187141718103831
 10
1.740324688946399
 20
1.199537369531373
 10
1.782369947754167
 20
1.206441329282228
 10
1.825285198617749
 20
1.20731766842915
 10
1.868982517114074
 20
1.201886585903598
 10
1.910139280342119
 20
1.190431006263062
 10
1.949567829201778
 20
1.172496692467523
 10
1.983258801221311
 20
1.149879987294374
 10
2.012785918076061
 20
1.1214304996712
 10
2.034535294416357
 20
1.090889148105141
 10
2.050329177094185
 20
1.056080092367966
 10
2.058318007781718
 20
1.02199746415789
 10
2.059657146848933
 20
0.9858213949814851
 10
2.054494008322143
 20
0.9519243529418752
 10
2.042894249982266
 20
0.9181095278410509
 10
2.025798774137946
 20
0.8870206335847499
 10
2.002903908805469
 20
0.8579609935641649
 10
1.974981156631457
 20
0.8322819848151564
 10
1.942179994433425
 20
0.8104474423556529
 10
1.905285908795002
 20
0.7934091739102602
 10
1.86488680387649
 20
0.7818762920464113
 10
1.822632273486196
 20
0.7766466552211561
 10
1.778845934574491
 20
0.7781214911363368
 10
1.736481139256238
 20
0.7863542802511123
 10
1.695020400036164
 20
0.8016429023935602
 10
1.665121363204347
 20
0.8180394830386665
 10
1.637404744999214
 20
0.8385093145636722
  0
LINE
  5
C0
330
88
100
AcDbEntity
  8
AM_4
100
AcDbLine
 10
2.103333333333333
 20
2.359375
 30
0.0
 11
2.059201050513483
 21
2.359375
 31
0.0
  0
LINE
  5
C1
330
88
100
AcDbEntity
  8
AM_4
100
AcDbLine
 10
1.560204208322313
 20
2.359375
 30
0.0
 11
1.5
 21
2.359375
 31
0.0
  0
LINE
  5
C2
330
88
100
AcDbEntity
  8
AM_4
100
AcDbLine
 10
1.5
 20
-2.359375
 30
0.0
 11
2.103333333333333
 21
-2.359375
 31
0.0
  0
LWPOLYLINE
  5
C3
330
88
100
AcDbEntity
  8
AM_4
100
AcDbPolyline
 90
       21
 70
     0
 43
0.0
 10
2.059999999999965
 20
2.359374999999997
 10
2.058826544248452
 20
2.359260938908822
 10
2.051773801286873
 20
2.358599597555123
 10
2.038633429695194
 20
2.357413158489149
 10
2.01990401441403
 20
2.355836730599555
 10
1.995387412921692
 20
2.353974265058031
 10
1.96634609979954
 20
2.352062358750359
 10
1.93190128760042
 20
2.350217076568643
 10
1.894355779474501
 20
2.348718960754191
 10
1.852922522691474
 20
2.347704342650792
 10
1.810335157342085
 20
2.347343497866978
 10
1.766728038421501
 20
2.347710618325879
 10
1.724340608412547
 20
2.34876177852493
 10
1.684388346186649
 20
2.350395065462159
 10
1.648096106934724
 20
2.352403149882938
 10
1.617376195886267
 20
2.354500549530383
 10
1.592328862213463
 20
2.356474669536132
 10
1.574673442383182
 20
2.35800827693602
 10
1.563719650834173
 20
2.359021229476038
 10
1.560038125304694
 20
2.359369290576375
 10
1.560000000000052
 20
2.359374999999995
  0
ELLIPSE
  5
C4
330
88
100
AcDbEntity
  8
AM_4
100
AcDbEllipse
 10
1.81
 20
0.9795129106929625
 30
0.0
 11
0.2083500000000002
 21
3.104656934738163E-9
 31
0.0
210
0.0
220
0.0
230
1.0
 40
0.9063077870366494
 41
0.0
 42
6.283185307179586
  0
ENDBLK
  5
8B
330
88
100
AcDbEntity
  8
0
100
AcDbBlockEnd
  0
BLOCK
  5
C7
330
C5
100
AcDbEntity
  8
0
100
AcDbBlockBegin
  2
3_2_15_16C_2_0_in_023017_2
 70
     2
 10
0.0
 20
0.0
 30
0.0
  3
3_2_15_16C_2_0_in_023017_2
  1

  0
ATTDEF
  5
C9
330
C5
100
AcDbEntity
  8
AM_6
100
AcDbText
 10
3.63
 20
2.359375
 30
0.0
 40
0.5
  1
E-Type Collar -Inch
100
AcDbAttributeDefinition
  3

  2
NN
 70
     8
280
     0
  0
ATTDEF
  5
CA
330
C5
100
AcDbEntity
  8
AM_6
100
AcDbText
 10
3.63
 20
1.859375
 30
0.0
 40
0.5
  1
E-Type Bearings
100
AcDbAttributeDefinition
  3

  2
NT
 70
     8
280
     0
  0
ATTDEF
  5
CB
330
C5
100
AcDbEntity
  8
AM_6
100
AcDbText
 10
3.63
 20
1.359375
 30
0.0
 40
0.5
  1
2-15/16C
100
AcDbAttributeDefinition
  3

  2
NB
 70
     8
280
     0
  0
ATTDEF
  5
CC
330
C5
100
AcDbEntity
  8
AM_6
100
AcDbText
 10
3.63
 20
0.859375
 30
0.0
 40
0.5
  1
$BORE.C
100
AcDbAttributeDefinition
  3

  2
NBSYN
 70
     8
280
     0
  0
ATTDEF
  5
CD
330
C5
100
AcDbEntity
  8
AM_6
100
AcDbText
 10
3.63
 20
0.359375
 30
0.0
 40
0.5
  1
2-15/16C
100
AcDbAttributeDefinition
  3

  2
LINA
 70
     8
280
     0
  0
ATTDEF
  5
CE
330
C5
100
AcDbEntity
  8
AM_6
100
AcDbText
 10
3.63
 20
-0.140625
 30
0.0
 40
0.5
  1
2-15/16
100
AcDbAttributeDefinition
  3

  2
BORE
 70
     8
280
     0
  0
ATTDEF
  5
CF
330
C5
100
AcDbEntity
  8
AM_6
100
AcDbText
 10
3.63
 20
-0.640625
 30
0.0
 40
0.5
  1
4.71875
100
AcDbAttributeDefinition
  3

  2
L
 70
     8
280
     0
  0
ATTDEF
  5
D0
330
C5
100
AcDbEntity
  8
AM_6
100
AcDbText
 10
3.63
 20
-1.140625
 30
0.0
 40
0.5
  1
4.50
100
AcDbAttributeDefinition
  3

  2
A
 70
     8
280
     0
  0
ATTDEF
  5
D1
330
C5
100
AcDbEntity
  8
AM_6
100
AcDbText
 10
3.63
 20
-1.640625
 30
0.0
 40
0.5
  1
1.94
100
AcDbAttributeDefinition
  3

  2
B
 70
     8
280
     0
  0
ATTDEF
  5
D2
330
C5
100
AcDbEntity
  8
AM_6
100
AcDbText
 10
3.63
 20
-2.140625
 30
0.0
 40
0.5
  1
3.47
100
AcDbAttributeDefinition
  3

  2
C
 70
     8
280
     0
  0
ATTDEF
  5
D3
330
C5
100
AcDbEntity
  8
AM_6
100
AcDbText
 10
3.63
 20
-2.640625
 30
0.0
 40
0.5
  1
4.78
100
AcDbAttributeDefinition
  3

  2
D
 70
     8
280
     0
  0
ATTDEF
  5
D4
330
C5
100
AcDbEntity
  8
AM_6
100
AcDbText
 10
3.63
 20
-3.140625
 30
0.0
 40
0.5
  1
0.54
100
AcDbAttributeDefinition
  3

  2
E
 70
     8
280
     0
  0
ATTDEF
  5
D5
330
C5
100
AcDbEntity
  8
AM_6
100
AcDbText
 10
3.63
 20
-3.640625
 30
0.0
 40
0.5
  1
0.44
100
AcDbAttributeDefinition
  3

  2
F
 70
     8
280
     0
  0
ATTDEF
  5
D6
330
C5
100
AcDbEntity
  8
AM_6
100
AcDbText
 10
3.63
 20
-4.140625
 30
0.0
 40
0.5
  1
1/2-13
100
AcDbAttributeDefinition
  3

  2
CS
 70
     8
280
     0
  0
ATTDEF
  5
D7
330
C5
100
AcDbEntity
  8
AM_6
100
AcDbText
 10
3.63
 20
-4.640625
 30
0.0
 40
0.5
  1
0.5000
100
AcDbAttributeDefinition
  3

  2
NDM
 70
     8
280
     0
  0
ATTDEF
  5
D8
330
C5
100
AcDbEntity
  8
AM_6
100
AcDbText
 10
3.63
 20
-5.140625
 30
0.0
 40
0.5
  1
0.4170
100
AcDbAttributeDefinition
  3

  2
KDM
 70
     8
280
     0
  0
ATTDEF
  5
D9
330
C5
100
AcDbEntity
  8
AM_6
100
AcDbText
 10
3.63
 20
-5.640625
 30
0.0
 40
0.5
  1
baldor
100
AcDbAttributeDefinition
  3

  2
COMPANY
 70
     8
280
     0
  0
LINE
  5
DA
330
C5
100
AcDbEntity
  8
AM_9
100
AcDbLine
 10
-1.60165
 20
1.743316666666667
 30
0.0
 11
-1.60165
 21
2.317725
 31
0.0
  0
LINE
  5
DB
330
C5
100
AcDbEntity
  8
AM_9
100
AcDbLine
 10
-2.01835
 20
2.317725
 30
0.0
 11
-2.01835
 21
1.743316666666667
 31
0.0
  0
LINE
  5
DC
330
C5
100
AcDbEntity
  8
AM_9
100
AcDbLine
 10
-2.01835
 20
1.743316666666667
 30
0.0
 11
-1.60165
 21
1.743316666666667
 31
0.0
  0
LINE
  5
DD
330
C5
100
AcDbEntity
  8
AM_9
100
AcDbLine
 10
-2.01835
 20
1.743316666666667
 30
0.0
 11
-2.026383499926558
 21
1.735283166740109
 31
0.0
  0
LINE
  5
DE
330
C5
100
AcDbEntity
  8
AM_9
100
AcDbLine
 10
-1.59367834970831
 20
1.735345016374976
 30
0.0
 11
-1.60165
 21
1.743316666666667
 31
0.0
  0
LINE
  5
DF
330
C5
100
AcDbEntity
  8
AM_9
100
AcDbLine
 10
-2.01835
 20
2.317725
 30
0.0
 11
-1.60165
 21
2.317725
 31
0.0
  0
LINE
  5
E0
330
C5
100
AcDbEntity
  8
AM_9
100
AcDbLine
 10
-1.60165
 20
2.317725
 30
0.0
 11
-1.56
 21
2.359375
 31
0.0
  0
LINE
  5
E1
330
C5
100
AcDbEntity
  8
AM_9
100
AcDbLine
 10
-2.06
 20
2.359375
 30
0.0
 11
-2.01835
 21
2.317725
 31
0.0
  0
LWPOLYLINE
  5
E2
330
C5
100
AcDbEntity
  8
AM_9
100
AcDbPolyline
 90
       38
 70
     0
 43
0.0
 10
-1.649555668756485
 20
0.5890254700626292
 10
-1.630059625999035
 20
0.6141961062210209
 10
-1.614490675361804
 20
0.6415065184640424
 10
-1.601404494522102
 20
0.6760599527747658
 10
-1.594461797028247
 20
0.7117782647958293
 10
-1.593960288434045
 20
0.7488859425485209
 10
-1.60017042818074
 20
0.7851620103667684
 10
-1.613187605814695
 20
0.8198680908671213
 10
-1.632629757231117
 20
0.85175045400154
 10
-1.657641421991179
 20
0.879352269910662
 10
-1.68785489446845
 20
0.9024724552481161
 10
-1.720626323758072
 20
0.9194273976470249
 10
-1.756437628082113
 20
0.9310007182481714
 10
-1.791318106206522
 20
0.9364023306210565
 10
-1.826778266969307
 20
0.9365686464404278
 10
-1.860006309297697
 20
0.9317852251762043
 10
-1.89185500592187
 20
0.9224310735818785
 10
-1.921822817727664
 20
0.9085724076092766
 10
-1.948868925596456
 20
0.8907712261375355
 10
-1.973714244414009
 20
0.8680718266968884
 10
-1.994175428933712
 20
0.8420767489012024
 10
-2.010743085542843
 20
0.811286905893542
 10
-2.02156688754621
 20
0.778219582931986
 10
-2.026455950329134
 20
0.7420183810332149
 10
-2.024738766420171
 20
0.7051854586134623
 10
-2.016166359535574
 20
0.6681214688356935
 10
-2.000972840272981
 20
0.632567701221001
 10
-1.97960814663297
 20
0.5999750677882284
 10
-1.95252598454245
 20
0.5711544343957886
 10
-1.921709367588373
 20
0.5482001815905637
 10
-1.887052376945246
 20
0.5307967420929403
 10
-1.852306650676082
 20
0.520478917735267
 10
-1.816196659427123
 20
0.5162103991709229
 10
-1.782182542507812
 20
0.5180049648621396
 10
-1.748963263442655
 20
0.5252208835120284
 10
-1.717762826461814
 20
0.5374759647080078
 10
-1.688992724445749
 20
0.5542453298024038
 10
-1.649555668756485
 20
0.589025470062629
  0
LINE
  5
E3
330
C5
100
AcDbEntity
  8
AM_9
100
AcDbLine
 10
-2.25
 20
-1.735
 30
0.0
 11
-1.37
 21
-1.735
 31
0.0
  0
LINE
  5
E4
330
C5
100
AcDbEntity
  8
AM_9
100
AcDbLine
 10
-1.37
 20
1.735
 30
0.0
 11
-1.594138124101324
 21
1.735
 31
0.0
  0
LINE
  5
E5
330
C5
100
AcDbEntity
  8
AM_9
100
AcDbLine
 10
-2.026005839839122
 20
1.735
 30
0.0
 11
-2.25
 21
1.735
 31
0.0
  0
LWPOLYLINE
  5
E6
330
C5
100
AcDbEntity
  8
AM_9
100
AcDbPolyline
 90
       21
 70
     0
 43
0.0
 10
-2.026666666666196
 20
1.734999999999933
 10
-2.026411114352762
 20
1.734963553231908
 10
-2.021067220647529
 20
1.73421087214332
 10
-2.009189965200795
 20
1.732602866727684
 10
-1.990340734915682
 20
1.730235875674304
 10
-1.966484769650646
 20
1.72756835787447
 10
-1.936410334238764
 20
1.724733588278365
 10
-1.904571293770885
 20
1.722381168611359
 10
-1.8683464517832
 20
1.720523846078998
 10
-1.834026229611861
 20
1.719574172208164
 10
-1.797831398016388
 20
1.719429892626525
 10
-1.764888599907363
 20
1.720064026576171
 10
-1.732295213212401
 20
1.721407489605135
 10
-1.702422082354892
 20
1.723261129001908
 10
-1.674654236130354
 20
1.725513960970386
 10
-1.64965509630899
 20
1.727974975329969
 10
-1.628388550425192
 20
1.730388278227267
 10
-1.611321425731918
 20
1.732535648310732
 10
-1.599573200158219
 20
1.734121883030203
 10
-1.593831299756221
 20
1.7349290183679
 10
-1.59333333333354
 20
1.734999999999971
  0
ELLIPSE
  5
E7
330
C5
100
AcDbEntity
  8
AM_9
100
AcDbEllipse
 10
-1.810000000000002
 20
0.7367574593302579
 30
0.0
 11
0.2083499999999976
 21
3.104656934738124E-9
 31
0.0
210
0.0
220
0.0
230
1.0
 40
0.9063077870366498
 41
2.443456527349722
 42
6.283187037607677
  0
LINE
  5
E8
330
C5
100
AcDbEntity
  8
AM_9
100
AcDbLine
 10
-1.60165
 20
0.7367574593302569
 30
0.0
 11
-1.60165
 21
0.9795129106929624
 31
0.0
  0
LINE
  5
E9
330
C5
100
AcDbEntity
  8
AM_9
100
AcDbLine
 10
-2.01835
 20
0.9795129106929624
 30
0.0
 11
-2.01835
 21
0.7367574593302569
 31
0.0
  0
ELLIPSE
  5
EA
330
C5
100
AcDbEntity
  8
AM_9
100
AcDbEllipse
 10
-1.809999999999999
 20
0.736757459330257
 30
0.0
 11
0.2083499999999991
 21
0.0
 31
0.0
210
0.0
220
0.0
230
1.0
 40
0.90630778703665
 41
0.0
 42
0.6981361110117928
  0
LINE
  5
EB
330
C5
100
AcDbEntity
  8
AM_9
100
AcDbLine
 10
-1.5
 20
-2.359375
 30
0.0
 11
-1.37
 21
-2.359375
 31
0.0
  0
LINE
  5
EC
330
C5
100
AcDbEntity
  8
AM_9
100
AcDbLine
 10
-1.37
 20
2.359375
 30
0.0
 11
-1.5
 21
2.359375
 31
0.0
  0
LINE
  5
ED
330
C5
100
AcDbEntity
  8
AM_9
100
AcDbLine
 10
-1.37
 20
2.359375
 30
0.0
 11
-1.37
 21
-2.359375
 31
0.0
  0
LINE
  5
EE
330
C5
100
AcDbEntity
  8
AM_5
100
AcDbLine
 10
-2.06
 20
2.359375
 30
0.0
 11
-2.06
 21
1.735
 31
0.0
  0
LINE
  5
EF
330
C5
100
AcDbEntity
  8
AM_5
100
AcDbLine
 10
-1.56
 20
2.359375
 30
0.0
 11
-1.56
 21
1.735
 31
0.0
  0
ELLIPSE
  5
F0
330
C5
100
AcDbEntity
  8
AM_4
100
AcDbEllipse
 10
-1.81
 20
0.7367574593302575
 30
0.0
 11
0.2083499999999996
 21
0.0
 31
0.0
210
0.0
220
0.0
230
1.0
 40
0.906307787036649
 41
1.570796326794897
 42
2.443456542578003
  0
ELLIPSE
  5
F1
330
C5
100
AcDbEntity
  8
AM_4
100
AcDbEllipse
 10
-1.81
 20
0.9795129106929624
 30
0.0
 11
0.20835
 21
0.0
 31
0.0
210
0.0
220
0.0
230
1.0
 40
0.9063077870366498
 41
3.141592653589793
 42
6.283185307179586
  0
ELLIPSE
  5
F2
330
C5
100
AcDbEntity
  8
AM_4
100
AcDbEllipse
 10
-1.81
 20
0.9795129106929625
 30
0.0
 11
0.20835
 21
0.0
 31
0.0
210
0.0
220
0.0
230
1.0
 40
0.9063077870366492
 41
0.0
 42
3.141592653589793
  0
ELLIPSE
  5
F3
330
C5
100
AcDbEntity
  8
AM_4
100
AcDbEllipse
 10
-1.81
 20
0.7367574593302575
 30
0.0
 11
0.2083499999999996
 21
0.0
 31
0.0
210
0.0
220
0.0
230
1.0
 40
0.906307787036649
 41
0.6981361110117899
 42
1.570796326794897
  0
LWPOLYLINE
  5
F4
330
C5
100
AcDbEntity
  8
AM_4
100
AcDbPolyline
 90
       38
 70
     0
 43
0.0
 10
-1.619285365243439
 20
0.8556327230851023
 10
-1.645402722853204
 20
0.8319978546552359
 10
-1.674930600228178
 20
0.8120887096414533
 10
-1.712108774653523
 20
0.7944148519389849
 10
-1.751831614328399
 20
0.7825650159382259
 10
-1.79456404648549
 20
0.7768118464194397
 10
-1.837718466308976
 20
0.777752811058333
 10
-1.880797789163622
 20
0.7856384364243614
 10
-1.92185689160515
 20
0.8002116877431518
 10
-1.959393492189768
 20
0.8210175879704965
 10
-1.99254717544095
 20
0.8474712925964307
 10
-2.019343903191148
 20
0.8778414006266254
 10
-2.040007460099333
 20
0.9119003483436747
 10
-2.053122732471662
 20
0.9467604126244724
 10
-2.059458491903518
 20
0.9829201152517155
 10
-2.058826544248452
 20
1.017684204968099
 10
-2.051773801286873
 20
1.051604492999284
 10
-2.038633429695194
 20
1.083405041817086
 10
-2.01990401441403
 20
1.112683192664022
 10
-1.995387412921692
 20
1.139418418871424
 10
-1.96634609979954
 20
1.162249125616388
 10
-1.93190128760042
 20
1.181473742283764
 10
-1.894355779474501
 20
1.195611589965185
 10
-1.852922522691474
 20
1.204626370398941
 10
-1.810335157342085
 20
1.207702717556654
 10
-1.766728038421501
 20
1.204574167944354
 10
-1.724340608412546
 20
1.195222351923879
 10
-1.684388346186649
 20
1.179716108074031
 10
-1.648096106934724
 20
1.158432437544275
 10
-1.617376195886267
 20
1.132409697208659
 10
-1.592328862213463
 20
1.101882776657778
 10
-1.574673442383182
 20
1.069193830356992
 10
-1.563719650834173
 20
1.033993748365556
 10
-1.560038125304694
 20
0.9991012288579005
 10
-1.56296951277289
 20
0.9638860810333546
 10
-1.572215035880981
 20
0.9301675331894284
 10
-1.587344822729625
 20
0.8980713951308601
 10
-1.619285365177164
 20
0.8556327229866553
  0
LINE
  5
F5
330
C5
100
AcDbEntity
  8
AM_4
100
AcDbLine
 10
-2.103333333333333
 20
-2.359375
 30
0.0
 11
-1.5
 21
-2.359375
 31
0.0
  0
LINE
  5
F6
330
C5
100
AcDbEntity
  8
AM_4
100
AcDbLine
 10
-1.5
 20
2.359375
 30
0.0
 11
-1.56
 21
2.359375
 31
0.0
  0
LINE
  5
F7
330
C5
100
AcDbEntity
  8
AM_4
100
AcDbLine
 10
-2.06
 20
2.359375
 30
0.0
 11
-2.103333333333333
 21
2.359375
 31
0.0
  0
LWPOLYLINE
  5
F8
330
C5
100
AcDbEntity
  8
AM_4
100
AcDbPolyline
 90
       20
 70
     0
 43
0.0
 10
-1.560000000000038
 20
2.359374999999996
 10
-1.56304783600187
 20
2.359084739458873
 10
-1.572179289720224
 20
2.358236048300077
 10
-1.587572465257049
 20
2.35687660944692
 10
-1.608288276301587
 20
2.355188665856818
 10
-1.634542345156681
 20
2.353283729386875
 10
-1.665630273573559
 20
2.351368178351641
 10
-1.701214275261731
 20
2.349630216729071
 10
-1.740324688946399
 20
2.348282025785208
 10
-1.782369947754167
 20
2.347491113295463
 10
-1.825285198617749
 20
2.347388660866131
 10
-1.868982517114074
 20
2.348016128508163
 10
-1.910139280342119
 20
2.349281417176336
 10
-1.949567829201778
 20
2.351105280705856
 10
-1.98325880122131
 20
2.353136104588019
 10
-2.012785918076061
 20
2.355272190414748
 10
-2.034535294416357
 20
2.35705746351865
 10
-2.050329177094185
 20
2.358466058397719
 10
-2.058318007781718
 20
2.359214383260974
 10
-2.059999999999881
 20
2.359374999999988
  0
LINE
  5
F9
330
C5
100
AcDbEntity
  8
AM_4
100
AcDbLine
 10
-2.25
 20
2.212708333333333
 30
0.0
 11
-2.25
 21
-2.212708333333333
 31
0.0
  0
ARC
  5
FA
330
C5
100
AcDbEntity
  8
AM_4
100
AcDbCircle
 10
-2.103333333333333
 20
-2.212708333333333
 30
0.0
 40
0.1466666666666669
100
AcDbArc
 50
180.0
 51
270.0
  0
ARC
  5
FB
330
C5
100
AcDbEntity
  8
AM_4
100
AcDbCircle
 10
-2.103333333333333
 20
2.212708333333333
 30
0.0
 40
0.1466666666666674
100
AcDbArc
 50
90.0
 51
180.0
  0
LINE
  5
FC
330
C5
100
AcDbEntity
  8
AM_4
100
AcDbLine
 10
-2.103333333333333
 20
2.359375
 30
0.0
 11
-2.103333333333333
 21
-2.359375
 31
0.0
  0
ENDBLK
  5
C8
330
C5
100
AcDbEntity
  8
0
100
AcDbBlockEnd
  0
BLOCK
  5
FF
330
FD
100
AcDbEntity
  8
0
100
AcDbBlockBegin
  2
4_2_15_16I_0_in_023017_2
 70
     2
 10
0.0
 20
0.0
 30
0.0
  3
4_2_15_16I_0_in_023017_2
  1

  0
ATTDEF
  5
101
330
FD
100
AcDbEntity
  8
AM_6
100
AcDbText
 10
7.475
 20
2.392260416666667
 30
0.0
 40
0.5
  1
E-Type Insert -Inch
100
AcDbAttributeDefinition
  3

  2
NN
 70
     8
280
     0
  0
ATTDEF
  5
102
330
FD
100
AcDbEntity
  8
AM_6
100
AcDbText
 10
7.475
 20
1.892260416666667
 30
0.0
 40
0.5
  1
E-Type Bearings
100
AcDbAttributeDefinition
  3

  2
NT
 70
     8
280
     0
  0
ATTDEF
  5
103
330
FD
100
AcDbEntity
  8
AM_6
100
AcDbText
 10
7.475
 20
1.392260416666667
 30
0.0
 40
0.5
  1
2-15/16I
100
AcDbAttributeDefinition
  3

  2
NB
 70
     8
280
     0
  0
ATTDEF
  5
104
330
FD
100
AcDbEntity
  8
AM_6
100
AcDbText
 10
7.475
 20
0.8922604166666668
 30
0.0
 40
0.5
  1
$BORE.I
100
AcDbAttributeDefinition
  3

  2
NBSYN
 70
     8
280
     0
  0
ATTDEF
  5
105
330
FD
100
AcDbEntity
  8
AM_6
100
AcDbText
 10
7.475
 20
0.3922604166666668
 30
0.0
 40
0.5
  1
2-15/16I
100
AcDbAttributeDefinition
  3

  2
LINA
 70
     8
280
     0
  0
ATTDEF
  5
106
330
FD
100
AcDbEntity
  8
AM_6
100
AcDbText
 10
7.475
 20
-0.1077395833333332
 30
0.0
 40
0.5
  1
2-15/16
100
AcDbAttributeDefinition
  3

  2
BORE
 70
     8
280
     0
  0
ATTDEF
  5
107
330
FD
100
AcDbEntity
  8
AM_6
100
AcDbText
 10
7.475
 20
-0.6077395833333332
 30
0.0
 40
0.5
  1
4.50
100
AcDbAttributeDefinition
  3

  2
A
 70
     8
280
     0
  0
ATTDEF
  5
108
330
FD
100
AcDbEntity
  8
AM_6
100
AcDbText
 10
7.475
 20
-1.107739583333333
 30
0.0
 40
0.5
  1
1.94
100
AcDbAttributeDefinition
  3

  2
B
 70
     8
280
     0
  0
ATTDEF
  5
109
330
FD
100
AcDbEntity
  8
AM_6
100
AcDbText
 10
7.475
 20
-1.607739583333333
 30
0.0
 40
0.5
  1
3.47
100
AcDbAttributeDefinition
  3

  2
C
 70
     8
280
     0
  0
ATTDEF
  5
10A
330
FD
100
AcDbEntity
  8
AM_6
100
AcDbText
 10
7.475
 20
-2.107739583333333
 30
0.0
 40
0.5
  1
4.78
100
AcDbAttributeDefinition
  3

  2
D
 70
     8
280
     0
  0
ATTDEF
  5
10B
330
FD
100
AcDbEntity
  8
AM_6
100
AcDbText
 10
7.475
 20
-2.607739583333333
 30
0.0
 40
0.5
  1
0.54
100
AcDbAttributeDefinition
  3

  2
E
 70
     8
280
     0
  0
ATTDEF
  5
10C
330
FD
100
AcDbEntity
  8
AM_6
100
AcDbText
 10
7.475
 20
-3.107739583333333
 30
0.0
 40
0.5
  1
0.44
100
AcDbAttributeDefinition
  3

  2
F
 70
     8
280
     0
  0
ATTDEF
  5
10D
330
FD
100
AcDbEntity
  8
AM_6
100
AcDbText
 10
7.475
 20
-3.607739583333333
 30
0.0
 40
0.5
  1
baldor
100
AcDbAttributeDefinition
  3

  2
COMPANY
 70
     8
280
     0
  0
LINE
  5
10E
330
FD
100
AcDbEntity
  8
AM_9
100
AcDbLine
 10
1.54
 20
1.735
 30
0.0
 11
1.54
 21
1.46875
 31
0.0
  0
LINE
  5
10F
330
FD
100
AcDbEntity
  8
AM_9
100
AcDbLine
 10
2.08
 20
1.46875
 30
0.0
 11
2.08
 21
1.735
 31
0.0
  0
LINE
  5
110
330
FD
100
AcDbEntity
  8
AM_9
100
AcDbLine
 10
-2.08
 20
1.735000000000001
 30
0.0
 11
-2.08
 21
1.46875
 31
0.0
  0
LINE
  5
111
330
FD
100
AcDbEntity
  8
AM_9
100
AcDbLine
 10
-1.54
 20
1.46875
 30
0.0
 11
-1.54
 21
1.735000000000001
 31
0.0
  0
LINE
  5
112
330
FD
100
AcDbEntity
  8
AM_9
100
AcDbLine
 10
-2.25
 20
-1.46875
 30
0.0
 11
2.25
 21
-1.46875
 31
0.0
  0
LINE
  5
113
330
FD
100
AcDbEntity
  8
AM_9
100
AcDbLine
 10
2.25
 20
1.46875
 30
0.0
 11
2.08
 21
1.46875
 31
0.0
  0
LINE
  5
114
330
FD
100
AcDbEntity
  8
AM_9
100
AcDbLine
 10
1.54
 20
1.46875
 30
0.0
 11
-1.539999999999999
 21
1.46875
 31
0.0
  0
LINE
  5
115
330
FD
100
AcDbEntity
  8
AM_9
100
AcDbLine
 10
-2.08
 20
1.46875
 30
0.0
 11
-2.25
 21
1.46875
 31
0.0
  0
LWPOLYLINE
  5
116
330
FD
100
AcDbEntity
  8
AM_9
100
AcDbPolyline
 90
       21
 70
     0
 43
0.0
 10
1.540000000000899
 20
1.468749999999835
 10
1.541571172234286
 20
1.46846198387145
 10
1.549894821091187
 20
1.466963280588572
 10
1.565682606252527
 20
1.464246410747712
 10
1.587748849731257
 20
1.460726578212288
 10
1.616632860483893
 20
1.456611620558014
 10
1.650507104018587
 20
1.452502855889976
 10
1.689981793199859
 20
1.448699738546094
 10
1.73182838998577
 20
1.44583448676265
 10
1.777245332013574
 20
1.444091212761473
 10
1.821662007908809
 20
1.44376679728011
 10
1.867037348670711
 20
1.444845950834684
 10
1.909205815178388
 20
1.447124167535464
 10
1.949753617367224
 20
1.450468074818341
 10
1.985763223779808
 20
1.454379342995998
 10
2.017804968285833
 20
1.458598459941692
 10
2.043552369096493
 20
1.462488725293492
 10
2.063291555927731
 20
1.465770505503604
 10
2.075280517295214
 20
1.467889749046711
 10
2.079966692613922
 20
1.468743877475205
 10
2.079999999999089
 20
1.468749999999833
  0
LINE
  5
117
330
FD
100
AcDbEntity
  8
AM_9
100
AcDbLine
 10
1.817008940140818
 20
1.443736709979315
 30
0.0
 11
1.81
 21
1.443719696651673
 31
0.0
  0
LINE
  5
118
330
FD
100
AcDbEntity
  8
AM_9
100
AcDbLine
 10
2.079999999999089
 20
1.468749999999833
 30
0.0
 11
2.059161314578549
 21
1.465062429790113
 31
0.0
  0
LWPOLYLINE
  5
119
330
FD
100
AcDbEntity
  8
AM_9
100
AcDbPolyline
 90
       21
 70
     0
 43
0.0
 10
-2.079999999999101
 20
1.468749999999835
 10
-2.078428827765714
 20
1.46846198387145
 10
-2.070105178908813
 20
1.466963280588572
 10
-2.054317393747473
 20
1.464246410747712
 10
-2.032251150268743
 20
1.460726578212288
 10
-2.003367139516107
 20
1.456611620558014
 10
-1.969492895981414
 20
1.452502855889976
 10
-1.930018206800141
 20
1.448699738546094
 10
-1.88817161001423
 20
1.44583448676265
 10
-1.842754667986427
 20
1.444091212761473
 10
-1.798337992091191
 20
1.44376679728011
 10
-1.75296265132929
 20
1.444845950834684
 10
-1.710794184821612
 20
1.447124167535464
 10
-1.670246382632776
 20
1.450468074818341
 10
-1.634236776220192
 20
1.454379342995998
 10
-1.602195031714167
 20
1.458598459941692
 10
-1.576447630903507
 20
1.462488725293492
 10
-1.55670844407227
 20
1.465770505503604
 10
-1.544719482704786
 20
1.467889749046711
 10
-1.540033307386078
 20
1.468743877475205
 10
-1.540000000000912
 20
1.468749999999833
  0
LINE
  5
11A
330
FD
100
AcDbEntity
  8
AM_9
100
AcDbLine
 10
-1.802991059859182
 20
1.443736709979315
 30
0.0
 11
-1.81
 21
1.443719696651673
 31
0.0
  0
LINE
  5
11B
330
FD
100
AcDbEntity
  8
AM_9
100
AcDbLine
 10
-1.540000000000912
 20
1.468749999999833
 30
0.0
 11
-1.560838685421451
 21
1.465062429790113
 31
0.0
  0
LWPOLYLINE
  5
11C
330
FD
100
AcDbEntity
  8
AM_9
100
AcDbPolyline
 90
        4
 70
     0
 43
0.0
 10
1.547580153297385
 20
0.6777157102165215
 10
1.547001963355146
 20
0.6755500854848517
 10
1.540529647551703
 20
0.6359992588781278
 10
1.540000000795543
 20
0.6207393565795334
  0
LWPOLYLINE
  5
11D
330
FD
100
AcDbEntity
  8
AM_9
100
AcDbPolyline
 90
        4
 70
     0
 43
0.0
 10
1.60697610434648
 20
0.7774616299639168
 10
1.58233391800072
 20
0.7492314867968826
 10
1.561366911657267
 20
0.7145304328268821
 10
1.547580153297385
 20
0.6777157102165215
  0
LWPOLYLINE
  5
11E
330
FD
100
AcDbEntity
  8
AM_9
100
AcDbPolyline
 90
        5
 70
     0
 43
0.0
 10
1.686199856088315
 20
0.8298453233984325
 10
1.680965620936412
 20
0.827524420901277
 10
1.642968102920861
 20
0.8064699022870238
 10
1.610264153931264
 20
0.7806066863761535
 10
1.60697610434648
 20
0.7774616299639168
  0
LINE
  5
11F
330
FD
100
AcDbEntity
  8
AM_9
100
AcDbLine
 10
1.54
 20
0.733231005674801
 30
0.0
 11
1.54
 21
0.6206498696221466
 31
0.0
  0
LINE
  5
120
330
FD
100
AcDbEntity
  8
AM_9
100
AcDbLine
 10
2.08
 20
0.6206963085489487
 30
0.0
 11
2.08
 21
0.7331837551069111
 31
0.0
  0
LWPOLYLINE
  5
121
330
FD
100
AcDbEntity
  8
AM_9
100
AcDbPolyline
 90
       21
 70
     0
 43
0.0
 10
1.540000000795543
 20
0.6207393565795334
 10
1.541571172234286
 20
0.5942384652990501
 10
1.549894821091187
 20
0.5543266602890735
 10
1.565682606252527
 20
0.5146549001252677
 10
1.587748849731257
 20
0.4783822910042209
 10
1.616632860483893
 20
0.4448071962208214
 10
1.650507104018587
 20
0.416408021693074
 10
1.689981793199859
 20
0.3930485434822679
 10
1.731828389985771
 20
0.3768134399344055
 10
1.777245332013574
 20
0.3674035359155821
 10
1.821662007908809
 20
0.3656874776556234
 10
1.867037348670711
 20
0.3714375963189231
 10
1.909205815178388
 20
0.3839945893020683
 10
1.949753617367224
 20
0.4036216489379055
 10
1.985763223779808
 20
0.4288933275494775
 10
2.017804968285833
 20
0.460195145270786
 10
2.043552369096493
 20
0.4952930133785908
 10
2.063291555927731
 20
0.5347160913211636
 10
2.075280517295214
 20
0.5748043660216929
 10
2.079966692613922
 20
0.6168744615420734
 10
2.079999999192213
 20
0.6207016431600074
  0
LWPOLYLINE
  5
122
330
FD
100
AcDbEntity
  8
AM_9
100
AcDbPolyline
 90
        4
 70
     0
 43
0.0
 10
2.013189167276213
 20
0.7773003483561552
 10
1.995280272999292
 20
0.7931411348950417
 10
1.959312625699886
 20
0.8172771728725324
 10
1.93379990241517
 20
0.8298454276051201
  0
LWPOLYLINE
  5
123
330
FD
100
AcDbEntity
  8
AM_9
100
AcDbPolyline
 90
        5
 70
     0
 43
0.0
 10
2.07281976299039
 20
0.6762276122259999
 10
2.066523380846526
 20
0.6960428836190908
 10
2.049374771366885
 20
0.7316689537200969
 10
2.025113218906887
 20
0.7647653412907126
 10
2.013189167276213
 20
0.7773003483561552
  0
LWPOLYLINE
  5
124
330
FD
100
AcDbEntity
  8
AM_9
100
AcDbPolyline
 90
        3
 70
     0
 43
0.0
 10
2.079999999192213
 20
0.6207016431600074
 10
2.077030128095985
 20
0.6566856791621793
 10
2.07281976299039
 20
0.6762276122259999
  0
LWPOLYLINE
  5
125
330
FD
100
AcDbEntity
  8
AM_9
100
AcDbPolyline
 90
       21
 70
     0
 43
0.0
 10
2.079999999060577
 20
0.7332630968872687
 10
2.078361689251916
 20
0.7062192301036738
 10
2.069686191475499
 20
0.6656760509708041
 10
2.053874925706517
 20
0.6265951842282542
 10
2.031185563952597
 20
0.590019755107444
 10
2.002394707038779
 20
0.5571759590203642
 10
1.967826430692859
 20
0.5288625129938059
 10
1.928781192761772
 20
0.506295908375424
 10
1.886251049515455
 20
0.4903139345042478
 10
1.841520148649331
 20
0.481402205714283
 10
1.796338706378366
 20
0.4799717700862892
 10
1.751545868557394
 20
0.4858312307011138
 10
1.708664073453575
 20
0.498788371175763
 10
1.668603240050793
 20
0.5183059791630641
 10
1.632227649049555
 20
0.5440508430748552
 10
1.600808406601096
 20
0.5749774044417181
 10
1.575079103600344
 20
0.6105139554012956
 10
1.555996897166227
 20
0.6492435274687914
 10
1.544253418495136
 20
0.6898451008822204
 10
1.540009176900261
 20
0.7312245649614673
 10
1.540000000337887
 20
0.7332304419296061
  0
LWPOLYLINE
  5
126
330
FD
100
AcDbEntity
  8
AM_9
100
AcDbPolyline
 90
        7
 70
     0
 43
0.0
 10
1.621016841031675
 20
0.9034676592967296
 10
1.627281807824553
 20
0.9085405041072084
 10
1.663121540818258
 20
0.9322922846077885
 10
1.703406783534719
 20
0.9505108006401444
 10
1.746760450401828
 20
0.9626988618758441
 10
1.778153786116405
 20
0.9674242732439081
 10
1.81
 20
0.9690127339343693
  0
LWPOLYLINE
  5
127
330
FD
100
AcDbEntity
  8
AM_9
100
AcDbPolyline
 90
        6
 70
     0
 43
0.0
 10
1.540000000337887
 20
0.7332304419296061
 10
1.54342719455302
 20
0.7717267926801303
 10
1.554212070566499
 20
0.8106767367509481
 10
1.572126624235077
 20
0.8469703838685858
 10
1.596569579887676
 20
0.8797811018221683
 10
1.621016841031675
 20
0.9034676592967296
  0
LWPOLYLINE
  5
128
330
FD
100
AcDbEntity
  8
AM_9
100
AcDbPolyline
 90
        4
 70
     0
 43
0.0
 10
-2.072419846702615
 20
0.6777157102165217
 10
-2.072998036644854
 20
0.6755500854848517
 10
-2.079470352448297
 20
0.6359992588781278
 10
-2.079999999204457
 20
0.6207393565795335
  0
LWPOLYLINE
  5
129
330
FD
100
AcDbEntity
  8
AM_9
100
AcDbPolyline
 90
        4
 70
     0
 43
0.0
 10
-2.012823636890642
 20
0.777656635717
 10
-2.03766608199928
 20
0.7492314867968826
 10
-2.058633088342733
 20
0.7145304328268821
 10
-2.072419846702615
 20
0.6777157102165217
  0
LWPOLYLINE
  5
12A
330
FD
100
AcDbEntity
  8
AM_9
100
AcDbPolyline
 90
        5
 70
     0
 43
0.0
 10
-1.933794969881767
 20
0.8298475559551662
 10
-1.939034379063588
 20
0.827524420901277
 10
-1.977031897079139
 20
0.8064699022870238
 10
-2.009735846068736
 20
0.7806066863761535
 10
-2.012823636890642
 20
0.777656635717
  0
LINE
  5
12B
330
FD
100
AcDbEntity
  8
AM_9
100
AcDbLine
 10
-2.08
 20
0.7332310056748012
 30
0.0
 11
-2.08
 21
0.6206498696221466
 31
0.0
  0
LINE
  5
12C
330
FD
100
AcDbEntity
  8
AM_9
100
AcDbLine
 10
-1.54
 20
0.6206963085489487
 30
0.0
 11
-1.54
 21
0.7331837551069114
 31
0.0
  0
LWPOLYLINE
  5
12D
330
FD
100
AcDbEntity
  8
AM_9
100
AcDbPolyline
 90
       21
 70
     0
 43
0.0
 10
-2.079999999204457
 20
0.6207393565795335
 10
-2.078428827765714
 20
0.5942384652990501
 10
-2.070105178908813
 20
0.5543266602890735
 10
-2.054317393747473
 20
0.5146549001252677
 10
-2.032251150268743
 20
0.4783822910042209
 10
-2.003367139516107
 20
0.4448071962208214
 10
-1.969492895981414
 20
0.416408021693074
 10
-1.930018206800141
 20
0.3930485434822679
 10
-1.888171610014229
 20
0.3768134399344055
 10
-1.842754667986427
 20
0.3674035359155821
 10
-1.798337992091191
 20
0.3656874776556234
 10
-1.75296265132929
 20
0.3714375963189231
 10
-1.710794184821612
 20
0.3839945893020683
 10
-1.670246382632776
 20
0.4036216489379055
 10
-1.634236776220192
 20
0.4288933275494775
 10
-1.602195031714167
 20
0.460195145270786
 10
-1.576447630903507
 20
0.4952930133785908
 10
-1.55670844407227
 20
0.5347160913211636
 10
-1.544719482704786
 20
0.5748043660216929
 10
-1.540033307386078
 20
0.6168744615420734
 10
-1.540000000807787
 20
0.6207016431600076
  0
LWPOLYLINE
  5
12E
330
FD
100
AcDbEntity
  8
AM_9
100
AcDbPolyline
 90
        4
 70
     0
 43
0.0
 10
-1.607221284000357
 20
0.7777003155110798
 10
-1.624719727000709
 20
0.7931411348950417
 10
-1.660687374300114
 20
0.8172771728725324
 10
-1.686259444126768
 20
0.8298710279256495
  0
LWPOLYLINE
  5
12F
330
FD
100
AcDbEntity
  8
AM_9
100
AcDbPolyline
 90
        5
 70
     0
 43
0.0
 10
-1.54718023700961
 20
0.676227612226
 10
-1.553476619153473
 20
0.6960428836190908
 10
-1.570625228633115
 20
0.7316689537200969
 10
-1.594886781093114
 20
0.7647653412907126
 10
-1.607221284000357
 20
0.7777003155110798
  0
LWPOLYLINE
  5
130
330
FD
100
AcDbEntity
  8
AM_9
100
AcDbPolyline
 90
        3
 70
     0
 43
0.0
 10
-1.540000000807787
 20
0.6207016431600076
 10
-1.542969871904015
 20
0.6566856791621793
 10
-1.54718023700961
 20
0.676227612226
  0
LWPOLYLINE
  5
131
330
FD
100
AcDbEntity
  8
AM_9
100
AcDbPolyline
 90
       21
 70
     0
 43
0.0
 10
-1.540000000939423
 20
0.733263096887269
 10
-1.541638310748085
 20
0.7062192301036742
 10
-1.550313808524501
 20
0.6656760509708044
 10
-1.566125074293483
 20
0.6265951842282544
 10
-1.588814436047402
 20
0.5900197551074442
 10
-1.617605292961221
 20
0.5571759590203644
 10
-1.652173569307141
 20
0.5288625129938062
 10
-1.691218807238228
 20
0.5062959083754243
 10
-1.733748950484546
 20
0.490313934504248
 10
-1.778479851350669
 20
0.4814022057142832
 10
-1.823661293621634
 20
0.4799717700862896
 10
-1.868454131442606
 20
0.4858312307011141
 10
-1.911335926546425
 20
0.4987883711757633
 10
-1.951396759949207
 20
0.5183059791630643
 10
-1.987772350950445
 20
0.5440508430748555
 10
-2.019191593398904
 20
0.5749774044417187
 10
-2.044920896399657
 20
0.6105139554012962
 10
-2.064003102833774
 20
0.6492435274687917
 10
-2.075746581504864
 20
0.6898451008822204
 10
-2.079990823099739
 20
0.7312245649614674
 10
-2.079999999662113
 20
0.7332304419296062
  0
LWPOLYLINE
  5
132
330
FD
100
AcDbEntity
  8
AM_9
100
AcDbPolyline
 90
        7
 70
     0
 43
0.0
 10
-1.999001458101795
 20
0.9034522520492178
 10
-1.992718192175447
 20
0.9085405041072088
 10
-1.956878459181742
 20
0.9322922846077888
 10
-1.916593216465281
 20
0.9505108006401448
 10
-1.873239549598172
 20
0.9626988618758444
 10
-1.841846213883596
 20
0.9674242732439081
 10
-1.81
 20
0.9690127339343694
  0
LWPOLYLINE
  5
133
330
FD
100
AcDbEntity
  8
AM_9
100
AcDbPolyline
 90
        6
 70
     0
 43
0.0
 10
-2.079999999662113
 20
0.7332304419296062
 10
-2.07657280544698
 20
0.7717267926801307
 10
-2.065787929433502
 20
0.8106767367509483
 10
-2.047873375764923
 20
0.8469703838685863
 10
-2.023430420112324
 20
0.8797811018221688
 10
-1.999001458101795
 20
0.9034522520492178
  0
LWPOLYLINE
  5
134
330
FD
100
AcDbEntity
  8
AM_9
100
AcDbPolyline
 90
        7
 70
     0
 43
0.0
 10
1.999331120635601
 20
0.9031741718542816
 10
2.010576240282542
 20
0.8930299250944533
 10
2.038032979761295
 20
0.8617190865714432
 10
2.059107090367962
 20
0.8262393862674882
 10
2.073117799535108
 20
0.7876929872279017
 10
2.079517223934403
 20
0.7474031802326289
 10
2.079999999060577
 20
0.7332630968872687
  0
LWPOLYLINE
  5
135
330
FD
100
AcDbEntity
  8
AM_9
100
AcDbPolyline
 90
        6
 70
     0
 43
0.0
 10
1.81
 20
0.9690127339343693
 10
1.855016402455498
 20
0.9658156537625587
 10
1.898756420371638
 20
0.95638393892102
 10
1.939941422842958
 20
0.9408645784788014
 10
1.977497412273244
 20
0.9196851739790676
 10
1.999331120635601
 20
0.9031741718542816
  0
LINE
  5
136
330
FD
100
AcDbEntity
  8
AM_9
100
AcDbLine
 10
0.9700000000000005
 20
-1.735
 30
0.0
 11
2.25
 21
-1.735
 31
0.0
  0
LINE
  5
137
330
FD
100
AcDbEntity
  8
AM_9
100
AcDbLine
 10
2.25
 20
1.735
 30
0.0
 11
2.08
 21
1.735
 31
0.0
  0
LINE
  5
138
330
FD
100
AcDbEntity
  8
AM_9
100
AcDbLine
 10
1.54
 20
1.735
 30
0.0
 11
0.9700000000000005
 21
1.735
 31
0.0
  0
LWPOLYLINE
  5
139
330
FD
100
AcDbEntity
  8
AM_9
100
AcDbPolyline
 90
       21
 70
     0
 43
0.0
 10
2.079999999999459
 20
1.734999999999916
 10
2.078361689251916
 20
1.734745801625743
 10
2.069885648311371
 20
1.733454801890785
 10
2.053874925706517
 20
1.731126794717348
 10
2.031568274721003
 20
1.728125429580516
 10
2.002394707038779
 20
1.724627705708261
 10
1.968370695918303
 20
1.721164221486621
 10
1.928781192761772
 20
1.717973798331601
 10
1.886901003930175
 20
1.715587002866794
 10
1.841520148649331
 20
1.714152420227232
 10
1.796991927009088
 20
1.713911960972015
 10
1.751545868557394
 20
1.714859144502169
 10
1.709241141557393
 20
1.716821874148468
 10
1.668603240050793
 20
1.719685449064489
 10
1.632690256922136
 20
1.72301008267228
 10
1.600808406601096
 20
1.726582208511594
 10
1.575381628933681
 20
1.729847039492745
 10
1.555996897166227
 20
1.732582631867579
 10
1.54434406020292
 20
1.73432928775059
 10
1.540009176900261
 20
1.734998571918166
 10
1.540000000000178
 20
1.734999999999972
  0
LINE
  5
13A
330
FD
100
AcDbEntity
  8
AM_9
100
AcDbLine
 10
1.801883376016407
 20
1.713881816107777
 30
0.0
 11
1.81
 21
1.713862596592854
 31
0.0
  0
LINE
  5
13B
330
FD
100
AcDbEntity
  8
AM_9
100
AcDbLine
 10
1.540000000000178
 20
1.734999999999972
 30
0.0
 11
1.543470778474468
 21
1.734463267390522
 31
0.0
  0
LWPOLYLINE
  5
13C
330
FD
100
AcDbEntity
  8
AM_9
100
AcDbPolyline
 90
        7
 70
     0
 43
0.0
 10
-1.620737573459217
 20
0.9032321980658051
 10
-1.609423759717458
 20
0.8930299250944533
 10
-1.581967020238704
 20
0.8617190865714432
 10
-1.560892909632038
 20
0.8262393862674884
 10
-1.546882200464892
 20
0.7876929872279023
 10
-1.540482776065598
 20
0.7474031802326294
 10
-1.540000000939423
 20
0.733263096887269
  0
LWPOLYLINE
  5
13D
330
FD
100
AcDbEntity
  8
AM_9
100
AcDbPolyline
 90
        6
 70
     0
 43
0.0
 10
-1.81
 20
0.9690127339343694
 10
-1.764983597544502
 20
0.9658156537625591
 10
-1.721243579628362
 20
0.9563839389210202
 10
-1.680058577157042
 20
0.9408645784788018
 10
-1.642502587726757
 20
0.9196851739790678
 10
-1.620737573459217
 20
0.9032321980658051
  0
LINE
  5
13E
330
FD
100
AcDbEntity
  8
AM_9
100
AcDbLine
 10
-2.25
 20
-1.735000000000001
 30
0.0
 11
-0.9700000000000001
 21
-1.735000000000001
 31
0.0
  0
LINE
  5
13F
330
FD
100
AcDbEntity
  8
AM_9
100
AcDbLine
 10
-0.9700000000000001
 20
1.735000000000001
 30
0.0
 11
-1.54
 21
1.735000000000001
 31
0.0
  0
LINE
  5
140
330
FD
100
AcDbEntity
  8
AM_9
100
AcDbLine
 10
-2.08
 20
1.735000000000001
 30
0.0
 11
-2.25
 21
1.735000000000001
 31
0.0
  0
LWPOLYLINE
  5
141
330
FD
100
AcDbEntity
  8
AM_9
100
AcDbPolyline
 90
       21
 70
     0
 43
0.0
 10
-1.540000000000541
 20
1.734999999999917
 10
-1.541638310748085
 20
1.734745801625744
 10
-1.550114351688629
 20
1.733454801890786
 10
-1.566125074293483
 20
1.731126794717349
 10
-1.588431725278997
 20
1.728125429580517
 10
-1.617605292961221
 20
1.724627705708261
 10
-1.651629304081697
 20
1.721164221486622
 10
-1.691218807238228
 20
1.717973798331602
 10
-1.733098996069825
 20
1.715587002866795
 10
-1.778479851350669
 20
1.714152420227232
 10
-1.823008072990912
 20
1.713911960972015
 10
-1.868454131442606
 20
1.714859144502169
 10
-1.910758858442607
 20
1.716821874148469
 10
-1.951396759949207
 20
1.71968544906449
 10
-1.987309743077865
 20
1.723010082672281
 10
-2.019191593398904
 20
1.726582208511594
 10
-2.044618371066319
 20
1.729847039492745
 10
-2.064003102833773
 20
1.732582631867579
 10
-2.07565593979708
 20
1.734329287750591
 10
-2.079990823099739
 20
1.734998571918167
 10
-2.079999999999822
 20
1.734999999999973
  0
LINE
  5
142
330
FD
100
AcDbEntity
  8
AM_9
100
AcDbLine
 10
-1.818116623983595
 20
1.713881816107778
 30
0.0
 11
-1.81
 21
1.713862596592855
 31
0.0
  0
LINE
  5
143
330
FD
100
AcDbEntity
  8
AM_9
100
AcDbLine
 10
-2.079999999999822
 20
1.734999999999973
 30
0.0
 11
-2.059551906087759
 21
1.731935666770574
 31
0.0
  0
LINE
  5
144
330
FD
100
AcDbEntity
  8
AM_9
100
AcDbLine
 10
-0.9700000000000001
 20
-2.39
 30
0.0
 11
0.9700000000000005
 21
-2.39
 31
0.0
  0
LINE
  5
145
330
FD
100
AcDbEntity
  8
AM_9
100
AcDbLine
 10
0.9700000000000005
 20
2.39
 30
0.0
 11
-0.9700000000000001
 21
2.39
 31
0.0
  0
LINE
  5
146
330
FD
100
AcDbEntity
  8
AM_9
100
AcDbLine
 10
-0.9700000000000001
 20
2.39
 30
0.0
 11
-0.9700000000000001
 21
-2.39
 31
0.0
  0
LINE
  5
147
330
FD
100
AcDbEntity
  8
AM_9
100
AcDbLine
 10
0.9700000000000005
 20
2.39
 30
0.0
 11
0.9700000000000005
 21
-2.39
 31
0.0
  0
LINE
  5
14A
330
FD
100
AcDbEntity
  8
AM_7
100
AcDbLine
 10
-2.475
 20
0.0
 30
0.0
 11
2.475
 21
0.0
 31
0.0
  0
LINE
  5
14B
330
FD
100
AcDbEntity
  8
AM_7
100
AcDbLine
 10
1.81
 20
-0.088974358974359
 30
0.0
 11
1.81
 21
2.392260416666667
 31
0.0
  0
LINE
  5
14C
330
FD
100
AcDbEntity
  8
AM_7
100
AcDbLine
 10
-1.81
 20
-0.088974358974359
 30
0.0
 11
-1.81
 21
2.392260416666667
 31
0.0
  0
LWPOLYLINE
  5
14D
330
FD
100
AcDbEntity
  8
AM_4
100
AcDbPolyline
 90
        4
 70
     0
 43
0.0
 10
1.81
 20
0.8548454111396356
 10
1.765743999489902
 20
0.8518224301524164
 10
1.721487998979805
 20
0.8424685757147893
 10
1.686199856088315
 20
0.8298453233984325
  0
LWPOLYLINE
  5
14E
330
FD
100
AcDbEntity
  8
AM_4
100
AcDbPolyline
 90
        5
 70
     0
 43
0.0
 10
1.93379990241517
 20
0.8298454276051201
 10
1.919825944241546
 20
0.8354497333277936
 10
1.875921522030643
 20
0.8480755618015013
 10
1.843481311854057
 20
0.8531207494939239
 10
1.81
 20
0.8548454111396356
  0
LWPOLYLINE
  5
14F
330
FD
100
AcDbEntity
  8
AM_4
100
AcDbPolyline
 90
        4
 70
     0
 43
0.0
 10
-1.81
 20
0.8548454111396356
 10
-1.854256000510098
 20
0.8518224301524164
 10
-1.898512001020196
 20
0.8424685757147893
 10
-1.933794969881767
 20
0.8298475559551662
  0
LWPOLYLINE
  5
150
330
FD
100
AcDbEntity
  8
AM_4
100
AcDbPolyline
 90
        5
 70
     0
 43
0.0
 10
-1.686259444126768
 20
0.8298710279256495
 10
-1.700174055758454
 20
0.8354497333277936
 10
-1.744078477969357
 20
0.8480755618015013
 10
-1.776518688145943
 20
0.8531207494939239
 10
-1.81
 20
0.8548454111396356
  0
ENDBLK
  5
100
330
FD
100
AcDbEntity
  8
0
100
AcDbBlockEnd
  0
BLOCK
  5
153
330
151
100
AcDbEntity
  8
0
100
AcDbBlockBegin
  2
5_405015E_Inch_0_in_023017_2
 70
     2
 10
0.0
 20
0.0
 30
0.0
  3
5_405015E_Inch_0_in_023017_2
  1

  0
ATTDEF
  5
155
330
151
100
AcDbEntity
  8
AM_6
100
AcDbText
 10
5.21875
 20
3.150086098882789
 30
0.0
 40
0.5
  1
405015E -Inch
100
AcDbAttributeDefinition
  3

  2
NN
 70
     8
280
     0
  0
ATTDEF
  5
156
330
151
100
AcDbEntity
  8
AM_6
100
AcDbText
 10
5.21875
 20
2.650086098882789
 30
0.0
 40
0.5
  1
Grease Fitting
100
AcDbAttributeDefinition
  3

  2
NT
 70
     8
280
     0
  0
ATTDEF
  5
157
330
151
100
AcDbEntity
  8
AM_6
100
AcDbText
 10
5.21875
 20
2.150086098882789
 30
0.0
 40
0.5
  1
405015E-Inch
100
AcDbAttributeDefinition
  3

  2
NB
 70
     8
280
     0
  0
ATTDEF
  5
158
330
151
100
AcDbEntity
  8
AM_6
100
AcDbText
 10
5.21875
 20
1.650086098882789
 30
0.0
 40
0.5
  1
$MN.-Inch
100
AcDbAttributeDefinition
  3

  2
NBSYN
 70
     8
280
     0
  0
ATTDEF
  5
159
330
151
100
AcDbEntity
  8
AM_6
100
AcDbText
 10
5.21875
 20
1.150086098882789
 30
0.0
 40
0.5
  1
405015E
100
AcDbAttributeDefinition
  3

  2
LINA
 70
     8
280
     0
  0
ATTDEF
  5
15A
330
151
100
AcDbEntity
  8
AM_6
100
AcDbText
 10
5.21875
 20
0.650086098882789
 30
0.0
 40
0.5
  1
405015E
100
AcDbAttributeDefinition
  3

  2
MN
 70
     8
280
     0
  0
ATTDEF
  5
15B
330
151
100
AcDbEntity
  8
AM_6
100
AcDbText
 10
5.21875
 20
0.150086098882789
 30
0.0
 40
0.5
  1
1/8 x 27PTF
100
AcDbAttributeDefinition
  3

  2
T
 70
     8
280
     0
  0
ATTDEF
  5
15C
330
151
100
AcDbEntity
  8
AM_6
100
AcDbText
 10
5.21875
 20
-0.349913901117211
 30
0.0
 40
0.5
  1
baldor
100
AcDbAttributeDefinition
  3

  2
COMPANY
 70
     8
280
     0
  0
ELLIPSE
  5
15D
330
151
100
AcDbEntity
  8
AM_9
100
AcDbEllipse
 10
0.0000000000000001
 20
2.773987621497028
 30
0.0
 11
0.2187499999999996
 21
3.259629011154169E-9
 31
0.0
210
0.0
220
0.0
230
1.0
 40
0.500000000000009
 41
1.04719753815808
 42
2.094395089354681
  0
LWPOLYLINE
  5
15E
330
151
100
AcDbEntity
  8
AM_9
100
AcDbPolyline
 90
        3
 70
     0
 43
0.0
 10
0.0000000000000001
 20
2.908135764570877
 10
0.0544416102741497
 20
2.886658093653254
 10
0.1093750000000001
 20
2.868709150035953
  0
LWPOLYLINE
  5
15F
330
151
100
AcDbEntity
  8
AM_9
100
AcDbPolyline
 90
        3
 70
     0
 43
0.0
 10
-0.1093749999999999
 20
2.868709150035953
 10
-0.0546874999999999
 20
2.886568800019876
 10
0.0000000000000001
 20
2.908135764570877
  0
LWPOLYLINE
  5
160
330
151
100
AcDbEntity
  8
AM_9
100
AcDbPolyline
 90
        3
 70
     0
 43
0.0
 10
0.0984417053441457
 20
2.958383394184402
 10
0.0546875
 20
2.969025883276781
 10
0.0000000000000001
 20
2.979032761572088
  0
LINE
  5
161
330
151
100
AcDbEntity
  8
AM_9
100
AcDbLine
 10
0.10600215787125
 20
2.956277301526847
 30
0.0
 11
0.0984417053441457
 21
2.958383394184402
 31
0.0
  0
LINE
  5
162
330
151
100
AcDbEntity
  8
AM_9
100
AcDbLine
 10
-0.0984427434444588
 20
2.95838311053652
 30
0.0
 11
-0.1060024786622441
 21
2.956277210452502
 31
0.0
  0
LWPOLYLINE
  5
163
330
151
100
AcDbEntity
  8
AM_9
100
AcDbPolyline
 90
        3
 70
     0
 43
0.0
 10
0.0000000000000001
 20
2.979032761572088
 10
-0.0544416102741495
 20
2.969078554142814
 10
-0.0984427434444588
 20
2.95838311053652
  0
LWPOLYLINE
  5
164
330
151
100
AcDbEntity
  8
AM_9
100
AcDbPolyline
 90
        3
 70
     0
 43
0.0
 10
-0.2187499999999999
 20
2.844988078878262
 10
-0.1643083897258503
 20
2.854942286307536
 10
-0.1093749999999999
 20
2.868709150035953
  0
LINE
  5
165
330
151
100
AcDbEntity
  8
AM_9
100
AcDbLine
 10
0.0000000000000001
 20
2.979032761572088
 30
0.0
 11
0.0000000000000001
 21
2.908135764570877
 31
0.0
  0
LWPOLYLINE
  5
166
330
151
100
AcDbEntity
  8
AM_9
100
AcDbPolyline
 90
        3
 70
     0
 43
0.0
 10
0.1093750000000001
 20
2.868709150035953
 10
0.1640625000000001
 20
2.854994957173568
 10
0.2187500000000001
 20
2.844988078878262
  0
ELLIPSE
  5
167
330
151
100
AcDbEntity
  8
AM_9
100
AcDbEllipse
 10
0.0000000000000006
 20
2.77398762149703
 30
0.0
 11
0.2187500000000005
 21
0.0
 31
0.0
210
0.0
220
0.0
230
1.0
 40
0.5000000000000009
 41
2.094395102393198
 42
3.141592653589793
  0
ELLIPSE
  5
168
330
151
100
AcDbEntity
  8
AM_9
100
AcDbEllipse
 10
-0.0000000000000002
 20
2.77398762149703
 30
0.0
 11
0.2187500000000003
 21
0.0
 31
0.0
210
0.0
220
0.0
230
1.0
 40
0.4999999999999993
 41
0.0
 42
1.047197551196598
  0
ELLIPSE
  5
169
330
151
100
AcDbEntity
  8
AM_9
100
AcDbEllipse
 10
-0.0000000000000004
 20
2.544490889494157
 30
0.0
 11
0.1619028724722701
 21
0.0
 31
0.0
210
0.0
220
0.0
230
1.0
 40
0.5000000000000133
 41
4.71238898038469
 42
10.04025766943979
  0
LINE
  5
16A
330
151
100
AcDbEntity
  8
AM_9
100
AcDbLine
 10
0.1321931418159854
 20
2.497753555991935
 30
0.0
 11
0.1621706131788417
 21
2.518950829275436
 31
0.0
  0
LINE
  5
16B
330
151
100
AcDbEntity
  8
AM_9
100
AcDbLine
 10
-0.1621706131788415
 20
2.518950829275436
 30
0.0
 11
-0.1321931418159852
 21
2.497753555991935
 31
0.0
  0
ELLIPSE
  5
16C
330
151
100
AcDbEntity
  8
AM_9
100
AcDbEllipse
 10
0.0000000000000001
 20
2.576286799419406
 30
0.0
 11
0.1986176267812153
 21
0.0
 31
0.0
210
0.0
220
0.0
230
1.0
 40
0.5000000000000013
 41
4.71238898038469
 42
9.442822037473839
  0
ELLIPSE
  5
16D
330
151
100
AcDbEntity
  8
AM_9
100
AcDbEllipse
 10
-0.0000000000000011
 20
2.576286799419406
 30
0.0
 11
0.1986176267812136
 21
0.0
 31
0.0
210
0.0
220
0.0
230
1.0
 40
0.500000000000008
 41
3.15963673029426
 42
4.71238898038469
  0
ELLIPSE
  5
16E
330
151
100
AcDbEntity
  8
AM_9
100
AcDbEllipse
 10
0.0000000000000006
 20
2.544490889494156
 30
0.0
 11
0.1619028724722699
 21
0.0
 31
0.0
210
0.0
220
0.0
230
1.0
 40
0.5000000000000139
 41
3.757072362260191
 42
4.71238898038469
  0
ELLIPSE
  5
16F
330
151
100
AcDbEntity
  8
AM_9
100
AcDbEllipse
 10
0.0000000000000013
 20
2.773987621497028
 30
0.0
 11
0.2187500000000011
 21
0.0
 31
0.0
210
0.0
220
0.0
230
1.0
 40
0.4999999999999933
 41
3.141592653589793
 42
4.188790204786383
  0
ELLIPSE
  5
170
330
151
100
AcDbEntity
  8
AM_9
100
AcDbEllipse
 10
-0.0000000000000011
 20
2.773987621497027
 30
0.0
 11
0.218750000000001
 21
3.259629011154191E-9
 31
0.0
210
0.0
220
0.0
230
1.0
 40
0.4999999999999935
 41
4.188790191747874
 42
6.283187026699269
  0
LINE
  5
171
330
151
100
AcDbEntity
  8
AM_9
100
AcDbLine
 10
0.1985852938306409
 20
2.574494960810585
 30
0.0
 11
0.2057184028850728
 21
2.7721314207194
 31
0.0
  0
LINE
  5
172
330
151
100
AcDbEntity
  8
AM_9
100
AcDbLine
 10
-0.2057184028850726
 20
2.7721314207194
 30
0.0
 11
-0.1985852938306407
 21
2.574494960810585
 31
0.0
  0
LINE
  5
173
330
151
100
AcDbEntity
  8
AM_9
100
AcDbLine
 10
-0.1017810272422099
 20
2.964422995661317
 30
0.0
 11
-0.1049999999999999
 21
2.95812060102179
 31
0.0
  0
LINE
  5
174
330
151
100
AcDbEntity
  8
AM_9
100
AcDbLine
 10
0.1050000000000001
 20
2.958120601021789
 30
0.0
 11
0.1017810272422101
 21
2.964422995661316
 31
0.0
  0
ELLIPSE
  5
175
330
151
100
AcDbEntity
  8
AM_9
100
AcDbEllipse
 10
0.0000000000000001
 20
2.95152282927284
 30
0.0
 11
0.1050000000000002
 21
0.0
 31
0.0
210
0.0
220
0.0
230
1.0
 40
0.4999999999999883
 41
0.0
 42
2.891559760490988
  0
ELLIPSE
  5
176
330
151
100
AcDbEntity
  8
AM_9
100
AcDbEllipse
 10
0.0000000000000009
 20
2.951522829272881
 30
0.0
 11
0.1050000000000007
 21
1.564621925354015E-9
 31
0.0
210
0.0
220
0.0
230
1.0
 40
0.4999999999999437
 41
2.891559732057881
 42
3.141592627780224
  0
ELLIPSE
  5
177
330
151
100
AcDbEntity
  8
AM_9
100
AcDbEllipse
 10
-0.0000000000000011
 20
2.923596213401772
 30
0.0
 11
0.1188200907348988
 21
0.0
 31
0.0
210
0.0
220
0.0
230
1.0
 40
0.5000000000000198
 41
0.2500328930988722
 42
2.535447513394651
  0
LINE
  5
178
330
151
100
AcDbEntity
  8
AM_9
100
AcDbLine
 10
0.1050000000000001
 20
2.9697610580853
 30
0.0
 11
0.1050000000000001
 21
2.977503591386373
 31
0.0
  0
LINE
  5
179
330
151
100
AcDbEntity
  8
AM_9
100
AcDbLine
 10
-0.1049999999999999
 20
2.977503591386373
 30
0.0
 11
-0.1049999999999999
 21
2.9697610580853
 31
0.0
  0
ELLIPSE
  5
17A
330
151
100
AcDbEntity
  8
AM_9
100
AcDbEllipse
 10
0.0000000000000001
 20
2.977503591386373
 30
0.0
 11
0.1049999999999999
 21
0.0
 31
0.0
210
0.0
220
0.0
230
1.0
 40
0.4999999999999984
 41
0.0
 42
3.434435425318374
  0
LINE
  5
17B
330
151
100
AcDbEntity
  8
AM_9
100
AcDbLine
 10
-0.0976523208201057
 20
2.957442329134222
 30
0.0
 11
-0.1098343496897824
 21
2.948655476007373
 31
0.0
  0
LINE
  5
17C
330
151
100
AcDbEntity
  8
AM_9
100
AcDbLine
 10
0.1098343496897826
 20
2.948655476007372
 30
0.0
 11
0.0976523208201059
 21
2.957442329134222
 31
0.0
  0
ELLIPSE
  5
17D
330
151
100
AcDbEntity
  8
AM_9
100
AcDbEllipse
 10
0.0000000000000017
 20
2.923596213401772
 30
0.0
 11
0.1188200907348993
 21
0.0
 31
0.0
210
0.0
220
0.0
230
1.0
 40
0.5000000000000215
 41
2.535447513394664
 42
2.891559760490923
  0
ELLIPSE
  5
17E
330
151
100
AcDbEntity
  8
AM_9
100
AcDbEllipse
 10
0.0000000000000001
 20
2.876454187163444
 30
0.0
 11
0.172534053283016
 21
0.0
 31
0.0
210
0.0
220
0.0
230
1.0
 40
0.5000000000000024
 41
0.6061451401950908
 42
2.535447513394702
  0
ELLIPSE
  5
17F
330
151
100
AcDbEntity
  8
AM_9
100
AcDbEllipse
 10
0.0000000000000001
 20
2.860590161875474
 30
0.0
 11
0.2187500000000008
 21
0.0
 31
0.0
210
0.0
220
0.0
230
1.0
 40
0.4999999999999962
 41
1.065244638251234
 42
2.07634801533856
  0
ELLIPSE
  5
180
330
151
100
AcDbEntity
  8
AM_9
100
AcDbEllipse
 10
0.000000000002752
 20
2.860590161885744
 30
0.0
 11
0.2137500000055371
 21
0.0
 31
0.0
210
0.0
220
0.0
230
1.0
 40
0.4999999999485747
 41
-4.19888988293904
 42
-4.184564777742487
  0
ELLIPSE
  5
181
330
151
100
AcDbEntity
  8
AM_9
100
AcDbEllipse
 10
-0.0000000000004718
 20
2.860590161873933
 30
0.0
 11
0.2137499999990247
 21
3.185123205170404E-9
 31
0.0
210
0.0
220
0.0
230
1.0
 40
0.5000000000080221
 41
-4.217356319092838
 42
-4.198889895799759
  0
ELLIPSE
  5
182
330
151
100
AcDbEntity
  8
AM_9
100
AcDbEllipse
 10
-0.0000000000027496
 20
2.860590161885747
 30
0.0
 11
0.2137500000055312
 21
0.0
 31
0.0
210
0.0
220
0.0
230
1.0
 40
0.4999999999485739
 41
1.042972124152688
 42
2.065829000575157
  0
ELLIPSE
  5
183
330
151
100
AcDbEntity
  8
AM_9
100
AcDbEllipse
 10
-0.0000000000000034
 20
2.977503591386363
 30
0.0
 11
0.1050000000000035
 21
0.0
 31
0.0
210
0.0
220
0.0
230
1.0
 40
0.4999999999999896
 41
5.990342535451206
 42
6.283185307179586
  0
ELLIPSE
  5
184
330
151
100
AcDbEntity
  8
AM_9
100
AcDbEllipse
 10
0.0000000000000001
 20
3.029465115613439
 30
0.0
 11
0.135
 21
0.0
 31
0.0
210
0.0
220
0.0
230
1.0
 40
0.4999999999999959
 41
0.2354336045415613
 42
2.906159049048232
  0
ELLIPSE
  5
185
330
151
100
AcDbEntity
  8
AM_9
100
AcDbEllipse
 10
0.0000000000000007
 20
2.77398762149703
 30
0.0
 11
0.2057518972230691
 21
0.0
 31
0.0
210
0.0
220
0.0
230
1.0
 40
0.4999999999999987
 41
0.0
 42
6.283185307179586
  0
LINE
  5
186
330
151
100
AcDbEntity
  8
AM_4
100
AcDbLine
 10
0.109375
 20
2.955311690414397
 30
0.0
 11
0.10600215787125
 21
2.956277301526847
 31
0.0
  0
LINE
  5
187
330
151
100
AcDbEntity
  8
AM_4
100
AcDbLine
 10
-0.1060024786622441
 20
2.956277210452502
 30
0.0
 11
-0.1093749999999999
 21
2.955311690414397
 31
0.0
  0
LWPOLYLINE
  5
188
330
151
100
AcDbEntity
  8
AM_4
100
AcDbPolyline
 90
        3
 70
     0
 43
0.0
 10
0.2187500000000001
 20
2.915885075879473
 10
0.1643083897258505
 20
2.937362746797095
 10
0.109375
 20
2.955311690414397
  0
LWPOLYLINE
  5
189
330
151
100
AcDbEntity
  8
AM_4
100
AcDbPolyline
 90
        3
 70
     0
 43
0.0
 10
-0.1093749999999999
 20
2.955311690414397
 10
-0.1640624999999999
 20
2.937452040430474
 10
-0.2187499999999999
 20
2.915885075879473
  0
LINE
  5
18A
330
151
100
AcDbEntity
  8
AM_4
100
AcDbLine
 10
-0.1049999999999999
 20
2.95812060102179
 30
0.0
 11
-0.1151252948555657
 21
2.938296387266976
 31
0.0
  0
LINE
  5
18B
330
151
100
AcDbEntity
  8
AM_4
100
AcDbLine
 10
0.1151252948555659
 20
2.938296387266976
 30
0.0
 11
0.1050000000000001
 21
2.958120601021789
 31
0.0
  0
ELLIPSE
  5
18C
330
151
100
AcDbEntity
  8
AM_4
100
AcDbEllipse
 10
0.0000000000000001
 20
2.923596213401777
 30
0.0
 11
0.1188200907348976
 21
0.0
 31
0.0
210
0.0
220
0.0
230
1.0
 40
0.4999999999999988
 41
2.891559760490989
 42
6.533218200278391
  0
ELLIPSE
  5
18D
330
151
100
AcDbEntity
  8
AM_4
100
AcDbEllipse
 10
0.0000000000000004
 20
2.951522829272839
 30
0.0
 11
0.1049999999999997
 21
0.0
 31
0.0
210
0.0
220
0.0
230
1.0
 40
0.4999999999999992
 41
4.71238898038469
 42
6.283185307179586
  0
LINE
  5
18E
330
151
100
AcDbEntity
  8
AM_4
100
AcDbLine
 10
0.1050000000000001
 20
2.95152282927284
 30
0.0
 11
0.1050000000000001
 21
2.9697610580853
 31
0.0
  0
LINE
  5
18F
330
151
100
AcDbEntity
  8
AM_4
100
AcDbLine
 10
-0.1049999999999999
 20
2.9697610580853
 30
0.0
 11
-0.1049999999999999
 21
2.95152282927284
 31
0.0
  0
ELLIPSE
  5
190
330
151
100
AcDbEntity
  8
AM_4
100
AcDbEllipse
 10
-0.0000000000000002
 20
2.951522829272839
 30
0.0
 11
0.1049999999999997
 21
0.0
 31
0.0
210
0.0
220
0.0
230
1.0
 40
0.4999999999999992
 41
3.141592653589793
 42
4.71238898038469
  0
LINE
  5
191
330
151
100
AcDbEntity
  8
AM_4
100
AcDbLine
 10
-0.1098343496897824
 20
2.948655476007373
 30
0.0
 11
-0.1417971541629017
 21
2.925600821365516
 31
0.0
  0
LINE
  5
192
330
151
100
AcDbEntity
  8
AM_4
100
AcDbLine
 10
0.1417971541629019
 20
2.925600821365516
 30
0.0
 11
0.1098343496897826
 21
2.948655476007372
 31
0.0
  0
ELLIPSE
  5
193
330
151
100
AcDbEntity
  8
AM_4
100
AcDbEllipse
 10
0.0000000000000002
 20
2.876454187163444
 30
0.0
 11
0.1725340532830155
 21
0.0
 31
0.0
210
0.0
220
0.0
230
1.0
 40
0.4999999999999986
 41
2.535447513394697
 42
4.71238898038469
  0
ELLIPSE
  5
194
330
151
100
AcDbEntity
  8
AM_4
100
AcDbEllipse
 10
0.0000000000000016
 20
2.860590161875475
 30
0.0
 11
0.2187500000000015
 21
3.259629011154198E-9
 31
0.0
210
0.0
220
0.0
230
1.0
 40
0.4999999999999944
 41
2.076348002645679
 42
3.141592627780224
  0
ELLIPSE
  5
195
330
151
100
AcDbEntity
  8
AM_4
100
AcDbEllipse
 10
-0.0000000000000004
 20
2.860590161875474
 30
0.0
 11
0.2187499999999994
 21
3.259629011154167E-9
 31
0.0
210
0.0
220
0.0
230
1.0
 40
0.5000000000000013
 41
3.141592627780224
 42
4.188790191747878
  0
ELLIPSE
  5
196
330
151
100
AcDbEntity
  8
AM_4
100
AcDbEllipse
 10
0.0000000000000008
 20
2.860590161875474
 30
0.0
 11
0.2187499999999993
 21
0.0
 31
0.0
210
0.0
220
0.0
230
1.0
 40
0.4999999999999996
 41
4.18879020478639
 42
7.348429945430819
  0
ELLIPSE
  5
197
330
151
100
AcDbEntity
  8
AM_4
100
AcDbEllipse
 10
-0.0000000000000001
 20
2.876454187163444
 30
0.0
 11
0.1725340532830156
 21
0.0
 31
0.0
210
0.0
220
0.0
230
1.0
 40
0.4999999999999984
 41
4.71238898038469
 42
6.889330447374681
  0
ELLIPSE
  5
198
330
151
100
AcDbEntity
  8
AM_4
100
AcDbEllipse
 10
0.0000000000000002
 20
2.860590161875473
 30
0.0
 11
0.2137500000000001
 21
0.0
 31
0.0
210
0.0
220
0.0
230
1.0
 40
0.499999999999998
 41
2.098620529422327
 42
4.71238898038469
  0
ELLIPSE
  5
199
330
151
100
AcDbEntity
  8
AM_4
100
AcDbEllipse
 10
-0.0000000000000001
 20
2.860590161875474
 30
0.0
 11
0.2137500000000001
 21
3.185123205184939E-9
 31
0.0
210
0.0
220
0.0
230
1.0
 40
0.4999999999999999
 41
4.71238898038469
 42
7.326157418226544
  0
ELLIPSE
  5
19A
330
151
100
AcDbEntity
  8
AM_4
100
AcDbEllipse
 10
-0.0000000000000006
 20
2.977503591386372
 30
0.0
 11
0.105000000000001
 21
0.0
 31
0.0
210
0.0
220
0.0
230
1.0
 40
0.4999999999999845
 41
4.71238898038469
 42
5.990342535451026
  0
LINE
  5
19B
330
151
100
AcDbEntity
  8
AM_4
100
AcDbLine
 10
0.1005298463144156
 20
2.962348146820145
 30
0.0
 11
0.1292526595471058
 21
3.009979544028289
 31
0.0
  0
LINE
  5
19C
330
151
100
AcDbEntity
  8
AM_4
100
AcDbLine
 10
-0.1292526595471055
 20
3.009979544028289
 30
0.0
 11
-0.1005298463144154
 21
2.962348146820145
 31
0.0
  0
ELLIPSE
  5
19D
330
151
100
AcDbEntity
  8
AM_4
100
AcDbEllipse
 10
0.0000000000000015
 20
3.029465115613441
 30
0.0
 11
0.1350000000000019
 21
0.0
 31
0.0
210
0.0
220
0.0
230
1.0
 40
0.5000000000000053
 41
3.43443542531838
 42
6.518618911721126
  0
ELLIPSE
  5
19E
330
151
100
AcDbEntity
  8
AM_4
100
AcDbEllipse
 10
0.0000000000000008
 20
2.977503591386372
 30
0.0
 11
0.1050000000000011
 21
1.564621925354021E-9
 31
0.0
210
0.0
220
0.0
230
1.0
 40
0.4999999999999839
 41
3.434435397378678
 42
4.71238898038469
  0
LINE
  5
19F
330
151
100
AcDbEntity
  8
AM_4
100
AcDbLine
 10
0.2187500000000001
 20
2.915885075879473
 30
0.0
 11
0.2187500000000001
 21
2.718692707493031
 31
0.0
  0
LWPOLYLINE
  5
1A0
330
151
100
AcDbEntity
  8
AM_4
100
AcDbPolyline
 90
        3
 70
     0
 43
0.0
 10
0.109375
 20
2.765868633336551
 10
0.1640625000000001
 20
2.779582826198935
 10
0.2187500000000001
 20
2.789589704494242
  0
LWPOLYLINE
  5
1A1
330
151
100
AcDbEntity
  8
AM_4
100
AcDbPolyline
 90
        3
 70
     0
 43
0.0
 10
0.1093750000000001
 20
2.679266092958107
 10
0.0546875000000001
 20
2.665551900095723
 10
0.0000000000000001
 20
2.655545021800416
  0
LWPOLYLINE
  5
1A2
330
151
100
AcDbEntity
  8
AM_4
100
AcDbPolyline
 90
        3
 70
     0
 43
0.0
 10
0.2187500000000001
 20
2.718692707493031
 10
0.1643083897258505
 20
2.697215036575408
 10
0.1093750000000001
 20
2.679266092958107
  0
LINE
  5
1A3
330
151
100
AcDbEntity
  8
AM_4
100
AcDbLine
 10
0.0000000000000001
 20
2.726442018801627
 30
0.0
 11
0.0000000000000001
 21
2.655545021800416
 31
0.0
  0
LWPOLYLINE
  5
1A4
330
151
100
AcDbEntity
  8
AM_4
100
AcDbPolyline
 90
        3
 70
     0
 43
0.0
 10
-0.2187499999999999
 20
2.789589704494242
 10
-0.1643083897258503
 20
2.779635497064968
 10
-0.1093749999999999
 20
2.765868633336551
  0
LINE
  5
1A5
330
151
100
AcDbEntity
  8
AM_4
100
AcDbLine
 10
-0.2187499999999999
 20
2.915885075879473
 30
0.0
 11
-0.2187499999999999
 21
2.718692707493031
 31
0.0
  0
LWPOLYLINE
  5
1A6
330
151
100
AcDbEntity
  8
AM_4
100
AcDbPolyline
 90
        3
 70
     0
 43
0.0
 10
-0.1093749999999999
 20
2.679266092958107
 10
-0.1640624999999999
 20
2.69712574294203
 10
-0.2187499999999999
 20
2.718692707493031
  0
LWPOLYLINE
  5
1A7
330
151
100
AcDbEntity
  8
AM_4
100
AcDbPolyline
 90
        3
 70
     0
 43
0.0
 10
0.0000000000000001
 20
2.655545021800416
 10
-0.0544416102741495
 20
2.66549922922969
 10
-0.1093749999999999
 20
2.679266092958107
  0
LWPOLYLINE
  5
1A8
330
151
100
AcDbEntity
  8
AM_4
100
AcDbPolyline
 90
        3
 70
     0
 43
0.0
 10
-0.1093749999999999
 20
2.765868633336551
 10
-0.0546874999999999
 20
2.748008983352627
 10
0.0000000000000001
 20
2.726442018801627
  0
LWPOLYLINE
  5
1A9
330
151
100
AcDbEntity
  8
AM_4
100
AcDbPolyline
 90
        3
 70
     0
 43
0.0
 10
0.0000000000000001
 20
2.726442018801627
 10
0.0544416102741497
 20
2.747919689719249
 10
0.109375
 20
2.765868633336551
  0
ELLIPSE
  5
1AA
330
151
100
AcDbEntity
  8
AM_4
100
AcDbEllipse
 10
0.0000000000000007
 20
3.098747147916195
 30
0.0
 11
0.1026779019331868
 21
1.530019967752500E-9
 31
0.0
210
0.0
220
0.0
230
1.0
 40
0.5000000000000079
 41
4.71238898038469
 42
9.189344327641717
  0
LINE
  5
1AB
330
151
100
AcDbEntity
  8
AM_4
100
AcDbLine
 10
-0.0998453562378796
 20
3.110722710357393
 30
0.0
 11
-0.1312757938985218
 21
3.045210479505017
 31
0.0
  0
LINE
  5
1AC
330
151
100
AcDbEntity
  8
AM_4
100
AcDbLine
 10
0.131275793898522
 20
3.045210479505017
 30
0.0
 11
0.0998453562378799
 21
3.110722710357393
 31
0.0
  0
ELLIPSE
  5
1AD
330
151
100
AcDbEntity
  8
AM_4
100
AcDbEllipse
 10
-0.0000000000000005
 20
3.098747147916195
 30
0.0
 11
0.1026779019331868
 21
0.0
 31
0.0
210
0.0
220
0.0
230
1.0
 40
0.500000000000008
 41
2.906159049048247
 42
4.71238898038469
  0
ELLIPSE
  5
1AE
330
151
100
AcDbEntity
  8
AM_4
100
AcDbEllipse
 10
0.0000000000000004
 20
3.029465115613435
 30
0.0
 11
0.1350000000000003
 21
0.0
 31
0.0
210
0.0
220
0.0
230
1.0
 40
0.4999999999999948
 41
2.906159049048175
 42
3.434435425318314
  0
ENDBLK
  5
154
330
151
100
AcDbEntity
  8
0
100
AcDbBlockEnd
  0
BLOCK
  5
1B1
330
1AF
100
AcDbEntity
  8
0
100
AcDbBlockBegin
  2
6_023017H_0_in_023017_2
 70
     2
 10
0.0
 20
0.0
 30
0.0
  3
6_023017H_0_in_023017_2
  1

  0
ATTDEF
  5
1B3
330
1AF
100
AcDbEntity
  8
AM_6
100
AcDbText
 10
6.5
 20
3.125000000000001
 30
0.0
 40
0.5
  1
P2B-E-Housing
100
AcDbAttributeDefinition
  3

  2
NN
 70
     8
280
     0
  0
ATTDEF
  5
1B4
330
1AF
100
AcDbEntity
  8
AM_6
100
AcDbText
 10
6.5
 20
2.625000000000001
 30
0.0
 40
0.5
  1
Type E Pillow Block -Inch (2-Bolt Base)
100
AcDbAttributeDefinition
  3

  2
NT
 70
     8
280
     0
  0
ATTDEF
  5
1B5
330
1AF
100
AcDbEntity
  8
AM_6
100
AcDbText
 10
6.5
 20
2.125000000000001
 30
0.0
 40
0.5
  1
023017H
100
AcDbAttributeDefinition
  3

  2
NB
 70
     8
280
     0
  0
ATTDEF
  5
1B6
330
1AF
100
AcDbEntity
  8
AM_6
100
AcDbText
 10
6.5
 20
1.625000000000001
 30
0.0
 40
0.5
  1
$PN.H
100
AcDbAttributeDefinition
  3

  2
NBSYN
 70
     8
280
     0
  0
ATTDEF
  5
1B7
330
1AF
100
AcDbEntity
  8
AM_6
100
AcDbText
 10
6.5
 20
1.125000000000001
 30
0.0
 40
0.5
  1
023017
100
AcDbAttributeDefinition
  3

  2
LINA
 70
     8
280
     0
  0
ATTDEF
  5
1B8
330
1AF
100
AcDbEntity
  8
AM_6
100
AcDbText
 10
6.5
 20
0.6250000000000009
 30
0.0
 40
0.5
  1
2-15/16
100
AcDbAttributeDefinition
  3

  2
SS
 70
     8
280
     0
  0
ATTDEF
  5
1B9
330
1AF
100
AcDbEntity
  8
AM_6
100
AcDbText
 10
6.5
 20
0.1250000000000009
 30
0.0
 40
0.5
  1
4.78
100
AcDbAttributeDefinition
  3

  2
BORE
 70
     8
280
     0
  0
ATTDEF
  5
1BA
330
1AF
100
AcDbEntity
  8
AM_6
100
AcDbText
 10
6.5
 20
-0.3749999999999991
 30
0.0
 40
0.5
  1
023017
100
AcDbAttributeDefinition
  3

  2
PN
 70
     8
280
     0
  0
ATTDEF
  5
1BB
330
1AF
100
AcDbEntity
  8
AM_6
100
AcDbText
 10
6.5
 20
-0.8749999999999991
 30
0.0
 40
0.5
  1
P2B-E-215R
100
AcDbAttributeDefinition
  3

  2
DESCRIPTION
 70
     8
280
     0
  0
ATTDEF
  5
1BC
330
1AF
100
AcDbEntity
  8
AM_6
100
AcDbText
 10
6.5
 20
-1.374999999999999
 30
0.0
 40
0.5
  1
4-1/2
100
AcDbAttributeDefinition
  3

  2
A
 70
     8
280
     0
  0
ATTDEF
  5
1BD
330
1AF
100
AcDbEntity
  8
AM_6
100
AcDbText
 10
6.5
 20
-1.874999999999999
 30
0.0
 40
0.5
  1
12
100
AcDbAttributeDefinition
  3

  2
B
 70
     8
280
     0
  0
ATTDEF
  5
1BE
330
1AF
100
AcDbEntity
  8
AM_6
100
AcDbText
 10
6.5
 20
-2.374999999999999
 30
0.0
 40
0.5
  1
3
100
AcDbAttributeDefinition
  3

  2
C
 70
     8
280
     0
  0
ATTDEF
  5
1BF
330
1AF
100
AcDbEntity
  8
AM_6
100
AcDbText
 10
6.5
 20
-2.874999999999999
 30
0.0
 40
0.5
  1
9-5/16
100
AcDbAttributeDefinition
  3

  2
DMIN
 70
     8
280
     0
  0
ATTDEF
  5
1C0
330
1AF
100
AcDbEntity
  8
AM_6
100
AcDbText
 10
6.5
 20
-3.374999999999999
 30
0.0
 40
0.5
  1
9-11/16
100
AcDbAttributeDefinition
  3

  2
DMAX
 70
     8
280
     0
  0
ATTDEF
  5
1C1
330
1AF
100
AcDbEntity
  8
AM_6
100
AcDbText
 10
6.5
 20
-3.874999999999999
 30
0.0
 40
0.5
  1
3/4
100
AcDbAttributeDefinition
  3

  2
F
 70
     8
280
     0
  0
ATTDEF
  5
1C2
330
1AF
100
AcDbEntity
  8
AM_6
100
AcDbText
 10
6.5
 20
-4.374999999999999
 30
0.0
 40
0.5
  1
0.7500000
100
AcDbAttributeDefinition
  3

  2
F1
 70
     8
280
     0
  0
ATTDEF
  5
1C3
330
1AF
100
AcDbEntity
  8
AM_6
100
AcDbText
 10
6.5
 20
-4.874999999999999
 30
0.0
 40
0.5
  1
1
100
AcDbAttributeDefinition
  3

  2
G
 70
     8
280
     0
  0
ATTDEF
  5
1C4
330
1AF
100
AcDbEntity
  8
AM_6
100
AcDbText
 10
6.5
 20
-5.374999999999999
 30
0.0
 40
0.5
  1
1-7/8
100
AcDbAttributeDefinition
  3

  2
H
 70
     8
280
     0
  0
ATTDEF
  5
1C5
330
1AF
100
AcDbEntity
  8
AM_6
100
AcDbText
 10
6.5
 20
-5.874999999999999
 30
0.0
 40
0.5
  1
6-1/4
100
AcDbAttributeDefinition
  3

  2
J
 70
     8
280
     0
  0
ATTDEF
  5
1C6
330
1AF
100
AcDbEntity
  8
AM_6
100
AcDbText
 10
6.5
 20
-6.374999999999999
 30
0.0
 40
0.5
  1
6-11/32
100
AcDbAttributeDefinition
  3

  2
J1
 70
     8
280
     0
  0
ATTDEF
  5
1C7
330
1AF
100
AcDbEntity
  8
AM_6
100
AcDbText
 10
6.5
 20
-6.874999999999999
 30
0.0
 40
0.5
  1
4-23/32
100
AcDbAttributeDefinition
  3

  2
L
 70
     8
280
     0
  0
ATTDEF
  5
1C8
330
1AF
100
AcDbEntity
  8
AM_6
100
AcDbText
 10
6.5
 20
-7.374999999999999
 30
0.0
 40
0.5
  1
3-1/8
100
AcDbAttributeDefinition
  3

  2
M
 70
     8
280
     0
  0
ATTDEF
  5
1C9
330
1AF
100
AcDbEntity
  8
AM_6
100
AcDbText
 10
6.5
 20
-7.874999999999999
 30
0.0
 40
0.5
  1
baldor
100
AcDbAttributeDefinition
  3

  2
COMPANY
 70
     8
280
     0
  0
LWPOLYLINE
  5
1CA
330
1AF
100
AcDbEntity
  8
AM_9
100
AcDbPolyline
 90
       14
 70
     0
 43
0.0
 10
0.4987262759639544
 20
2.723986518033108
 10
0.4973658633512859
 20
2.731394180436533
 10
0.4886095809925097
 20
2.757728407952547
 10
0.4738811480437546
 20
2.782546879571163
 10
0.4408283464890471
 20
2.816524902296791
 10
0.39569578719445
 20
2.846180353824021
 10
0.3590320394259479
 20
2.863467476581756
 10
0.3177646961327635
 20
2.878598298965314
 10
0.2726500616282588
 20
2.89143873015028
 10
0.2237436181243252
 20
2.902040045829216
 10
0.1718090167604371
 20
2.91036854839385
 10
0.117828003293251
 20
2.916371067197331
 10
0.0593417434404612
 20
2.920188049537943
 10
0.0000000000000001
 20
2.921463791337865
  0
LINE
  5
1CB
330
1AF
100
AcDbEntity
  8
AM_9
100
AcDbLine
 10
0.5000000198718211
 20
2.706323726003166
 30
0.0
 11
0.4987262759639544
 21
2.723986518033108
 31
0.0
  0
ELLIPSE
  5
1CC
330
1AF
100
AcDbEntity
  8
AM_9
100
AcDbEllipse
 10
0.0000000000006821
 20
2.730686351004812
 30
0.0
 11
0.500000020000682
 21
0.0
 31
0.0
210
0.0
220
0.0
230
1.0
 40
0.4999999999999334
 41
3.097818993638671
 42
3.138698832473811
  0
ELLIPSE
  5
1CD
330
1AF
100
AcDbEntity
  8
AM_9
100
AcDbEllipse
 10
0.0000000000000007
 20
2.730686351003347
 30
0.0
 11
0.5000000200000007
 21
0.0
 31
0.0
210
0.0
220
0.0
230
1.0
 40
0.4999999999999983
 41
1.570796326794897
 42
3.097818993632759
  0
ELLIPSE
  5
1CE
330
1AF
100
AcDbEntity
  8
AM_9
100
AcDbEllipse
 10
0.0000000000000032
 20
2.773987621192562
 30
0.0
 11
0.4500000199999794
 21
0.0
 31
0.0
210
0.0
220
0.0
230
1.0
 40
0.5000000000000377
 41
1.305734905485843
 42
1.570796326794897
  0
ELLIPSE
  5
1CF
330
1AF
100
AcDbEntity
  8
AM_9
100
AcDbEllipse
 10
-0.0000000000000031
 20
2.773987621192561
 30
0.0
 11
0.4500000199999792
 21
6.705522835254361E-9
 31
0.0
210
0.0
220
0.0
230
1.0
 40
0.5000000000000379
 41
1.570796326794897
 42
1.835857739119425
  0
LWPOLYLINE
  5
1D0
330
1AF
100
AcDbEntity
  8
AM_9
100
AcDbPolyline
 90
        5
 70
     0
 43
0.0
 10
0.0000000000000001
 20
3.005686361003347
 10
-0.0212151719528488
 20
3.005449361370568
 10
-0.0611525409855576
 20
3.003710238317886
 10
-0.1007161660132469
 20
3.000288671372128
 10
-0.1218447288264377
 20
2.997745210317341
  0
LWPOLYLINE
  5
1D1
330
1AF
100
AcDbEntity
  8
AM_9
100
AcDbPolyline
 90
        5
 70
     0
 43
0.0
 10
0.1218451192569205
 20
2.997745158582533
 10
0.1019595370078389
 20
3.000153044369824
 10
0.0623817182143343
 20
3.003629662789582
 10
0.0224320543371164
 20
3.005421378472789
 10
0.0000000000000001
 20
3.005686361003347
  0
ELLIPSE
  5
1D2
330
1AF
100
AcDbEntity
  8
AM_9
100
AcDbEllipse
 10
-0.0000000000000001
 20
2.730686351003347
 30
0.0
 11
0.5000000200000002
 21
0.0
 31
0.0
210
0.0
220
0.0
230
1.0
 40
0.4999999999999988
 41
0.0470451722362482
 42
1.570796326794897
  0
ELLIPSE
  5
1D3
330
1AF
100
AcDbEntity
  8
AM_9
100
AcDbEllipse
 10
-0.0000000000019554
 20
2.73068635100275
 30
0.0
 11
0.5000000200019556
 21
0.0
 31
0.0
210
0.0
220
0.0
230
1.0
 40
0.500000000000048
 41
0.0051321415664907
 42
0.0322014232649739
  0
LINE
  5
1D4
330
1AF
100
AcDbEntity
  8
AM_9
100
AcDbLine
 10
-1.5
 20
-2.39
 30
0.0
 11
1.5
 21
-2.39
 31
0.0
  0
LINE
  5
1D5
330
1AF
100
AcDbEntity
  8
AM_9
100
AcDbLine
 10
1.5
 20
2.39
 30
0.0
 11
-1.5
 21
2.39
 31
0.0
  0
LINE
  5
1D6
330
1AF
100
AcDbEntity
  8
AM_9
100
AcDbLine
 10
-0.498813527903219
 20
2.723377699010353
 30
0.0
 11
-0.50000001997216
 21
2.706332025001032
 31
0.0
  0
LWPOLYLINE
  5
1D7
330
1AF
100
AcDbEntity
  8
AM_9
100
AcDbPolyline
 90
       14
 70
     0
 43
0.0
 10
0.0000000000000001
 20
2.921463791337865
 10
-0.055643276498702
 20
2.920335925011242
 10
-0.1107561440339212
 20
2.916964523417642
 10
-0.1642984775957535
 20
2.91136788263647
 10
-0.2405343729102712
 20
2.898724937904702
 10
-0.3100561406861306
 20
2.881052831152824
 10
-0.3519413582927827
 20
2.866348611306128
 10
-0.3895489406291568
 20
2.849377625627152
 10
-0.422185584116648
 20
2.830307466645909
 10
-0.449608357412857
 20
2.809017068257236
 10
-0.471429904038547
 20
2.785714209414535
 10
-0.4872233487409773
 20
2.760735814541209
 10
-0.4966821667807794
 20
2.734438826128189
 10
-0.498813527903219
 20
2.723377699010353
  0
LINE
  5
1D8
330
1AF
100
AcDbEntity
  8
AM_9
100
AcDbLine
 10
0.0882377616174869
 20
3.125000000000001
 30
0.0
 11
-0.0882377616174869
 21
3.125000000000001
 31
0.0
  0
LINE
  5
1D9
330
1AF
100
AcDbEntity
  8
AM_9
100
AcDbLine
 10
-0.4062499999999999
 20
-1.25
 30
0.0
 11
-0.4062499999999999
 21
-3.125
 31
0.0
  0
LINE
  5
1DA
330
1AF
100
AcDbEntity
  8
AM_9
100
AcDbLine
 10
0.4062500000000008
 20
-1.25
 30
0.0
 11
0.4062500000000008
 21
-3.125
 31
0.0
  0
LINE
  5
1DB
330
1AF
100
AcDbEntity
  8
AM_4
100
AcDbLine
 10
0.5000000200000001
 20
2.706295737950628
 30
0.0
 11
0.5000000200000001
 21
2.730686351003346
 31
0.0
  0
LINE
  5
1DC
330
1AF
100
AcDbEntity
  8
AM_4
100
AcDbLine
 10
-0.5000000199999999
 20
2.730686351003346
 30
0.0
 11
-0.5000000199999999
 21
2.706310563142146
 31
0.0
  0
ELLIPSE
  5
1DD
330
1AF
100
AcDbEntity
  8
AM_4
100
AcDbEllipse
 10
-0.000000000041649
 20
2.730686350994738
 30
0.0
 11
0.500000020041649
 21
0.0
 31
0.0
210
0.0
220
0.0
230
1.0
 40
0.5000000000000002
 41
0.0
 42
0.0051321415981398
  0
LWPOLYLINE
  5
1DE
330
1AF
100
AcDbEntity
  8
AM_4
100
AcDbPolyline
 90
       26
 70
     0
 43
0.0
 10
-0.50000001997216
 20
2.706332025001032
 10
-0.4969842621629451
 20
2.678496215242845
 10
-0.4809604717874968
 20
2.635493084614472
 10
-0.4517395049353815
 20
2.592799331484106
 10
-0.4097885834315738
 20
2.551731574833318
 10
-0.3565477416084326
 20
2.513982862738437
 10
-0.3149608247723027
 20
2.491217849515734
 10
-0.2692621561916808
 20
2.47099746805651
 10
-0.2202960295344873
 20
2.453840572225382
 10
-0.1684218801076151
 20
2.440084299167629
 10
-0.1142118081813048
 20
2.429935046739061
 10
-0.0587013690226443
 20
2.423676333680493
 10
-0.0030398477451295
 20
2.421501171218263
 10
0.0528372743879594
 20
2.42328700253719
 10
0.1078678635125782
 20
2.428983625517223
 10
0.1872412249506601
 20
2.444608375317784
 10
0.2614058120154369
 20
2.467926622665495
 10
0.3287945991111122
 20
2.498287575158583
 10
0.3870225700901938
 20
2.534124962684605
 10
0.42012359340139
 20
2.560610599033196
 10
0.4480234820741139
 20
2.588546279247155
 10
0.4701878171731681
 20
2.617284207414035
 10
0.4862563397512645
 20
2.646322392511205
 10
0.4962531789011959
 20
2.675429071490753
 10
0.4999782850224866
 20
2.703995361154903
 10
0.5000000198718211
 20
2.706323726003166
  0
ELLIPSE
  5
1DF
330
1AF
100
AcDbEntity
  8
AM_4
100
AcDbEllipse
 10
0.0000000000000001
 20
2.773987621192568
 30
0.0
 11
0.4500000199999999
 21
0.0
 31
0.0
210
0.0
220
0.0
230
1.0
 40
0.4999999999999991
 41
1.835857748103945
 42
7.588920212665435
  0
LWPOLYLINE
  5
1E0
330
1AF
100
AcDbEntity
  8
AM_4
100
AcDbPolyline
 90
       18
 70
     0
 43
0.0
 10
-0.1218447288264377
 20
2.997745210317341
 10
-0.1396597823175366
 20
2.99519851557088
 10
-0.1777502165416797
 20
2.988458493073344
 10
-0.2147606574722854
 20
2.980091267186539
 10
-0.2504717233146295
 20
2.970121940547586
 10
-0.2846717849610629
 20
2.958576221272573
 10
-0.3171560675049013
 20
2.945478477514225
 10
-0.3477238428891612
 20
2.930850258334702
 10
-0.3761728622081141
 20
2.914710579274592
 10
-0.4022904219672996
 20
2.897080514454432
 10
-0.4258318689108123
 20
2.87800524930906
 10
-0.4465107101531854
 20
2.857591861981955
 10
-0.4640469697934624
 20
2.836014944852303
 10
-0.4781975644334751
 20
2.813538210425785
 10
-0.4888158394027154
 20
2.790483669637159
 10
-0.495879706407246
 20
2.767169098999658
 10
-0.4994658585254123
 20
2.7438569781576
 10
-0.4999972970436675
 20
2.731627072678758
  0
LWPOLYLINE
  5
1E1
330
1AF
100
AcDbEntity
  8
AM_4
100
AcDbPolyline
 90
       18
 70
     0
 43
0.0
 10
0.4999914701861874
 20
2.73235328064527
 10
0.4987192257079208
 20
2.751069457511894
 10
0.4942705684195807
 20
2.773656412033143
 10
0.486723494311295
 20
2.795738535550761
 10
0.4761083354026886
 20
2.817287382670227
 10
0.4624081837049032
 20
2.838264306437704
 10
0.4455976580783899
 20
2.858589261190793
 10
0.425696717017908
 20
2.878125744410899
 10
0.4028123078773258
 20
2.896694476822542
 10
0.3771408726988674
 20
2.914110319437281
 10
0.3489343238583257
 20
2.930217586971093
 10
0.3184773099216008
 20
2.944895875508958
 10
0.2860292550635729
 20
2.958073099710701
 10
0.2518238472544435
 20
2.969704547760172
 10
0.2160877274948444
 20
2.979755538413383
 10
0.1790460542612898
 20
2.988196844514017
 10
0.1409262033373377
 20
2.99500314749794
 10
0.1218451192569205
 20
2.997745158582533
  0
ELLIPSE
  5
1E2
330
1AF
100
AcDbEntity
  8
AM_4
100
AcDbEllipse
 10
-0.0000000000000001
 20
2.730686351003346
 30
0.0
 11
0.50000002
 21
0.0
 31
0.0
210
0.0
220
0.0
230
1.0
 40
0.4999999999999999
 41
3.138698832467941
 42
6.283185307179586
  0
LINE
  5
1E3
330
1AF
100
AcDbEntity
  8
AM_4
100
AcDbLine
 10
-0.0882377616174869
 20
3.125000000000001
 30
0.0
 11
-1.5
 21
3.125000000000001
 31
0.0
  0
LINE
  5
1E4
330
1AF
100
AcDbEntity
  8
AM_4
100
AcDbLine
 10
1.5
 20
3.125000000000001
 30
0.0
 11
0.0882377616174869
 21
3.125000000000001
 31
0.0
  0
LINE
  5
1E5
330
1AF
100
AcDbEntity
  8
AM_4
100
AcDbLine
 10
-1.5
 20
0.2326877737763157
 30
0.0
 11
1.5
 21
0.2326877737763157
 31
0.0
  0
LINE
  5
1E6
330
1AF
100
AcDbEntity
  8
AM_4
100
AcDbLine
 10
-0.7499999999999997
 20
-1.25
 30
0.0
 11
0.7500000000000002
 21
-1.25
 31
0.0
  0
LINE
  5
1E7
330
1AF
100
AcDbEntity
  8
AM_4
100
AcDbLine
 10
0.7500000000000002
 20
-1.25
 30
0.0
 11
0.7500000000000002
 21
-2.098769738636835
 31
0.0
  0
LINE
  5
1E8
330
1AF
100
AcDbEntity
  8
AM_4
100
AcDbLine
 10
-0.7499999999999997
 20
-1.25
 30
0.0
 11
-0.7499999999999997
 21
-2.098769738636835
 31
0.0
  0
LINE
  5
1E9
330
1AF
100
AcDbEntity
  8
AM_4
100
AcDbLine
 10
-1.5
 20
-0.3428595036235103
 30
0.0
 11
1.5
 21
-0.3428595036235103
 31
0.0
  0
LWPOLYLINE
  5
1EA
330
1AF
100
AcDbEntity
  8
AM_4
100
AcDbPolyline
 90
       30
 70
     0
 43
0.0
 10
0.7500000000000002
 20
-2.098769738636835
 10
0.7451705060234048
 20
-2.135498122009065
 10
0.7306316836230038
 20
-2.1698847849751
 10
0.7063080220928761
 20
-2.201391090779104
 10
0.6718139905469309
 20
-2.229877227059098
 10
0.6274373469647614
 20
-2.25523128880018
 10
0.5738849773594444
 20
-2.277189058391366
 10
0.5154665478154432
 20
-2.294729533970189
 10
0.4498068193493179
 20
-2.309476554945957
 10
0.3781819617517748
 20
-2.321441737348362
 10
0.3043702887832452
 20
-2.330453878855791
 10
0.226405433484943
 20
-2.337221385201446
 10
0.1457808678653416
 20
-2.34181553651297
 10
0.064169993754262
 20
-2.344322778938265
 10
-0.018507916299276
 20
-2.344865370782253
 10
-0.100693405223705
 20
-2.343451384706921
 10
-0.1814684684478091
 20
-2.340055288563404
 10
-0.2602143934770755
 20
-2.334596574822944
 10
-0.3354557128953521
 20
-2.327011563969909
 10
-0.4064713244214838
 20
-2.31713698956426
 10
-0.4726325137092374
 20
-2.304839742324671
 10
-0.53275145529622
 20
-2.290083675613555
 10
-0.5865677019128878
 20
-2.272573104897645
 10
-0.6333751326733766
 20
-2.252339285935679
 10
-0.6724815365320645
 20
-2.229508043365709
 10
-0.7043414251028305
 20
-2.203299999910236
 10
-0.7278638423620764
 20
-2.174409577656989
 10
-0.7429176086300728
 20
-2.143193152014526
 10
-0.748238231069127
 20
-2.121410260910199
 10
-0.7500000000000009
 20
-2.098769738636836
  0
LINE
  5
1EB
330
1AF
100
AcDbEntity
  8
AM_4
100
AcDbLine
 10
1.5
 20
3.125000000000001
 30
0.0
 11
1.5
 21
-3.125
 31
0.0
  0
LINE
  5
1EC
330
1AF
100
AcDbEntity
  8
AM_4
100
AcDbLine
 10
1.5
 20
-2.34625187112951
 30
0.0
 11
1.496963110324831
 21
-2.352516725011672
 31
0.0
  0
LINE
  5
1ED
330
1AF
100
AcDbEntity
  8
AM_4
100
AcDbLine
 10
1.5
 20
-3.125
 30
0.0
 11
-1.5
 21
-3.124999999999999
 31
0.0
  0
LINE
  5
1EE
330
1AF
100
AcDbEntity
  8
AM_4
100
AcDbLine
 10
-1.49696311032483
 20
-2.352516725011673
 30
0.0
 11
-1.5
 21
-2.346251871129512
 31
0.0
  0
LINE
  5
1EF
330
1AF
100
AcDbEntity
  8
AM_4
100
AcDbLine
 10
-1.5
 20
3.125000000000001
 30
0.0
 11
-1.5
 21
-3.124999999999999
 31
0.0
  0
LINE
  5
1F0
330
1AF
100
AcDbEntity
  8
AM_4
100
AcDbLine
 10
1.35
 20
-2.499479835336501
 30
0.0
 11
1.35
 21
-3.124999999999999
 31
0.0
  0
LINE
  5
1F1
330
1AF
100
AcDbEntity
  8
AM_4
100
AcDbLine
 10
-1.35
 20
-2.499479835336501
 30
0.0
 11
-1.35
 21
-3.124999999999999
 31
0.0
  0
LINE
  5
1F2
330
1AF
100
AcDbEntity
  8
AM_4
100
AcDbLine
 10
-1.35
 20
-2.499479835336501
 30
0.0
 11
1.35
 21
-2.499479835336501
 31
0.0
  0
LINE
  5
1F3
330
1AF
100
AcDbEntity
  8
AM_4
100
AcDbLine
 10
1.350000000000001
 20
-2.499479835336502
 30
0.0
 11
1.496963110324828
 21
-2.352516725011674
 31
0.0
  0
LINE
  5
1F4
330
1AF
100
AcDbEntity
  8
AM_4
100
AcDbLine
 10
-1.496963110324828
 20
-2.352516725011674
 30
0.0
 11
1.496963110324828
 21
-2.352516725011674
 31
0.0
  0
LINE
  5
1F5
330
1AF
100
AcDbEntity
  8
AM_4
100
AcDbLine
 10
-1.496963110324828
 20
-2.352516725011674
 30
0.0
 11
-1.35
 21
-2.499479835336501
 31
0.0
  0
ENDBLK
  5
1B2
330
1AF
100
AcDbEntity
  8
0
100
AcDbBlockEnd
  0
ENDSEC
  0
SECTION
  2
ENTITIES
  0
INSERT
  5
6F
330
1F
100
AcDbEntity
  8
0
100
AcDbBlockReference
  2
1_023017_2
 10
0.0
 20
0.0
 30
0.0
  0
POINT
  5
1F7
330
1F
100
AcDbEntity
  8
ConnectionPoints
100
AcDbPoint
 10
-2.25
 20
0.0000000000000001
 30
0.0000000000000001
  0
POINT
  5
1F8
330
1F
100
AcDbEntity
  8
ConnectionPoints
100
AcDbPoint
 10
-2.25
 20
0.0
 30
0.0000000000000001
  0
POINT
  5
1F9
330
1F
100
AcDbEntity
  8
ConnectionPoints
100
AcDbPoint
 10
2.25
 20
0.0
 30
-0.0000000000000001
  0
POINT
  5
1FA
330
1F
100
AcDbEntity
  8
ConnectionPoints
100
AcDbPoint
 10
0.0
 20
0.0
 30
0.0
  0
POINT
  5
1FB
330
1F
100
AcDbEntity
  8
ConnectionPoints
100
AcDbPoint
 10
0.0000000000000001
 20
2.77398762149703
 30
1.6015625
  0
POINT
  5
1FC
330
1F
100
AcDbEntity
  8
ConnectionPoints
100
AcDbPoint
 10
0.0000000000000001
 20
2.77398762149703
 30
1.6015625
  0
POINT
  5
1FD
330
1F
100
AcDbEntity
  8
ConnectionPoints
100
AcDbPoint
 10
0.0
 20
0.0
 30
0.0
  0
ENDSEC
  0
SECTION
  2
OBJECTS
  0
DICTIONARY
  5
C
330
0
100
AcDbDictionary
281
     1
  3
ACAD_DETAILVIEWSTYLE
350
205
  3
ACAD_GROUP
350
D
  3
ACAD_LAYOUT
350
1A
  3
ACAD_MATERIAL
350
43
  3
ACAD_MLEADERSTYLE
350
6B
  3
ACAD_MLINESTYLE
350
17
  3
ACAD_PLOTSETTINGS
350
19
  3
ACAD_PLOTSTYLENAME
350
E
  3
ACAD_SCALELIST
350
47
  3
ACAD_SECTIONVIEWSTYLE
350
206
  3
ACAD_TABLESTYLE
350
69
  3
ACAD_VISUALSTYLE
350
2A
  3
ACDB_RECOMPOSE_DATA
350
202
  3
AcDbVariableDictionary
350
1FE
  0
SUN
  5
6D
330
29
100
AcDbSun
 90
        1
290
     0
 63
     7
421
 16777215
 40
1.0
291
     1
 91
  2455826
 92
 54000000
292
     0
 70
     2
 71
   256
280
     1
  0
DICTIONARY
  5
205
102
{ACAD_REACTORS
330
C
102
}
330
C
100
AcDbDictionary
281
     1
  0
DICTIONARY
  5
D
102
{ACAD_REACTORS
330
C
102
}
330
C
100
AcDbDictionary
281
     1
  0
DICTIONARY
  5
1A
102
{ACAD_REACTORS
330
C
102
}
330
C
100
AcDbDictionary
281
     1
  3
Layout1
350
1E
  3
Layout2
350
26
  3
Model
350
22
  0
DICTIONARY
  5
43
102
{ACAD_REACTORS
330
C
102
}
330
C
100
AcDbDictionary
281
     1
  3
ByBlock
350
45
  3
ByLayer
350
44
  3
Global
350
46
  0
DICTIONARY
  5
6B
102
{ACAD_REACTORS
330
C
102
}
330
C
100
AcDbDictionary
281
     1
  3
Standard
350
6C
  0
DICTIONARY
  5
17
102
{ACAD_REACTORS
330
C
102
}
330
C
100
AcDbDictionary
281
     1
  3
Standard
350
18
  0
DICTIONARY
  5
19
102
{ACAD_REACTORS
330
C
102
}
330
C
100
AcDbDictionary
281
     1
  0
ACDBDICTIONARYWDFLT
  5
E
102
{ACAD_REACTORS
330
C
102
}
330
C
100
AcDbDictionary
281
     1
  3
Normal
350
F
100
AcDbDictionaryWithDefault
340
F
  0
DICTIONARY
  5
47
102
{ACAD_REACTORS
330
C
102
}
330
C
100
AcDbDictionary
281
     1
  3
A0
350
48
  3
A1
350
49
  3
A2
350
4A
  3
A3
350
4B
  3
A4
350
4C
  3
A5
350
4D
  3
A6
350
4E
  3
A7
350
4F
  3
A8
350
50
  3
A9
350
51
  3
B0
350
52
  3
B1
350
53
  3
B2
350
54
  3
B3
350
55
  3
B4
350
56
  3
B5
350
57
  3
B6
350
58
  3
B7
350
59
  3
B8
350
5A
  3
B9
350
5B
  3
C0
350
5C
  3
C1
350
5D
  3
C2
350
5E
  3
C3
350
5F
  3
C4
350
60
  3
C5
350
61
  3
C6
350
62
  3
C7
350
63
  3
C8
350
64
  3
C9
350
65
  3
D0
350
66
  3
D1
350
67
  3
D2
350
68
  0
DICTIONARY
  5
206
102
{ACAD_REACTORS
330
C
102
}
330
C
100
AcDbDictionary
281
     1
  0
DICTIONARY
  5
69
102
{ACAD_REACTORS
330
C
102
}
330
C
100
AcDbDictionary
281
     1
  3
Standard
350
6A
  0
DICTIONARY
  5
2A
102
{ACAD_REACTORS
330
C
102
}
330
C
100
AcDbDictionary
281
     1
  3
2dWireframe
350
2F
  3
Basic
350
32
  3
Brighten
350
36
  3
ColorChange
350
3A
  3
Conceptual
350
34
  3
Dim
350
35
  3
EdgeColorOff
350
3D
  3
Facepattern
350
39
  3
Flat
350
2B
  3
FlatWithEdges
350
2C
  3
Gouraud
350
2D
  3
GouraudWithEdges
350
2E
  3
Hidden
350
31
  3
JitterOff
350
3B
  3
Linepattern
350
38
  3
OverhangOff
350
3C
  3
Realistic
350
33
  3
Shaded
350
42
  3
Shaded with edges
350
41
  3
Shades of Gray
350
3E
  3
Sketchy
350
3F
  3
Thicken
350
37
  3
Wireframe
350
30
  3
X-Ray
350
40
  0
XRECORD
  5
202
102
{ACAD_REACTORS
330
C
102
}
330
C
100
AcDbXrecord
280
     1
 90
        1
330
6A
  0
DICTIONARY
  5
1FE
102
{ACAD_REACTORS
330
C
102
}
330
C
100
AcDbDictionary
281
     1
  3
CANNOSCALE
350
1FF
  3
CMLEADERSTYLE
350
204
  3
CTABLESTYLE
350
203
  0
LAYOUT
  5
1E
102
{ACAD_REACTORS
330
1A
102
}
330
1A
100
AcDbPlotSettings
  1

  2
none_device
  4

  6

 40
0.0
 41
0.0
 42
0.0
 43
0.0
 44
0.0
 45
0.0
 46
0.0
 47
0.0
 48
0.0
 49
0.0
140
0.0
141
0.0
142
1.0
143
1.0
 70
   688
 72
     0
 73
     0
 74
     5
  7

 75
    16
 76
     0
 77
     2
 78
   300
147
1.0
148
0.0
149
0.0
100
AcDbLayout
  1
Layout1
 70
     1
 71
     1
 10
0.0
 20
0.0
 11
12.0
 21
9.0
 12
0.0
 22
0.0
 32
0.0
 14
1.000000000000000E+20
 24
1.000000000000000E+20
 34
1.000000000000000E+20
 15
-1.000000000000000E+20
 25
-1.000000000000000E+20
 35
-1.000000000000000E+20
146
0.0
 13
0.0
 23
0.0
 33
0.0
 16
1.0
 26
0.0
 36
0.0
 17
0.0
 27
1.0
 37
0.0
 76
     0
330
1B
  0
LAYOUT
  5
26
102
{ACAD_REACTORS
330
1A
102
}
330
1A
100
AcDbPlotSettings
  1

  2
none_device
  4

  6

 40
0.0
 41
0.0
 42
0.0
 43
0.0
 44
0.0
 45
0.0
 46
0.0
 47
0.0
 48
0.0
 49
0.0
140
0.0
141
0.0
142
1.0
143
1.0
 70
   688
 72
     0
 73
     0
 74
     5
  7

 75
    16
 76
     0
 77
     2
 78
   300
147
1.0
148
0.0
149
0.0
100
AcDbLayout
  1
Layout2
 70
     1
 71
     2
 10
0.0
 20
0.0
 11
0.0
 21
0.0
 12
0.0
 22
0.0
 32
0.0
 14
0.0
 24
0.0
 34
0.0
 15
0.0
 25
0.0
 35
0.0
146
0.0
 13
0.0
 23
0.0
 33
0.0
 16
1.0
 26
0.0
 36
0.0
 17
0.0
 27
1.0
 37
0.0
 76
     0
330
23
  0
LAYOUT
  5
22
102
{ACAD_REACTORS
330
1A
102
}
330
1A
100
AcDbPlotSettings
  1

  2
none_device
  4
Letter_(8.50_x_11.00_Inches)
  6

 40
6.35
 41
6.35
 42
6.35000508
 43
6.35000508
 44
215.9
 45
279.4
 46
0.0
 47
0.0
 48
0.0
 49
0.0
140
0.0
141
0.0
142
1.0
143
1.0
 70
  1712
 72
     0
 73
     0
 74
     0
  7

 75
     0
 76
     0
 77
     2
 78
   300
147
1.0
148
0.0
149
0.0
100
AcDbLayout
  1
Model
 70
     1
 71
     0
 10
0.0
 20
0.0
 11
12.0
 21
9.0
 12
0.0
 22
0.0
 32
0.0
 14
1.000000000000000E+20
 24
1.000000000000000E+20
 34
1.000000000000000E+20
 15
-1.000000000000000E+20
 25
-1.000000000000000E+20
 35
-1.000000000000000E+20
146
0.0
 13
0.0
 23
0.0
 33
0.0
 16
1.0
 26
0.0
 36
0.0
 17
0.0
 27
1.0
 37
0.0
 76
     0
330
1F
331
29
  0
MATERIAL
  5
45
102
{ACAD_REACTORS
330
43
102
}
330
43
100
AcDbMaterial
  1
ByBlock
 72
     1
 94
      127
  0
MATERIAL
  5
44
102
{ACAD_REACTORS
330
43
102
}
330
43
100
AcDbMaterial
  1
ByLayer
 72
     1
 94
      127
  0
MATERIAL
  5
46
102
{ACAD_REACTORS
330
43
102
}
330
43
100
AcDbMaterial
  1
Global
 72
     1
 94
      127
  0
MLEADERSTYLE
  5
6C
102
{ACAD_REACTORS
330
6B
102
}
330
6B
100
AcDbMLeaderStyle
179
     2
170
     2
171
     1
172
     0
 90
        2
 40
0.0
 41
0.0
173
     1
 91
-1056964608
340
14
 92
       -2
290
     1
 42
0.09
291
     1
 43
0.36
  3
Standard
341
0
 44
0.18
300

342
11
174
     1
178
     6
175
     1
176
     0
 93
-1056964608
 45
0.18
292
     0
297
     0
 46
0.18
343
0
 94
-1056964608
 47
1.0
 49
1.0
140
1.0
293
     1
141
0.0
294
     1
177
     0
142
1.0
295
     0
296
     0
143
0.125
271
     0
272
     9
273
     9
298
     0
  0
MLINESTYLE
  5
18
102
{ACAD_REACTORS
330
17
102
}
330
17
100
AcDbMlineStyle
  2
Standard
 70
     0
  3

 62
   256
 51
90.0
 52
90.0
 71
     2
 49
0.5
 62
   256
  6
BYLAYER
 49
-0.5
 62
   256
  6
BYLAYER
  0
ACDBPLACEHOLDER
  5
F
102
{ACAD_REACTORS
330
E
102
}
330
E
  0
SCALE
  5
48
102
{ACAD_REACTORS
330
47
102
}
330
47
100
AcDbScale
 70
     0
300
1:1
140
1.0
141
1.0
290
     1
  0
SCALE
  5
49
102
{ACAD_REACTORS
330
47
102
}
330
47
100
AcDbScale
 70
     0
300
1:2
140
1.0
141
2.0
290
     0
  0
SCALE
  5
4A
102
{ACAD_REACTORS
330
47
102
}
330
47
100
AcDbScale
 70
     0
300
1:4
140
1.0
141
4.0
290
     0
  0
SCALE
  5
4B
102
{ACAD_REACTORS
330
47
102
}
330
47
100
AcDbScale
 70
     0
300
1:5
140
1.0
141
5.0
290
     0
  0
SCALE
  5
4C
102
{ACAD_REACTORS
330
47
102
}
330
47
100
AcDbScale
 70
     0
300
1:8
140
1.0
141
8.0
290
     0
  0
SCALE
  5
4D
102
{ACAD_REACTORS
330
47
102
}
330
47
100
AcDbScale
 70
     0
300
1:10
140
1.0
141
10.0
290
     0
  0
SCALE
  5
4E
102
{ACAD_REACTORS
330
47
102
}
330
47
100
AcDbScale
 70
     0
300
1:16
140
1.0
141
16.0
290
     0
  0
SCALE
  5
4F
102
{ACAD_REACTORS
330
47
102
}
330
47
100
AcDbScale
 70
     0
300
1:20
140
1.0
141
20.0
290
     0
  0
SCALE
  5
50
102
{ACAD_REACTORS
330
47
102
}
330
47
100
AcDbScale
 70
     0
300
1:30
140
1.0
141
30.0
290
     0
  0
SCALE
  5
51
102
{ACAD_REACTORS
330
47
102
}
330
47
100
AcDbScale
 70
     0
300
1:40
140
1.0
141
40.0
290
     0
  0
SCALE
  5
52
102
{ACAD_REACTORS
330
47
102
}
330
47
100
AcDbScale
 70
     0
300
1:50
140
1.0
141
50.0
290
     0
  0
SCALE
  5
53
102
{ACAD_REACTORS
330
47
102
}
330
47
100
AcDbScale
 70
     0
300
1:100
140
1.0
141
100.0
290
     0
  0
SCALE
  5
54
102
{ACAD_REACTORS
330
47
102
}
330
47
100
AcDbScale
 70
     0
300
2:1
140
2.0
141
1.0
290
     0
  0
SCALE
  5
55
102
{ACAD_REACTORS
330
47
102
}
330
47
100
AcDbScale
 70
     0
300
4:1
140
4.0
141
1.0
290
     0
  0
SCALE
  5
56
102
{ACAD_REACTORS
330
47
102
}
330
47
100
AcDbScale
 70
     0
300
8:1
140
8.0
141
1.0
290
     0
  0
SCALE
  5
57
102
{ACAD_REACTORS
330
47
102
}
330
47
100
AcDbScale
 70
     0
300
10:1
140
10.0
141
1.0
290
     0
  0
SCALE
  5
58
102
{ACAD_REACTORS
330
47
102
}
330
47
100
AcDbScale
 70
     0
300
100:1
140
100.0
141
1.0
290
     0
  0
SCALE
  5
59
102
{ACAD_REACTORS
330
47
102
}
330
47
100
AcDbScale
 70
     0
300
1/128" = 1'-0"
140
0.0078125
141
12.0
290
     0
  0
SCALE
  5
5A
102
{ACAD_REACTORS
330
47
102
}
330
47
100
AcDbScale
 70
     0
300
1/64" = 1'-0"
140
0.015625
141
12.0
290
     0
  0
SCALE
  5
5B
102
{ACAD_REACTORS
330
47
102
}
330
47
100
AcDbScale
 70
     0
300
1/32" = 1'-0"
140
0.03125
141
12.0
290
     0
  0
SCALE
  5
5C
102
{ACAD_REACTORS
330
47
102
}
330
47
100
AcDbScale
 70
     0
300
1/16" = 1'-0"
140
0.0625
141
12.0
290
     0
  0
SCALE
  5
5D
102
{ACAD_REACTORS
330
47
102
}
330
47
100
AcDbScale
 70
     0
300
3/32" = 1'-0"
140
0.09375
141
12.0
290
     0
  0
SCALE
  5
5E
102
{ACAD_REACTORS
330
47
102
}
330
47
100
AcDbScale
 70
     0
300
1/8" = 1'-0"
140
0.125
141
12.0
290
     0
  0
SCALE
  5
5F
102
{ACAD_REACTORS
330
47
102
}
330
47
100
AcDbScale
 70
     0
300
3/16" = 1'-0"
140
0.1875
141
12.0
290
     0
  0
SCALE
  5
60
102
{ACAD_REACTORS
330
47
102
}
330
47
100
AcDbScale
 70
     0
300
1/4" = 1'-0"
140
0.25
141
12.0
290
     0
  0
SCALE
  5
61
102
{ACAD_REACTORS
330
47
102
}
330
47
100
AcDbScale
 70
     0
300
3/8" = 1'-0"
140
0.375
141
12.0
290
     0
  0
SCALE
  5
62
102
{ACAD_REACTORS
330
47
102
}
330
47
100
AcDbScale
 70
     0
300
1/2" = 1'-0"
140
0.5
141
12.0
290
     0
  0
SCALE
  5
63
102
{ACAD_REACTORS
330
47
102
}
330
47
100
AcDbScale
 70
     0
300
3/4" = 1'-0"
140
0.75
141
12.0
290
     0
  0
SCALE
  5
64
102
{ACAD_REACTORS
330
47
102
}
330
47
100
AcDbScale
 70
     0
300
1" = 1'-0"
140
1.0
141
12.0
290
     0
  0
SCALE
  5
65
102
{ACAD_REACTORS
330
47
102
}
330
47
100
AcDbScale
 70
     0
300
1-1/2" = 1'-0"
140
1.5
141
12.0
290
     0
  0
SCALE
  5
66
102
{ACAD_REACTORS
330
47
102
}
330
47
100
AcDbScale
 70
     0
300
3" = 1'-0"
140
3.0
141
12.0
290
     0
  0
SCALE
  5
67
102
{ACAD_REACTORS
330
47
102
}
330
47
100
AcDbScale
 70
     0
300
6" = 1'-0"
140
6.0
141
12.0
290
     0
  0
SCALE
  5
68
102
{ACAD_REACTORS
330
47
102
}
330
47
100
AcDbScale
 70
     0
300
1'-0" = 1'-0"
140
12.0
141
12.0
290
     0
  0
TABLESTYLE
  5
6A
102
{ACAD_REACTORS
330
69
102
}
102
{ACAD_XDICTIONARY
360
200
102
}
330
69
100
AcDbTableStyle
  3
Standard
 70
     0
 71
     0
 40
0.06
 41
0.06
280
     0
281
     0
  7
Standard
140
0.18
170
     2
 62
     0
 63
   257
283
     0
 90
        4
 91
        0
  1

274
    -2
284
     1
 64
     0
275
    -2
285
     1
 65
     0
276
    -2
286
     1
 66
     0
277
    -2
287
     1
 67
     0
278
    -2
288
     1
 68
     0
279
    -2
289
     1
 69
     0
  7
Standard
140
0.25
170
     5
 62
     0
 63
   257
283
     0
 90
        4
 91
        0
  1

274
    -2
284
     1
 64
     0
275
    -2
285
     1
 65
     0
276
    -2
286
     1
 66
     0
277
    -2
287
     1
 67
     0
278
    -2
288
     1
 68
     0
279
    -2
289
     1
 69
     0
  7
Standard
140
0.18
170
     5
 62
     0
 63
   257
283
     0
 90
        4
 91
        0
  1

274
    -2
284
     1
 64
     0
275
    -2
285
     1
 65
     0
276
    -2
286
     1
 66
     0
277
    -2
287
     1
 67
     0
278
    -2
288
     1
 68
     0
279
    -2
289
     1
 69
     0
  0
VISUALSTYLE
  5
2F
102
{ACAD_REACTORS
330
2A
102
}
330
2A
100
AcDbVisualStyle
  2
2dWireframe
 70
     4
177
     3
291
     0
 70
    58
 90
        0
176
     1
 90
        2
176
     1
 90
        0
176
     1
 90
        0
176
     1
 40
0.6
176
     1
 40
30.0
176
     1
 62
     7
420
 16777215
176
     1
 90
        1
176
     1
 90
        4
176
     1
 62
     7
176
     1
 62
   257
176
     1
 90
        1
176
     1
 90
        1
176
     1
 40
1.0
176
     1
 90
        0
176
     1
 62
   257
176
     1
 40
1.0
176
     1
 90
        1
176
     1
 90
        6
176
     1
 90
        2
176
     1
 62
     7
176
     1
 90
        5
176
     1
 90
        0
176
     1
 90
        0
176
     1
290
     0
176
     1
 90
        1
176
     1
 40
0.0
176
     1
 90
        0
176
     1
290
     1
176
     1
290
     1
176
     1
290
     0
176
     1
290
     0
176
     1
290
     0
176
     1
290
     0
176
     1
290
     0
176
     1
290
     0
176
     1
290
     0
176
     1
 90
       50
176
     1
 40
0.0
176
     1
 40
1.0
176
     1
 90
        0
176
     1
 62
    18
420
        0
176
     1
 90
       50
176
     1
 90
        3
176
     1
 62
     5
420
      255
176
     1
290
     0
176
     1
 90
       50
176
     1
 90
       50
176
     1
 90
       50
176
     1
290
     0
176
     1
 90
       50
176
     1
 62
   256
176
     0
 40
1.0
176
     0
 90
        2
176
     1
  1
strokes_ogs.tif
176
     1
290
     0
176
     1
 40
1.0
176
     1
 40
1.0
176
     1
  0
VISUALSTYLE
  5
32
102
{ACAD_REACTORS
330
2A
102
}
330
2A
100
AcDbVisualStyle
  2
Basic
 70
     7
177
     3
291
     1
 70
    58
 90
        1
176
     1
 90
        0
176
     1
 90
        1
176
     1
 90
        0
176
     1
 40
0.6
176
     1
 40
30.0
176
     1
 62
     7
420
 16777215
176
     1
 90
        0
176
     1
 90
        4
176
     1
 62
     7
176
     1
 62
   257
176
     1
 90
        1
176
     1
 90
        1
176
     1
 40
1.0
176
     1
 90
        8
176
     1
 62
     7
176
     1
 40
1.0
176
     1
 90
        1
176
     1
 90
        6
176
     1
 90
        2
176
     1
 62
     7
176
     1
 90
        5
176
     1
 90
        0
176
     1
 90
        0
176
     1
290
     0
176
     1
 90
        1
176
     1
 40
0.0
176
     1
 90
        0
176
     1
290
     0
176
     1
290
     1
176
     1
290
     1
176
     1
290
     0
176
     1
290
     0
176
     1
290
     0
176
     1
290
     0
176
     1
290
     0
176
     1
290
     0
176
     1
 90
       50
176
     1
 40
0.0
176
     1
 40
1.0
176
     1
 90
        0
176
     1
 62
    18
420
        0
176
     1
 90
       50
176
     1
 90
        3
176
     1
 62
     5
420
      255
176
     1
290
     0
176
     1
 90
       50
176
     1
 90
       50
176
     1
 90
       50
176
     1
290
     0
176
     1
 90
       50
176
     1
 62
   256
176
     0
 40
1.0
176
     0
 90
        2
176
     1
  1
strokes_ogs.tif
176
     1
290
     0
176
     1
 40
1.0
176
     1
 40
1.0
176
     1
  0
VISUALSTYLE
  5
36
102
{ACAD_REACTORS
330
2A
102
}
330
2A
100
AcDbVisualStyle
  2
Brighten
 70
    12
177
     3
291
     1
 70
    58
 90
        2
176
     1
 90
        2
176
     1
 90
        0
176
     1
 90
        0
176
     1
 40
0.6
176
     1
 40
30.0
176
     1
 62
     7
420
 16777215
176
     1
 90
        1
176
     1
 90
        4
176
     1
 62
     7
176
     1
 62
   257
176
     1
 90
        1
176
     1
 90
        1
176
     1
 40
1.0
176
     1
 90
        8
176
     1
 62
     7
176
     1
 40
1.0
176
     1
 90
        1
176
     1
 90
        6
176
     1
 90
        2
176
     1
 62
     7
176
     1
 90
        5
176
     1
 90
        0
176
     1
 90
        0
176
     1
290
     0
176
     1
 90
        1
176
     1
 40
50.0
176
     1
 90
        0
176
     1
290
     0
176
     1
290
     1
176
     1
290
     1
176
     1
290
     0
176
     1
290
     0
176
     1
290
     0
176
     1
290
     0
176
     1
290
     0
176
     1
290
     0
176
     1
 90
       50
176
     1
 40
0.0
176
     1
 40
1.0
176
     1
 90
        0
176
     1
 62
    18
420
        0
176
     1
 90
       50
176
     1
 90
        3
176
     1
 62
     5
420
      255
176
     1
290
     0
176
     1
 90
       50
176
     1
 90
       50
176
     1
 90
       50
176
     1
290
     0
176
     1
 90
       50
176
     1
 62
   256
176
     0
 40
1.0
176
     0
 90
        2
176
     1
  1
strokes_ogs.tif
176
     1
290
     0
176
     1
 40
1.0
176
     1
 40
1.0
176
     1
  0
VISUALSTYLE
  5
3A
102
{ACAD_REACTORS
330
2A
102
}
330
2A
100
AcDbVisualStyle
  2
ColorChange
 70
    16
177
     3
291
     1
 70
    58
 90
        2
176
     1
 90
        2
176
     1
 90
        3
176
     1
 90
        0
176
     1
 40
0.6
176
     1
 40
30.0
176
     1
 62
     8
420
  8421504
176
     1
 90
        1
176
     1
 90
        4
176
     1
 62
     7
176
     1
 62
   257
176
     1
 90
        1
176
     1
 90
        1
176
     1
 40
1.0
176
     1
 90
        8
176
     1
 62
     8
420
  8421504
176
     1
 40
1.0
176
     1
 90
        1
176
     1
 90
        6
176
     1
 90
        2
176
     1
 62
     7
176
     1
 90
        5
176
     1
 90
        0
176
     1
 90
        0
176
     1
290
     0
176
     1
 90
        1
176
     1
 40
0.0
176
     1
 90
        0
176
     1
290
     0
176
     1
290
     1
176
     1
290
     1
176
     1
290
     0
176
     1
290
     0
176
     1
290
     0
176
     1
290
     0
176
     1
290
     0
176
     1
290
     0
176
     1
 90
       50
176
     1
 40
0.0
176
     1
 40
1.0
176
     1
 90
        0
176
     1
 62
    18
420
        0
176
     1
 90
       50
176
     1
 90
        3
176
     1
 62
     5
420
      255
176
     1
290
     0
176
     1
 90
       50
176
     1
 90
       50
176
     1
 90
       50
176
     1
290
     0
176
     1
 90
       50
176
     1
 62
   256
176
     0
 40
1.0
176
     0
 90
        2
176
     1
  1
strokes_ogs.tif
176
     1
290
     0
176
     1
 40
1.0
176
     1
 40
1.0
176
     1
  0
VISUALSTYLE
  5
34
102
{ACAD_REACTORS
330
2A
102
}
330
2A
100
AcDbVisualStyle
  2
Conceptual
 70
     9
177
     3
291
     0
 70
    58
 90
        3
176
     1
 90
        2
176
     1
 90
        0
176
     1
 90
        0
176
     1
 40
0.6
176
     1
 40
30.0
176
     1
 62
     7
420
 16777215
176
     1
 90
        2
176
     1
 90
        2
176
     1
 62
     7
176
     1
 62
   257
176
     1
 90
        1
176
     1
 90
        1
176
     1
 40
179.0
176
     1
 90
        8
176
     1
 62
     7
176
     1
 40
1.0
176
     1
 90
        1
176
     1
 90
        6
176
     1
 90
        2
176
     1
 62
     7
176
     1
 90
        3
176
     1
 90
        0
176
     1
 90
        0
176
     1
290
     0
176
     1
 90
        1
176
     1
 40
0.0
176
     1
 90
        0
176
     1
290
     0
176
     1
290
     1
176
     1
290
     1
176
     1
290
     0
176
     1
290
     0
176
     1
290
     0
176
     1
290
     0
176
     1
290
     0
176
     1
290
     0
176
     1
 90
       50
176
     1
 40
0.0
176
     1
 40
1.0
176
     1
 90
        0
176
     1
 62
    18
420
        0
176
     1
 90
       50
176
     1
 90
        3
176
     1
 62
     5
420
      255
176
     1
290
     0
176
     1
 90
       50
176
     1
 90
       50
176
     1
 90
       50
176
     1
290
     0
176
     1
 90
       50
176
     1
 62
   256
176
     0
 40
1.0
176
     0
 90
        2
176
     1
  1
strokes_ogs.tif
176
     1
290
     0
176
     1
 40
1.0
176
     1
 40
1.0
176
     1
  0
VISUALSTYLE
  5
35
102
{ACAD_REACTORS
330
2A
102
}
330
2A
100
AcDbVisualStyle
  2
Dim
 70
    11
177
     3
291
     1
 70
    58
 90
        2
176
     1
 90
        2
176
     1
 90
        0
176
     1
 90
        0
176
     1
 40
0.6
176
     1
 40
30.0
176
     1
 62
     7
420
 16777215
176
     1
 90
        1
176
     1
 90
        4
176
     1
 62
     7
176
     1
 62
   257
176
     1
 90
        1
176
     1
 90
        1
176
     1
 40
1.0
176
     1
 90
        8
176
     1
 62
     7
176
     1
 40
1.0
176
     1
 90
        1
176
     1
 90
        6
176
     1
 90
        2
176
     1
 62
     7
176
     1
 90
        5
176
     1
 90
        0
176
     1
 90
        0
176
     1
290
     0
176
     1
 90
        1
176
     1
 40
-50.0
176
     1
 90
        0
176
     1
290
     0
176
     1
290
     1
176
     1
290
     1
176
     1
290
     0
176
     1
290
     0
176
     1
290
     0
176
     1
290
     0
176
     1
290
     0
176
     1
290
     0
176
     1
 90
       50
176
     1
 40
0.0
176
     1
 40
1.0
176
     1
 90
        0
176
     1
 62
    18
420
        0
176
     1
 90
       50
176
     1
 90
        3
176
     1
 62
     5
420
      255
176
     1
290
     0
176
     1
 90
       50
176
     1
 90
       50
176
     1
 90
       50
176
     1
290
     0
176
     1
 90
       50
176
     1
 62
   256
176
     0
 40
1.0
176
     0
 90
        2
176
     1
  1
strokes_ogs.tif
176
     1
290
     0
176
     1
 40
1.0
176
     1
 40
1.0
176
     1
  0
VISUALSTYLE
  5
3D
102
{ACAD_REACTORS
330
2A
102
}
330
2A
100
AcDbVisualStyle
  2
EdgeColorOff
 70
    22
177
     3
291
     1
 70
    58
 90
        2
176
     0
 90
        2
176
     0
 90
        0
176
     0
 90
        0
176
     0
 40
0.6
176
     0
 40
30.0
176
     0
 62
     7
420
 16777215
176
     0
 90
        1
176
     0
 90
        4
176
     0
 62
     7
176
     0
 62
   257
176
     0
 90
        1
176
     0
 90
        1
176
     0
 40
1.0
176
     0
 90
        8
176
     2
 62
     7
176
     0
 40
1.0
176
     0
 90
        1
176
     0
 90
        6
176
     0
 90
        2
176
     0
 62
     7
176
     0
 90
        5
176
     0
 90
        0
176
     0
 90
        0
176
     0
290
     0
176
     0
 90
        1
176
     0
 40
0.0
176
     0
 90
        0
176
     0
290
     0
176
     0
290
     1
176
     0
290
     1
176
     0
290
     0
176
     0
290
     0
176
     0
290
     0
176
     0
290
     0
176
     0
290
     0
176
     0
290
     0
176
     0
 90
       50
176
     0
 40
0.0
176
     0
 40
1.0
176
     0
 90
        0
176
     0
 62
    18
420
        0
176
     0
 90
       50
176
     0
 90
        3
176
     0
 62
     5
420
      255
176
     0
290
     0
176
     0
 90
       50
176
     0
 90
       50
176
     0
 90
       50
176
     0
290
     0
176
     0
 90
       50
176
     0
 62
   256
176
     0
 40
1.0
176
     0
 90
        2
176
     0
  1
strokes_ogs.tif
176
     0
290
     0
176
     0
 40
1.0
176
     0
 40
1.0
176
     0
  0
VISUALSTYLE
  5
39
102
{ACAD_REACTORS
330
2A
102
}
330
2A
100
AcDbVisualStyle
  2
Facepattern
 70
    15
177
     3
291
     1
 70
    58
 90
        2
176
     1
 90
        2
176
     1
 90
        0
176
     1
 90
        0
176
     1
 40
0.6
176
     1
 40
30.0
176
     1
 62
     7
420
 16777215
176
     1
 90
        1
176
     1
 90
        4
176
     1
 62
     7
176
     1
 62
   257
176
     1
 90
        1
176
     1
 90
        1
176
     1
 40
1.0
176
     1
 90
        8
176
     1
 62
     7
176
     1
 40
1.0
176
     1
 90
        1
176
     1
 90
        6
176
     1
 90
        2
176
     1
 62
     7
176
     1
 90
        5
176
     1
 90
        0
176
     1
 90
        0
176
     1
290
     0
176
     1
 90
        1
176
     1
 40
0.0
176
     1
 90
        0
176
     1
290
     0
176
     1
290
     1
176
     1
290
     1
176
     1
290
     0
176
     1
290
     0
176
     1
290
     0
176
     1
290
     0
176
     1
290
     0
176
     1
290
     0
176
     1
 90
       50
176
     1
 40
0.0
176
     1
 40
1.0
176
     1
 90
        0
176
     1
 62
    18
420
        0
176
     1
 90
       50
176
     1
 90
        3
176
     1
 62
     5
420
      255
176
     1
290
     0
176
     1
 90
       50
176
     1
 90
       50
176
     1
 90
       50
176
     1
290
     0
176
     1
 90
       50
176
     1
 62
   256
176
     0
 40
1.0
176
     0
 90
        2
176
     1
  1
strokes_ogs.tif
176
     1
290
     0
176
     1
 40
1.0
176
     1
 40
1.0
176
     1
  0
VISUALSTYLE
  5
2B
102
{ACAD_REACTORS
330
2A
102
}
330
2A
100
AcDbVisualStyle
  2
Flat
 70
     0
177
     3
291
     1
 70
    58
 90
        2
176
     1
 90
        1
176
     1
 90
        1
176
     1
 90
        2
176
     1
 40
0.6
176
     1
 40
30.0
176
     1
 62
     7
420
 16777215
176
     1
 90
        0
176
     1
 90
        0
176
     1
 62
     7
176
     1
 62
   257
176
     1
 90
        1
176
     1
 90
        1
176
     1
 40
1.0
176
     1
 90
        8
176
     1
 62
     7
176
     1
 40
1.0
176
     1
 90
        1
176
     1
 90
        6
176
     1
 90
        2
176
     1
 62
     7
176
     1
 90
        5
176
     1
 90
        0
176
     1
 90
        0
176
     1
290
     0
176
     1
 90
       13
176
     1
 40
0.0
176
     1
 90
        0
176
     1
290
     0
176
     1
290
     1
176
     1
290
     1
176
     1
290
     0
176
     1
290
     0
176
     1
290
     0
176
     1
290
     0
176
     1
290
     0
176
     1
290
     0
176
     1
 90
       50
176
     1
 40
0.0
176
     1
 40
1.0
176
     1
 90
        0
176
     1
 62
    18
420
        0
176
     1
 90
       50
176
     1
 90
        3
176
     1
 62
     5
420
      255
176
     1
290
     0
176
     1
 90
       50
176
     1
 90
       50
176
     1
 90
       50
176
     1
290
     0
176
     1
 90
       50
176
     1
 62
   256
176
     0
 40
1.0
176
     0
 90
        2
176
     1
  1
strokes_ogs.tif
176
     1
290
     0
176
     1
 40
1.0
176
     1
 40
1.0
176
     1
  0
VISUALSTYLE
  5
2C
102
{ACAD_REACTORS
330
2A
102
}
330
2A
100
AcDbVisualStyle
  2
FlatWithEdges
 70
     1
177
     3
291
     1
 70
    58
 90
        2
176
     1
 90
        1
176
     1
 90
        1
176
     1
 90
        2
176
     1
 40
0.6
176
     1
 40
30.0
176
     1
 62
     7
420
 16777215
176
     1
 90
        1
176
     1
 90
        0
176
     1
 62
     7
176
     1
 62
   257
176
     1
 90
        1
176
     1
 90
        1
176
     1
 40
1.0
176
     1
 90
        0
176
     1
 62
   257
176
     1
 40
1.0
176
     1
 90
        1
176
     1
 90
        6
176
     1
 90
        2
176
     1
 62
     7
176
     1
 90
        5
176
     1
 90
        0
176
     1
 90
        0
176
     1
290
     0
176
     1
 90
       13
176
     1
 40
0.0
176
     1
 90
        0
176
     1
290
     0
176
     1
290
     1
176
     1
290
     1
176
     1
290
     0
176
     1
290
     0
176
     1
290
     0
176
     1
290
     0
176
     1
290
     0
176
     1
290
     0
176
     1
 90
       50
176
     1
 40
0.0
176
     1
 40
1.0
176
     1
 90
        0
176
     1
 62
    18
420
        0
176
     1
 90
       50
176
     1
 90
        3
176
     1
 62
     5
420
      255
176
     1
290
     0
176
     1
 90
       50
176
     1
 90
       50
176
     1
 90
       50
176
     1
290
     0
176
     1
 90
       50
176
     1
 62
   256
176
     0
 40
1.0
176
     0
 90
        2
176
     1
  1
strokes_ogs.tif
176
     1
290
     0
176
     1
 40
1.0
176
     1
 40
1.0
176
     1
  0
VISUALSTYLE
  5
2D
102
{ACAD_REACTORS
330
2A
102
}
330
2A
100
AcDbVisualStyle
  2
Gouraud
 70
     2
177
     3
291
     1
 70
    58
 90
        2
176
     1
 90
        2
176
     1
 90
        1
176
     1
 90
        2
176
     1
 40
0.6
176
     1
 40
30.0
176
     1
 62
     7
420
 16777215
176
     1
 90
        0
176
     1
 90
        0
176
     1
 62
     7
176
     1
 62
   257
176
     1
 90
        1
176
     1
 90
        1
176
     1
 40
1.0
176
     1
 90
        0
176
     1
 62
     7
176
     1
 40
1.0
176
     1
 90
        1
176
     1
 90
        6
176
     1
 90
        2
176
     1
 62
     7
176
     1
 90
        5
176
     1
 90
        0
176
     1
 90
        0
176
     1
290
     0
176
     1
 90
       13
176
     1
 40
0.0
176
     1
 90
        0
176
     1
290
     0
176
     1
290
     1
176
     1
290
     1
176
     1
290
     0
176
     1
290
     0
176
     1
290
     0
176
     1
290
     0
176
     1
290
     0
176
     1
290
     0
176
     1
 90
       50
176
     1
 40
0.0
176
     1
 40
1.0
176
     1
 90
        0
176
     1
 62
    18
420
        0
176
     1
 90
       50
176
     1
 90
        3
176
     1
 62
     5
420
      255
176
     1
290
     0
176
     1
 90
       50
176
     1
 90
       50
176
     1
 90
       50
176
     1
290
     0
176
     1
 90
       50
176
     1
 62
   256
176
     0
 40
1.0
176
     0
 90
        2
176
     1
  1
strokes_ogs.tif
176
     1
290
     0
176
     1
 40
1.0
176
     1
 40
1.0
176
     1
  0
VISUALSTYLE
  5
2E
102
{ACAD_REACTORS
330
2A
102
}
330
2A
100
AcDbVisualStyle
  2
GouraudWithEdges
 70
     3
177
     3
291
     1
 70
    58
 90
        2
176
     1
 90
        2
176
     1
 90
        1
176
     1
 90
        2
176
     1
 40
0.6
176
     1
 40
30.0
176
     1
 62
     7
420
 16777215
176
     1
 90
        1
176
     1
 90
        0
176
     1
 62
     7
176
     1
 62
   257
176
     1
 90
        1
176
     1
 90
        1
176
     1
 40
1.0
176
     1
 90
        0
176
     1
 62
   257
176
     1
 40
1.0
176
     1
 90
        1
176
     1
 90
        6
176
     1
 90
        2
176
     1
 62
     7
176
     1
 90
        5
176
     1
 90
        0
176
     1
 90
        0
176
     1
290
     0
176
     1
 90
       13
176
     1
 40
0.0
176
     1
 90
        0
176
     1
290
     0
176
     1
290
     1
176
     1
290
     1
176
     1
290
     0
176
     1
290
     0
176
     1
290
     0
176
     1
290
     0
176
     1
290
     0
176
     1
290
     0
176
     1
 90
       50
176
     1
 40
0.0
176
     1
 40
1.0
176
     1
 90
        0
176
     1
 62
    18
420
        0
176
     1
 90
       50
176
     1
 90
        3
176
     1
 62
     5
420
      255
176
     1
290
     0
176
     1
 90
       50
176
     1
 90
       50
176
     1
 90
       50
176
     1
290
     0
176
     1
 90
       50
176
     1
 62
   256
176
     0
 40
1.0
176
     0
 90
        2
176
     1
  1
strokes_ogs.tif
176
     1
290
     0
176
     1
 40
1.0
176
     1
 40
1.0
176
     1
  0
VISUALSTYLE
  5
31
102
{ACAD_REACTORS
330
2A
102
}
330
2A
100
AcDbVisualStyle
  2
Hidden
 70
     6
177
     3
291
     0
 70
    58
 90
        1
176
     1
 90
        2
176
     1
 90
        2
176
     1
 90
        0
176
     1
 40
0.6
176
     1
 40
30.0
176
     1
 62
     7
420
 16777215
176
     1
 90
        2
176
     1
 90
        2
176
     1
 62
     7
176
     1
 62
   257
176
     1
 90
        2
176
     1
 90
        1
176
     1
 40
40.0
176
     1
 90
        0
176
     1
 62
   257
176
     1
 40
1.0
176
     1
 90
        1
176
     1
 90
        6
176
     1
 90
        2
176
     1
 62
     7
176
     1
 90
        3
176
     1
 90
        0
176
     1
 90
        0
176
     1
290
     0
176
     1
 90
        1
176
     1
 40
0.0
176
     1
 90
        0
176
     1
290
     0
176
     1
290
     1
176
     1
290
     1
176
     1
290
     0
176
     1
290
     0
176
     1
290
     0
176
     1
290
     0
176
     1
290
     0
176
     1
290
     0
176
     1
 90
       50
176
     1
 40
0.0
176
     1
 40
1.0
176
     1
 90
        0
176
     1
 62
    18
420
        0
176
     1
 90
       50
176
     1
 90
        3
176
     1
 62
     5
420
      255
176
     1
290
     0
176
     1
 90
       50
176
     1
 90
       50
176
     1
 90
       50
176
     1
290
     0
176
     1
 90
       50
176
     1
 62
   256
176
     0
 40
1.0
176
     0
 90
        2
176
     1
  1
strokes_ogs.tif
176
     1
290
     0
176
     1
 40
1.0
176
     1
 40
1.0
176
     1
  0
VISUALSTYLE
  5
3B
102
{ACAD_REACTORS
330
2A
102
}
330
2A
100
AcDbVisualStyle
  2
JitterOff
 70
    20
177
     3
291
     1
 70
    58
 90
        2
176
     0
 90
        2
176
     0
 90
        0
176
     0
 90
        0
176
     0
 40
0.6
176
     0
 40
30.0
176
     0
 62
     7
420
 16777215
176
     0
 90
        1
176
     0
 90
        4
176
     0
 62
     7
176
     0
 62
   257
176
     0
 90
        1
176
     0
 90
        1
176
     0
 40
1.0
176
     0
 90
       10
176
     2
 62
     7
176
     0
 40
1.0
176
     0
 90
        1
176
     0
 90
        6
176
     0
 90
        2
176
     0
 62
     7
176
     0
 90
        5
176
     0
 90
        0
176
     0
 90
        0
176
     0
290
     0
176
     0
 90
        1
176
     0
 40
0.0
176
     0
 90
        0
176
     0
290
     0
176
     0
290
     1
176
     0
290
     1
176
     0
290
     0
176
     0
290
     0
176
     0
290
     0
176
     0
290
     0
176
     0
290
     0
176
     0
290
     0
176
     0
 90
       50
176
     0
 40
0.0
176
     0
 40
1.0
176
     0
 90
        0
176
     0
 62
    18
420
        0
176
     0
 90
       50
176
     0
 90
        3
176
     0
 62
     5
420
      255
176
     0
290
     0
176
     0
 90
       50
176
     0
 90
       50
176
     0
 90
       50
176
     0
290
     0
176
     0
 90
       50
176
     0
 62
   256
176
     0
 40
1.0
176
     0
 90
        2
176
     0
  1
strokes_ogs.tif
176
     0
290
     0
176
     0
 40
1.0
176
     0
 40
1.0
176
     0
  0
VISUALSTYLE
  5
38
102
{ACAD_REACTORS
330
2A
102
}
330
2A
100
AcDbVisualStyle
  2
Linepattern
 70
    14
177
     3
291
     1
 70
    58
 90
        2
176
     1
 90
        2
176
     1
 90
        0
176
     1
 90
        0
176
     1
 40
0.6
176
     1
 40
30.0
176
     1
 62
     7
420
 16777215
176
     1
 90
        1
176
     1
 90
        4
176
     1
 62
     7
176
     1
 62
   257
176
     1
 90
        7
176
     1
 90
        7
176
     1
 40
1.0
176
     1
 90
        8
176
     1
 62
     7
176
     1
 40
1.0
176
     1
 90
        1
176
     1
 90
        6
176
     1
 90
        2
176
     1
 62
     7
176
     1
 90
        5
176
     1
 90
        0
176
     1
 90
        0
176
     1
290
     0
176
     1
 90
        1
176
     1
 40
0.0
176
     1
 90
        0
176
     1
290
     0
176
     1
290
     1
176
     1
290
     1
176
     1
290
     0
176
     1
290
     0
176
     1
290
     0
176
     1
290
     0
176
     1
290
     0
176
     1
290
     0
176
     1
 90
       50
176
     1
 40
0.0
176
     1
 40
1.0
176
     1
 90
        0
176
     1
 62
    18
420
        0
176
     1
 90
       50
176
     1
 90
        3
176
     1
 62
     5
420
      255
176
     1
290
     0
176
     1
 90
       50
176
     1
 90
       50
176
     1
 90
       50
176
     1
290
     0
176
     1
 90
       50
176
     1
 62
   256
176
     0
 40
1.0
176
     0
 90
        2
176
     1
  1
strokes_ogs.tif
176
     1
290
     0
176
     1
 40
1.0
176
     1
 40
1.0
176
     1
  0
VISUALSTYLE
  5
3C
102
{ACAD_REACTORS
330
2A
102
}
330
2A
100
AcDbVisualStyle
  2
OverhangOff
 70
    21
177
     3
291
     1
 70
    58
 90
        2
176
     0
 90
        2
176
     0
 90
        0
176
     0
 90
        0
176
     0
 40
0.6
176
     0
 40
30.0
176
     0
 62
     7
420
 16777215
176
     0
 90
        1
176
     0
 90
        4
176
     0
 62
     7
176
     0
 62
   257
176
     0
 90
        1
176
     0
 90
        1
176
     0
 40
1.0
176
     0
 90
        9
176
     2
 62
     7
176
     0
 40
1.0
176
     0
 90
        1
176
     0
 90
        6
176
     0
 90
        2
176
     0
 62
     7
176
     0
 90
        5
176
     0
 90
        0
176
     0
 90
        0
176
     0
290
     0
176
     0
 90
        1
176
     0
 40
0.0
176
     0
 90
        0
176
     0
290
     0
176
     0
290
     1
176
     0
290
     1
176
     0
290
     0
176
     0
290
     0
176
     0
290
     0
176
     0
290
     0
176
     0
290
     0
176
     0
290
     0
176
     0
 90
       50
176
     0
 40
0.0
176
     0
 40
1.0
176
     0
 90
        0
176
     0
 62
    18
420
        0
176
     0
 90
       50
176
     0
 90
        3
176
     0
 62
     5
420
      255
176
     0
290
     0
176
     0
 90
       50
176
     0
 90
       50
176
     0
 90
       50
176
     0
290
     0
176
     0
 90
       50
176
     0
 62
   256
176
     0
 40
1.0
176
     0
 90
        2
176
     0
  1
strokes_ogs.tif
176
     0
290
     0
176
     0
 40
1.0
176
     0
 40
1.0
176
     0
  0
VISUALSTYLE
  5
33
102
{ACAD_REACTORS
330
2A
102
}
330
2A
100
AcDbVisualStyle
  2
Realistic
 70
     8
177
     3
291
     0
 70
    58
 90
        2
176
     1
 90
        3
176
     1
 90
        0
176
     1
 90
        2
176
     1
 40
0.6
176
     1
 40
30.0
176
     1
 62
     7
420
 16777215
176
     1
 90
        0
176
     1
 90
        0
176
     1
 62
     7
176
     1
 62
   257
176
     1
 90
        1
176
     1
 90
        1
176
     1
 40
1.0
176
     1
 90
        8
176
     1
 62
   257
176
     1
 40
1.0
176
     1
 90
        1
176
     1
 90
        6
176
     1
 90
        2
176
     1
 62
     7
176
     1
 90
        3
176
     1
 90
        0
176
     1
 90
        0
176
     1
290
     0
176
     1
 90
       13
176
     1
 40
0.0
176
     1
 90
        0
176
     1
290
     0
176
     1
290
     1
176
     1
290
     1
176
     1
290
     0
176
     1
290
     0
176
     1
290
     0
176
     1
290
     0
176
     1
290
     0
176
     1
290
     0
176
     1
 90
       50
176
     1
 40
0.0
176
     1
 40
1.0
176
     1
 90
        0
176
     1
 62
    18
420
        0
176
     1
 90
       50
176
     1
 90
        3
176
     1
 62
     5
420
      255
176
     1
290
     0
176
     1
 90
       50
176
     1
 90
       50
176
     1
 90
       50
176
     1
290
     0
176
     1
 90
       50
176
     1
 62
   256
176
     0
 40
1.0
176
     0
 90
        2
176
     1
  1
strokes_ogs.tif
176
     1
290
     0
176
     1
 40
1.0
176
     1
 40
1.0
176
     1
  0
VISUALSTYLE
  5
42
102
{ACAD_REACTORS
330
2A
102
}
330
2A
100
AcDbVisualStyle
  2
Shaded
 70
    27
177
     3
291
     0
 70
    58
 90
        2
176
     1
 90
        2
176
     1
 90
        1
176
     1
 90
        2
176
     1
 40
0.6
176
     1
 40
30.0
176
     1
 62
     7
420
 16777215
176
     1
 90
        0
176
     1
 90
        4
176
     1
 62
     7
176
     1
 62
   257
176
     1
 90
        1
176
     1
 90
        1
176
     1
 40
1.0
176
     1
 90
        8
176
     1
 62
   257
176
     1
 40
1.0
176
     1
 90
        1
176
     1
 90
        6
176
     1
 90
        2
176
     1
 62
     8
420
  7895160
176
     1
 90
        3
176
     1
 90
        0
176
     1
 90
        0
176
     1
290
     0
176
     1
 90
        5
176
     1
 40
0.0
176
     1
 90
        0
176
     1
290
     0
176
     1
290
     1
176
     1
290
     1
176
     1
290
     0
176
     1
290
     0
176
     1
290
     0
176
     1
290
     0
176
     1
290
     0
176
     1
290
     0
176
     1
 90
       50
176
     1
 40
0.0
176
     1
 40
1.0
176
     1
 90
        0
176
     1
 62
    18
420
        0
176
     1
 90
       50
176
     1
 90
        3
176
     1
 62
     5
420
      255
176
     1
290
     0
176
     1
 90
       50
176
     1
 90
       50
176
     1
 90
       50
176
     1
290
     0
176
     1
 90
       50
176
     1
 62
   256
176
     0
 40
1.0
176
     0
 90
        2
176
     1
  1
strokes_ogs.tif
176
     1
290
     0
176
     1
 40
1.0
176
     1
 40
1.0
176
     1
  0
VISUALSTYLE
  5
41
102
{ACAD_REACTORS
330
2A
102
}
330
2A
100
AcDbVisualStyle
  2
Shaded with edges
 70
    26
177
     3
291
     0
 70
    58
 90
        2
176
     1
 90
        2
176
     1
 90
        1
176
     1
 90
        2
176
     1
 40
0.6
176
     1
 40
30.0
176
     1
 62
     7
420
 16777215
176
     1
 90
        1
176
     1
 90
       10
176
     1
 62
     7
176
     1
 62
   257
176
     1
 90
        2
176
     1
 90
        1
176
     1
 40
1.0
176
     1
 90
        8
176
     1
 62
   257
176
     1
 40
1.0
176
     1
 90
        1
176
     1
 90
        6
176
     1
 90
        2
176
     1
 62
     7
176
     1
 90
        3
176
     1
 90
        0
176
     1
 90
        0
176
     1
290
     0
176
     1
 90
        5
176
     1
 40
0.0
176
     1
 90
        0
176
     1
290
     0
176
     1
290
     1
176
     1
290
     1
176
     1
290
     0
176
     1
290
     0
176
     1
290
     0
176
     1
290
     0
176
     1
290
     0
176
     1
290
     0
176
     1
 90
       50
176
     1
 40
0.0
176
     1
 40
1.0
176
     1
 90
        0
176
     1
 62
    18
420
        0
176
     1
 90
       50
176
     1
 90
        3
176
     1
 62
     5
420
      255
176
     1
290
     0
176
     1
 90
       50
176
     1
 90
       50
176
     1
 90
       50
176
     1
290
     0
176
     1
 90
       50
176
     1
 62
   256
176
     0
 40
1.0
176
     0
 90
        2
176
     1
  1
strokes_ogs.tif
176
     1
290
     0
176
     1
 40
1.0
176
     1
 40
1.0
176
     1
  0
VISUALSTYLE
  5
3E
102
{ACAD_REACTORS
330
2A
102
}
330
2A
100
AcDbVisualStyle
  2
Shades of Gray
 70
    23
177
     3
291
     0
 70
    58
 90
        2
176
     1
 90
        2
176
     1
 90
        3
176
     1
 90
        0
176
     1
 40
0.6
176
     1
 40
30.0
176
     1
 62
     7
420
 16777215
176
     1
 90
        2
176
     1
 90
        2
176
     1
 62
     7
176
     1
 62
     7
176
     1
 90
        1
176
     1
 90
        1
176
     1
 40
40.0
176
     1
 90
        8
176
     1
 62
     7
176
     1
 40
1.0
176
     1
 90
        1
176
     1
 90
        6
176
     1
 90
        2
176
     1
 62
     7
176
     1
 90
        3
176
     1
 90
        0
176
     1
 90
        0
176
     1
290
     0
176
     1
 90
        1
176
     1
 40
0.0
176
     1
 90
        0
176
     1
290
     0
176
     1
290
     1
176
     1
290
     1
176
     1
290
     0
176
     1
290
     0
176
     1
290
     0
176
     1
290
     0
176
     1
290
     0
176
     1
290
     0
176
     1
 90
       50
176
     1
 40
0.0
176
     1
 40
1.0
176
     1
 90
        0
176
     1
 62
    18
420
        0
176
     1
 90
       50
176
     1
 90
        3
176
     1
 62
     5
420
      255
176
     1
290
     0
176
     1
 90
       50
176
     1
 90
       50
176
     1
 90
       50
176
     1
290
     0
176
     1
 90
       50
176
     1
 62
   256
176
     0
 40
1.0
176
     0
 90
        2
176
     1
  1
strokes_ogs.tif
176
     1
290
     0
176
     1
 40
1.0
176
     1
 40
1.0
176
     1
  0
VISUALSTYLE
  5
3F
102
{ACAD_REACTORS
330
2A
102
}
330
2A
100
AcDbVisualStyle
  2
Sketchy
 70
    24
177
     3
291
     0
 70
    58
 90
        1
176
     1
 90
        2
176
     1
 90
        2
176
     1
 90
        0
176
     1
 40
0.6
176
     1
 40
30.0
176
     1
 62
     7
420
 16777215
176
     1
 90
        2
176
     1
 90
        2
176
     1
 62
     7
176
     1
 62
     7
176
     1
 90
        1
176
     1
 90
        1
176
     1
 40
40.0
176
     1
 90
       11
176
     1
 62
     7
176
     1
 40
1.0
176
     1
 90
        1
176
     1
 90
        6
176
     1
 90
        2
176
     1
 62
     7
176
     1
 90
        6
176
     1
 90
        0
176
     1
 90
        0
176
     1
290
     0
176
     1
 90
        1
176
     1
 40
0.0
176
     1
 90
        0
176
     1
290
     0
176
     1
290
     1
176
     1
290
     1
176
     1
290
     0
176
     1
290
     0
176
     1
290
     0
176
     1
290
     0
176
     1
290
     0
176
     1
290
     0
176
     1
 90
       50
176
     1
 40
0.0
176
     1
 40
1.0
176
     1
 90
        0
176
     1
 62
    18
420
        0
176
     1
 90
       50
176
     1
 90
        3
176
     1
 62
     5
420
      255
176
     1
290
     0
176
     1
 90
       50
176
     1
 90
       50
176
     1
 90
       50
176
     1
290
     0
176
     1
 90
       50
176
     1
 62
   256
176
     0
 40
1.0
176
     0
 90
        2
176
     1
  1
strokes_ogs.tif
176
     1
290
     0
176
     1
 40
1.0
176
     1
 40
1.0
176
     1
  0
VISUALSTYLE
  5
37
102
{ACAD_REACTORS
330
2A
102
}
330
2A
100
AcDbVisualStyle
  2
Thicken
 70
    13
177
     3
291
     1
 70
    58
 90
        2
176
     1
 90
        2
176
     1
 90
        0
176
     1
 90
        0
176
     1
 40
0.6
176
     1
 40
30.0
176
     1
 62
     7
420
 16777215
176
     1
 90
        1
176
     1
 90
        4
176
     1
 62
     7
176
     1
 62
   257
176
     1
 90
        1
176
     1
 90
        1
176
     1
 40
1.0
176
     1
 90
       12
176
     1
 62
     7
176
     1
 40
1.0
176
     1
 90
        1
176
     1
 90
        6
176
     1
 90
        2
176
     1
 62
     7
176
     1
 90
        5
176
     1
 90
        0
176
     1
 90
        0
176
     1
290
     0
176
     1
 90
        1
176
     1
 40
0.0
176
     1
 90
        0
176
     1
290
     0
176
     1
290
     1
176
     1
290
     1
176
     1
290
     0
176
     1
290
     0
176
     1
290
     0
176
     1
290
     0
176
     1
290
     0
176
     1
290
     0
176
     1
 90
       50
176
     1
 40
0.0
176
     1
 40
1.0
176
     1
 90
        0
176
     1
 62
    18
420
        0
176
     1
 90
       50
176
     1
 90
        3
176
     1
 62
     5
420
      255
176
     1
290
     0
176
     1
 90
       50
176
     1
 90
       50
176
     1
 90
       50
176
     1
290
     0
176
     1
 90
       50
176
     1
 62
   256
176
     0
 40
1.0
176
     0
 90
        2
176
     1
  1
strokes_ogs.tif
176
     1
290
     0
176
     1
 40
1.0
176
     1
 40
1.0
176
     1
  0
VISUALSTYLE
  5
30
102
{ACAD_REACTORS
330
2A
102
}
330
2A
100
AcDbVisualStyle
  2
Wireframe
 70
     5
177
     3
291
     0
 70
    58
 90
        0
176
     1
 90
        2
176
     1
 90
        0
176
     1
 90
        0
176
     1
 40
0.6
176
     1
 40
30.0
176
     1
 62
     7
420
 16777215
176
     1
 90
        1
176
     1
 90
        4
176
     1
 62
     7
176
     1
 62
   257
176
     1
 90
        1
176
     1
 90
        1
176
     1
 40
1.0
176
     1
 90
        0
176
     1
 62
   257
176
     1
 40
1.0
176
     1
 90
        1
176
     1
 90
        6
176
     1
 90
        2
176
     1
 62
     7
176
     1
 90
        3
176
     1
 90
        0
176
     1
 90
        0
176
     1
290
     0
176
     1
 90
        1
176
     1
 40
0.0
176
     1
 90
        0
176
     1
290
     0
176
     1
290
     1
176
     1
290
     1
176
     1
290
     0
176
     1
290
     0
176
     1
290
     0
176
     1
290
     0
176
     1
290
     0
176
     1
290
     0
176
     1
 90
       50
176
     1
 40
0.0
176
     1
 40
1.0
176
     1
 90
        0
176
     1
 62
    18
420
        0
176
     1
 90
       50
176
     1
 90
        3
176
     1
 62
     5
420
      255
176
     1
290
     0
176
     1
 90
       50
176
     1
 90
       50
176
     1
 90
       50
176
     1
290
     0
176
     1
 90
       50
176
     1
 62
   256
176
     0
 40
1.0
176
     0
 90
        2
176
     1
  1
strokes_ogs.tif
176
     1
290
     0
176
     1
 40
1.0
176
     1
 40
1.0
176
     1
  0
VISUALSTYLE
  5
40
102
{ACAD_REACTORS
330
2A
102
}
330
2A
100
AcDbVisualStyle
  2
X-Ray
 70
    25
177
     3
291
     0
 70
    58
 90
        2
176
     1
 90
        2
176
     1
 90
        1
176
     1
 90
        1
176
     1
 40
0.5
176
     1
 40
30.0
176
     1
 62
     7
420
 16777215
176
     1
 90
        1
176
     1
 90
        0
176
     1
 62
     7
176
     1
 62
   257
176
     1
 90
        1
176
     1
 90
        1
176
     1
 40
1.0
176
     1
 90
        8
176
     1
 62
     7
176
     1
 40
1.0
176
     1
 90
        1
176
     1
 90
        6
176
     1
 90
        2
176
     1
 62
     7
176
     1
 90
        3
176
     1
 90
        0
176
     1
 90
        0
176
     1
290
     0
176
     1
 90
       13
176
     1
 40
0.0
176
     1
 90
        0
176
     1
290
     0
176
     1
290
     1
176
     1
290
     1
176
     1
290
     0
176
     1
290
     0
176
     1
290
     0
176
     1
290
     0
176
     1
290
     0
176
     1
290
     0
176
     1
 90
       50
176
     1
 40
0.0
176
     1
 40
1.0
176
     1
 90
        0
176
     1
 62
    18
420
        0
176
     1
 90
       50
176
     1
 90
        3
176
     1
 62
     5
420
      255
176
     1
290
     0
176
     1
 90
       50
176
     1
 90
       50
176
     1
 90
       50
176
     1
290
     0
176
     1
 90
       50
176
     1
 62
   256
176
     0
 40
1.0
176
     0
 90
        2
176
     1
  1
strokes_ogs.tif
176
     1
290
     0
176
     1
 40
1.0
176
     1
 40
1.0
176
     1
  0
DICTIONARYVAR
  5
1FF
102
{ACAD_REACTORS
330
1FE
102
}
330
1FE
100
DictionaryVariables
280
     0
  1
1:1
  0
DICTIONARYVAR
  5
204
102
{ACAD_REACTORS
330
1FE
102
}
330
1FE
100
DictionaryVariables
280
     0
  1
Standard
  0
DICTIONARYVAR
  5
203
102
{ACAD_REACTORS
330
1FE
102
}
330
1FE
100
DictionaryVariables
280
     0
  1
Standard
  0
DICTIONARY
  5
200
330
6A
100
AcDbDictionary
280
     1
281
     1
  3
ACAD_ROUNDTRIP_2008_TABLESTYLE_CELLSTYLEMAP
360
201
  0
CELLSTYLEMAP
  5
201
102
{ACAD_REACTORS
330
200
102
}
330
200
100
AcDbCellStyleMap
 90
        3
300
CELLSTYLE
  1
TABLEFORMAT_BEGIN
 90
        5
170
     1
 91
        0
 92
    32768
 62
   257
 93
        1
300
CONTENTFORMAT
  1
CONTENTFORMAT_BEGIN
 90
        0
 91
        0
 92
        4
 93
        0
300

 40
0.0
140
1.0
 94
        5
 62
     0
340
11
144
0.25
309
CONTENTFORMAT_END
171
     1
301
MARGIN
  1
CELLMARGIN_BEGIN
 40
0.06
 40
0.06
 40
0.06
 40
0.06
 40
0.06
 40
0.06
309
CELLMARGIN_END
 94
        6
 95
        1
302
GRIDFORMAT
  1
GRIDFORMAT_BEGIN
 90
        0
 91
        1
 62
     0
 92
       -2
340
14
 93
        0
 40
0.045
309
GRIDFORMAT_END
 95
        2
302
GRIDFORMAT
  1
GRIDFORMAT_BEGIN
 90
        0
 91
        1
 62
     0
 92
       -2
340
14
 93
        0
 40
0.045
309
GRIDFORMAT_END
 95
        4
302
GRIDFORMAT
  1
GRIDFORMAT_BEGIN
 90
        0
 91
        1
 62
     0
 92
       -2
340
14
 93
        0
 40
0.045
309
GRIDFORMAT_END
 95
        8
302
GRIDFORMAT
  1
GRIDFORMAT_BEGIN
 90
        0
 91
        1
 62
     0
 92
       -2
340
14
 93
        0
 40
0.045
309
GRIDFORMAT_END
 95
       16
302
GRIDFORMAT
  1
GRIDFORMAT_BEGIN
 90
        0
 91
        1
 62
     0
 92
       -2
340
14
 93
        0
 40
0.045
309
GRIDFORMAT_END
 95
       32
302
GRIDFORMAT
  1
GRIDFORMAT_BEGIN
 90
        0
 91
        1
 62
     0
 92
       -2
340
14
 93
        0
 40
0.045
309
GRIDFORMAT_END
309
TABLEFORMAT_END
  1
CELLSTYLE_BEGIN
 90
        1
 91
        1
300
_TITLE
309
CELLSTYLE_END
300
CELLSTYLE
  1
TABLEFORMAT_BEGIN
 90
        5
170
     1
 91
        0
 92
        0
 62
   257
 93
        1
300
CONTENTFORMAT
  1
CONTENTFORMAT_BEGIN
 90
        0
 91
        0
 92
        4
 93
        0
300

 40
0.0
140
1.0
 94
        5
 62
     0
340
11
144
0.18
309
CONTENTFORMAT_END
171
     1
301
MARGIN
  1
CELLMARGIN_BEGIN
 40
0.06
 40
0.06
 40
0.06
 40
0.06
 40
0.06
 40
0.06
309
CELLMARGIN_END
 94
        6
 95
        1
302
GRIDFORMAT
  1
GRIDFORMAT_BEGIN
 90
        0
 91
        1
 62
     0
 92
       -2
340
14
 93
        0
 40
0.045
309
GRIDFORMAT_END
 95
        2
302
GRIDFORMAT
  1
GRIDFORMAT_BEGIN
 90
        0
 91
        1
 62
     0
 92
       -2
340
14
 93
        0
 40
0.045
309
GRIDFORMAT_END
 95
        4
302
GRIDFORMAT
  1
GRIDFORMAT_BEGIN
 90
        0
 91
        1
 62
     0
 92
       -2
340
14
 93
        0
 40
0.045
309
GRIDFORMAT_END
 95
        8
302
GRIDFORMAT
  1
GRIDFORMAT_BEGIN
 90
        0
 91
        1
 62
     0
 92
       -2
340
14
 93
        0
 40
0.045
309
GRIDFORMAT_END
 95
       16
302
GRIDFORMAT
  1
GRIDFORMAT_BEGIN
 90
        0
 91
        1
 62
     0
 92
       -2
340
14
 93
        0
 40
0.045
309
GRIDFORMAT_END
 95
       32
302
GRIDFORMAT
  1
GRIDFORMAT_BEGIN
 90
        0
 91
        1
 62
     0
 92
       -2
340
14
 93
        0
 40
0.045
309
GRIDFORMAT_END
309
TABLEFORMAT_END
  1
CELLSTYLE_BEGIN
 90
        2
 91
        1
300
_HEADER
309
CELLSTYLE_END
300
CELLSTYLE
  1
TABLEFORMAT_BEGIN
 90
        5
170
     1
 91
        0
 92
        0
 62
   257
 93
        1
300
CONTENTFORMAT
  1
CONTENTFORMAT_BEGIN
 90
        0
 91
        0
 92
        4
 93
        0
300

 40
0.0
140
1.0
 94
        2
 62
     0
340
11
144
0.18
309
CONTENTFORMAT_END
171
     1
301
MARGIN
  1
CELLMARGIN_BEGIN
 40
0.06
 40
0.06
 40
0.06
 40
0.06
 40
0.06
 40
0.06
309
CELLMARGIN_END
 94
        6
 95
        1
302
GRIDFORMAT
  1
GRIDFORMAT_BEGIN
 90
        0
 91
        1
 62
     0
 92
       -2
340
14
 93
        0
 40
0.045
309
GRIDFORMAT_END
 95
        2
302
GRIDFORMAT
  1
GRIDFORMAT_BEGIN
 90
        0
 91
        1
 62
     0
 92
       -2
340
14
 93
        0
 40
0.045
309
GRIDFORMAT_END
 95
        4
302
GRIDFORMAT
  1
GRIDFORMAT_BEGIN
 90
        0
 91
        1
 62
     0
 92
       -2
340
14
 93
        0
 40
0.045
309
GRIDFORMAT_END
 95
        8
302
GRIDFORMAT
  1
GRIDFORMAT_BEGIN
 90
        0
 91
        1
 62
     0
 92
       -2
340
14
 93
        0
 40
0.045
309
GRIDFORMAT_END
 95
       16
302
GRIDFORMAT
  1
GRIDFORMAT_BEGIN
 90
        0
 91
        1
 62
     0
 92
       -2
340
14
 93
        0
 40
0.045
309
GRIDFORMAT_END
 95
       32
302
GRIDFORMAT
  1
GRIDFORMAT_BEGIN
 90
        0
 91
        1
 62
     0
 92
       -2
340
14
 93
        0
 40
0.045
309
GRIDFORMAT_END
309
TABLEFORMAT_END
  1
CELLSTYLE_BEGIN
 90
        3
 91
        2
300
_DATA
309
CELLSTYLE_END
  0
ENDSEC
  0
EOF