0
SECTION
  2
HEADER
  9
$ACADVER
  1
AC1027
  9
$ACADMAINTVER
 70
     8
  9
$DWGCODEPAGE
  3
ANSI_1252
  9
$REQUIREDVERSIONS
160
                 0
  9
$COMMENTS
  1
File was created by Cadenas
  9
$CUSTOMPROPERTYTAG
  1
NN
  9
$CUSTOMPROPERTY
  1
Type E-Xtra Pillow Block 2-Bolt Base Inch Bore
  9
$CUSTOMPROPERTYTAG
  1
NT
  9
$CUSTOMPROPERTY
  1
Type E Pillow Block Bearing -(2-Bolt Base)-Inch
  9
$CUSTOMPROPERTYTAG
  1
NB
  9
$CUSTOMPROPERTY
  1
023001
  9
$CUSTOMPROPERTYTAG
  1
NBSYN
  9
$CUSTOMPROPERTY
  1
$PN.
  9
$CUSTOMPROPERTYTAG
  1
LINA
  9
$CUSTOMPROPERTY
  1
023001
  9
$CUSTOMPROPERTYTAG
  1
SS
  9
$CUSTOMPROPERTY
  1
1-1/4
  9
$CUSTOMPROPERTYTAG
  1
PN
  9
$CUSTOMPROPERTY
  1
023001
  9
$CUSTOMPROPERTYTAG
  1
DESCRIPTION
  9
$CUSTOMPROPERTY
  1
P2B-E-104R
  9
$CUSTOMPROPERTYTAG
  1
A
  9
$CUSTOMPROPERTY
  1
2-3/4
  9
$CUSTOMPROPERTYTAG
  1
B
  9
$CUSTOMPROPERTY
  1
6
  9
$CUSTOMPROPERTYTAG
  1
C
  9
$CUSTOMPROPERTY
  1
1-7/8
  9
$CUSTOMPROPERTYTAG
  1
DMIN
  9
$CUSTOMPROPERTY
  1
4-3/4
  9
$CUSTOMPROPERTYTAG
  1
DMAX
  9
$CUSTOMPROPERTY
  1
4-13/16
  9
$CUSTOMPROPERTYTAG
  1
F
  9
$CUSTOMPROPERTY
  1
3/8
  9
$CUSTOMPROPERTYTAG
  1
G
  9
$CUSTOMPROPERTY
  1
19/32
  9
$CUSTOMPROPERTYTAG
  1
H
  9
$CUSTOMPROPERTY
  1
7/8
  9
$CUSTOMPROPERTYTAG
  1
J
  9
$CUSTOMPROPERTY
  1
3
  9
$CUSTOMPROPERTYTAG
  1
J1
  9
$CUSTOMPROPERTY
  1
3-9/32
  9
$CUSTOMPROPERTYTAG
  1
L
  9
$CUSTOMPROPERTY
  1
2-1/4
  9
$CUSTOMPROPERTYTAG
  1
M
  9
$CUSTOMPROPERTY
  1
1-1/2
  9
$CUSTOMPROPERTYTAG
  1
COMPANY
  9
$CUSTOMPROPERTY
  1
baldor
  9
$INSBASE
 10
0.0
 20
0.0
 30
0.0
  9
$EXTMIN
 10
1.000000000000000E+20
 20
1.000000000000000E+20
 30
1.000000000000000E+20
  9
$EXTMAX
 10
-1.000000000000000E+20
 20
-1.000000000000000E+20
 30
-1.000000000000000E+20
  9
$LIMMIN
 10
0.0
 20
0.0
  9
$LIMMAX
 10
12.0
 20
9.0
  9
$ORTHOMODE
 70
     0
  9
$REGENMODE
 70
     1
  9
$FILLMODE
 70
     1
  9
$QTEXTMODE
 70
     0
  9
$MIRRTEXT
 70
     1
  9
$LTSCALE
 40
1.0
  9
$ATTMODE
 70
     1
  9
$TEXTSIZE
 40
0.2
  9
$TRACEWID
 40
0.05
  9
$TEXTSTYLE
  7
Standard
  9
$CLAYER
  8
0
  9
$CELTYPE
  6
ByLayer
  9
$CECOLOR
 62
   256
  9
$CELTSCALE
 40
1.0
  9
$DISPSILH
 70
     0
  9
$DIMSCALE
 40
1.0
  9
$DIMASZ
 40
0.18
  9
$DIMEXO
 40
0.0625
  9
$DIMDLI
 40
0.38
  9
$DIMRND
 40
0.0
  9
$DIMDLE
 40
0.0
  9
$DIMEXE
 40
0.18
  9
$DIMTP
 40
0.0
  9
$DIMTM
 40
0.0
  9
$DIMTXT
 40
0.18
  9
$DIMCEN
 40
0.09
  9
$DIMTSZ
 40
0.0
  9
$DIMTOL
 70
     0
  9
$DIMLIM
 70
     0
  9
$DIMTIH
 70
     1
  9
$DIMTOH
 70
     1
  9
$DIMSE1
 70
     0
  9
$DIMSE2
 70
     0
  9
$DIMTAD
 70
     0
  9
$DIMZIN
 70
     0
  9
$DIMBLK
  1

  9
$DIMASO
 70
     1
  9
$DIMSHO
 70
     1
  9
$DIMPOST
  1

  9
$DIMAPOST
  1

  9
$DIMALT
 70
     0
  9
$DIMALTD
 70
     2
  9
$DIMALTF
 40
25.4
  9
$DIMLFAC
 40
1.0
  9
$DIMTOFL
 70
     0
  9
$DIMTVP
 40
0.0
  9
$DIMTIX
 70
     0
  9
$DIMSOXD
 70
     0
  9
$DIMSAH
 70
     0
  9
$DIMBLK1
  1

  9
$DIMBLK2
  1

  9
$DIMSTYLE
  2
Standard
  9
$DIMCLRD
 70
     0
  9
$DIMCLRE
 70
     0
  9
$DIMCLRT
 70
     0
  9
$DIMTFAC
 40
1.0
  9
$DIMGAP
 40
0.09
  9
$DIMJUST
 70
     0
  9
$DIMSD1
 70
     0
  9
$DIMSD2
 70
     0
  9
$DIMTOLJ
 70
     1
  9
$DIMTZIN
 70
     0
  9
$DIMALTZ
 70
     0
  9
$DIMALTTZ
 70
     0
  9
$DIMUPT
 70
     0
  9
$DIMDEC
 70
     4
  9
$DIMTDEC
 70
     4
  9
$DIMALTU
 70
     2
  9
$DIMALTTD
 70
     2
  9
$DIMTXSTY
  7
Standard
  9
$DIMAUNIT
 70
     0
  9
$DIMADEC
 70
     0
  9
$DIMALTRND
 40
0.0
  9
$DIMAZIN
 70
     0
  9
$DIMDSEP
 70
    46
  9
$DIMATFIT
 70
     3
  9
$DIMFRAC
 70
     0
  9
$DIMLDRBLK
  1

  9
$DIMLUNIT
 70
     2
  9
$DIMLWD
 70
    -2
  9
$DIMLWE
 70
    -2
  9
$DIMTMOVE
 70
     0
  9
$DIMFXL
 40
1.0
  9
$DIMFXLON
 70
     0
  9
$DIMJOGANG
 40
0.7853981633974483
  9
$DIMTFILL
 70
     0
  9
$DIMTFILLCLR
 70
     0
  9
$DIMARCSYM
 70
     0
  9
$DIMLTYPE
  6

  9
$DIMLTEX1
  6

  9
$DIMLTEX2
  6

  9
$DIMTXTDIRECTION
 70
     0
  9
$LUNITS
 70
     2
  9
$LUPREC
 70
     4
  9
$SKETCHINC
 40
0.1
  9
$FILLETRAD
 40
0.5
  9
$AUNITS
 70
     0
  9
$AUPREC
 70
     0
  9
$MENU
  1
.
  9
$ELEVATION
 40
0.0
  9
$PELEVATION
 40
0.0
  9
$THICKNESS
 40
0.0
  9
$LIMCHECK
 70
     0
  9
$CHAMFERA
 40
0.0
  9
$CHAMFERB
 40
0.0
  9
$CHAMFERC
 40
0.0
  9
$CHAMFERD
 40
0.0
  9
$SKPOLY
 70
     0
  9
$TDCREATE
 40
2458168.975704537
  9
$TDUCREATE
 40
2458168.93403787
  9
$TDUPDATE
 40
2458168.975704722
  9
$TDUUPDATE
 40
2458168.934038056
  9
$TDINDWG
 40
0.0000000116
  9
$TDUSRTIMER
 40
0.0000000116
  9
$USRTIMER
 70
     1
  9
$ANGBASE
 50
0.0
  9
$ANGDIR
 70
     0
  9
$PDMODE
 70
     0
  9
$PDSIZE
 40
0.0
  9
$PLINEWID
 40
0.0
  9
$SPLFRAME
 70
     0
  9
$SPLINETYPE
 70
     6
  9
$SPLINESEGS
 70
     8
  9
$HANDSEED
  5
1E9
  9
$SURFTAB1
 70
     6
  9
$SURFTAB2
 70
     6
  9
$SURFTYPE
 70
     6
  9
$SURFU
 70
     6
  9
$SURFV
 70
     6
  9
$UCSBASE
  2

  9
$UCSNAME
  2

  9
$UCSORG
 10
0.0
 20
0.0
 30
0.0
  9
$UCSXDIR
 10
1.0
 20
0.0
 30
0.0
  9
$UCSYDIR
 10
0.0
 20
1.0
 30
0.0
  9
$UCSORTHOREF
  2

  9
$UCSORTHOVIEW
 70
     0
  9
$UCSORGTOP
 10
0.0
 20
0.0
 30
0.0
  9
$UCSORGBOTTOM
 10
0.0
 20
0.0
 30
0.0
  9
$UCSORGLEFT
 10
0.0
 20
0.0
 30
0.0
  9
$UCSORGRIGHT
 10
0.0
 20
0.0
 30
0.0
  9
$UCSORGFRONT
 10
0.0
 20
0.0
 30
0.0
  9
$UCSORGBACK
 10
0.0
 20
0.0
 30
0.0
  9
$PUCSBASE
  2

  9
$PUCSNAME
  2

  9
$PUCSORG
 10
0.0
 20
0.0
 30
0.0
  9
$PUCSXDIR
 10
1.0
 20
0.0
 30
0.0
  9
$PUCSYDIR
 10
0.0
 20
1.0
 30
0.0
  9
$PUCSORTHOREF
  2

  9
$PUCSORTHOVIEW
 70
     0
  9
$PUCSORGTOP
 10
0.0
 20
0.0
 30
0.0
  9
$PUCSORGBOTTOM
 10
0.0
 20
0.0
 30
0.0
  9
$PUCSORGLEFT
 10
0.0
 20
0.0
 30
0.0
  9
$PUCSORGRIGHT
 10
0.0
 20
0.0
 30
0.0
  9
$PUCSORGFRONT
 10
0.0
 20
0.0
 30
0.0
  9
$PUCSORGBACK
 10
0.0
 20
0.0
 30
0.0
  9
$USERI1
 70
     0
  9
$USERI2
 70
     0
  9
$USERI3
 70
     0
  9
$USERI4
 70
     0
  9
$USERI5
 70
     0
  9
$USERR1
 40
0.0
  9
$USERR2
 40
0.0
  9
$USERR3
 40
0.0
  9
$USERR4
 40
0.0
  9
$USERR5
 40
0.0
  9
$WORLDVIEW
 70
     1
  9
$SHADEDGE
 70
     3
  9
$SHADEDIF
 70
    70
  9
$TILEMODE
 70
     1
  9
$MAXACTVP
 70
    64
  9
$PINSBASE
 10
0.0
 20
0.0
 30
0.0
  9
$PLIMCHECK
 70
     0
  9
$PEXTMIN
 10
1.000000000000000E+20
 20
1.000000000000000E+20
 30
1.000000000000000E+20
  9
$PEXTMAX
 10
-1.000000000000000E+20
 20
-1.000000000000000E+20
 30
-1.000000000000000E+20
  9
$PLIMMIN
 10
0.0
 20
0.0
  9
$PLIMMAX
 10
12.0
 20
9.0
  9
$UNITMODE
 70
     0
  9
$VISRETAIN
 70
     1
  9
$PLINEGEN
 70
     0
  9
$PSLTSCALE
 70
     1
  9
$TREEDEPTH
 70
  3020
  9
$CMLSTYLE
  2
Standard
  9
$CMLJUST
 70
     0
  9
$CMLSCALE
 40
1.0
  9
$PROXYGRAPHICS
 70
     1
  9
$MEASUREMENT
 70
     0
  9
$CELWEIGHT
370
    -1
  9
$ENDCAPS
280
     0
  9
$JOINSTYLE
280
     0
  9
$LWDISPLAY
290
     0
  9
$INSUNITS
 70
     1
  9
$HYPERLINKBASE
  1

  9
$STYLESHEET
  1

  9
$XEDIT
290
     1
  9
$CEPSNTYPE
380
     0
  9
$PSTYLEMODE
290
     1
  9
$FINGERPRINTGUID
  2
{9A2B6545-A7F9-47DA-AC23-84D6E3F75CF7}
  9
$VERSIONGUID
  2
{FAEB1C32-E019-11D5-929B-00C0DF256EC4}
  9
$EXTNAMES
290
     1
  9
$PSVPSCALE
 40
0.0
  9
$OLESTARTUP
290
     0
  9
$SORTENTS
280
   127
  9
$INDEXCTL
280
     0
  9
$HIDETEXT
280
     1
  9
$XCLIPFRAME
280
     2
  9
$HALOGAP
280
     0
  9
$OBSCOLOR
 70
   257
  9
$OBSLTYPE
280
     0
  9
$INTERSECTIONDISPLAY
280
     0
  9
$INTERSECTIONCOLOR
 70
   257
  9
$DIMASSOC
280
     2
  9
$PROJECTNAME
  1

  9
$CAMERADISPLAY
290
     0
  9
$LENSLENGTH
 40
50.0
  9
$CAMERAHEIGHT
 40
0.0
  9
$STEPSPERSEC
 40
2.0
  9
$STEPSIZE
 40
6.0
  9
$3DDWFPREC
 40
2.0
  9
$PSOLWIDTH
 40
0.25
  9
$PSOLHEIGHT
 40
4.0
  9
$LOFTANG1
 40
1.570796326794897
  9
$LOFTANG2
 40
1.570796326794897
  9
$LOFTMAG1
 40
0.0
  9
$LOFTMAG2
 40
0.0
  9
$LOFTPARAM
 70
     7
  9
$LOFTNORMALS
280
     1
  9
$LATITUDE
 40
37.795
  9
$LONGITUDE
 40
-122.394
  9
$NORTHDIRECTION
 40
0.0
  9
$TIMEZONE
 70
 -8000
  9
$LIGHTGLYPHDISPLAY
280
     1
  9
$TILEMODELIGHTSYNCH
280
     1
  9
$CMATERIAL
347
44
  9
$SOLIDHIST
280
     0
  9
$SHOWHIST
280
     1
  9
$DWFFRAME
280
     2
  9
$DGNFRAME
280
     2
  9
$REALWORLDSCALE
290
     1
  9
$INTERFERECOLOR
 62
   256
  9
$CSHADOW
280
     0
  9
$SHADOWPLANELOCATION
 40
0.0
  0
ENDSEC
  0
SECTION
  2
CLASSES
  0
CLASS
  1
ACDBDICTIONARYWDFLT
  2
AcDbDictionaryWithDefault
  3
ObjectDBX Classes
 90
        0
 91
        4
280
     0
281
     0
  0
CLASS
  1
VISUALSTYLE
  2
AcDbVisualStyle
  3
ObjectDBX Classes
 90
     4095
 91
        4
280
     0
281
     0
  0
CLASS
  1
MATERIAL
  2
AcDbMaterial
  3
ObjectDBX Classes
 90
     1153
 91
        4
280
     0
281
     0
  0
CLASS
  1
SCALE
  2
AcDbScale
  3
ObjectDBX Classes
 90
     1153
 91
        4
280
     0
281
     0
  0
CLASS
  1
TABLESTYLE
  2
AcDbTableStyle
  3
ObjectDBX Classes
 90
     4095
 91
        4
280
     0
281
     0
  0
CLASS
  1
MLEADERSTYLE
  2
AcDbMLeaderStyle
  3
ACDB_MLEADERSTYLE_CLASS
 90
     4095
 91
        4
280
     0
281
     0
  0
CLASS
  1
SUN
  2
AcDbSun
  3
SCENEOE
 90
     1153
 91
        4
280
     0
281
     0
  0
CLASS
  1
DICTIONARYVAR
  2
AcDbDictionaryVar
  3
ObjectDBX Classes
 90
        0
 91
        4
280
     0
281
     0
  0
CLASS
  1
CELLSTYLEMAP
  2
AcDbCellStyleMap
  3
ObjectDBX Classes
 90
     1152
 91
        4
280
     0
281
     0
  0
ENDSEC
  0
SECTION
  2
TABLES
  0
TABLE
  2
VPORT
  5
8
330
0
100
AcDbSymbolTable
 70
     1
  0
VPORT
  5
29
330
8
100
AcDbSymbolTableRecord
100
AcDbViewportTableRecord
  2
*Active
 70
     0
 10
0.0
 20
0.0
 11
1.0
 21
1.0
 12
0.0
 22
0.0
 13
0.0
 23
0.0
 14
0.5
 24
0.5
 15
0.5
 25
0.5
 16
0.0
 26
0.0
 36
1.0
 17
0.0
 27
0.0
 37
0.0
 40
3.085500000000001
 41
1.983471074380165
 42
50.0
 43
0.0
 44
0.0
 50
0.0
 51
0.0
 71
     0
 72
   100
 73
     1
 74
     3
 75
     0
 76
     0
 77
     0
 78
     0
281
     0
 65
     1
110
0.0
120
0.0
130
0.0
111
1.0
121
0.0
131
0.0
112
0.0
122
1.0
132
0.0
 79
     0
146
0.0
348
2F
 60
     3
 61
     5
292
     1
282
     1
141
0.0
142
0.0
 63
   250
361
6D
  0
ENDTAB
  0
TABLE
  2
LTYPE
  5
5
330
0
100
AcDbSymbolTable
 70
     3
  0
LTYPE
  5
14
330
5
100
AcDbSymbolTableRecord
100
AcDbLinetypeTableRecord
  2
ByBlock
 70
     0
  3

 72
    65
 73
     0
 40
0.0
  0
LTYPE
  5
15
330
5
100
AcDbSymbolTableRecord
100
AcDbLinetypeTableRecord
  2
ByLayer
 70
     0
  3

 72
    65
 73
     0
 40
0.0
  0
LTYPE
  5
16
330
5
100
AcDbSymbolTableRecord
100
AcDbLinetypeTableRecord
  2
Continuous
 70
     0
  3
Solid line
 72
    65
 73
     0
 40
0.0
  0
LTYPE
  5
9D
330
5
100
AcDbSymbolTableRecord
100
AcDbLinetypeTableRecord
  2
Dashed
 70
     0
  3

 72
    65
 73
     2
 40
2.0
 49
1.0
 74
     0
 49
-1.0
 74
     0
  0
LTYPE
  5
B6
330
5
100
AcDbSymbolTableRecord
100
AcDbLinetypeTableRecord
  2
Center
 70
     0
  3

 72
    65
 73
     4
 40
1.5
 49
0.45
 74
     0
 49
-0.5
 74
     0
 49
0.05
 74
     0
 49
-0.5
 74
     0
  0
ENDTAB
  0
TABLE
  2
LAYER
  5
2
330
0
100
AcDbSymbolTable
 70
     7
  0
LAYER
  5
10
330
2
100
AcDbSymbolTableRecord
100
AcDbLayerTableRecord
  2
0
 70
     0
 62
     7
  6
Continuous
370
    -3
390
F
347
46
348
0
  0
LAYER
  5
72
330
2
100
AcDbSymbolTableRecord
100
AcDbLayerTableRecord
  2
AM_6
 70
     0
 62
    -2
  6
Continuous
370
    35
390
F
347
46
348
0
  0
LAYER
  5
9E
330
2
100
AcDbSymbolTableRecord
100
AcDbLayerTableRecord
  2
AM_9
 70
     0
 62
     6
  6
Dashed
370
    25
390
F
347
46
348
0
  0
LAYER
  5
B7
330
2
100
AcDbSymbolTableRecord
100
AcDbLayerTableRecord
  2
AM_7
 70
     0
 62
     7
  6
Center
370
    25
390
F
347
46
348
0
  0
LAYER
  5
B9
330
2
100
AcDbSymbolTableRecord
100
AcDbLayerTableRecord
  2
AM_4
 70
     0
 62
     7
  6
Continuous
370
    50
390
F
347
46
348
0
  0
LAYER
  5
C6
330
2
100
AcDbSymbolTableRecord
100
AcDbLayerTableRecord
  2
AM_5
 70
     0
 62
     3
  6
Continuous
370
    25
390
F
347
46
348
0
  0
LAYER
  5
1D8
330
2
100
AcDbSymbolTableRecord
100
AcDbLayerTableRecord
  2
ConnectionPoints
 70
     0
 62
     7
  6
Continuous
370
    50
390
F
347
46
348
0
  0
ENDTAB
  0
TABLE
  2
STYLE
  5
3
330
0
100
AcDbSymbolTable
 70
     1
  0
STYLE
  5
11
330
3
100
AcDbSymbolTableRecord
100
AcDbTextStyleTableRecord
  2
Standard
 70
     0
 40
0.0
 41
1.0
 50
0.0
 71
     0
 42
0.2
  3
txt
  4

  0
ENDTAB
  0
TABLE
  2
VIEW
  5
6
330
0
100
AcDbSymbolTable
 70
     0
  0
ENDTAB
  0
TABLE
  2
UCS
  5
7
330
0
100
AcDbSymbolTable
 70
     0
  0
ENDTAB
  0
TABLE
  2
APPID
  5
9
330
0
100
AcDbSymbolTable
 70
     1
  0
APPID
  5
12
330
9
100
AcDbSymbolTableRecord
100
AcDbRegAppTableRecord
  2
ACAD
 70
     0
  0
ENDTAB
  0
TABLE
  2
DIMSTYLE
  5
A
330
0
100
AcDbSymbolTable
 70
     1
100
AcDbDimStyleTable
  0
DIMSTYLE
105
27
330
A
100
AcDbSymbolTableRecord
100
AcDbDimStyleTableRecord
  2
Standard
 70
     0
178
     0
340
11
  0
ENDTAB
  0
TABLE
  2
BLOCK_RECORD
  5
1
330
0
100
AcDbSymbolTable
 70
     7
  0
BLOCK_RECORD
  5
1F
330
1
100
AcDbSymbolTableRecord
100
AcDbBlockTableRecord
  2
*Model_Space
340
22
 70
     0
280
     1
281
     0
  0
BLOCK_RECORD
  5
1B
330
1
100
AcDbSymbolTableRecord
100
AcDbBlockTableRecord
  2
*Paper_Space
340
1E
 70
     0
280
     1
281
     0
  0
BLOCK_RECORD
  5
23
330
1
100
AcDbSymbolTableRecord
100
AcDbBlockTableRecord
  2
*Paper_Space0
340
26
 70
     0
280
     1
281
     0
  0
BLOCK_RECORD
  5
6E
330
1
100
AcDbSymbolTableRecord
100
AcDbBlockTableRecord
  2
1_023001_4
340
0
102
{BLKREFS
331
6F
102
}
 70
     0
280
     1
281
     0
  0
BLOCK_RECORD
  5
88
330
1
100
AcDbSymbolTableRecord
100
AcDbBlockTableRecord
  2
2_1_1_4C_1_0_in_023001_4
340
0
102
{BLKREFS
331
89
102
}
 70
     0
280
     1
281
     0
  0
BLOCK_RECORD
  5
C9
330
1
100
AcDbSymbolTableRecord
100
AcDbBlockTableRecord
  2
3_1_1_4C_2_0_in_023001_4
340
0
102
{BLKREFS
331
CA
102
}
 70
     0
280
     1
281
     0
  0
BLOCK_RECORD
  5
104
330
1
100
AcDbSymbolTableRecord
100
AcDbBlockTableRecord
  2
4_1_1_4I_0_in_023001_4
340
0
102
{BLKREFS
331
105
102
}
 70
     0
280
     1
281
     0
  0
BLOCK_RECORD
  5
144
330
1
100
AcDbSymbolTableRecord
100
AcDbBlockTableRecord
  2
5_405015E_Inch_0_in_023001_4
340
0
102
{BLKREFS
331
145
102
}
 70
     0
280
     1
281
     0
  0
BLOCK_RECORD
  5
183
330
1
100
AcDbSymbolTableRecord
100
AcDbBlockTableRecord
  2
6_023001H_0_in_023001_4
340
0
102
{BLKREFS
331
184
102
}
 70
     0
280
     1
281
     0
  0
ENDTAB
  0
ENDSEC
  0
SECTION
  2
BLOCKS
  0
BLOCK
  5
20
330
1F
100
AcDbEntity
  8
0
100
AcDbBlockBegin
  2
*Model_Space
 70
     0
 10
0.0
 20
0.0
 30
0.0
  3
*Model_Space
  1

  0
ENDBLK
  5
21
330
1F
100
AcDbEntity
  8
0
100
AcDbBlockEnd
  0
BLOCK
  5
1C
330
1B
100
AcDbEntity
 67
     1
  8
0
100
AcDbBlockBegin
  2
*Paper_Space
 70
     0
 10
0.0
 20
0.0
 30
0.0
  3
*Paper_Space
  1

  0
ENDBLK
  5
1D
330
1B
100
AcDbEntity
 67
     1
  8
0
100
AcDbBlockEnd
  0
BLOCK
  5
24
330
23
100
AcDbEntity
  8
0
100
AcDbBlockBegin
  2
*Paper_Space0
 70
     0
 10
0.0
 20
0.0
 30
0.0
  3
*Paper_Space0
  1

  0
ENDBLK
  5
25
330
23
100
AcDbEntity
  8
0
100
AcDbBlockEnd
  0
BLOCK
  5
70
330
6E
100
AcDbEntity
  8
0
100
AcDbBlockBegin
  2
1_023001_4
 70
     2
 10
0.0
 20
0.0
 30
0.0
  3
1_023001_4
  1

  0
ATTDEF
  5
73
330
6E
100
AcDbEntity
  8
AM_6
100
AcDbText
 10
8.0
 20
1.5125
 30
0.0
 40
0.5
  1
Type E-Xtra Pillow Block 2-Bolt Base Inch Bore
100
AcDbAttributeDefinition
  3

  2
NN
 70
     8
280
     0
  0
ATTDEF
  5
74
330
6E
100
AcDbEntity
  8
AM_6
100
AcDbText
 10
8.0
 20
1.0125
 30
0.0
 40
0.5
  1
Type E Pillow Block Bearing -(2-Bolt Base)-Inch
100
AcDbAttributeDefinition
  3

  2
NT
 70
     8
280
     0
  0
ATTDEF
  5
75
330
6E
100
AcDbEntity
  8
AM_6
100
AcDbText
 10
8.0
 20
0.5125
 30
0.0
 40
0.5
  1
023001
100
AcDbAttributeDefinition
  3

  2
NB
 70
     8
280
     0
  0
ATTDEF
  5
76
330
6E
100
AcDbEntity
  8
AM_6
100
AcDbText
 10
8.0
 20
0.0125
 30
0.0
 40
0.5
  1
$PN.
100
AcDbAttributeDefinition
  3

  2
NBSYN
 70
     8
280
     0
  0
ATTDEF
  5
77
330
6E
100
AcDbEntity
  8
AM_6
100
AcDbText
 10
8.0
 20
-0.4875
 30
0.0
 40
0.5
  1
023001
100
AcDbAttributeDefinition
  3

  2
LINA
 70
     8
280
     0
  0
ATTDEF
  5
78
330
6E
100
AcDbEntity
  8
AM_6
100
AcDbText
 10
8.0
 20
-0.9875
 30
0.0
 40
0.5
  1
1-1/4
100
AcDbAttributeDefinition
  3

  2
SS
 70
     8
280
     0
  0
ATTDEF
  5
79
330
6E
100
AcDbEntity
  8
AM_6
100
AcDbText
 10
8.0
 20
-1.4875
 30
0.0
 40
0.5
  1
023001
100
AcDbAttributeDefinition
  3

  2
PN
 70
     8
280
     0
  0
ATTDEF
  5
7A
330
6E
100
AcDbEntity
  8
AM_6
100
AcDbText
 10
8.0
 20
-1.9875
 30
0.0
 40
0.5
  1
P2B-E-104R
100
AcDbAttributeDefinition
  3

  2
DESCRIPTION
 70
     8
280
     0
  0
ATTDEF
  5
7B
330
6E
100
AcDbEntity
  8
AM_6
100
AcDbText
 10
8.0
 20
-2.4875
 30
0.0
 40
0.5
  1
2-3/4
100
AcDbAttributeDefinition
  3

  2
A
 70
     8
280
     0
  0
ATTDEF
  5
7C
330
6E
100
AcDbEntity
  8
AM_6
100
AcDbText
 10
8.0
 20
-2.9875
 30
0.0
 40
0.5
  1
6
100
AcDbAttributeDefinition
  3

  2
B
 70
     8
280
     0
  0
ATTDEF
  5
7D
330
6E
100
AcDbEntity
  8
AM_6
100
AcDbText
 10
8.0
 20
-3.4875
 30
0.0
 40
0.5
  1
1-7/8
100
AcDbAttributeDefinition
  3

  2
C
 70
     8
280
     0
  0
ATTDEF
  5
7E
330
6E
100
AcDbEntity
  8
AM_6
100
AcDbText
 10
8.0
 20
-3.9875
 30
0.0
 40
0.5
  1
4-3/4
100
AcDbAttributeDefinition
  3

  2
DMIN
 70
     8
280
     0
  0
ATTDEF
  5
7F
330
6E
100
AcDbEntity
  8
AM_6
100
AcDbText
 10
8.0
 20
-4.4875
 30
0.0
 40
0.5
  1
4-13/16
100
AcDbAttributeDefinition
  3

  2
DMAX
 70
     8
280
     0
  0
ATTDEF
  5
80
330
6E
100
AcDbEntity
  8
AM_6
100
AcDbText
 10
8.0
 20
-4.9875
 30
0.0
 40
0.5
  1
3/8
100
AcDbAttributeDefinition
  3

  2
F
 70
     8
280
     0
  0
ATTDEF
  5
81
330
6E
100
AcDbEntity
  8
AM_6
100
AcDbText
 10
8.0
 20
-5.4875
 30
0.0
 40
0.5
  1
19/32
100
AcDbAttributeDefinition
  3

  2
G
 70
     8
280
     0
  0
ATTDEF
  5
82
330
6E
100
AcDbEntity
  8
AM_6
100
AcDbText
 10
8.0
 20
-5.9875
 30
0.0
 40
0.5
  1
7/8
100
AcDbAttributeDefinition
  3

  2
H
 70
     8
280
     0
  0
ATTDEF
  5
83
330
6E
100
AcDbEntity
  8
AM_6
100
AcDbText
 10
8.0
 20
-6.4875
 30
0.0
 40
0.5
  1
3
100
AcDbAttributeDefinition
  3

  2
J
 70
     8
280
     0
  0
ATTDEF
  5
84
330
6E
100
AcDbEntity
  8
AM_6
100
AcDbText
 10
8.0
 20
-6.9875
 30
0.0
 40
0.5
  1
3-9/32
100
AcDbAttributeDefinition
  3

  2
J1
 70
     8
280
     0
  0
ATTDEF
  5
85
330
6E
100
AcDbEntity
  8
AM_6
100
AcDbText
 10
8.0
 20
-7.4875
 30
0.0
 40
0.5
  1
2-1/4
100
AcDbAttributeDefinition
  3

  2
L
 70
     8
280
     0
  0
ATTDEF
  5
86
330
6E
100
AcDbEntity
  8
AM_6
100
AcDbText
 10
8.0
 20
-7.9875
 30
0.0
 40
0.5
  1
1-1/2
100
AcDbAttributeDefinition
  3

  2
M
 70
     8
280
     0
  0
ATTDEF
  5
87
330
6E
100
AcDbEntity
  8
AM_6
100
AcDbText
 10
8.0
 20
-8.4875
 30
0.0
 40
0.5
  1
baldor
100
AcDbAttributeDefinition
  3

  2
COMPANY
 70
     8
280
     0
  0
INSERT
  5
89
330
6E
100
AcDbEntity
  8
0
100
AcDbBlockReference
  2
2_1_1_4C_1_0_in_023001_4
 10
0.0
 20
0.0
 30
0.0
  0
INSERT
  5
CA
330
6E
100
AcDbEntity
  8
0
100
AcDbBlockReference
  2
3_1_1_4C_2_0_in_023001_4
 10
0.0
 20
0.0
 30
0.0
  0
INSERT
  5
105
330
6E
100
AcDbEntity
  8
0
100
AcDbBlockReference
  2
4_1_1_4I_0_in_023001_4
 10
0.0
 20
0.0
 30
0.0
  0
INSERT
  5
145
330
6E
100
AcDbEntity
  8
0
100
AcDbBlockReference
  2
5_405015E_Inch_0_in_023001_4
 10
0.0
 20
0.0
 30
0.0
  0
INSERT
  5
184
330
6E
100
AcDbEntity
  8
0
100
AcDbBlockReference
  2
6_023001H_0_in_023001_4
 10
0.0
 20
0.0
 30
0.0
  0
ENDBLK
  5
71
330
6E
100
AcDbEntity
  8
0
100
AcDbBlockEnd
  0
BLOCK
  5
8A
330
88
100
AcDbEntity
  8
0
100
AcDbBlockBegin
  2
2_1_1_4C_1_0_in_023001_4
 70
     2
 10
0.0
 20
0.0
 30
0.0
  3
2_1_1_4C_1_0_in_023001_4
  1

  0
ATTDEF
  5
8C
330
88
100
AcDbEntity
  8
AM_6
100
AcDbText
 10
6.125
 20
1.375
 30
0.0
 40
0.5
  1
E-Type Collar -Inch
100
AcDbAttributeDefinition
  3

  2
NN
 70
     8
280
     0
  0
ATTDEF
  5
8D
330
88
100
AcDbEntity
  8
AM_6
100
AcDbText
 10
6.125
 20
0.875
 30
0.0
 40
0.5
  1
E-Type Bearings
100
AcDbAttributeDefinition
  3

  2
NT
 70
     8
280
     0
  0
ATTDEF
  5
8E
330
88
100
AcDbEntity
  8
AM_6
100
AcDbText
 10
6.125
 20
0.375
 30
0.0
 40
0.5
  1
1-1/4C
100
AcDbAttributeDefinition
  3

  2
NB
 70
     8
280
     0
  0
ATTDEF
  5
8F
330
88
100
AcDbEntity
  8
AM_6
100
AcDbText
 10
6.125
 20
-0.125
 30
0.0
 40
0.5
  1
$BORE.C
100
AcDbAttributeDefinition
  3

  2
NBSYN
 70
     8
280
     0
  0
ATTDEF
  5
90
330
88
100
AcDbEntity
  8
AM_6
100
AcDbText
 10
6.125
 20
-0.625
 30
0.0
 40
0.5
  1
1-1/4C
100
AcDbAttributeDefinition
  3

  2
LINA
 70
     8
280
     0
  0
ATTDEF
  5
91
330
88
100
AcDbEntity
  8
AM_6
100
AcDbText
 10
6.125
 20
-1.125
 30
0.0
 40
0.5
  1
1-1/4
100
AcDbAttributeDefinition
  3

  2
BORE
 70
     8
280
     0
  0
ATTDEF
  5
92
330
88
100
AcDbEntity
  8
AM_6
100
AcDbText
 10
6.125
 20
-1.625
 30
0.0
 40
0.5
  1
2.25000
100
AcDbAttributeDefinition
  3

  2
L
 70
     8
280
     0
  0
ATTDEF
  5
93
330
88
100
AcDbEntity
  8
AM_6
100
AcDbText
 10
6.125
 20
-2.125
 30
0.0
 40
0.5
  1
2.75
100
AcDbAttributeDefinition
  3

  2
A
 70
     8
280
     0
  0
ATTDEF
  5
94
330
88
100
AcDbEntity
  8
AM_6
100
AcDbText
 10
6.125
 20
-2.625
 30
0.0
 40
0.5
  1
1.16
100
AcDbAttributeDefinition
  3

  2
B
 70
     8
280
     0
  0
ATTDEF
  5
95
330
88
100
AcDbEntity
  8
AM_6
100
AcDbText
 10
6.125
 20
-3.125
 30
0.0
 40
0.5
  1
1.56
100
AcDbAttributeDefinition
  3

  2
C
 70
     8
280
     0
  0
ATTDEF
  5
96
330
88
100
AcDbEntity
  8
AM_6
100
AcDbText
 10
6.125
 20
-3.625
 30
0.0
 40
0.5
  1
2.31
100
AcDbAttributeDefinition
  3

  2
D
 70
     8
280
     0
  0
ATTDEF
  5
97
330
88
100
AcDbEntity
  8
AM_6
100
AcDbText
 10
6.125
 20
-4.125
 30
0.0
 40
0.5
  1
0.35
100
AcDbAttributeDefinition
  3

  2
E
 70
     8
280
     0
  0
ATTDEF
  5
98
330
88
100
AcDbEntity
  8
AM_6
100
AcDbText
 10
6.125
 20
-4.625
 30
0.0
 40
0.5
  1
0.28
100
AcDbAttributeDefinition
  3

  2
F
 70
     8
280
     0
  0
ATTDEF
  5
99
330
88
100
AcDbEntity
  8
AM_6
100
AcDbText
 10
6.125
 20
-5.125
 30
0.0
 40
0.5
  1
5/16-18
100
AcDbAttributeDefinition
  3

  2
CS
 70
     8
280
     0
  0
ATTDEF
  5
9A
330
88
100
AcDbEntity
  8
AM_6
100
AcDbText
 10
6.125
 20
-5.625
 30
0.0
 40
0.5
  1
0.3125
100
AcDbAttributeDefinition
  3

  2
NDM
 70
     8
280
     0
  0
ATTDEF
  5
9B
330
88
100
AcDbEntity
  8
AM_6
100
AcDbText
 10
6.125
 20
-6.125
 30
0.0
 40
0.5
  1
0.2520
100
AcDbAttributeDefinition
  3

  2
KDM
 70
     8
280
     0
  0
ATTDEF
  5
9C
330
88
100
AcDbEntity
  8
AM_6
100
AcDbText
 10
6.125
 20
-6.625
 30
0.0
 40
0.5
  1
baldor
100
AcDbAttributeDefinition
  3

  2
COMPANY
 70
     8
280
     0
  0
LINE
  5
9F
330
88
100
AcDbEntity
  8
AM_9
100
AcDbLine
 10
0.7401434613081493
 20
1.206639373797339
 30
0.0
 11
0.7318656299310281
 21
1.216964201832686
 31
0.0
  0
LINE
  5
A0
330
88
100
AcDbEntity
  8
AM_9
100
AcDbLine
 10
0.7317919740211158
 20
0.9729439281389229
 30
0.0
 11
0.7401434613081493
 21
0.9833606262026613
 31
0.0
  0
LWPOLYLINE
  5
A1
330
88
100
AcDbEntity
  8
AM_9
100
AcDbPolyline
 90
       26
 70
     0
 43
0.0
 10
0.7317100232539224
 20
1.217158284989026
 10
0.7268134552848636
 20
1.222379192804177
 10
0.7173727318928891
 20
1.228396925031032
 10
0.7066705481973362
 20
1.230415604692751
 10
0.6948417659646702
 20
1.228083854765653
 10
0.6827512834711387
 20
1.221473527769458
 10
0.6702981864797541
 20
1.210322946572276
 10
0.6588814474109522
 20
1.195695735451065
 10
0.6482482284069087
 20
1.176835178415555
 10
0.6401852564771471
 20
1.156709988960942
 10
0.6340725430799927
 20
1.133413233005849
 10
0.6310817209513337
 20
1.11211749482559
 10
0.63042669673562
 20
1.089472639440999
 10
0.6319509022329913
 20
1.069714163659952
 10
0.6354585609762936
 20
1.050115633753396
 10
0.6405891030990039
 20
1.032086929087179
 10
0.6472813745560548
 20
1.01523428315302
 10
0.6556499420991235
 20
0.9993922137994977
 10
0.6651415325515375
 20
0.9856989479929693
 10
0.6760294617094282
 20
0.9739791974852641
 10
0.6874241736010919
 20
0.965485996463614
 10
0.69911739950395
 20
0.9605772139022053
 10
0.7105480034802996
 20
0.9598138439685079
 10
0.7210069390982979
 20
0.9633756408988269
 10
0.7305696329207633
 20
0.9714710882565449
 10
0.7317110775168821
 20
0.9728430292972806
  0
LWPOLYLINE
  5
A2
330
88
100
AcDbEntity
  8
AM_9
100
AcDbPolyline
 90
        3
 70
     0
 43
0.0
 10
0.7370315423751485
 20
0.9807342367924533
 10
0.7378989353065655
 20
0.9822921744746502
 10
0.7442167407706205
 20
0.9967713010691257
  0
LINE
  5
A3
330
88
100
AcDbEntity
  8
AM_9
100
AcDbLine
 10
0.7317110775168821
 20
0.9728430292972806
 30
0.0
 11
0.7370315423751485
 21
0.9807342367924533
 31
0.0
  0
LINE
  5
A4
330
88
100
AcDbEntity
  8
AM_9
100
AcDbLine
 10
0.7152732106591081
 20
0.9687999999999999
 30
0.0
 11
0.9923617114157799
 21
0.9687999999999999
 31
0.0
  0
LINE
  5
A5
330
88
100
AcDbEntity
  8
AM_9
100
AcDbLine
 10
0.9923617114157799
 20
1.2212
 30
0.0
 11
0.7152732106591081
 21
1.2212
 31
0.0
  0
LINE
  5
A6
330
88
100
AcDbEntity
  8
AM_9
100
AcDbLine
 10
0.9674914607667386
 20
0.9833606262026613
 30
0.0
 11
0.9870229431814743
 21
0.9589992701879789
 31
0.0
  0
LINE
  5
A7
330
88
100
AcDbEntity
  8
AM_9
100
AcDbLine
 10
0.9870092996141151
 20
1.230983712373473
 30
0.0
 11
0.9674914607667386
 21
1.206639373797339
 31
0.0
  0
ELLIPSE
  5
A8
330
88
100
AcDbEntity
  8
AM_9
100
AcDbEllipse
 10
0.9923617114157979
 20
1.094999999999998
 30
0.0
 11
-2.318256390785908E-17
 21
-0.1261999999999983
 31
0.0
210
0.0
220
0.0
230
1.0
 40
0.4226182617407578
 41
3.436355028063442
 42
5.978166122773317
  0
LWPOLYLINE
  5
A9
330
88
100
AcDbEntity
  8
AM_9
100
AcDbPolyline
 90
        3
 70
     0
 43
0.0
 10
0.736371429289662
 20
1.210395132906159
 10
0.7348869170588237
 20
1.212769000594137
 10
0.7317100232539224
 20
1.217158284989026
  0
LWPOLYLINE
  5
AA
330
88
100
AcDbEntity
  8
AM_9
100
AcDbPolyline
 90
       13
 70
     0
 43
0.0
 10
0.7442167407706205
 20
0.9967713010691257
 10
0.7485511609097001
 20
1.011368966012272
 10
0.7520691384911693
 20
1.028396133325849
 10
0.7548683626196412
 20
1.049202940972734
 10
0.7565894440507004
 20
1.072489875320421
 10
0.7571077468039628
 20
1.093356260047134
 10
0.756701891910777
 20
1.114959386657295
 10
0.7554999604686645
 20
1.134089522523199
 10
0.753441355057092
 20
1.152670968806384
 10
0.750490194323382
 20
1.170053916012389
 10
0.7465738352010276
 20
1.185929032264761
 10
0.741331135721851
 20
1.200609806219497
 10
0.736371429289662
 20
1.210395132906159
  0
LWPOLYLINE
  5
AB
330
88
100
AcDbEntity
  8
AM_9
100
AcDbPolyline
 90
        4
 70
     0
 43
0.0
 10
-0.1368192470298983
 20
1.039866312204392
 10
-0.1269124370382228
 20
1.023208534527432
 10
-0.1162421270183342
 20
1.009797210163419
 10
-0.1040269267013524
 20
0.9977796032432644
  0
LWPOLYLINE
  5
AC
330
88
100
AcDbEntity
  8
AM_9
100
AcDbPolyline
 90
        8
 70
     0
 43
0.0
 10
-0.13752788903
 20
1.148690543305563
 10
-0.139574425800268
 20
1.144242105424382
 10
-0.146791852974601
 20
1.122443250147867
 10
-0.1498793270357145
 20
1.099667277340558
 10
-0.1489113321725795
 20
1.079170683052522
 10
-0.1445431189355256
 20
1.059134033257771
 10
-0.1371120878882211
 20
1.040479757390598
 10
-0.1368192470298983
 20
1.039866312204392
  0
LWPOLYLINE
  5
AD
330
88
100
AcDbEntity
  8
AM_9
100
AcDbPolyline
 90
       15
 70
     0
 43
0.0
 10
0.1383802792356907
 20
1.146891657488338
 10
0.1300665503861976
 20
1.162045913256253
 10
0.1178464271106557
 20
1.178396975687442
 10
0.1018649090427032
 20
1.194060527510835
 10
0.0836838577810897
 20
1.207135051507858
 10
0.0615572758824462
 20
1.218330840999824
 10
0.0379166618120348
 20
1.225960277823927
 10
0.0117636670291267
 20
1.229980654018731
 10
-0.0147090016493718
 20
1.229754974099488
 10
-0.0412761812407434
 20
1.225105272049744
 10
-0.0666674153506539
 20
1.216137578734912
 10
-0.0899878492394938
 20
1.203044854877386
 10
-0.1106213773751233
 20
1.186093524887762
 10
-0.1270648571043861
 20
1.16653690167964
 10
-0.13752788903
 20
1.148690543305563
  0
LWPOLYLINE
  5
AE
330
88
100
AcDbEntity
  8
AM_9
100
AcDbPolyline
 90
        7
 70
     0
 43
0.0
 10
0.1389924812514307
 20
1.044446628012704
 10
0.1452917880396369
 20
1.061659910580538
 10
0.1493731595039331
 20
1.083231519933361
 10
0.1495381023177205
 20
1.105195240945243
 10
0.1461755636431404
 20
1.125014740784315
 10
0.13967303235203
 20
1.144015919264317
 10
0.1383802792356907
 20
1.146891657488338
  0
LWPOLYLINE
  5
AF
330
88
100
AcDbEntity
  8
AM_9
100
AcDbPolyline
 90
       13
 70
     0
 43
0.0
 10
-0.1040269267013524
 20
0.9977796032432644
 10
-0.0872612043452632
 20
0.9851282396207172
 10
-0.0688936377951713
 20
0.9748906202106566
 10
-0.0449166642580344
 20
0.9658902457060217
 10
-0.0197791576627689
 20
0.9607820740369678
 10
0.0069526754731946
 20
0.9597446010347428
 10
0.0334916657933992
 20
0.9630480110076522
 10
0.0593231851400649
 20
0.9707757289975129
 10
0.0834404904169332
 20
0.9827164087304088
 10
0.1047464633939063
 20
0.9984334720059246
 10
0.1228643582868776
 20
1.017707854182025
 10
0.1361578268394822
 20
1.038608320396042
 10
0.1389924812514307
 20
1.044446628012704
  0
LINE
  5
B0
330
88
100
AcDbEntity
  8
AM_9
100
AcDbLine
 10
-0.78
 20
1.375
 30
0.0
 11
-0.78
 21
0.815
 31
0.0
  0
LINE
  5
B1
330
88
100
AcDbEntity
  8
AM_9
100
AcDbLine
 10
0.78
 20
0.815
 30
0.0
 11
0.78
 21
1.375
 31
0.0
  0
LINE
  5
B2
330
88
100
AcDbEntity
  8
AM_9
100
AcDbLine
 10
-1.125
 20
0.9375
 30
0.0
 11
-1.125
 21
0.815
 31
0.0
  0
LINE
  5
B3
330
88
100
AcDbEntity
  8
AM_9
100
AcDbLine
 10
1.125
 20
0.815
 30
0.0
 11
1.125
 21
0.9375
 31
0.0
  0
LINE
  5
B4
330
88
100
AcDbEntity
  8
AM_9
100
AcDbLine
 10
1.125
 20
0.815
 30
0.0
 11
-1.125
 21
0.815
 31
0.0
  0
ELLIPSE
  5
B5
330
88
100
AcDbEntity
  8
AM_9
100
AcDbEllipse
 10
0.7152732106591081
 20
1.095
 30
0.0
 11
-2.318256390785939E-17
 21
-0.1262
 31
0.0
210
0.0
220
0.0
230
1.0
 40
0.4226182617406994
 41
0.0
 42
6.283185307179586
  0
LINE
  5
B8
330
88
100
AcDbEntity
  8
AM_7
100
AcDbLine
 10
-0.13251
 20
1.095
 30
0.0
 11
0.13251
 21
1.095
 31
0.0
  0
ELLIPSE
  5
BA
330
88
100
AcDbEntity
  8
AM_4
100
AcDbEllipse
 10
0.9923617114157798
 20
1.095
 30
0.0
 11
-2.318256390785941E-17
 21
-0.1262000000000001
 31
0.0
210
0.0
220
0.0
230
1.0
 40
0.4226182617406999
 41
5.978166122773603
 42
9.719540335242744
  0
LWPOLYLINE
  5
BB
330
88
100
AcDbEntity
  8
AM_4
100
AcDbPolyline
 90
       14
 70
     0
 43
0.0
 10
0.987169912212328
 20
0.9588159590173481
 10
0.9809415464958594
 20
0.9674616490307052
 10
0.9720936801726177
 20
0.9832257013682721
 10
0.964154574552079
 20
1.002178229245468
 10
0.9575382099915758
 20
1.023900543312094
 10
0.9525651393626121
 20
1.048161420422534
 10
0.9496203820587925
 20
1.07430821444867
 10
0.9489837621862993
 20
1.101295108860979
 10
0.9508084883291997
 20
1.128864553320775
 10
0.9549762341006579
 20
1.155002749685382
 10
0.9615528151963199
 20
1.180147922084682
 10
0.9697325974429937
 20
1.201710557398799
 10
0.9797745799872407
 20
1.220711518354508
 10
0.9871702558178619
 20
1.231184469671012
  0
LWPOLYLINE
  5
BC
330
88
100
AcDbEntity
  8
AM_4
100
AcDbPolyline
 90
       19
 70
     0
 43
0.0
 10
0.9871702558178619
 20
1.231184469671012
 10
0.9901011811462261
 20
1.234659332349878
 10
1.001411221651231
 20
1.244876488478217
 10
1.011799151373572
 20
1.250046712664131
 10
1.022299660205128
 20
1.251098954615115
 10
1.031515717634218
 20
1.248153484854287
 10
1.040250286408209
 20
1.24131308938854
 10
1.047889137517417
 20
1.231143310442187
 10
1.054698258004019
 20
1.217489232275077
 10
1.060531730415468
 20
1.200602754898855
 10
1.06531782947129
 20
1.180735683819373
 10
1.069019962041455
 20
1.158004987950047
 10
1.071521390065262
 20
1.133051676503839
 10
1.072750308468424
 20
1.106597080476856
 10
1.072641212588476
 20
1.079089593181261
 10
1.071157503804607
 20
1.052253736670896
 10
1.068174446380594
 20
1.025878956511141
 10
1.064683260780894
 20
1.006172548757072
 10
1.060085281103739
 20
0.9878742380918375
  0
CIRCLE
  5
BD
330
88
100
AcDbEntity
  8
AM_4
100
AcDbCircle
 10
0.0
 20
1.095
 30
0.0
 40
0.1262
  0
LWPOLYLINE
  5
BE
330
88
100
AcDbEntity
  8
AM_4
100
AcDbPolyline
 90
       10
 70
     0
 43
0.0
 10
1.060085281103739
 20
0.9878742380918375
 10
1.054651496681591
 20
0.9723979219216954
 10
1.048084386143414
 20
0.9591799516638583
 10
1.039792980723404
 20
0.9482143264646955
 10
1.030143451225298
 20
0.9411530396896991
 10
1.020583120301915
 20
0.9387699624038616
 10
1.010242447035708
 20
0.9404731072747579
 10
1.000360562304744
 20
0.9458683626159654
 10
0.990377351778859
 20
0.9550316421244687
 10
0.987169912212328
 20
0.9588159590173481
  0
LWPOLYLINE
  5
BF
330
88
100
AcDbEntity
  8
AM_4
100
AcDbPolyline
 90
       38
 70
     0
 43
0.0
 10
-0.0944316611461709
 20
0.975535451735048
 10
-0.1100410531349844
 20
0.9918223637281395
 10
-0.1231216915179457
 20
1.010211884170819
 10
-0.1347364816200956
 20
1.033427023245753
 10
-0.1425154107603172
 20
1.058213660461118
 10
-0.1463409492616884
 20
1.085094517362634
 10
-0.1457518241697922
 20
1.112244790697964
 10
-0.1405630296539488
 20
1.139428012279069
 10
-0.1309060893334685
 20
1.165341260693279
 10
-0.1170463318555484
 20
1.189010821194612
 10
-0.0992963149185771
 20
1.209897754854326
 10
-0.0788999913617038
 20
1.226623052119614
 10
-0.0558446746940343
 20
1.23944358220838
 10
-0.0324316979332321
 20
1.247348906540591
 10
-0.0079858099152142
 20
1.251017411363172
 10
0.015317280230351
 20
1.250376228309254
 10
0.0381803436319684
 20
1.245845025847233
 10
0.059691727714048
 20
1.237668047938741
 10
0.0796107852917403
 20
1.226159347159301
 10
0.0980964339157272
 20
1.211046599250866
 10
0.1139826322643025
 20
1.193216247801388
 10
0.1276415342320419
 20
1.171814811917832
 10
0.1377570418769559
 20
1.148507801375902
 10
0.1443380754963585
 20
1.122515913679215
 10
0.1466487563449365
 20
1.095790813554956
 10
0.1444699132654577
 20
1.068288239351721
 10
0.1377728341559482
 20
1.041538260055054
 10
0.1266182216008403
 20
1.016298844930701
 10
0.1113108816303643
 20
0.9933666291762653
 10
0.0927187528235986
 20
0.9740458820030191
 10
0.0709962468105968
 20
0.9583330299302609
 10
0.0481671341069856
 20
0.9474657655790908
 10
0.0237623406932218
 20
0.9408213878030723
 10
0.000173885703858
 20
0.9387676853627127
 10
-0.0234197391423047
 20
0.9407617066293978
 10
-0.0456485885920955
 20
0.9465505599101577
 10
-0.0666382569732799
 20
0.9558597565568493
 10
-0.0944316611965694
 20
0.9755354516055759
  0
LINE
  5
C0
330
88
100
AcDbEntity
  8
AM_4
100
AcDbLine
 10
-1.125
 20
1.281666666666667
 30
0.0
 11
-1.125
 21
0.9375
 31
0.0
  0
LINE
  5
C1
330
88
100
AcDbEntity
  8
AM_4
100
AcDbLine
 10
1.125
 20
0.9375
 30
0.0
 11
1.125
 21
1.281666666666667
 31
0.0
  0
LINE
  5
C2
330
88
100
AcDbEntity
  8
AM_4
100
AcDbLine
 10
1.031666666666667
 20
1.375
 30
0.0
 11
-1.031666666666667
 21
1.375
 31
0.0
  0
ARC
  5
C3
330
88
100
AcDbEntity
  8
AM_4
100
AcDbCircle
 10
-1.031666666666667
 20
1.281666666666667
 30
0.0
 40
0.0933333333333326
100
AcDbArc
 50
90.0
 51
180.0
  0
ARC
  5
C4
330
88
100
AcDbEntity
  8
AM_4
100
AcDbCircle
 10
1.031666666666667
 20
1.281666666666667
 30
0.0
 40
0.0933333333333326
100
AcDbArc
 50
0.0
 51
90.0
  0
LINE
  5
C5
330
88
100
AcDbEntity
  8
AM_4
100
AcDbLine
 10
1.125
 20
1.281666666666667
 30
0.0
 11
-1.125
 21
1.281666666666667
 31
0.0
  0
ARC
  5
C7
330
88
100
AcDbEntity
  8
AM_5
100
AcDbCircle
 10
0.0
 20
1.095
 30
0.0
 40
0.1562499999999999
100
AcDbArc
 50
75.00000000000001
 51
14.99999999999997
  0
ARC
  5
C8
330
88
100
AcDbEntity
  8
AM_5
100
AcDbCircle
 10
0.000000000000012
 20
1.095000000000029
 30
0.0
 40
0.1562499999999686
100
AcDbArc
 50
63.85157066748113
 51
75.00000000000148
  0
ENDBLK
  5
8B
330
88
100
AcDbEntity
  8
0
100
AcDbBlockEnd
  0
BLOCK
  5
CB
330
C9
100
AcDbEntity
  8
0
100
AcDbBlockBegin
  2
3_1_1_4C_2_0_in_023001_4
 70
     2
 10
0.0
 20
0.0
 30
0.0
  3
3_1_1_4C_2_0_in_023001_4
  1

  0
ATTDEF
  5
CD
330
C9
100
AcDbEntity
  8
AM_6
100
AcDbText
 10
6.125
 20
-0.815
 30
0.0
 40
0.5
  1
E-Type Collar -Inch
100
AcDbAttributeDefinition
  3

  2
NN
 70
     8
280
     0
  0
ATTDEF
  5
CE
330
C9
100
AcDbEntity
  8
AM_6
100
AcDbText
 10
6.125
 20
-1.315
 30
0.0
 40
0.5
  1
E-Type Bearings
100
AcDbAttributeDefinition
  3

  2
NT
 70
     8
280
     0
  0
ATTDEF
  5
CF
330
C9
100
AcDbEntity
  8
AM_6
100
AcDbText
 10
6.125
 20
-1.815
 30
0.0
 40
0.5
  1
1-1/4C
100
AcDbAttributeDefinition
  3

  2
NB
 70
     8
280
     0
  0
ATTDEF
  5
D0
330
C9
100
AcDbEntity
  8
AM_6
100
AcDbText
 10
6.125
 20
-2.315
 30
0.0
 40
0.5
  1
$BORE.C
100
AcDbAttributeDefinition
  3

  2
NBSYN
 70
     8
280
     0
  0
ATTDEF
  5
D1
330
C9
100
AcDbEntity
  8
AM_6
100
AcDbText
 10
6.125
 20
-2.815
 30
0.0
 40
0.5
  1
1-1/4C
100
AcDbAttributeDefinition
  3

  2
LINA
 70
     8
280
     0
  0
ATTDEF
  5
D2
330
C9
100
AcDbEntity
  8
AM_6
100
AcDbText
 10
6.125
 20
-3.315
 30
0.0
 40
0.5
  1
1-1/4
100
AcDbAttributeDefinition
  3

  2
BORE
 70
     8
280
     0
  0
ATTDEF
  5
D3
330
C9
100
AcDbEntity
  8
AM_6
100
AcDbText
 10
6.125
 20
-3.815
 30
0.0
 40
0.5
  1
2.25000
100
AcDbAttributeDefinition
  3

  2
L
 70
     8
280
     0
  0
ATTDEF
  5
D4
330
C9
100
AcDbEntity
  8
AM_6
100
AcDbText
 10
6.125
 20
-4.315
 30
0.0
 40
0.5
  1
2.75
100
AcDbAttributeDefinition
  3

  2
A
 70
     8
280
     0
  0
ATTDEF
  5
D5
330
C9
100
AcDbEntity
  8
AM_6
100
AcDbText
 10
6.125
 20
-4.815
 30
0.0
 40
0.5
  1
1.16
100
AcDbAttributeDefinition
  3

  2
B
 70
     8
280
     0
  0
ATTDEF
  5
D6
330
C9
100
AcDbEntity
  8
AM_6
100
AcDbText
 10
6.125
 20
-5.315
 30
0.0
 40
0.5
  1
1.56
100
AcDbAttributeDefinition
  3

  2
C
 70
     8
280
     0
  0
ATTDEF
  5
D7
330
C9
100
AcDbEntity
  8
AM_6
100
AcDbText
 10
6.125
 20
-5.815
 30
0.0
 40
0.5
  1
2.31
100
AcDbAttributeDefinition
  3

  2
D
 70
     8
280
     0
  0
ATTDEF
  5
D8
330
C9
100
AcDbEntity
  8
AM_6
100
AcDbText
 10
6.125
 20
-6.315
 30
0.0
 40
0.5
  1
0.35
100
AcDbAttributeDefinition
  3

  2
E
 70
     8
280
     0
  0
ATTDEF
  5
D9
330
C9
100
AcDbEntity
  8
AM_6
100
AcDbText
 10
6.125
 20
-6.815
 30
0.0
 40
0.5
  1
0.28
100
AcDbAttributeDefinition
  3

  2
F
 70
     8
280
     0
  0
ATTDEF
  5
DA
330
C9
100
AcDbEntity
  8
AM_6
100
AcDbText
 10
6.125
 20
-7.315
 30
0.0
 40
0.5
  1
5/16-18
100
AcDbAttributeDefinition
  3

  2
CS
 70
     8
280
     0
  0
ATTDEF
  5
DB
330
C9
100
AcDbEntity
  8
AM_6
100
AcDbText
 10
6.125
 20
-7.815
 30
0.0
 40
0.5
  1
0.3125
100
AcDbAttributeDefinition
  3

  2
NDM
 70
     8
280
     0
  0
ATTDEF
  5
DC
330
C9
100
AcDbEntity
  8
AM_6
100
AcDbText
 10
6.125
 20
-8.315
 30
0.0
 40
0.5
  1
0.2520
100
AcDbAttributeDefinition
  3

  2
KDM
 70
     8
280
     0
  0
ATTDEF
  5
DD
330
C9
100
AcDbEntity
  8
AM_6
100
AcDbText
 10
6.125
 20
-8.815
 30
0.0
 40
0.5
  1
baldor
100
AcDbAttributeDefinition
  3

  2
COMPANY
 70
     8
280
     0
  0
LINE
  5
DE
330
C9
100
AcDbEntity
  8
AM_9
100
AcDbLine
 10
0.7401434613081497
 20
-0.9833606262026614
 30
0.0
 11
0.7318173552647615
 21
-0.9729755858236503
 31
0.0
  0
LINE
  5
DF
330
C9
100
AcDbEntity
  8
AM_9
100
AcDbLine
 10
0.7317770678867456
 20
-1.217074664082522
 30
0.0
 11
0.7401434613081497
 21
-1.206639373797338
 31
0.0
  0
LWPOLYLINE
  5
E0
330
C9
100
AcDbEntity
  8
AM_9
100
AcDbPolyline
 90
       25
 70
     0
 43
0.0
 10
0.7317153249113441
 20
-0.9728483251697885
 10
0.7247251827028233
 20
-0.9658902457060216
 10
0.7150517877036321
 20
-0.9607820740369676
 10
0.7039480342293931
 20
-0.9597446010347428
 10
0.6921139183444142
 20
-0.9630480110076521
 10
0.6797964040077172
 20
-0.9707757289975127
 10
0.6676000879121816
 20
-0.9827164087304088
 10
0.6562460195285496
 20
-0.9984334720059245
 10
0.6461701982599575
 20
-1.017707854182025
 10
0.6385240559479698
 20
-1.038608320396042
 10
0.6331448115831858
 20
-1.061659910580538
 10
0.6307107260213829
 20
-1.083231519933361
 10
0.6306095548628711
 20
-1.105195240945243
 10
0.6326201703233519
 20
-1.125014740784315
 10
0.6364655394551548
 20
-1.144015919264317
 10
0.6420537543243882
 20
-1.162045913256253
 10
0.6490011095784315
 20
-1.178396975687442
 10
0.6578141582710378
 20
-1.194060527510835
 10
0.6674734702166294
 20
-1.207135051507857
 10
0.6786963263611611
 20
-1.218330840999824
 10
0.6900600661369575
 20
-1.225960277823927
 10
0.7018627544065493
 20
-1.229980654018731
 10
0.7130106605644365
 20
-1.229754974099488
 10
0.7233681815396783
 20
-1.225105272049744
 10
0.7317175000798444
 20
-1.217148962157897
  0
LWPOLYLINE
  5
E1
330
C9
100
AcDbEntity
  8
AM_9
100
AcDbPolyline
 90
       13
 70
     0
 43
0.0
 10
0.7363638328291843
 20
-1.210407856365004
 10
0.7402263240899403
 20
-1.203044854877386
 10
0.7465252362667661
 20
-1.186093524887762
 10
0.7511762127017618
 20
-1.16653690167964
 10
0.7544968747204982
 20
-1.144242105424382
 10
0.7563277193280817
 20
-1.122443250147867
 10
0.7570883473600925
 20
-1.099667277340558
 10
0.7568521278157612
 20
-1.079170683052522
 10
0.755762634133546
 20
-1.059134033257771
 10
0.753858758231629
 20
-1.040479757390598
 10
0.751135328949227
 20
-1.023208534527432
 10
0.7481515079328043
 20
-1.009797210163419
 10
0.744568556491406
 20
-0.9977796032432644
  0
LWPOLYLINE
  5
E2
330
C9
100
AcDbEntity
  8
AM_9
100
AcDbPolyline
 90
        3
 70
     0
 43
0.0
 10
0.7317175000798444
 20
-1.217148962157897
 10
0.7325080765012126
 20
-1.216137578734912
 10
0.7363638328291843
 20
-1.210407856365004
  0
LINE
  5
E3
330
C9
100
AcDbEntity
  8
AM_9
100
AcDbLine
 10
0.7152732106591081
 20
-1.2212
 30
0.0
 11
0.9923617114157799
 21
-1.2212
 31
0.0
  0
LINE
  5
E4
330
C9
100
AcDbEntity
  8
AM_9
100
AcDbLine
 10
0.9923617114157799
 20
-0.9687999999999999
 30
0.0
 11
0.7152732106591081
 21
-0.9687999999999999
 31
0.0
  0
ELLIPSE
  5
E5
330
C9
100
AcDbEntity
  8
AM_9
100
AcDbEllipse
 10
0.99236171141578
 20
-1.095
 30
0.0
 11
-2.318256390785937E-17
 21
-0.1261999999999999
 31
0.0
210
0.0
220
0.0
230
1.0
 40
0.4226182617407007
 41
3.439819338898467
 42
5.978494417175891
  0
LINE
  5
E6
330
C9
100
AcDbEntity
  8
AM_9
100
AcDbLine
 10
0.9674914607667385
 20
-1.206639373797338
 30
0.0
 11
0.9870082115742386
 21
-1.23098235527593
 31
0.0
  0
LINE
  5
E7
330
C9
100
AcDbEntity
  8
AM_9
100
AcDbLine
 10
0.9871467482591758
 20
-0.9588448497753204
 30
0.0
 11
0.9674914607667385
 21
-0.9833606262026613
 31
0.0
  0
LWPOLYLINE
  5
E8
330
C9
100
AcDbEntity
  8
AM_9
100
AcDbPolyline
 90
       13
 70
     0
 43
0.0
 10
0.1381627871042103
 20
-1.042642459060924
 10
0.1326032899141004
 20
-1.032086929087179
 10
0.120901146773081
 20
-1.01523428315302
 10
0.1058435305831707
 20
-0.9993922137994976
 10
0.0881421612013445
 20
-0.9856989479929691
 10
0.0669249098748643
 20
-0.973979197485264
 10
0.0435249671878877
 20
-0.965485996463614
 10
0.0180164298954341
 20
-0.9605772139022052
 10
-0.0086881833316068
 20
-0.9598138439685078
 10
-0.0350190329345502
 20
-0.9633756408988269
 10
-0.0610994042607126
 20
-0.9714710882565449
 10
-0.0827397585892239
 20
-0.9822921744746501
 10
-0.1028594729276147
 20
-0.9967713010691257
  0
LWPOLYLINE
  5
E9
330
C9
100
AcDbEntity
  8
AM_9
100
AcDbPolyline
 90
        7
 70
     0
 43
0.0
 10
0.1385413154379768
 20
-1.14654353892456
 10
0.1437286022121231
 20
-1.133413233005849
 10
0.1487500704286706
 20
-1.11211749482559
 10
0.1498429457206477
 20
-1.089472639440999
 10
0.1472960905266888
 20
-1.069714163659952
 10
0.141383778885884
 20
-1.050115633753396
 10
0.1381627871042103
 20
-1.042642459060924
  0
LWPOLYLINE
  5
EA
330
C9
100
AcDbEntity
  8
AM_9
100
AcDbPolyline
 90
       16
 70
     0
 43
0.0
 10
-0.1372140039325108
 20
-1.14933537491519
 10
-0.135518687195356
 20
-1.152670968806384
 10
-0.1245629321578965
 20
-1.170053916012389
 10
-0.1107874301092471
 20
-1.185929032264761
 10
-0.0934795226187945
 20
-1.200609806219496
 10
-0.0736482582921548
 20
-1.212769000594137
 10
-0.0505943610178358
 20
-1.222379192804177
 10
-0.0256368483096517
 20
-1.228396925031032
 10
0.0005899496398196
 20
-1.230415604692751
 10
0.0275369834952562
 20
-1.228083854765652
 10
0.0532811090355426
 20
-1.221473527769458
 10
0.0782222139162039
 20
-1.210322946572276
 10
0.099894507492395
 20
-1.195695735451065
 10
0.1191862067320094
 20
-1.176835178415555
 10
0.1333003059422877
 20
-1.156709988960942
 10
0.1385413154379768
 20
-1.14654353892456
  0
LWPOLYLINE
  5
EB
330
C9
100
AcDbEntity
  8
AM_9
100
AcDbPolyline
 90
        7
 70
     0
 43
0.0
 10
-0.1377355987730523
 20
-1.04174124138004
 10
-0.1410204713171018
 20
-1.049202940972734
 10
-0.1478546027510875
 20
-1.072489875320421
 10
-0.1499584719492549
 20
-1.093356260047134
 10
-0.1483091766092948
 20
-1.114959386657295
 10
-0.1435021913752054
 20
-1.134089522523199
 10
-0.1372140039325108
 20
-1.14933537491519
  0
LWPOLYLINE
  5
EC
330
C9
100
AcDbEntity
  8
AM_9
100
AcDbPolyline
 90
        4
 70
     0
 43
0.0
 10
-0.1028594729276147
 20
-0.9967713010691257
 10
-0.1176421742407892
 20
-1.011368966012272
 10
-0.1303572391921786
 20
-1.028396133325849
 10
-0.1377355987730523
 20
-1.04174124138004
  0
LWPOLYLINE
  5
ED
330
C9
100
AcDbEntity
  8
AM_9
100
AcDbPolyline
 90
        3
 70
     0
 43
0.0
 10
0.7364358041271616
 20
-0.9797129358658494
 10
0.7332729234830262
 20
-0.9748906202106565
 10
0.7317153249113441
 20
-0.9728483251697885
  0
LWPOLYLINE
  5
EE
330
C9
100
AcDbEntity
  8
AM_9
100
AcDbPolyline
 90
        3
 70
     0
 43
0.0
 10
0.744568556491406
 20
-0.9977796032432644
 10
0.7393589893975209
 20
-0.9851282396207172
 10
0.7364358041271616
 20
-0.9797129358658494
  0
LINE
  5
EF
330
C9
100
AcDbEntity
  8
AM_9
100
AcDbLine
 10
0.78
 20
-1.375
 30
0.0
 11
0.78
 21
-0.815
 31
0.0
  0
LINE
  5
F0
330
C9
100
AcDbEntity
  8
AM_9
100
AcDbLine
 10
-0.78
 20
-0.815
 30
0.0
 11
-0.78
 21
-1.375
 31
0.0
  0
LINE
  5
F1
330
C9
100
AcDbEntity
  8
AM_9
100
AcDbLine
 10
-1.125
 20
-0.815
 30
0.0
 11
1.125
 21
-0.815
 31
0.0
  0
LINE
  5
F2
330
C9
100
AcDbEntity
  8
AM_9
100
AcDbLine
 10
1.125
 20
-0.9375
 30
0.0
 11
1.125
 21
-0.815
 31
0.0
  0
LINE
  5
F3
330
C9
100
AcDbEntity
  8
AM_9
100
AcDbLine
 10
-1.125
 20
-0.815
 30
0.0
 11
-1.125
 21
-0.9375
 31
0.0
  0
ELLIPSE
  5
F4
330
C9
100
AcDbEntity
  8
AM_9
100
AcDbEllipse
 10
0.715273210659108
 20
-1.095
 30
0.0
 11
-2.318256390785937E-17
 21
-0.1261999999999999
 31
0.0
210
0.0
220
0.0
230
1.0
 40
0.4226182617406989
 41
0.0
 42
6.283185307179586
  0
LINE
  5
F5
330
C9
100
AcDbEntity
  8
AM_7
100
AcDbLine
 10
-0.13251
 20
-1.095
 30
0.0
 11
0.13251
 21
-1.095
 31
0.0
  0
ELLIPSE
  5
F6
330
C9
100
AcDbEntity
  8
AM_4
100
AcDbEllipse
 10
0.9923617114157798
 20
-1.095
 30
0.0
 11
-2.318256390785941E-17
 21
-0.1262000000000001
 31
0.0
210
0.0
220
0.0
230
1.0
 40
0.4226182617406999
 41
5.978494417175895
 42
9.723004646078051
  0
LWPOLYLINE
  5
F7
330
C9
100
AcDbEntity
  8
AM_4
100
AcDbPolyline
 90
       14
 70
     0
 43
0.0
 10
0.9871656846624647
 20
-1.231178766200041
 10
0.9833951657817689
 20
-1.226159347159301
 10
0.9742547275603872
 20
-1.211046599250866
 10
0.9661783800487067
 20
-1.193216247801388
 10
0.9590693942666765
 20
-1.171814811917832
 10
0.9537047457840773
 20
-1.148507801375902
 10
0.9501715220014946
 20
-1.122515913679215
 10
0.9489200685018017
 20
-1.095790813554956
 10
0.9501005597317477
 20
-1.068288239351721
 10
0.9536963056908679
 20
-1.041538260055054
 10
0.959607528460657
 20
-1.0162988449307
 10
0.9675511942253321
 20
-0.9933666291762651
 10
0.9769415247645573
 20
-0.974045882003019
 10
0.987177123405904
 20
-0.958806963271262
  0
LWPOLYLINE
  5
F8
330
C9
100
AcDbEntity
  8
AM_4
100
AcDbPolyline
 90
        9
 70
     0
 43
0.0
 10
0.987177123405904
 20
-0.958806963271262
 10
0.9875596069055241
 20
-0.9583330299302608
 10
0.998301713826901
 20
-0.9474657655790908
 10
1.009326393418958
 20
-0.9408213878030722
 10
1.019519411888082
 20
-0.9387676853627126
 10
1.029272914594963
 20
-0.9407617066293978
 10
1.038046183212606
 20
-0.9465505599101576
 10
1.045968520860001
 20
-0.9558597565568492
 10
1.055906520666424
 20
-0.975535451624032
  0
LWPOLYLINE
  5
F9
330
C9
100
AcDbEntity
  8
AM_4
100
AcDbPolyline
 90
       19
 70
     0
 43
0.0
 10
1.055906520666424
 20
-0.975535451624032
 10
1.061212202816068
 20
-0.9918223637281395
 10
1.06550526365022
 20
-1.010211884170819
 10
1.069200567127167
 20
-1.033427023245753
 10
1.071611589741043
 20
-1.058213660461118
 10
1.072781506806589
 20
-1.085094517362634
 10
1.072600437737817
 20
-1.112244790697964
 10
1.071012656811298
 20
-1.139428012279069
 10
1.067993436785734
 20
-1.165341260693279
 10
1.063528999638169
 20
-1.189010821194612
 10
1.057581386431797
 20
-1.209897754854326
 10
1.050428061818026
 20
-1.226623052119614
 10
1.041940270933319
 20
-1.23944358220838
 10
1.032875219760304
 20
-1.247348906540591
 10
1.022945521148024
 20
-1.251017411363172
 10
1.013025326535056
 20
-1.250376228309253
 10
1.002873198613005
 20
-1.245845025847233
 10
0.9929313075571718
 20
-1.237668047938741
 10
0.9871656846624647
 20
-1.231178766200041
  0
LINE
  5
FA
330
C9
100
AcDbEntity
  8
AM_4
100
AcDbLine
 10
1.125
 20
-1.281666666666667
 30
0.0
 11
1.125
 21
-0.9375
 31
0.0
  0
LINE
  5
FB
330
C9
100
AcDbEntity
  8
AM_4
100
AcDbLine
 10
-1.125
 20
-0.9375
 30
0.0
 11
-1.125
 21
-1.281666666666667
 31
0.0
  0
LINE
  5
FC
330
C9
100
AcDbEntity
  8
AM_4
100
AcDbLine
 10
-1.031666666666667
 20
-1.375
 30
0.0
 11
1.03166597020106
 21
-1.375
 31
0.0
  0
LINE
  5
FD
330
C9
100
AcDbEntity
  8
AM_4
100
AcDbLine
 10
-1.125
 20
-1.281666666666667
 30
0.0
 11
1.125
 21
-1.281666666666667
 31
0.0
  0
ARC
  5
FE
330
C9
100
AcDbEntity
  8
AM_4
100
AcDbCircle
 10
1.031666666666667
 20
-1.281666666666667
 30
0.0
 40
0.093333333333333
100
AcDbArc
 50
270.0
 51
0.0
  0
ARC
  5
FF
330
C9
100
AcDbEntity
  8
AM_4
100
AcDbCircle
 10
-1.031666666666667
 20
-1.281666666666667
 30
0.0
 40
0.093333333333333
100
AcDbArc
 50
180.0
 51
270.0
  0
LWPOLYLINE
  5
100
330
C9
100
AcDbEntity
  8
AM_4
100
AcDbPolyline
 90
       34
 70
     0
 43
0.0
 10
-0.0004684671089825
 20
-0.9387507998170181
 10
0.0216847836585466
 20
-0.9404731072747577
 10
0.0436951074190858
 20
-0.9458683626159653
 10
0.0650956713409572
 20
-0.9550316421244686
 10
0.0846289072579089
 20
-0.9674616490307051
 10
0.102388099760737
 20
-0.983225701368272
 10
0.1179007732929035
 20
-1.002178229245468
 10
0.130544070581117
 20
-1.023900543312094
 10
0.1398858933230125
 20
-1.048161420422534
 10
0.1453548542996451
 20
-1.07430821444867
 10
0.1465311812400083
 20
-1.101295108860979
 10
0.1431538339130528
 20
-1.128864553320775
 10
0.1353735492552186
 20
-1.155002749685382
 10
0.1229024714025249
 20
-1.180147922084682
 10
0.1070418971707027
 20
-1.201710557398799
 10
0.0870010148902199
 20
-1.220711518354508
 10
0.0656766147882787
 20
-1.234659332349878
 10
0.0413956574003072
 20
-1.244876488478216
 10
0.0181360177056217
 20
-1.250046712664131
 10
-0.0064362725142289
 20
-1.251098954615115
 10
-0.0290058651437735
 20
-1.248153484854287
 10
-0.0513900147607059
 20
-1.24131308938854
 10
-0.0718755658151693
 20
-1.231143310442186
 10
-0.0909565303083706
 20
-1.217489232275076
 10
-0.1080055856627532
 20
-1.200602754898855
 10
-0.1225415240941229
 20
-1.180735683819373
 10
-0.1341638829646043
 20
-1.158004987950047
 10
-0.1422215965616665
 20
-1.133051676503838
 10
-0.14624482346234
 20
-1.106597080476855
 10
-0.1458858875069017
 20
-1.079089593181261
 10
-0.1410386304464152
 20
-1.052253736670896
 10
-0.1314785371883254
 20
-1.025878956511141
 10
-0.1205836421573698
 20
-1.006172548757072
 10
-0.1066758680238844
 20
-0.9878742382265199
  0
LWPOLYLINE
  5
101
330
C9
100
AcDbEntity
  8
AM_4
100
AcDbPolyline
 90
        7
 70
     0
 43
0.0
 10
-0.1066758680238844
 20
-0.9878742382265199
 10
-0.0908226039044556
 20
-0.9723979219216954
 10
-0.0724114050777637
 20
-0.9591799516638582
 10
-0.0501918097974462
 20
-0.9482143264646954
 10
-0.0255805440619602
 20
-0.941153039689699
 10
-0.0023403297726229
 20
-0.9387699624038616
 10
-0.0004684671089825
 20
-0.9387507998170181
  0
CIRCLE
  5
102
330
C9
100
AcDbEntity
  8
AM_4
100
AcDbCircle
 10
0.0
 20
-1.095
 30
0.0
 40
0.1262
  0
CIRCLE
  5
103
330
C9
100
AcDbEntity
  8
AM_5
100
AcDbCircle
 10
0.0
 20
-1.095
 30
0.0
 40
0.1562499999999999
  0
ENDBLK
  5
CC
330
C9
100
AcDbEntity
  8
0
100
AcDbBlockEnd
  0
BLOCK
  5
106
330
104
100
AcDbEntity
  8
0
100
AcDbBlockBegin
  2
4_1_1_4I_0_in_023001_4
 70
     2
 10
0.0
 20
0.0
 30
0.0
  3
4_1_1_4I_0_in_023001_4
  1

  0
ATTDEF
  5
108
330
104
100
AcDbEntity
  8
AM_6
100
AcDbText
 10
6.155
 20
1.5125
 30
0.0
 40
0.5
  1
E-Type Insert -Inch
100
AcDbAttributeDefinition
  3

  2
NN
 70
     8
280
     0
  0
ATTDEF
  5
109
330
104
100
AcDbEntity
  8
AM_6
100
AcDbText
 10
6.155
 20
1.0125
 30
0.0
 40
0.5
  1
E-Type Bearings
100
AcDbAttributeDefinition
  3

  2
NT
 70
     8
280
     0
  0
ATTDEF
  5
10A
330
104
100
AcDbEntity
  8
AM_6
100
AcDbText
 10
6.155
 20
0.5125
 30
0.0
 40
0.5
  1
1-1/4I
100
AcDbAttributeDefinition
  3

  2
NB
 70
     8
280
     0
  0
ATTDEF
  5
10B
330
104
100
AcDbEntity
  8
AM_6
100
AcDbText
 10
6.155
 20
0.0125
 30
0.0
 40
0.5
  1
$BORE.I
100
AcDbAttributeDefinition
  3

  2
NBSYN
 70
     8
280
     0
  0
ATTDEF
  5
10C
330
104
100
AcDbEntity
  8
AM_6
100
AcDbText
 10
6.155
 20
-0.4875
 30
0.0
 40
0.5
  1
1-1/4I
100
AcDbAttributeDefinition
  3

  2
LINA
 70
     8
280
     0
  0
ATTDEF
  5
10D
330
104
100
AcDbEntity
  8
AM_6
100
AcDbText
 10
6.155
 20
-0.9875
 30
0.0
 40
0.5
  1
1-1/4
100
AcDbAttributeDefinition
  3

  2
BORE
 70
     8
280
     0
  0
ATTDEF
  5
10E
330
104
100
AcDbEntity
  8
AM_6
100
AcDbText
 10
6.155
 20
-1.4875
 30
0.0
 40
0.5
  1
2.75
100
AcDbAttributeDefinition
  3

  2
A
 70
     8
280
     0
  0
ATTDEF
  5
10F
330
104
100
AcDbEntity
  8
AM_6
100
AcDbText
 10
6.155
 20
-1.9875
 30
0.0
 40
0.5
  1
1.16
100
AcDbAttributeDefinition
  3

  2
B
 70
     8
280
     0
  0
ATTDEF
  5
110
330
104
100
AcDbEntity
  8
AM_6
100
AcDbText
 10
6.155
 20
-2.4875
 30
0.0
 40
0.5
  1
1.56
100
AcDbAttributeDefinition
  3

  2
C
 70
     8
280
     0
  0
ATTDEF
  5
111
330
104
100
AcDbEntity
  8
AM_6
100
AcDbText
 10
6.155
 20
-2.9875
 30
0.0
 40
0.5
  1
2.31
100
AcDbAttributeDefinition
  3

  2
D
 70
     8
280
     0
  0
ATTDEF
  5
112
330
104
100
AcDbEntity
  8
AM_6
100
AcDbText
 10
6.155
 20
-3.4875
 30
0.0
 40
0.5
  1
0.35
100
AcDbAttributeDefinition
  3

  2
E
 70
     8
280
     0
  0
ATTDEF
  5
113
330
104
100
AcDbEntity
  8
AM_6
100
AcDbText
 10
6.155
 20
-3.9875
 30
0.0
 40
0.5
  1
0.28
100
AcDbAttributeDefinition
  3

  2
F
 70
     8
280
     0
  0
ATTDEF
  5
114
330
104
100
AcDbEntity
  8
AM_6
100
AcDbText
 10
6.155
 20
-4.4875
 30
0.0
 40
0.5
  1
baldor
100
AcDbAttributeDefinition
  3

  2
COMPANY
 70
     8
280
     0
  0
LINE
  5
115
330
104
100
AcDbEntity
  8
AM_9
100
AcDbLine
 10
0.7067978357962812
 20
1.269999995
 30
0.0
 11
0.5663182927321594
 21
1.269999995
 31
0.0
  0
LINE
  5
116
330
104
100
AcDbEntity
  8
AM_9
100
AcDbLine
 10
0.5662855795419846
 20
0.919999985
 30
0.0
 11
0.7068497621073095
 21
0.919999985
 31
0.0
  0
LWPOLYLINE
  5
117
330
104
100
AcDbEntity
  8
AM_9
100
AcDbPolyline
 90
       10
 70
     0
 43
0.0
 10
0.6172186863970199
 20
1.128605352675683
 10
0.6159908256665595
 20
1.154708974799412
 10
0.6137887174256595
 20
1.180679979137273
 10
0.6105048575478588
 20
1.204230474098497
 10
0.6058024155824105
 20
1.22539881654091
 10
0.5995377341443091
 20
1.243027740874697
 10
0.5913284050861649
 20
1.256875928122876
 10
0.5816960831182864
 20
1.265676319921469
 10
0.5700924708142998
 20
1.269780165705825
 10
0.5664487771604119
 20
1.269999994342638
  0
LWPOLYLINE
  5
118
330
104
100
AcDbEntity
  8
AM_9
100
AcDbPolyline
 90
        5
 70
     0
 43
0.0
 10
0.6172371012659943
 20
1.061975392381141
 10
0.6174581031686331
 20
1.070084774772509
 10
0.6177370819082597
 20
1.098576691277134
 10
0.6172435385474089
 20
1.127818897911376
 10
0.6172186863970199
 20
1.128605352675683
  0
LWPOLYLINE
  5
119
330
104
100
AcDbEntity
  8
AM_9
100
AcDbPolyline
 90
        7
 70
     0
 43
0.0
 10
0.5942723886582558
 20
0.9372324090142649
 10
0.6004147191075287
 20
0.9489693341120893
 10
0.6064085627500431
 20
0.9668262849700153
 10
0.6109367887932017
 20
0.9882981312448991
 10
0.6142250061070144
 20
1.01348458629598
 10
0.6163046062806391
 20
1.040518010499148
 10
0.6172371012659943
 20
1.061975392381141
  0
LWPOLYLINE
  5
11A
330
104
100
AcDbEntity
  8
AM_9
100
AcDbPolyline
 90
        5
 70
     0
 43
0.0
 10
0.5664391104433786
 20
0.9199999851696344
 10
0.5734275310609299
 20
0.9208301678059572
 10
0.5838553690806195
 20
0.9257848268524886
 10
0.5930155850021543
 20
0.93537840227017
 10
0.5942723886582558
 20
0.9372324090142649
  0
LWPOLYLINE
  5
11B
330
104
100
AcDbEntity
  8
AM_9
100
AcDbPolyline
 90
       11
 70
     0
 43
0.0
 10
0.5664487771604119
 20
1.269999994342638
 10
0.5579118919651298
 20
1.268906775453505
 10
0.5444408894524907
 20
1.263263612564648
 10
0.5310255351580101
 20
1.253444516207428
 10
0.5173538556856022
 20
1.239186760197768
 10
0.5043669813332106
 20
1.221074046260522
 10
0.4923903029797927
 20
1.19895374614591
 10
0.4824683558885562
 20
1.173951255076366
 10
0.4749541297785094
 20
1.145787547687602
 10
0.4711566028662585
 20
1.120990294514721
 10
0.4698264729825774
 20
1.09499999
  0
LWPOLYLINE
  5
11C
330
104
100
AcDbEntity
  8
AM_9
100
AcDbPolyline
 90
        5
 70
     0
 43
0.0
 10
0.7353733266078705
 20
0.9369320248109673
 10
0.7311618072433721
 20
0.931652195015156
 10
0.7207627764473998
 20
0.9234335007359528
 10
0.7090155541300974
 20
0.9200712166340923
 10
0.7069280945964488
 20
0.9199999860291613
  0
LWPOLYLINE
  5
11D
330
104
100
AcDbEntity
  8
AM_9
100
AcDbPolyline
 90
        6
 70
     0
 43
0.0
 10
0.759769860738936
 20
1.026733664373635
 10
0.7573196545426946
 20
1.006248632776933
 10
0.7530512646371633
 20
0.9825183838706887
 10
0.7473919222041282
 20
0.9618831896636273
 10
0.7400685703866672
 20
0.9446340549370402
 10
0.7353733266078705
 20
0.9369320248109673
  0
LWPOLYLINE
  5
11E
330
104
100
AcDbEntity
  8
AM_9
100
AcDbPolyline
 90
        7
 70
     0
 43
0.0
 10
0.759542324018841
 20
1.165537758470698
 10
0.7611484194908354
 20
1.146653678929261
 10
0.7625414410053919
 20
1.117604069840075
 10
0.7628303027975719
 20
1.088505903329857
 10
0.7620739301501157
 20
1.059594766215126
 10
0.7602627579638962
 20
1.032056521732786
 10
0.759769860738936
 20
1.026733664373635
  0
LWPOLYLINE
  5
11F
330
104
100
AcDbEntity
  8
AM_9
100
AcDbPolyline
 90
        9
 70
     0
 43
0.0
 10
0.7069151899440108
 20
1.26999999461844
 10
0.7144071215982326
 20
1.269054181026281
 10
0.7252937074895107
 20
1.263702804861524
 10
0.7348223352117362
 20
1.25383684217804
 10
0.7429132835173362
 20
1.239565898455006
 10
0.7495064692959229
 20
1.221402858357668
 10
0.754740011528404
 20
1.199273024086747
 10
0.7585815268553542
 20
1.174173169874118
 10
0.759542324018841
 20
1.165537758470698
  0
LWPOLYLINE
  5
120
330
104
100
AcDbEntity
  8
AM_9
100
AcDbPolyline
 90
        9
 70
     0
 43
0.0
 10
0.671539468602249
 20
0.9372682462562785
 10
0.6699908516439589
 20
0.9387683969606687
 10
0.6570315545405419
 20
0.953747958779815
 10
0.6447350494889053
 20
0.9729421843110398
 10
0.6339238256518072
 20
0.9955268860162565
 10
0.6250572631749455
 20
1.021320103107298
 10
0.6187541351199856
 20
1.049277586601259
 10
0.6159087773066796
 20
1.071929106958658
 10
0.6149400559310539
 20
1.09499999
  0
LWPOLYLINE
  5
121
330
104
100
AcDbEntity
  8
AM_9
100
AcDbPolyline
 90
        4
 70
     0
 43
0.0
 10
0.7069280945964488
 20
0.9199999860291613
 10
0.6964722496464415
 20
0.9216602943108768
 10
0.6832968485008653
 20
0.9279521871434796
 10
0.671539468602249
 20
0.9372682462562785
  0
LINE
  5
122
330
104
100
AcDbEntity
  8
AM_9
100
AcDbLine
 10
0.7067978357962811
 20
-0.919999985
 30
0.0
 11
0.5663182927321594
 21
-0.919999985
 31
0.0
  0
LINE
  5
123
330
104
100
AcDbEntity
  8
AM_9
100
AcDbLine
 10
0.5662855795419846
 20
-1.269999995
 30
0.0
 11
0.7068497621073098
 21
-1.269999995
 31
0.0
  0
LWPOLYLINE
  5
124
330
104
100
AcDbEntity
  8
AM_9
100
AcDbPolyline
 90
        5
 70
     0
 43
0.0
 10
0.5941171593934252
 20
-0.936994841679986
 10
0.5913284050861649
 20
-0.9331240518771239
 10
0.5816960831182864
 20
-0.9243236600785307
 10
0.5700924708142998
 20
-0.9202198142941749
 10
0.5664487771604119
 20
-0.9199999856573622
  0
LWPOLYLINE
  5
125
330
104
100
AcDbEntity
  8
AM_9
100
AcDbPolyline
 90
        7
 70
     0
 43
0.0
 10
0.6172186863970199
 20
-1.061394627324317
 10
0.6159908256665595
 20
-1.035291005200588
 10
0.6137887174256595
 20
-1.009320000862727
 10
0.6105048575478588
 20
-0.9857695059015028
 10
0.6058024155824105
 20
-0.9646011634590895
 10
0.5995377341443091
 20
-0.9469722391253026
 10
0.5941171593934252
 20
-0.936994841679986
  0
LWPOLYLINE
  5
126
330
104
100
AcDbEntity
  8
AM_9
100
AcDbPolyline
 90
        5
 70
     0
 43
0.0
 10
0.6172371012659943
 20
-1.128024587618859
 10
0.6174581031686331
 20
-1.119915205227491
 10
0.6177370819082597
 20
-1.091423288722866
 10
0.6172435385474089
 20
-1.062181082088624
 10
0.6172186863970199
 20
-1.061394627324317
  0
LWPOLYLINE
  5
127
330
104
100
AcDbEntity
  8
AM_9
100
AcDbPolyline
 90
       10
 70
     0
 43
0.0
 10
0.5664391104433786
 20
-1.269999994830366
 10
0.5734275310609299
 20
-1.269169812194043
 10
0.5838553690806195
 20
-1.264215153147511
 10
0.5930155850021543
 20
-1.25462157772983
 10
0.6004147191075287
 20
-1.241030645887911
 10
0.6064085627500431
 20
-1.223173695029985
 10
0.6109367887932018
 20
-1.201701848755101
 10
0.6142250061070144
 20
-1.17651539370402
 10
0.6163046062806391
 20
-1.149481969500852
 10
0.6172371012659943
 20
-1.128024587618859
  0
LWPOLYLINE
  5
128
330
104
100
AcDbEntity
  8
AM_9
100
AcDbPolyline
 90
       11
 70
     0
 43
0.0
 10
0.5664487771604119
 20
-0.9199999856573622
 10
0.5579118919651298
 20
-0.9210932045464951
 10
0.5444408894524908
 20
-0.926736367435352
 10
0.5310255351580101
 20
-0.9365554637925719
 10
0.5173538556856022
 20
-0.9508132198022322
 10
0.5043669813332106
 20
-0.9689259337394778
 10
0.4923903029797927
 20
-0.9910462338540897
 10
0.4824683558885562
 20
-1.016048724923634
 10
0.4749541297785094
 20
-1.044212432312398
 10
0.4711566028662585
 20
-1.069009685485279
 10
0.4698264729825774
 20
-1.09499999
  0
LWPOLYLINE
  5
129
330
104
100
AcDbEntity
  8
AM_9
100
AcDbPolyline
 90
        9
 70
     0
 43
0.0
 10
0.7597456275729811
 20
-1.163513058445819
 10
0.7573196545426946
 20
-1.183751347223067
 10
0.7530512646371633
 20
-1.207481596129311
 10
0.7473919222041282
 20
-1.228116790336373
 10
0.740068570386667
 20
-1.24536592506296
 10
0.7311618072433719
 20
-1.258347784984844
 10
0.7207627764473998
 20
-1.266566479264047
 10
0.7090155541300976
 20
-1.269928763365908
 10
0.7069280945964489
 20
-1.269999993970839
  0
LWPOLYLINE
  5
12A
330
104
100
AcDbEntity
  8
AM_9
100
AcDbPolyline
 90
        7
 70
     0
 43
0.0
 10
0.7595844488699703
 20
-1.02487527089892
 10
0.7611484194908354
 20
-1.04334630107074
 10
0.7625414410053919
 20
-1.072395910159925
 10
0.7628303027975719
 20
-1.101494076670144
 10
0.7620739301501157
 20
-1.130405213784874
 10
0.7602627579638962
 20
-1.157943458267215
 10
0.7597456275729811
 20
-1.163513058445819
  0
LWPOLYLINE
  5
12B
330
104
100
AcDbEntity
  8
AM_9
100
AcDbPolyline
 90
        6
 70
     0
 43
0.0
 10
0.7356425865609324
 20
-0.9373169979426151
 10
0.7429132835173362
 20
-0.9504340815449941
 10
0.7495064692959229
 20
-0.9685971216423325
 10
0.754740011528404
 20
-0.9907269559132535
 10
0.7585815268553542
 20
-1.015826810125883
 10
0.7595844488699703
 20
-1.02487527089892
  0
LWPOLYLINE
  5
12C
330
104
100
AcDbEntity
  8
AM_9
100
AcDbPolyline
 90
        5
 70
     0
 43
0.0
 10
0.7069151899440108
 20
-0.9199999853815602
 10
0.7144071215982326
 20
-0.9209457989737194
 10
0.7252937074895107
 20
-0.9262971751384763
 10
0.7348223352117362
 20
-0.9361631378219599
 10
0.7356425865609324
 20
-0.9373169979426151
  0
LWPOLYLINE
  5
12D
330
104
100
AcDbEntity
  8
AM_9
100
AcDbPolyline
 90
       11
 70
     0
 43
0.0
 10
0.7069280945964489
 20
-1.269999993970839
 10
0.6964722496464415
 20
-1.268339685689123
 10
0.6832968485008653
 20
-1.26204779285652
 10
0.6699908516439589
 20
-1.251231583039331
 10
0.6570315545405419
 20
-1.236252021220185
 10
0.6447350494889053
 20
-1.21705779568896
 10
0.6339238256518072
 20
-1.194473093983744
 10
0.6250572631749455
 20
-1.168679876892702
 10
0.6187541351199856
 20
-1.140722393398741
 10
0.6159087773066796
 20
-1.118070873041342
 10
0.6149400559310539
 20
-1.09499999
  0
LWPOLYLINE
  5
12E
330
104
100
AcDbEntity
  8
AM_9
100
AcDbPolyline
 90
       11
 70
     0
 43
0.0
 10
0.4698264729825774
 20
1.09499999
 10
0.4714058779442291
 20
1.066687507043983
 10
0.4762214178818974
 20
1.038375024087966
 10
0.4836879103013872
 20
1.012468814884466
 10
0.493763644757061
 20
0.9881590802219005
 10
0.5056806549069117
 20
0.9668554141514509
 10
0.5192415668381035
 20
0.9485742868749919
 10
0.5333073872190597
 20
0.9345996597441569
 10
0.5478113071011863
 20
0.9249124833599126
 10
0.5609576731963692
 20
0.9204615022616254
 10
0.5664391104433786
 20
0.9199999851696344
  0
LWPOLYLINE
  5
12F
330
104
100
AcDbEntity
  8
AM_9
100
AcDbPolyline
 90
       11
 70
     0
 43
0.0
 10
0.4698264729825774
 20
-1.09499999
 10
0.4714058779442291
 20
-1.123312472956017
 10
0.4762214178818974
 20
-1.151624955912034
 10
0.4836879103013872
 20
-1.177531165115534
 10
0.493763644757061
 20
-1.2018408997781
 10
0.5056806549069117
 20
-1.223144565848549
 10
0.5192415668381035
 20
-1.241425693125008
 10
0.5333073872190597
 20
-1.255400320255843
 10
0.5478113071011864
 20
-1.265087496640087
 10
0.5609576731963694
 20
-1.269538477738375
 10
0.5664391104433786
 20
-1.269999994830366
  0
LINE
  5
130
330
104
100
AcDbEntity
  8
AM_9
100
AcDbLine
 10
0.625
 20
-1.375
 30
0.0
 11
0.625
 21
1.375
 31
0.0
  0
LINE
  5
131
330
104
100
AcDbEntity
  8
AM_9
100
AcDbLine
 10
-0.625
 20
1.375
 30
0.0
 11
-0.625
 21
-1.375
 31
0.0
  0
LWPOLYLINE
  5
132
330
104
100
AcDbEntity
  8
AM_9
100
AcDbPolyline
 90
        9
 70
     0
 43
0.0
 10
-0.075892020994067
 20
0.937312314833435
 10
-0.0784650944996728
 20
0.9385767478166294
 10
-0.1033095611556448
 20
0.953747958779815
 10
-0.125111222777447
 20
0.9726391151864713
 10
-0.1439795240089346
 20
0.9955268860162565
 10
-0.1585440287115954
 20
1.020913603194482
 10
-0.1689214716294018
 20
1.049277586601259
 10
-0.1734442915074992
 20
1.071717389340674
 10
-0.175000005
 20
1.09499999
  0
LWPOLYLINE
  5
133
330
104
100
AcDbEntity
  8
AM_9
100
AcDbPolyline
 90
        7
 70
     0
 43
0.0
 10
0.0750805538802146
 20
0.9369243366594548
 10
0.0627893273063932
 20
0.931652195015156
 10
0.0348377534492034
 20
0.9235026644097374
 10
0.0049925943855809
 20
0.9200712166340923
 10
-0.0235080743849614
 20
0.921586114578478
 10
-0.0521539385934478
 20
0.9279521871434796
 10
-0.075892020994067
 20
0.937312314833435
  0
LWPOLYLINE
  5
134
330
104
100
AcDbEntity
  8
AM_9
100
AcDbPolyline
 90
       27
 70
     0
 43
0.0
 10
-0.175000005
 20
1.09499999
 10
-0.1726559192425627
 20
1.123547061662531
 10
-0.1654244859383798
 20
1.152094133325062
 10
-0.15394265350871
 20
1.178226555354442
 10
-0.1379044363893158
 20
1.202737486602368
 10
-0.1182808147387951
 20
1.223975377631621
 10
-0.0947268739129514
 20
1.2421455679447
 10
-0.0688746030485631
 20
1.25587662225249
 10
-0.0401780130212538
 20
1.265325352232593
 10
-0.0116038888018717
 20
1.269614856247619
 10
0.018169764340438
 20
1.269054181026281
 10
0.0460727748703402
 20
1.263826235488511
 10
0.0734564914774144
 20
1.25383684217804
 10
0.0982729539841898
 20
1.239801330688618
 10
0.1210260989247946
 20
1.221402858357667
 10
0.1402836640584189
 20
1.19962071140998
 10
0.156066041593361
 20
1.174173169874117
 10
0.1670691481221657
 20
1.147085510979768
 10
0.1735340235359727
 20
1.117604069840075
 10
0.1748948209625324
 20
1.088933413495601
 10
0.1713810721134135
 20
1.059594766215126
 10
0.1634287199208377
 20
1.032421597123254
 10
0.1508250587305159
 20
1.006248632776933
 10
0.1343116225578497
 20
0.982815366294798
 10
0.1135998205025268
 20
0.9618831896636273
 10
0.089872905592081
 20
0.9448405327872192
 10
0.0750805538802146
 20
0.9369243366594548
  0
LWPOLYLINE
  5
135
330
104
100
AcDbEntity
  8
AM_9
100
AcDbPolyline
 90
       11
 70
     0
 43
0.0
 10
0.6149400559310539
 20
1.09499999
 10
0.6164742890070909
 20
1.123960384154178
 10
0.6209274548487117
 20
1.152094133325062
 10
0.6280812551265993
 20
1.178571341891893
 10
0.6375028151544326
 20
1.202737486602368
 10
0.6489314751917195
 20
1.224241373481735
 10
0.6616542845735668
 20
1.2421455679447
 10
0.6752535028110612
 20
1.256033199102874
 10
0.6890016505182085
 20
1.265325352232593
 10
0.702121214163616
 20
1.269624414311179
 10
0.7069151899440108
 20
1.26999999461844
  0
LINE
  5
136
330
104
100
AcDbEntity
  8
AM_9
100
AcDbLine
 10
0.7800000000000001
 20
0.58
 30
0.0
 11
0.7800000000000001
 21
1.375
 31
0.0
  0
LINE
  5
137
330
104
100
AcDbEntity
  8
AM_9
100
AcDbLine
 10
-0.7800000000000001
 20
1.375
 30
0.0
 11
-0.7800000000000001
 21
0.58
 31
0.0
  0
LWPOLYLINE
  5
138
330
104
100
AcDbEntity
  8
AM_9
100
AcDbPolyline
 90
       27
 70
     0
 43
0.0
 10
0.0759091439796907
 20
-0.9373205569395321
 10
0.0982729539841899
 20
-0.9501986493113816
 10
0.1210260989247946
 20
-0.9685971216423325
 10
0.1402836640584189
 20
-0.9903792685900198
 10
0.156066041593361
 20
-1.015826810125883
 10
0.1670691481221657
 20
-1.042914469020232
 10
0.1735340235359727
 20
-1.072395910159925
 10
0.1748948209625324
 20
-1.101066566504399
 10
0.1713810721134135
 20
-1.130405213784874
 10
0.1634287199208378
 20
-1.157578382876746
 10
0.1508250587305159
 20
-1.183751347223067
 10
0.1343116225578497
 20
-1.207184613705202
 10
0.1135998205025268
 20
-1.228116790336373
 10
0.0898729055920808
 20
-1.245159447212781
 10
0.0627893273063932
 20
-1.258347784984844
 10
0.0348377534492034
 20
-1.266497315590263
 10
0.004992594385581
 20
-1.269928763365908
 10
-0.0235080743849614
 20
-1.268413865421522
 10
-0.0521539385934478
 20
-1.26204779285652
 10
-0.0784650944996727
 20
-1.251423232183371
 10
-0.1033095611556448
 20
-1.236252021220185
 10
-0.1251112227774471
 20
-1.217360864813529
 10
-0.1439795240089346
 20
-1.194473093983744
 10
-0.1585440287115954
 20
-1.169086376805518
 10
-0.1689214716294018
 20
-1.140722393398741
 10
-0.1734442915074992
 20
-1.118282590659327
 10
-0.175000005
 20
-1.09499999
  0
LWPOLYLINE
  5
139
330
104
100
AcDbEntity
  8
AM_9
100
AcDbPolyline
 90
        8
 70
     0
 43
0.0
 10
-0.0754328002122645
 20
-0.9370921231847694
 10
-0.0688746030485632
 20
-0.9341233577475102
 10
-0.0401780130212537
 20
-0.924674627767407
 10
-0.0116038888018716
 20
-0.9203851237523811
 10
0.018169764340438
 20
-0.9209457989737194
 10
0.0460727748703402
 20
-0.9261737445114891
 10
0.0734564914774144
 20
-0.9361631378219599
 10
0.0759091439796907
 20
-0.9373205569395321
  0
LWPOLYLINE
  5
13A
330
104
100
AcDbEntity
  8
AM_9
100
AcDbPolyline
 90
        8
 70
     0
 43
0.0
 10
-0.175000005
 20
-1.09499999
 10
-0.1726559192425627
 20
-1.066452918337469
 10
-0.1654244859383798
 20
-1.037905846674937
 10
-0.15394265350871
 20
-1.011773424645558
 10
-0.1379044363893158
 20
-0.9872624933976324
 10
-0.1182808147387951
 20
-0.9660246023683793
 10
-0.0947268739129513
 20
-0.9478544120552997
 10
-0.0754328002122645
 20
-0.9370921231847694
  0
LWPOLYLINE
  5
13B
330
104
100
AcDbEntity
  8
AM_9
100
AcDbPolyline
 90
        5
 70
     0
 43
0.0
 10
0.6717640195771757
 20
-0.9370577615587753
 10
0.6752535028110611
 20
-0.9339667808971263
 10
0.6890016505182082
 20
-0.924674627767407
 10
0.7021212141636157
 20
-0.9203755656888207
 10
0.7069151899440108
 20
-0.9199999853815602
  0
LWPOLYLINE
  5
13C
330
104
100
AcDbEntity
  8
AM_9
100
AcDbPolyline
 90
        8
 70
     0
 43
0.0
 10
0.6149400559310539
 20
-1.09499999
 10
0.6164742890070909
 20
-1.066039595845822
 10
0.6209274548487117
 20
-1.037905846674937
 10
0.6280812551265993
 20
-1.011428638108108
 10
0.6375028151544326
 20
-0.9872624933976324
 10
0.6489314751917195
 20
-0.9657586065182651
 10
0.6616542845735669
 20
-0.9478544120552997
 10
0.6717640195771757
 20
-0.9370577615587753
  0
LINE
  5
13D
330
104
100
AcDbEntity
  8
AM_9
100
AcDbLine
 10
0.7800000000000001
 20
-1.375
 30
0.0
 11
0.7800000000000001
 21
-0.5799999999999998
 31
0.0
  0
LINE
  5
13E
330
104
100
AcDbEntity
  8
AM_9
100
AcDbLine
 10
-0.7800000000000001
 20
-0.5799999999999998
 30
0.0
 11
-0.7800000000000001
 21
-1.375
 31
0.0
  0
LINE
  5
13F
330
104
100
AcDbEntity
  8
AM_9
100
AcDbLine
 10
-1.155
 20
0.58
 30
0.0
 11
1.155
 21
0.58
 31
0.0
  0
LINE
  5
140
330
104
100
AcDbEntity
  8
AM_9
100
AcDbLine
 10
-1.155
 20
-0.5799999999999998
 30
0.0
 11
1.155
 21
-0.5799999999999998
 31
0.0
  0
LINE
  5
141
330
104
100
AcDbEntity
  8
AM_9
100
AcDbLine
 10
1.155
 20
-0.5799999999999998
 30
0.0
 11
1.155
 21
0.58
 31
0.0
  0
LINE
  5
142
330
104
100
AcDbEntity
  8
AM_9
100
AcDbLine
 10
-1.155
 20
0.58
 30
0.0
 11
-1.155
 21
-0.5799999999999998
 31
0.0
  0
LINE
  5
143
330
104
100
AcDbEntity
  8
AM_7
100
AcDbLine
 10
0.0
 20
-1.5125
 30
0.0
 11
0.0
 21
1.5125
 31
0.0
  0
ENDBLK
  5
107
330
104
100
AcDbEntity
  8
0
100
AcDbBlockEnd
  0
BLOCK
  5
146
330
144
100
AcDbEntity
  8
0
100
AcDbBlockBegin
  2
5_405015E_Inch_0_in_023001_4
 70
     2
 10
0.0
 20
0.0
 30
0.0
  3
5_405015E_Inch_0_in_023001_4
  1

  0
ATTDEF
  5
148
330
144
100
AcDbEntity
  8
AM_6
100
AcDbText
 10
6.045171671481429
 20
0.2187500000000001
 30
0.0
 40
0.5
  1
405015E -Inch
100
AcDbAttributeDefinition
  3

  2
NN
 70
     8
280
     0
  0
ATTDEF
  5
149
330
144
100
AcDbEntity
  8
AM_6
100
AcDbText
 10
6.045171671481429
 20
-0.2812499999999999
 30
0.0
 40
0.5
  1
Grease Fitting
100
AcDbAttributeDefinition
  3

  2
NT
 70
     8
280
     0
  0
ATTDEF
  5
14A
330
144
100
AcDbEntity
  8
AM_6
100
AcDbText
 10
6.045171671481429
 20
-0.78125
 30
0.0
 40
0.5
  1
405015E-Inch
100
AcDbAttributeDefinition
  3

  2
NB
 70
     8
280
     0
  0
ATTDEF
  5
14B
330
144
100
AcDbEntity
  8
AM_6
100
AcDbText
 10
6.045171671481429
 20
-1.28125
 30
0.0
 40
0.5
  1
$MN.-Inch
100
AcDbAttributeDefinition
  3

  2
NBSYN
 70
     8
280
     0
  0
ATTDEF
  5
14C
330
144
100
AcDbEntity
  8
AM_6
100
AcDbText
 10
6.045171671481429
 20
-1.78125
 30
0.0
 40
0.5
  1
405015E
100
AcDbAttributeDefinition
  3

  2
LINA
 70
     8
280
     0
  0
ATTDEF
  5
14D
330
144
100
AcDbEntity
  8
AM_6
100
AcDbText
 10
6.045171671481429
 20
-2.28125
 30
0.0
 40
0.5
  1
405015E
100
AcDbAttributeDefinition
  3

  2
MN
 70
     8
280
     0
  0
ATTDEF
  5
14E
330
144
100
AcDbEntity
  8
AM_6
100
AcDbText
 10
6.045171671481429
 20
-2.78125
 30
0.0
 40
0.5
  1
1/8 x 27PTF
100
AcDbAttributeDefinition
  3

  2
T
 70
     8
280
     0
  0
ATTDEF
  5
14F
330
144
100
AcDbEntity
  8
AM_6
100
AcDbText
 10
6.045171671481429
 20
-3.28125
 30
0.0
 40
0.5
  1
baldor
100
AcDbAttributeDefinition
  3

  2
COMPANY
 70
     8
280
     0
  0
ELLIPSE
  5
150
330
144
100
AcDbEntity
  8
AM_9
100
AcDbEllipse
 10
0.6362500000000002
 20
0.0000000000000001
 30
0.0
 11
9.913691727296317E-18
 21
0.161902872472269
 31
0.0
210
0.0
220
0.0
230
1.0
 40
0.8660254037844383
 41
0.0
 42
6.283185307179586
  0
LINE
  5
151
330
144
100
AcDbEntity
  8
AM_9
100
AcDbLine
 10
0.9531040537124988
 20
-0.0700419281277986
 30
0.0
 11
0.9328125000000002
 21
-0.1093749999999999
 31
0.0
  0
LINE
  5
152
330
144
100
AcDbEntity
  8
AM_9
100
AcDbLine
 10
0.9920337998483073
 20
0.0000000000000001
 30
0.0
 11
0.9690535159809684
 21
-0.0406325682705833
 31
0.0
  0
LINE
  5
153
330
144
100
AcDbEntity
  8
AM_9
100
AcDbLine
 10
0.9686495752434392
 20
0.0413636554562486
 30
0.0
 11
0.9920337998483073
 21
0.0000000000000001
 31
0.0
  0
LINE
  5
154
330
144
100
AcDbEntity
  8
AM_9
100
AcDbLine
 10
0.9328125000000002
 20
0.1093750000000001
 30
0.0
 11
0.954454701174222
 21
0.0675051131359443
 31
0.0
  0
LWPOLYLINE
  5
155
330
144
100
AcDbEntity
  8
AM_9
100
AcDbPolyline
 90
        3
 70
     0
 43
0.0
 10
0.9828125000000002
 20
-0.1093749999999999
 10
1.008959559607483
 20
-0.0546874999999999
 10
1.032966200151693
 20
0.0000000000000001
  0
LWPOLYLINE
  5
156
330
144
100
AcDbEntity
  8
AM_9
100
AcDbPolyline
 90
        3
 70
     0
 43
0.0
 10
1.032966200151693
 20
0.0000000000000001
 10
1.009071932388115
 20
0.0544416102741497
 10
0.9828125000000002
 20
0.109375
  0
LWPOLYLINE
  5
157
330
144
100
AcDbEntity
  8
AM_9
100
AcDbPolyline
 90
        3
 70
     0
 43
0.0
 10
0.9328125000000002
 20
-0.1093749999999999
 10
0.9066654403925176
 20
-0.1640624999999999
 10
0.8826587998483074
 20
-0.2187499999999999
  0
LWPOLYLINE
  5
158
330
144
100
AcDbEntity
  8
AM_9
100
AcDbPolyline
 90
        3
 70
     0
 43
0.0
 10
0.8826587998483074
 20
0.2187500000000001
 10
0.906553067611885
 20
0.1643083897258505
 10
0.9328125000000002
 20
0.1093750000000001
  0
LINE
  5
159
330
144
100
AcDbEntity
  8
AM_9
100
AcDbLine
 10
1.032966200151693
 20
0.0000000000000001
 30
0.0
 11
0.9920337998483073
 21
0.0000000000000001
 31
0.0
  0
LINE
  5
15A
330
144
100
AcDbEntity
  8
AM_9
100
AcDbLine
 10
0.6452967106261549
 20
-0.1983264404626879
 30
0.0
 11
0.7591048978322905
 21
-0.2054502516015134
 31
0.0
  0
LINE
  5
15B
330
144
100
AcDbEntity
  8
AM_9
100
AcDbLine
 10
0.7591048978322904
 20
0.2054502516015135
 30
0.0
 11
0.6452967106261549
 21
0.198326440462688
 31
0.0
  0
ELLIPSE
  5
15C
330
144
100
AcDbEntity
  8
AM_9
100
AcDbEllipse
 10
0.8187500000005947
 20
0.0000000000002819
 30
0.0
 11
-4.018372309692003E-17
 21
-0.2187499999994421
 31
0.0
210
0.0
220
0.0
230
1.0
 40
0.8660254037837316
 41
1.032970329612639
 42
2.108622323974941
  0
ELLIPSE
  5
15D
330
144
100
AcDbEntity
  8
AM_9
100
AcDbEllipse
 10
0.8187500000000005
 20
-0.0000000000000005
 30
0.0
 11
-3.926523799766189E-17
 21
-0.2137499999999994
 31
0.0
210
0.0
220
0.0
230
1.0
 40
0.8660254037844395
 41
0.9862868522353345
 42
2.155305801354463
  0
ELLIPSE
  5
15E
330
144
100
AcDbEntity
  8
AM_9
100
AcDbEllipse
 10
0.8279090992704415
 20
0.0000000000000001
 30
0.0
 11
-3.169399141454458E-17
 21
-0.1725340532830155
 31
0.0
210
0.0
220
0.0
230
1.0
 40
0.8660254037844364
 41
0.6732704101474907
 42
2.468322243442303
  0
LINE
  5
15F
330
144
100
AcDbEntity
  8
AM_9
100
AcDbLine
 10
0.9387500000000002
 20
0.0703562363973517
 30
0.0
 11
0.9315109048531491
 21
0.0796165180238021
 31
0.0
  0
LINE
  5
160
330
144
100
AcDbEntity
  8
AM_9
100
AcDbLine
 10
0.9315109048531491
 20
-0.0796165180238019
 30
0.0
 11
0.9387500000000002
 21
-0.0703562363973514
 31
0.0
  0
ELLIPSE
  5
161
330
144
100
AcDbEntity
  8
AM_9
100
AcDbEllipse
 10
0.8551265608092866
 20
-0.0000000000000009
 30
0.0
 11
-2.182689656893335E-17
 21
-0.1188200907348965
 31
0.0
210
0.0
220
0.0
230
1.0
 40
0.8660254037844412
 41
0.0521714424106099
 42
3.089421211179188
  0
LINE
  5
162
330
144
100
AcDbEntity
  8
AM_9
100
AcDbLine
 10
0.8712500000000003
 20
-0.1049999999999999
 30
0.0
 11
0.8862500000000003
 21
-0.1049999999999999
 31
0.0
  0
LINE
  5
163
330
144
100
AcDbEntity
  8
AM_9
100
AcDbLine
 10
0.8862500000000003
 20
0.1050000000000001
 30
0.0
 11
0.8712500000000002
 21
0.1050000000000001
 31
0.0
  0
ELLIPSE
  5
164
330
144
100
AcDbEntity
  8
AM_9
100
AcDbEllipse
 10
0.8862499999999998
 20
0.0000000000000007
 30
0.0
 11
-1.928818708657071E-17
 21
-0.1049999999999994
 31
0.0
210
0.0
220
0.0
230
1.0
 40
0.866025403784438
 41
5.235987755982997
 42
10.47197551196598
  0
ELLIPSE
  5
165
330
144
100
AcDbEntity
  8
AM_9
100
AcDbEllipse
 10
0.8712500000000006
 20
0.0
 30
0.0
 11
-1.928818708657080E-17
 21
-0.1049999999999999
 31
0.0
210
0.0
220
0.0
230
1.0
 40
0.866025403784438
 41
5.85810598127111
 42
9.849857286677857
  0
ELLIPSE
  5
166
330
144
100
AcDbEntity
  8
AM_9
100
AcDbEllipse
 10
0.9162500000000007
 20
0.0000000000000004
 30
0.0
 11
-2.479909768273376E-17
 21
-0.1349999999999992
 31
0.0
210
0.0
220
0.0
230
1.0
 40
0.8660254037844395
 41
0.7751090107151173
 42
2.366483642874673
  0
ELLIPSE
  5
167
330
144
100
AcDbEntity
  8
AM_9
100
AcDbEllipse
 10
0.7687500000000003
 20
0.0
 30
0.0
 11
-3.779601035290914E-17
 21
-0.2057518972230698
 31
0.0
210
0.0
220
0.0
230
1.0
 40
0.8660254037844378
 41
0.0
 42
6.283185307179586
  0
ELLIPSE
  5
168
330
144
100
AcDbEntity
  8
AM_9
100
AcDbEllipse
 10
0.6546073771544736
 20
0.0
 30
0.0
 11
-3.648546613377887E-17
 21
-0.1986176267812154
 31
0.0
210
0.0
220
0.0
230
1.0
 40
0.8660254037844378
 41
0.0
 42
6.283185307179586
  0
ELLIPSE
  5
169
330
144
100
AcDbEntity
  8
AM_9
100
AcDbEllipse
 10
0.7687499999999999
 20
0.0000000000000001
 30
0.0
 11
-4.018372309702251E-17
 21
-0.2187499999999999
 31
0.0
210
0.0
220
0.0
230
1.0
 40
0.8660254037844375
 41
0.0
 42
6.283185307179586
  0
LWPOLYLINE
  5
16A
330
144
100
AcDbEntity
  8
AM_4
100
AcDbPolyline
 90
        3
 70
     0
 43
0.0
 10
0.9235912001516929
 20
-0.2187499999999999
 10
0.954138542662265
 20
-0.1643083897258503
 10
0.9828125000000002
 20
-0.1093749999999999
  0
LWPOLYLINE
  5
16B
330
144
100
AcDbEntity
  8
AM_4
100
AcDbPolyline
 90
        3
 70
     0
 43
0.0
 10
0.9828125000000002
 20
0.109375
 10
0.954272059607483
 20
0.1640625
 10
0.9235912001516929
 20
0.2187500000000001
  0
ELLIPSE
  5
16C
330
144
100
AcDbEntity
  8
AM_4
100
AcDbEllipse
 10
0.8187500000000004
 20
-0.0000000000000001
 30
0.0
 11
-4.018372309702254E-17
 21
-0.2187500000000001
 31
0.0
210
0.0
220
0.0
230
1.0
 40
0.866025403784438
 41
2.108622323974799
 42
7.316155636794581
  0
ELLIPSE
  5
16D
330
144
100
AcDbEntity
  8
AM_4
100
AcDbEllipse
 10
0.8187500000000002
 20
-0.0000000000000002
 30
0.0
 11
-3.926523799766203E-17
 21
-0.2137500000000001
 31
0.0
210
0.0
220
0.0
230
1.0
 40
0.866025403784438
 41
2.155305801354461
 42
7.269472159414923
  0
LWPOLYLINE
  5
16E
330
144
100
AcDbEntity
  8
AM_4
100
AcDbPolyline
 90
        3
 70
     0
 43
0.0
 10
0.704841200151693
 20
0.2187500000000001
 10
0.6809469323881155
 20
0.1643083897258504
 10
0.6546875000000003
 20
0.109375
  0
LINE
  5
16F
330
144
100
AcDbEntity
  8
AM_4
100
AcDbLine
 10
0.9235912001516929
 20
0.2187500000000001
 30
0.0
 11
0.6639087998483075
 21
0.2187500000000001
 31
0.0
  0
LWPOLYLINE
  5
170
330
144
100
AcDbEntity
  8
AM_4
100
AcDbPolyline
 90
        3
 70
     0
 43
0.0
 10
0.6046875000000003
 20
0.1093750000000001
 10
0.6332279403925175
 20
0.1640625
 10
0.6639087998483075
 20
0.2187500000000001
  0
LWPOLYLINE
  5
171
330
144
100
AcDbEntity
  8
AM_4
100
AcDbPolyline
 90
        3
 70
     0
 43
0.0
 10
0.5545337998483075
 20
0.0000000000000001
 10
0.578428067611885
 20
0.0544416102741497
 10
0.6046875000000003
 20
0.1093750000000001
  0
LINE
  5
172
330
144
100
AcDbEntity
  8
AM_4
100
AcDbLine
 10
0.9235912001516929
 20
-0.2187499999999999
 30
0.0
 11
0.6639087998483075
 21
-0.2187499999999999
 31
0.0
  0
LWPOLYLINE
  5
173
330
144
100
AcDbEntity
  8
AM_4
100
AcDbPolyline
 90
        3
 70
     0
 43
0.0
 10
0.6546875000000003
 20
-0.1093749999999999
 10
0.680834559607483
 20
-0.1640624999999999
 10
0.704841200151693
 20
-0.2187499999999999
  0
LINE
  5
174
330
144
100
AcDbEntity
  8
AM_4
100
AcDbLine
 10
0.5954662001516932
 20
0.0000000000000001
 30
0.0
 11
0.5545337998483075
 21
0.0000000000000001
 31
0.0
  0
LWPOLYLINE
  5
175
330
144
100
AcDbEntity
  8
AM_4
100
AcDbPolyline
 90
        3
 70
     0
 43
0.0
 10
0.6046875000000003
 20
-0.1093749999999999
 10
0.5785404403925176
 20
-0.0546874999999999
 10
0.5545337998483075
 20
0.0000000000000001
  0
LWPOLYLINE
  5
176
330
144
100
AcDbEntity
  8
AM_4
100
AcDbPolyline
 90
        3
 70
     0
 43
0.0
 10
0.6639087998483075
 20
-0.2187499999999999
 10
0.6333614573377354
 20
-0.1643083897258503
 10
0.6046875000000003
 20
-0.1093749999999999
  0
LWPOLYLINE
  5
177
330
144
100
AcDbEntity
  8
AM_4
100
AcDbPolyline
 90
        3
 70
     0
 43
0.0
 10
0.6546875000000003
 20
0.109375
 10
0.626147059607483
 20
0.0546875
 10
0.5954662001516932
 20
0.0000000000000001
  0
LWPOLYLINE
  5
178
330
144
100
AcDbEntity
  8
AM_4
100
AcDbPolyline
 90
        3
 70
     0
 43
0.0
 10
0.5954662001516932
 20
0.0000000000000001
 10
0.6260135426622652
 20
-0.0544416102741495
 10
0.6546875000000003
 20
-0.1093749999999999
  0
ELLIPSE
  5
179
330
144
100
AcDbEntity
  8
AM_4
100
AcDbEllipse
 10
0.8279090992704413
 20
0.0000000000000001
 30
0.0
 11
-3.169399141454458E-17
 21
-0.1725340532830155
 31
0.0
210
0.0
220
0.0
230
1.0
 40
0.8660254037844385
 41
2.468322243442303
 42
6.956455717327078
  0
ELLIPSE
  5
17A
330
144
100
AcDbEntity
  8
AM_4
100
AcDbEllipse
 10
0.8551265608092863
 20
0.0000000000000001
 30
0.0
 11
-2.182689656893354E-17
 21
-0.1188200907348975
 31
0.0
210
0.0
220
0.0
230
1.0
 40
0.8660254037844282
 41
3.089421211179179
 42
6.335356749590201
  0
ELLIPSE
  5
17B
330
144
100
AcDbEntity
  8
AM_4
100
AcDbEllipse
 10
0.8712500000000003
 20
0.0000000000000001
 30
0.0
 11
-1.928818708657083E-17
 21
-0.1050000000000001
 31
0.0
210
0.0
220
0.0
230
1.0
 40
0.8660254037844378
 41
3.566671979498267
 42
5.858105981271111
  0
LINE
  5
17C
330
144
100
AcDbEntity
  8
AM_4
100
AcDbLine
 10
0.8075000000000003
 20
-0.0525
 30
0.0
 11
0.8150000000000003
 21
-0.0675
 31
0.0
  0
LINE
  5
17D
330
144
100
AcDbEntity
  8
AM_4
100
AcDbLine
 10
0.8150000000000003
 20
0.0675000000000002
 30
0.0
 11
0.8075000000000003
 21
0.0525000000000001
 31
0.0
  0
ELLIPSE
  5
17E
330
144
100
AcDbEntity
  8
AM_4
100
AcDbEllipse
 10
0.9162500000000001
 20
0.0000000000000001
 30
0.0
 11
-2.479909768273403E-17
 21
-0.1350000000000007
 31
0.0
210
0.0
220
0.0
230
1.0
 40
0.8660254037844327
 41
2.366483642874668
 42
7.058294317894712
  0
ELLIPSE
  5
17F
330
144
100
AcDbEntity
  8
AM_4
100
AcDbEllipse
 10
0.8862499999999999
 20
0.0000000000000001
 30
0.0
 11
-1.928818708657078E-17
 21
-0.1049999999999998
 31
0.0
210
0.0
220
0.0
230
1.0
 40
0.8660254037844356
 41
4.18879020478639
 42
5.235987755982991
  0
LINE
  5
180
330
144
100
AcDbEntity
  8
AM_4
100
AcDbLine
 10
1.018476847792107
 20
0.0733474205218688
 30
0.0
 11
0.9980653107316195
 21
0.0964365416902992
 31
0.0
  0
LINE
  5
181
330
144
100
AcDbEntity
  8
AM_4
100
AcDbLine
 10
0.9980653107316195
 20
-0.096436541690299
 30
0.0
 11
1.018476847792107
 21
-0.0733474205218686
 31
0.0
  0
ELLIPSE
  5
182
330
144
100
AcDbEntity
  8
AM_4
100
AcDbEllipse
 10
0.9562499999999994
 20
-0.0000000000000002
 30
0.0
 11
-1.886162459184669E-17
 21
-0.1026779019331881
 31
0.0
210
0.0
220
0.0
230
1.0
 40
0.8660254037844438
 41
0.0
 42
6.283185307179586
  0
ENDBLK
  5
147
330
144
100
AcDbEntity
  8
0
100
AcDbBlockEnd
  0
BLOCK
  5
185
330
183
100
AcDbEntity
  8
0
100
AcDbBlockBegin
  2
6_023001H_0_in_023001_4
 70
     2
 10
0.0
 20
0.0
 30
0.0
  3
6_023001H_0_in_023001_4
  1

  0
ATTDEF
  5
187
330
183
100
AcDbEntity
  8
AM_6
100
AcDbText
 10
8.0
 20
0.9375000000000002
 30
0.0
 40
0.5
  1
P2B-E-Housing
100
AcDbAttributeDefinition
  3

  2
NN
 70
     8
280
     0
  0
ATTDEF
  5
188
330
183
100
AcDbEntity
  8
AM_6
100
AcDbText
 10
8.0
 20
0.4375000000000002
 30
0.0
 40
0.5
  1
Type E Pillow Block -Inch (2-Bolt Base)
100
AcDbAttributeDefinition
  3

  2
NT
 70
     8
280
     0
  0
ATTDEF
  5
189
330
183
100
AcDbEntity
  8
AM_6
100
AcDbText
 10
8.0
 20
-0.0624999999999998
 30
0.0
 40
0.5
  1
023001H
100
AcDbAttributeDefinition
  3

  2
NB
 70
     8
280
     0
  0
ATTDEF
  5
18A
330
183
100
AcDbEntity
  8
AM_6
100
AcDbText
 10
8.0
 20
-0.5624999999999998
 30
0.0
 40
0.5
  1
$PN.H
100
AcDbAttributeDefinition
  3

  2
NBSYN
 70
     8
280
     0
  0
ATTDEF
  5
18B
330
183
100
AcDbEntity
  8
AM_6
100
AcDbText
 10
8.0
 20
-1.0625
 30
0.0
 40
0.5
  1
023001
100
AcDbAttributeDefinition
  3

  2
LINA
 70
     8
280
     0
  0
ATTDEF
  5
18C
330
183
100
AcDbEntity
  8
AM_6
100
AcDbText
 10
8.0
 20
-1.5625
 30
0.0
 40
0.5
  1
1-1/4
100
AcDbAttributeDefinition
  3

  2
SS
 70
     8
280
     0
  0
ATTDEF
  5
18D
330
183
100
AcDbEntity
  8
AM_6
100
AcDbText
 10
8.0
 20
-2.0625
 30
0.0
 40
0.5
  1
2.31
100
AcDbAttributeDefinition
  3

  2
BORE
 70
     8
280
     0
  0
ATTDEF
  5
18E
330
183
100
AcDbEntity
  8
AM_6
100
AcDbText
 10
8.0
 20
-2.5625
 30
0.0
 40
0.5
  1
023001
100
AcDbAttributeDefinition
  3

  2
PN
 70
     8
280
     0
  0
ATTDEF
  5
18F
330
183
100
AcDbEntity
  8
AM_6
100
AcDbText
 10
8.0
 20
-3.0625
 30
0.0
 40
0.5
  1
P2B-E-104R
100
AcDbAttributeDefinition
  3

  2
DESCRIPTION
 70
     8
280
     0
  0
ATTDEF
  5
190
330
183
100
AcDbEntity
  8
AM_6
100
AcDbText
 10
8.0
 20
-3.5625
 30
0.0
 40
0.5
  1
2-3/4
100
AcDbAttributeDefinition
  3

  2
A
 70
     8
280
     0
  0
ATTDEF
  5
191
330
183
100
AcDbEntity
  8
AM_6
100
AcDbText
 10
8.0
 20
-4.0625
 30
0.0
 40
0.5
  1
6
100
AcDbAttributeDefinition
  3

  2
B
 70
     8
280
     0
  0
ATTDEF
  5
192
330
183
100
AcDbEntity
  8
AM_6
100
AcDbText
 10
8.0
 20
-4.5625
 30
0.0
 40
0.5
  1
1-7/8
100
AcDbAttributeDefinition
  3

  2
C
 70
     8
280
     0
  0
ATTDEF
  5
193
330
183
100
AcDbEntity
  8
AM_6
100
AcDbText
 10
8.0
 20
-5.0625
 30
0.0
 40
0.5
  1
4-3/4
100
AcDbAttributeDefinition
  3

  2
DMIN
 70
     8
280
     0
  0
ATTDEF
  5
194
330
183
100
AcDbEntity
  8
AM_6
100
AcDbText
 10
8.0
 20
-5.5625
 30
0.0
 40
0.5
  1
4-13/16
100
AcDbAttributeDefinition
  3

  2
DMAX
 70
     8
280
     0
  0
ATTDEF
  5
195
330
183
100
AcDbEntity
  8
AM_6
100
AcDbText
 10
8.0
 20
-6.0625
 30
0.0
 40
0.5
  1
3/8
100
AcDbAttributeDefinition
  3

  2
F
 70
     8
280
     0
  0
ATTDEF
  5
196
330
183
100
AcDbEntity
  8
AM_6
100
AcDbText
 10
8.0
 20
-6.5625
 30
0.0
 40
0.5
  1
0.3750000
100
AcDbAttributeDefinition
  3

  2
F1
 70
     8
280
     0
  0
ATTDEF
  5
197
330
183
100
AcDbEntity
  8
AM_6
100
AcDbText
 10
8.0
 20
-7.0625
 30
0.0
 40
0.5
  1
19/32
100
AcDbAttributeDefinition
  3

  2
G
 70
     8
280
     0
  0
ATTDEF
  5
198
330
183
100
AcDbEntity
  8
AM_6
100
AcDbText
 10
8.0
 20
-7.5625
 30
0.0
 40
0.5
  1
7/8
100
AcDbAttributeDefinition
  3

  2
H
 70
     8
280
     0
  0
ATTDEF
  5
199
330
183
100
AcDbEntity
  8
AM_6
100
AcDbText
 10
8.0
 20
-8.0625
 30
0.0
 40
0.5
  1
3
100
AcDbAttributeDefinition
  3

  2
J
 70
     8
280
     0
  0
ATTDEF
  5
19A
330
183
100
AcDbEntity
  8
AM_6
100
AcDbText
 10
8.0
 20
-8.5625
 30
0.0
 40
0.5
  1
3-9/32
100
AcDbAttributeDefinition
  3

  2
J1
 70
     8
280
     0
  0
ATTDEF
  5
19B
330
183
100
AcDbEntity
  8
AM_6
100
AcDbText
 10
8.0
 20
-9.0625
 30
0.0
 40
0.5
  1
2-1/4
100
AcDbAttributeDefinition
  3

  2
L
 70
     8
280
     0
  0
ATTDEF
  5
19C
330
183
100
AcDbEntity
  8
AM_6
100
AcDbText
 10
8.0
 20
-9.5625
 30
0.0
 40
0.5
  1
1-1/2
100
AcDbAttributeDefinition
  3

  2
M
 70
     8
280
     0
  0
ATTDEF
  5
19D
330
183
100
AcDbEntity
  8
AM_6
100
AcDbText
 10
8.0
 20
-10.0625
 30
0.0
 40
0.5
  1
baldor
100
AcDbAttributeDefinition
  3

  2
COMPANY
 70
     8
280
     0
  0
LINE
  5
19E
330
183
100
AcDbEntity
  8
AM_9
100
AcDbLine
 10
1.155
 20
-0.9375
 30
0.0
 11
1.155
 21
0.9375000000000002
 31
0.0
  0
LINE
  5
19F
330
183
100
AcDbEntity
  8
AM_9
100
AcDbLine
 10
-1.155
 20
0.9375000000000002
 30
0.0
 11
-1.155
 21
-0.9375
 31
0.0
  0
LWPOLYLINE
  5
1A0
330
183
100
AcDbEntity
  8
AM_9
100
AcDbPolyline
 90
        7
 70
     0
 43
0.0
 10
1.095817789088222
 20
0.2432186255323417
 10
1.077791363306503
 20
0.283573731227556
 10
1.053626682349996
 20
0.3264934074002236
 10
1.025849390271812
 20
0.3654619409550108
 10
0.9915317362529695
 20
0.4029674036813963
 10
0.9530984007688883
 20
0.4350881965578097
 10
0.9111053490283634
 20
0.461146689782971
  0
LWPOLYLINE
  5
1A1
330
183
100
AcDbEntity
  8
AM_9
100
AcDbPolyline
 90
       12
 70
     0
 43
0.0
 10
1.095564791969308
 20
-0.2438540931897784
 10
1.097927762350315
 20
-0.2378273660861102
 10
1.115052849299379
 20
-0.1861761260594642
 10
1.127849555190967
 20
-0.1317534817674628
 10
1.136146433588134
 20
-0.0756417854303464
 10
1.13979005821095
 20
-0.0210481827946315
 10
1.139296993636457
 20
0.0340118045184478
 10
1.13467415970046
 20
0.0884328497421497
 10
1.126253408962703
 20
0.139908889941082
 10
1.114015333898335
 20
0.1898391270746102
 10
1.098098403129676
 20
0.2373840143479164
 10
1.095817789088222
 20
0.2432186255323417
  0
LWPOLYLINE
  5
1A2
330
183
100
AcDbEntity
  8
AM_9
100
AcDbPolyline
 90
        7
 70
     0
 43
0.0
 10
0.9111053490288592
 20
-0.4611466897827456
 10
0.9514323613290732
 20
-0.4362940709165177
 10
0.9884950041971287
 20
-0.4058579526447977
 10
1.021797244625579
 20
-0.3704315498029258
 10
1.051173135553368
 20
-0.3303105813324712
 10
1.076643455095172
 20
-0.2858539232641852
 10
1.095564791969308
 20
-0.2438540931897784
  0
LINE
  5
1A3
330
183
100
AcDbEntity
  8
AM_9
100
AcDbLine
 10
0.8633335349344246
 20
-0.481176214645552
 30
0.0
 11
0.8559202137278763
 21
-0.4834898718502501
 31
0.0
  0
LWPOLYLINE
  5
1A4
330
183
100
AcDbEntity
  8
AM_9
100
AcDbPolyline
 90
        4
 70
     0
 43
0.0
 10
0.9111053490287777
 20
-0.4611466897827569
 10
0.9096499419772627
 20
-0.4619029509202874
 10
0.8840455508365829
 20
-0.4736395248281186
 10
0.8633335349344246
 20
-0.481176214645552
  0
ELLIPSE
  5
1A5
330
183
100
AcDbEntity
  8
AM_9
100
AcDbEllipse
 10
0.7437499999156252
 20
0.0
 30
0.0
 11
-9.184851360999188E-17
 21
-0.50000002
 31
0.0
210
0.0
220
0.0
230
1.0
 40
0.8660254037843608
 41
0.3968234735940026
 42
2.744769179997022
  0
LWPOLYLINE
  5
1A6
330
183
100
AcDbEntity
  8
AM_9
100
AcDbPolyline
 90
        3
 70
     0
 43
0.0
 10
0.8748308679199702
 20
0.4771952162816148
 10
0.875386387648394
 20
0.476990334617149
 10
0.9111053490283635
 20
0.461146689782971
  0
LINE
  5
1A7
330
183
100
AcDbEntity
  8
AM_9
100
AcDbLine
 10
0.8562123276108411
 20
0.4834023398718055
 30
0.0
 11
0.8748308679199702
 21
0.4771952162816148
 31
0.0
  0
LINE
  5
1A8
330
183
100
AcDbEntity
  8
AM_7
100
AcDbLine
 10
2.375
 20
-0.2953125000000001
 30
0.0
 11
2.375
 21
0.2953124999999999
 31
0.0
  0
LINE
  5
1A9
330
183
100
AcDbEntity
  8
AM_7
100
AcDbLine
 10
-2.40625
 20
-0.2953125000000006
 30
0.0
 11
-2.40625
 21
0.2953125000000004
 31
0.0
  0
LINE
  5
1AA
330
183
100
AcDbEntity
  8
AM_7
100
AcDbLine
 10
2.40625
 20
-0.2953125
 30
0.0
 11
2.40625
 21
0.2953125000000001
 31
0.0
  0
LINE
  5
1AB
330
183
100
AcDbEntity
  8
AM_7
100
AcDbLine
 10
-2.948437501321875
 20
-0.0000000000000001
 30
0.0
 11
-1.964062501321874
 21
-0.0000000000000001
 31
0.0
  0
LINE
  5
1AC
330
183
100
AcDbEntity
  8
AM_7
100
AcDbLine
 10
-2.456250001321875
 20
-0.4921875000000007
 30
0.0
 11
-2.456250001321875
 21
0.4921875000000003
 31
0.0
  0
LINE
  5
1AD
330
183
100
AcDbEntity
  8
AM_7
100
AcDbLine
 10
1.964062501321874
 20
0.0000000000000002
 30
0.0
 11
2.948437501321875
 21
0.0000000000000002
 31
0.0
  0
LINE
  5
1AE
330
183
100
AcDbEntity
  8
AM_7
100
AcDbLine
 10
2.456250001321875
 20
-0.4921875000000003
 30
0.0
 11
2.456250001321875
 21
0.4921875000000007
 31
0.0
  0
LINE
  5
1AF
330
183
100
AcDbEntity
  8
AM_7
100
AcDbLine
 10
-2.375
 20
-0.2953124999999996
 30
0.0
 11
-2.375
 21
0.2953124999999994
 31
0.0
  0
LWPOLYLINE
  5
1B0
330
183
100
AcDbEntity
  8
AM_4
100
AcDbPolyline
 90
       17
 70
     0
 43
0.0
 10
-2.930389736264968
 20
0.9343388273081058
 10
-2.938193213809172
 20
0.931890192826778
 10
-2.945753584208447
 20
0.9287707582575347
 10
-2.953013308478981
 20
0.9250042643810141
 10
-2.959917135735531
 20
0.9206193764898879
 10
-2.966412523684031
 20
0.9156494662286752
 10
-2.972450038500172
 20
0.9101323576153774
 10
-2.977983731050649
 20
0.9041100391778631
 10
-2.98297148659382
 20
0.8976283443958174
 10
-2.987375345298312
 20
0.8907366028802854
 10
-2.991161791140261
 20
0.8834872649455482
 10
-2.994302006980492
 20
0.8759355024305587
 10
-2.996772093880345
 20
0.8681387888079349
 10
-2.998553252987034
 20
0.8601564617761295
 10
-2.999631928604264
 20
0.8520492716637151
 10
-2.999999911359265
 20
0.8438789190827027
 10
-3.0
 20
0.8437500006984924
  0
LWPOLYLINE
  5
1B1
330
183
100
AcDbEntity
  8
AM_4
100
AcDbPolyline
 90
       17
 70
     0
 43
0.0
 10
-3.0
 20
-0.8437499993015086
 10
-2.999643253006979
 20
-0.8519208501867597
 10
-2.998575726966187
 20
-0.8600295159683949
 10
-2.996805546395383
 20
-0.8680142848036704
 10
-2.994346183437577
 20
-0.8758143877804141
 10
-2.991216355329881
 20
-0.8833704614051422
 10
-2.987439881954038
 20
-0.8906249993950884
 10
-2.983045504552732
 20
-0.8975227903357396
 10
-2.978066666991386
 20
-0.9040113378730373
 10
-2.972541261230148
 20
-0.9100412602423306
 10
-2.96651133894319
 20
-0.9155666660934222
 10
-2.960022791480082
 20
-0.9205455037514545
 10
-2.953125000604912
 20
-0.9249398812555452
 10
-2.94587046267124
 20
-0.9287163547394904
 10
-2.93831438909315
 20
-0.9318461829597806
 10
-2.930514286153054
 20
-0.9343055460338172
 10
-2.930389736264968
 20
-0.934338827308106
  0
LINE
  5
1B2
330
183
100
AcDbEntity
  8
AM_4
100
AcDbLine
 10
-3.0
 20
-0.8437499986030172
 30
0.0
 11
-3.0
 21
0.8437500013969846
 31
0.0
  0
LWPOLYLINE
  5
1B3
330
183
100
AcDbEntity
  8
AM_4
100
AcDbPolyline
 90
       17
 70
     0
 43
0.0
 10
2.930389736264967
 20
-0.9343388273081062
 10
2.93819321380917
 20
-0.9318901928267784
 10
2.945753584208446
 20
-0.9287707582575353
 10
2.953013308478979
 20
-0.925004264381015
 10
2.95991713573553
 20
-0.9206193764898889
 10
2.96641252368403
 20
-0.9156494662286762
 10
2.97245003850017
 20
-0.9101323576153785
 10
2.977983731050648
 20
-0.9041100391778644
 10
2.982971486593819
 20
-0.8976283443958187
 10
2.987375345298311
 20
-0.890736602880287
 10
2.99116179114026
 20
-0.8834872649455497
 10
2.994302006980491
 20
-0.8759355024305602
 10
2.996772093880344
 20
-0.8681387888079366
 10
2.998553252987033
 20
-0.8601564617761311
 10
2.999631928604264
 20
-0.8520492716637168
 10
2.999999911359265
 20
-0.8438789190827045
 10
3.0
 20
-0.8437499986030172
  0
LWPOLYLINE
  5
1B4
330
183
100
AcDbEntity
  8
AM_4
100
AcDbPolyline
 90
       17
 70
     0
 43
0.0
 10
3.0
 20
0.8437500000000004
 10
2.999643252946101
 20
0.8519208508825933
 10
2.998575726844895
 20
0.8600295166562749
 10
2.9968055462146
 20
0.8680142854783615
 10
2.994346183198679
 20
0.8758143884367816
 10
2.991216355034686
 20
0.8833704620381906
 10
2.987439881604791
 20
0.8906249999999999
 10
2.983045504152093
 20
0.8975227909079104
 10
2.978066666542404
 20
0.9040113384081129
 10
2.972541260736239
 20
0.9100412607362386
 10
2.966511338408113
 20
0.9155666665424039
 10
2.960022790907911
 20
0.9205455041520927
 10
2.953125000000001
 20
0.9249398816047908
 10
2.945870462038191
 20
0.9287163550346856
 10
2.938314388436782
 20
0.9318461831986787
 10
2.930514285478362
 20
0.9343055462145998
 10
2.930389736264966
 20
0.934338827308106
  0
LINE
  5
1B5
330
183
100
AcDbEntity
  8
AM_4
100
AcDbLine
 10
3.0
 20
-0.8437499986030172
 30
0.0
 11
3.0
 21
0.8437499999999999
 31
0.0
  0
LINE
  5
1B6
330
183
100
AcDbEntity
  8
AM_4
100
AcDbLine
 10
2.40625
 20
0.28125
 30
0.0
 11
2.375
 21
0.2812499999999999
 31
0.0
  0
ARC
  5
1B7
330
183
100
AcDbEntity
  8
AM_4
100
AcDbCircle
 10
2.456250001321875
 20
0.0000000000000002
 30
0.0
 40
0.4687500000000003
100
AcDbArc
 50
270.0
 51
90.0
  0
ARC
  5
1B8
330
183
100
AcDbEntity
  8
AM_4
100
AcDbCircle
 10
2.40625
 20
0.0
 30
0.0
 40
0.2812499999999999
100
AcDbArc
 50
270.0
 51
90.0
  0
ARC
  5
1B9
330
183
100
AcDbEntity
  8
AM_4
100
AcDbCircle
 10
2.375
 20
-0.0000000000000001
 30
0.0
 40
0.28125
100
AcDbArc
 50
90.0
 51
270.0
  0
LINE
  5
1BA
330
183
100
AcDbEntity
  8
AM_4
100
AcDbLine
 10
2.375
 20
-0.2812500000000001
 30
0.0
 11
2.40625
 21
-0.2812499999999999
 31
0.0
  0
LINE
  5
1BB
330
183
100
AcDbEntity
  8
AM_4
100
AcDbLine
 10
1.991120526531422
 20
-0.4687500000000001
 30
0.0
 11
2.456250001321875
 21
-0.4687500000000001
 31
0.0
  0
LINE
  5
1BC
330
183
100
AcDbEntity
  8
AM_4
100
AcDbLine
 10
2.456250001321875
 20
0.4687500000000002
 30
0.0
 11
1.991120526531422
 21
0.4687500000000002
 31
0.0
  0
ARC
  5
1BD
330
183
100
AcDbEntity
  8
AM_4
100
AcDbCircle
 10
-2.375
 20
-0.0000000000000001
 30
0.0
 40
0.2812499999999999
100
AcDbArc
 50
270.0
 51
90.0
  0
LINE
  5
1BE
330
183
100
AcDbEntity
  8
AM_4
100
AcDbLine
 10
-2.40625
 20
-0.2812500000000002
 30
0.0
 11
-2.375
 21
-0.2812500000000001
 31
0.0
  0
LINE
  5
1BF
330
183
100
AcDbEntity
  8
AM_4
100
AcDbLine
 10
-2.456250001321875
 20
-0.4687500000000002
 30
0.0
 11
-1.991120526531422
 21
-0.4687500000000002
 31
0.0
  0
ARC
  5
1C0
330
183
100
AcDbEntity
  8
AM_4
100
AcDbCircle
 10
-2.456250001321875
 20
-0.0000000000000001
 30
0.0
 40
0.46875
100
AcDbArc
 50
90.0
 51
270.0
  0
ARC
  5
1C1
330
183
100
AcDbEntity
  8
AM_4
100
AcDbCircle
 10
-2.40625
 20
-0.0000000000000001
 30
0.0
 40
0.2812500000000001
100
AcDbArc
 50
90.0
 51
270.0
  0
LINE
  5
1C2
330
183
100
AcDbEntity
  8
AM_4
100
AcDbLine
 10
-2.375
 20
0.2812499999999999
 30
0.0
 11
-2.40625
 21
0.28125
 31
0.0
  0
LINE
  5
1C3
330
183
100
AcDbEntity
  8
AM_4
100
AcDbLine
 10
-1.991120526531422
 20
0.4687499999999999
 30
0.0
 11
-2.456250001321875
 21
0.4687499999999999
 31
0.0
  0
LINE
  5
1C4
330
183
100
AcDbEntity
  8
AM_4
100
AcDbLine
 10
-2.906250000000001
 20
0.9374999999999999
 30
0.0
 11
2.906250000000001
 21
0.9374999999999998
 31
0.0
  0
LINE
  5
1C5
330
183
100
AcDbEntity
  8
AM_4
100
AcDbLine
 10
-2.906250000000001
 20
-0.9375
 30
0.0
 11
2.906250000000001
 21
-0.9375000000000002
 31
0.0
  0
LINE
  5
1C6
330
183
100
AcDbEntity
  8
AM_4
100
AcDbLine
 10
-2.930389736264966
 20
0.9343388273081057
 30
0.0
 11
-2.90625
 21
0.9374999999999999
 31
0.0
  0
LINE
  5
1C7
330
183
100
AcDbEntity
  8
AM_4
100
AcDbLine
 10
-2.930389736264966
 20
-0.934338827308106
 30
0.0
 11
-2.930389736264966
 21
0.9343388273081057
 31
0.0
  0
LINE
  5
1C8
330
183
100
AcDbEntity
  8
AM_4
100
AcDbLine
 10
-2.906250000000001
 20
-0.9375
 30
0.0
 11
-2.930389736264966
 21
-0.934338827308106
 31
0.0
  0
LINE
  5
1C9
330
183
100
AcDbEntity
  8
AM_4
100
AcDbLine
 10
-1.991120526531422
 20
-0.4687500000000002
 30
0.0
 11
-1.991120526531422
 21
0.4687499999999999
 31
0.0
  0
LINE
  5
1CA
330
183
100
AcDbEntity
  8
AM_4
100
AcDbLine
 10
2.906250000000001
 20
0.9374999999999998
 30
0.0
 11
2.930389736264966
 21
0.9343388273081062
 31
0.0
  0
LINE
  5
1CB
330
183
100
AcDbEntity
  8
AM_4
100
AcDbLine
 10
2.930389736264966
 20
-0.9343388273081062
 30
0.0
 11
2.90625
 21
-0.9375000000000002
 31
0.0
  0
LINE
  5
1CC
330
183
100
AcDbEntity
  8
AM_4
100
AcDbLine
 10
2.930389736264966
 20
-0.9343388273081062
 30
0.0
 11
2.930389736264966
 21
0.9343388273081062
 31
0.0
  0
LINE
  5
1CD
330
183
100
AcDbEntity
  8
AM_4
100
AcDbLine
 10
1.991120526531422
 20
0.4687500000000002
 30
0.0
 11
1.991120526531422
 21
-0.4687500000000001
 31
0.0
  0
LINE
  5
1CE
330
183
100
AcDbEntity
  8
AM_4
100
AcDbLine
 10
1.615347127750748
 20
-0.9375
 30
0.0
 11
1.615347127750748
 21
0.9375
 31
0.0
  0
LINE
  5
1CF
330
183
100
AcDbEntity
  8
AM_4
100
AcDbLine
 10
-1.615347128494858
 20
-0.9375
 30
0.0
 11
-1.615347128494858
 21
0.9375
 31
0.0
  0
LINE
  5
1D0
330
183
100
AcDbEntity
  8
AM_4
100
AcDbLine
 10
-1.492490928941695
 20
-0.9375
 30
0.0
 11
-1.492490928941695
 21
0.9375
 31
0.0
  0
LINE
  5
1D1
330
183
100
AcDbEntity
  8
AM_4
100
AcDbLine
 10
1.492490930765523
 20
-0.9375
 30
0.0
 11
1.492490930765523
 21
0.9375
 31
0.0
  0
LWPOLYLINE
  5
1D2
330
183
100
AcDbEntity
  8
AM_4
100
AcDbPolyline
 90
       22
 70
     0
 43
0.0
 10
0.5763946508032594
 20
0.4611466897831659
 10
0.5285483832579261
 20
0.4362940709165171
 10
0.4828013501128867
 20
0.4058579526447968
 10
0.4401259794492677
 20
0.3704315498029249
 10
0.4011102704490065
 20
0.3303105813324702
 10
0.3661790052760133
 20
0.285853923264184
 10
0.3361440057489858
 20
0.2378273660861089
 10
0.3113879831503706
 20
0.1861761260594628
 10
0.2925141125489943
 20
0.1317534817674614
 10
0.2800885962367494
 20
0.075641785430345
 10
0.2746101423972904
 20
0.0210481827946301
 10
0.2753554790495394
 20
-0.0340118045184492
 10
0.2823016159970346
 20
-0.0884328497421511
 10
0.294882265138097
 20
-0.1399088899410833
 10
0.3129007779433957
 20
-0.1898391270746115
 10
0.3358999058888293
 20
-0.2373840143479176
 10
0.3645800469800736
 20
-0.2835737312275571
 10
0.3977924136138937
 20
-0.3264934074002248
 10
0.4348225134377812
 20
-0.3654619409550119
 10
0.4789696580737119
 20
-0.4029674036813966
 10
0.5265269334840874
 20
-0.4350881965578093
 10
0.5763946508032595
 20
-0.4611466897831656
  0
ELLIPSE
  5
1D3
330
183
100
AcDbEntity
  8
AM_4
100
AcDbEllipse
 10
0.7437499999156251
 20
0.0000000000000001
 30
0.0
 11
-9.184851360999182E-17
 21
-0.5000000199999997
 31
0.0
210
0.0
220
0.0
230
1.0
 40
0.8660254037844388
 41
3.538416127181588
 42
5.886361833589854
  0
LWPOLYLINE
  5
1D4
330
183
100
AcDbEntity
  8
AM_4
100
AcDbPolyline
 90
       10
 70
     0
 43
0.0
 10
0.5763946508032595
 20
0.4611466897831658
 10
0.6131171239617353
 20
0.4756258936485205
 10
0.6440491549627284
 20
0.4848695730485066
 10
0.6751609406320123
 20
0.4916743003215769
 10
0.7069298213995817
 20
0.4961744558583484
 10
0.7384914526822218
 20
0.4982511124601025
 10
0.773538254128099
 20
0.4977270398526719
 10
0.807890304214819
 20
0.4941618905699526
 10
0.8422442704853345
 20
0.4872637558435445
 10
0.8562123276108411
 20
0.4834023398718055
  0
ELLIPSE
  5
1D5
330
183
100
AcDbEntity
  8
AM_4
100
AcDbEllipse
 10
0.7687499999156254
 20
0.0000000000000001
 30
0.0
 11
2.755455420546224E-17
 21
0.4500000199999999
 31
0.0
210
0.0
220
0.0
230
1.0
 40
0.8660254037844388
 41
0.0
 42
6.283185307179586
  0
LWPOLYLINE
  5
1D6
330
183
100
AcDbEntity
  8
AM_4
100
AcDbPolyline
 90
       43
 70
     0
 43
0.0
 10
0.8558848749426977
 20
-0.4835005278838764
 10
0.8730071345765207
 20
-0.4779516373223074
 10
0.8992276037131176
 20
-0.4677603089313728
 10
0.9248337989545239
 20
-0.4557106284533619
 10
0.9497255636325145
 20
-0.4418478591618551
 10
0.9738046880122084
 20
-0.4262243494660893
 10
0.9969753401711835
 20
-0.4088996158407703
 10
1.01914457197069
 20
-0.3899403418829653
 10
1.040222871499008
 20
-0.3694202723864535
 10
1.060124729108177
 20
-0.3474199948174631
 10
1.078769185163198
 20
-0.3240266134323674
 10
1.096080332925048
 20
-0.2993333314414635
 10
1.111987757966023
 20
-0.2734389628977532
 10
1.126426904341235
 20
-0.2464473981613078
 10
1.139339365833723
 20
-0.2184670454685514
 10
1.150673106905718
 20
-0.1896102674230707
 10
1.160382622089611
 20
-0.1599928263425538
 10
1.168429044522892
 20
-0.1297333473985653
 10
1.17478021459032
 20
-0.0989528040971409
 10
1.179410718740251
 20
-0.0677740272376605
 10
1.18230190702927
 20
-0.0363212361250581
 10
1.183441896248316
 20
-0.0047195893652832
 10
1.182825563875905
 20
0.0269052481882723
 10
1.180454550177302
 20
0.058427395899284
 10
1.176337279093634
 20
0.0897211833757031
 10
1.17048890493349
 20
0.1206618985626244
 10
1.162931302680679
 20
0.1511259560654024
 10
1.15369305934466
 20
0.1809913156715083
 10
1.142809462413794
 20
0.2101379129795743
 10
1.130322481842542
 20
0.2384481073336536
 10
1.116280739867035
 20
0.2658071522664182
 10
1.100739460412699
 20
0.2921036929202593
 10
1.083760387138008
 20
0.3172302931910598
 10
1.065411656648044
 20
0.3410839923354611
 10
1.045767611704541
 20
0.3635668863508295
 10
1.024908539094258
 20
0.3845867237018935
 10
1.002920318949166
 20
0.4040574984436022
 10
0.9798939772981258
 20
0.4219000174416471
 10
0.9559251415703485
 20
0.4380424135752929
 10
0.9311134090781283
 20
0.4524205750353724
 10
0.905561649811595
 20
0.4649784633900766
 10
0.8793752751783028
 20
0.4756683005855779
 10
0.8561991246048596
 20
0.483406317646657
  0
LWPOLYLINE
  5
1D7
330
183
100
AcDbEntity
  8
AM_4
100
AcDbPolyline
 90
        9
 70
     0
 43
0.0
 10
0.8559202137278763
 20
-0.4834898718502501
 10
0.8292748159424647
 20
-0.4902869597687625
 10
0.8003609091228894
 20
-0.4952148708423744
 10
0.7672190126880427
 20
-0.4980471777664013
 10
0.7334728264199942
 20
-0.4980804631480618
 10
0.6984722881671833
 20
-0.4952133959423035
 10
0.663277139087977
 20
-0.4893608235056296
 10
0.6197326158761629
 20
-0.4778200327679777
 10
0.576394650804132
 20
-0.4611466897835588
  0
ENDBLK
  5
186
330
183
100
AcDbEntity
  8
0
100
AcDbBlockEnd
  0
ENDSEC
  0
SECTION
  2
ENTITIES
  0
INSERT
  5
6F
330
1F
100
AcDbEntity
  8
0
100
AcDbBlockReference
  2
1_023001_4
 10
0.0
 20
0.0
 30
0.0
  0
POINT
  5
1D9
330
1F
100
AcDbEntity
  8
ConnectionPoints
100
AcDbPoint
 10
0.0
 20
-1.375
 30
0.0000000000000001
  0
POINT
  5
1DA
330
1F
100
AcDbEntity
  8
ConnectionPoints
100
AcDbPoint
 10
0.0
 20
-1.375
 30
0.0000000000000001
  0
POINT
  5
1DB
330
1F
100
AcDbEntity
  8
ConnectionPoints
100
AcDbPoint
 10
0.0
 20
1.375
 30
-0.0000000000000001
  0
POINT
  5
1DC
330
1F
100
AcDbEntity
  8
ConnectionPoints
100
AcDbPoint
 10
0.0
 20
0.0
 30
0.0
  0
POINT
  5
1DD
330
1F
100
AcDbEntity
  8
ConnectionPoints
100
AcDbPoint
 10
0.7687500000000003
 20
0.0000000000000001
 30
1.331514058318575
  0
POINT
  5
1DE
330
1F
100
AcDbEntity
  8
ConnectionPoints
100
AcDbPoint
 10
0.7687500000000003
 20
0.0000000000000001
 30
1.331514058318575
  0
POINT
  5
1DF
330
1F
100
AcDbEntity
  8
ConnectionPoints
100
AcDbPoint
 10
0.0
 20
0.0
 30
0.0
  0
ENDSEC
  0
SECTION
  2
OBJECTS
  0
DICTIONARY
  5
C
330
0
100
AcDbDictionary
281
     1
  3
ACAD_DETAILVIEWSTYLE
350
1E7
  3
ACAD_GROUP
350
D
  3
ACAD_LAYOUT
350
1A
  3
ACAD_MATERIAL
350
43
  3
ACAD_MLEADERSTYLE
350
6B
  3
ACAD_MLINESTYLE
350
17
  3
ACAD_PLOTSETTINGS
350
19
  3
ACAD_PLOTSTYLENAME
350
E
  3
ACAD_SCALELIST
350
47
  3
ACAD_SECTIONVIEWSTYLE
350
1E8
  3
ACAD_TABLESTYLE
350
69
  3
ACAD_VISUALSTYLE
350
2A
  3
ACDB_RECOMPOSE_DATA
350
1E4
  3
AcDbVariableDictionary
350
1E0
  0
SUN
  5
6D
330
29
100
AcDbSun
 90
        1
290
     0
 63
     7
421
 16777215
 40
1.0
291
     1
 91
  2455826
 92
 54000000
292
     0
 70
     2
 71
   256
280
     1
  0
DICTIONARY
  5
1E7
102
{ACAD_REACTORS
330
C
102
}
330
C
100
AcDbDictionary
281
     1
  0
DICTIONARY
  5
D
102
{ACAD_REACTORS
330
C
102
}
330
C
100
AcDbDictionary
281
     1
  0
DICTIONARY
  5
1A
102
{ACAD_REACTORS
330
C
102
}
330
C
100
AcDbDictionary
281
     1
  3
Layout1
350
1E
  3
Layout2
350
26
  3
Model
350
22
  0
DICTIONARY
  5
43
102
{ACAD_REACTORS
330
C
102
}
330
C
100
AcDbDictionary
281
     1
  3
ByBlock
350
45
  3
ByLayer
350
44
  3
Global
350
46
  0
DICTIONARY
  5
6B
102
{ACAD_REACTORS
330
C
102
}
330
C
100
AcDbDictionary
281
     1
  3
Standard
350
6C
  0
DICTIONARY
  5
17
102
{ACAD_REACTORS
330
C
102
}
330
C
100
AcDbDictionary
281
     1
  3
Standard
350
18
  0
DICTIONARY
  5
19
102
{ACAD_REACTORS
330
C
102
}
330
C
100
AcDbDictionary
281
     1
  0
ACDBDICTIONARYWDFLT
  5
E
102
{ACAD_REACTORS
330
C
102
}
330
C
100
AcDbDictionary
281
     1
  3
Normal
350
F
100
AcDbDictionaryWithDefault
340
F
  0
DICTIONARY
  5
47
102
{ACAD_REACTORS
330
C
102
}
330
C
100
AcDbDictionary
281
     1
  3
A0
350
48
  3
A1
350
49
  3
A2
350
4A
  3
A3
350
4B
  3
A4
350
4C
  3
A5
350
4D
  3
A6
350
4E
  3
A7
350
4F
  3
A8
350
50
  3
A9
350
51
  3
B0
350
52
  3
B1
350
53
  3
B2
350
54
  3
B3
350
55
  3
B4
350
56
  3
B5
350
57
  3
B6
350
58
  3
B7
350
59
  3
B8
350
5A
  3
B9
350
5B
  3
C0
350
5C
  3
C1
350
5D
  3
C2
350
5E
  3
C3
350
5F
  3
C4
350
60
  3
C5
350
61
  3
C6
350
62
  3
C7
350
63
  3
C8
350
64
  3
C9
350
65
  3
D0
350
66
  3
D1
350
67
  3
D2
350
68
  0
DICTIONARY
  5
1E8
102
{ACAD_REACTORS
330
C
102
}
330
C
100
AcDbDictionary
281
     1
  0
DICTIONARY
  5
69
102
{ACAD_REACTORS
330
C
102
}
330
C
100
AcDbDictionary
281
     1
  3
Standard
350
6A
  0
DICTIONARY
  5
2A
102
{ACAD_REACTORS
330
C
102
}
330
C
100
AcDbDictionary
281
     1
  3
2dWireframe
350
2F
  3
Basic
350
32
  3
Brighten
350
36
  3
ColorChange
350
3A
  3
Conceptual
350
34
  3
Dim
350
35
  3
EdgeColorOff
350
3D
  3
Facepattern
350
39
  3
Flat
350
2B
  3
FlatWithEdges
350
2C
  3
Gouraud
350
2D
  3
GouraudWithEdges
350
2E
  3
Hidden
350
31
  3
JitterOff
350
3B
  3
Linepattern
350
38
  3
OverhangOff
350
3C
  3
Realistic
350
33
  3
Shaded
350
42
  3
Shaded with edges
350
41
  3
Shades of Gray
350
3E
  3
Sketchy
350
3F
  3
Thicken
350
37
  3
Wireframe
350
30
  3
X-Ray
350
40
  0
XRECORD
  5
1E4
102
{ACAD_REACTORS
330
C
102
}
330
C
100
AcDbXrecord
280
     1
 90
        1
330
6A
  0
DICTIONARY
  5
1E0
102
{ACAD_REACTORS
330
C
102
}
330
C
100
AcDbDictionary
281
     1
  3
CANNOSCALE
350
1E1
  3
CMLEADERSTYLE
350
1E6
  3
CTABLESTYLE
350
1E5
  0
LAYOUT
  5
1E
102
{ACAD_REACTORS
330
1A
102
}
330
1A
100
AcDbPlotSettings
  1

  2
none_device
  4

  6

 40
0.0
 41
0.0
 42
0.0
 43
0.0
 44
0.0
 45
0.0
 46
0.0
 47
0.0
 48
0.0
 49
0.0
140
0.0
141
0.0
142
1.0
143
1.0
 70
   688
 72
     0
 73
     0
 74
     5
  7

 75
    16
 76
     0
 77
     2
 78
   300
147
1.0
148
0.0
149
0.0
100
AcDbLayout
  1
Layout1
 70
     1
 71
     1
 10
0.0
 20
0.0
 11
12.0
 21
9.0
 12
0.0
 22
0.0
 32
0.0
 14
1.000000000000000E+20
 24
1.000000000000000E+20
 34
1.000000000000000E+20
 15
-1.000000000000000E+20
 25
-1.000000000000000E+20
 35
-1.000000000000000E+20
146
0.0
 13
0.0
 23
0.0
 33
0.0
 16
1.0
 26
0.0
 36
0.0
 17
0.0
 27
1.0
 37
0.0
 76
     0
330
1B
  0
LAYOUT
  5
26
102
{ACAD_REACTORS
330
1A
102
}
330
1A
100
AcDbPlotSettings
  1

  2
none_device
  4

  6

 40
0.0
 41
0.0
 42
0.0
 43
0.0
 44
0.0
 45
0.0
 46
0.0
 47
0.0
 48
0.0
 49
0.0
140
0.0
141
0.0
142
1.0
143
1.0
 70
   688
 72
     0
 73
     0
 74
     5
  7

 75
    16
 76
     0
 77
     2
 78
   300
147
1.0
148
0.0
149
0.0
100
AcDbLayout
  1
Layout2
 70
     1
 71
     2
 10
0.0
 20
0.0
 11
0.0
 21
0.0
 12
0.0
 22
0.0
 32
0.0
 14
0.0
 24
0.0
 34
0.0
 15
0.0
 25
0.0
 35
0.0
146
0.0
 13
0.0
 23
0.0
 33
0.0
 16
1.0
 26
0.0
 36
0.0
 17
0.0
 27
1.0
 37
0.0
 76
     0
330
23
  0
LAYOUT
  5
22
102
{ACAD_REACTORS
330
1A
102
}
330
1A
100
AcDbPlotSettings
  1

  2
none_device
  4
Letter_(8.50_x_11.00_Inches)
  6

 40
6.35
 41
6.35
 42
6.35000508
 43
6.35000508
 44
215.9
 45
279.4
 46
0.0
 47
0.0
 48
0.0
 49
0.0
140
0.0
141
0.0
142
1.0
143
1.0
 70
  1712
 72
     0
 73
     0
 74
     0
  7

 75
     0
 76
     0
 77
     2
 78
   300
147
1.0
148
0.0
149
0.0
100
AcDbLayout
  1
Model
 70
     1
 71
     0
 10
0.0
 20
0.0
 11
12.0
 21
9.0
 12
0.0
 22
0.0
 32
0.0
 14
1.000000000000000E+20
 24
1.000000000000000E+20
 34
1.000000000000000E+20
 15
-1.000000000000000E+20
 25
-1.000000000000000E+20
 35
-1.000000000000000E+20
146
0.0
 13
0.0
 23
0.0
 33
0.0
 16
1.0
 26
0.0
 36
0.0
 17
0.0
 27
1.0
 37
0.0
 76
     0
330
1F
331
29
  0
MATERIAL
  5
45
102
{ACAD_REACTORS
330
43
102
}
330
43
100
AcDbMaterial
  1
ByBlock
 72
     1
 94
      127
  0
MATERIAL
  5
44
102
{ACAD_REACTORS
330
43
102
}
330
43
100
AcDbMaterial
  1
ByLayer
 72
     1
 94
      127
  0
MATERIAL
  5
46
102
{ACAD_REACTORS
330
43
102
}
330
43
100
AcDbMaterial
  1
Global
 72
     1
 94
      127
  0
MLEADERSTYLE
  5
6C
102
{ACAD_REACTORS
330
6B
102
}
330
6B
100
AcDbMLeaderStyle
179
     2
170
     2
171
     1
172
     0
 90
        2
 40
0.0
 41
0.0
173
     1
 91
-1056964608
340
14
 92
       -2
290
     1
 42
0.09
291
     1
 43
0.36
  3
Standard
341
0
 44
0.18
300

342
11
174
     1
178
     6
175
     1
176
     0
 93
-1056964608
 45
0.18
292
     0
297
     0
 46
0.18
343
0
 94
-1056964608
 47
1.0
 49
1.0
140
1.0
293
     1
141
0.0
294
     1
177
     0
142
1.0
295
     0
296
     0
143
0.125
271
     0
272
     9
273
     9
298
     0
  0
MLINESTYLE
  5
18
102
{ACAD_REACTORS
330
17
102
}
330
17
100
AcDbMlineStyle
  2
Standard
 70
     0
  3

 62
   256
 51
90.0
 52
90.0
 71
     2
 49
0.5
 62
   256
  6
BYLAYER
 49
-0.5
 62
   256
  6
BYLAYER
  0
ACDBPLACEHOLDER
  5
F
102
{ACAD_REACTORS
330
E
102
}
330
E
  0
SCALE
  5
48
102
{ACAD_REACTORS
330
47
102
}
330
47
100
AcDbScale
 70
     0
300
1:1
140
1.0
141
1.0
290
     1
  0
SCALE
  5
49
102
{ACAD_REACTORS
330
47
102
}
330
47
100
AcDbScale
 70
     0
300
1:2
140
1.0
141
2.0
290
     0
  0
SCALE
  5
4A
102
{ACAD_REACTORS
330
47
102
}
330
47
100
AcDbScale
 70
     0
300
1:4
140
1.0
141
4.0
290
     0
  0
SCALE
  5
4B
102
{ACAD_REACTORS
330
47
102
}
330
47
100
AcDbScale
 70
     0
300
1:5
140
1.0
141
5.0
290
     0
  0
SCALE
  5
4C
102
{ACAD_REACTORS
330
47
102
}
330
47
100
AcDbScale
 70
     0
300
1:8
140
1.0
141
8.0
290
     0
  0
SCALE
  5
4D
102
{ACAD_REACTORS
330
47
102
}
330
47
100
AcDbScale
 70
     0
300
1:10
140
1.0
141
10.0
290
     0
  0
SCALE
  5
4E
102
{ACAD_REACTORS
330
47
102
}
330
47
100
AcDbScale
 70
     0
300
1:16
140
1.0
141
16.0
290
     0
  0
SCALE
  5
4F
102
{ACAD_REACTORS
330
47
102
}
330
47
100
AcDbScale
 70
     0
300
1:20
140
1.0
141
20.0
290
     0
  0
SCALE
  5
50
102
{ACAD_REACTORS
330
47
102
}
330
47
100
AcDbScale
 70
     0
300
1:30
140
1.0
141
30.0
290
     0
  0
SCALE
  5
51
102
{ACAD_REACTORS
330
47
102
}
330
47
100
AcDbScale
 70
     0
300
1:40
140
1.0
141
40.0
290
     0
  0
SCALE
  5
52
102
{ACAD_REACTORS
330
47
102
}
330
47
100
AcDbScale
 70
     0
300
1:50
140
1.0
141
50.0
290
     0
  0
SCALE
  5
53
102
{ACAD_REACTORS
330
47
102
}
330
47
100
AcDbScale
 70
     0
300
1:100
140
1.0
141
100.0
290
     0
  0
SCALE
  5
54
102
{ACAD_REACTORS
330
47
102
}
330
47
100
AcDbScale
 70
     0
300
2:1
140
2.0
141
1.0
290
     0
  0
SCALE
  5
55
102
{ACAD_REACTORS
330
47
102
}
330
47
100
AcDbScale
 70
     0
300
4:1
140
4.0
141
1.0
290
     0
  0
SCALE
  5
56
102
{ACAD_REACTORS
330
47
102
}
330
47
100
AcDbScale
 70
     0
300
8:1
140
8.0
141
1.0
290
     0
  0
SCALE
  5
57
102
{ACAD_REACTORS
330
47
102
}
330
47
100
AcDbScale
 70
     0
300
10:1
140
10.0
141
1.0
290
     0
  0
SCALE
  5
58
102
{ACAD_REACTORS
330
47
102
}
330
47
100
AcDbScale
 70
     0
300
100:1
140
100.0
141
1.0
290
     0
  0
SCALE
  5
59
102
{ACAD_REACTORS
330
47
102
}
330
47
100
AcDbScale
 70
     0
300
1/128" = 1'-0"
140
0.0078125
141
12.0
290
     0
  0
SCALE
  5
5A
102
{ACAD_REACTORS
330
47
102
}
330
47
100
AcDbScale
 70
     0
300
1/64" = 1'-0"
140
0.015625
141
12.0
290
     0
  0
SCALE
  5
5B
102
{ACAD_REACTORS
330
47
102
}
330
47
100
AcDbScale
 70
     0
300
1/32" = 1'-0"
140
0.03125
141
12.0
290
     0
  0
SCALE
  5
5C
102
{ACAD_REACTORS
330
47
102
}
330
47
100
AcDbScale
 70
     0
300
1/16" = 1'-0"
140
0.0625
141
12.0
290
     0
  0
SCALE
  5
5D
102
{ACAD_REACTORS
330
47
102
}
330
47
100
AcDbScale
 70
     0
300
3/32" = 1'-0"
140
0.09375
141
12.0
290
     0
  0
SCALE
  5
5E
102
{ACAD_REACTORS
330
47
102
}
330
47
100
AcDbScale
 70
     0
300
1/8" = 1'-0"
140
0.125
141
12.0
290
     0
  0
SCALE
  5
5F
102
{ACAD_REACTORS
330
47
102
}
330
47
100
AcDbScale
 70
     0
300
3/16" = 1'-0"
140
0.1875
141
12.0
290
     0
  0
SCALE
  5
60
102
{ACAD_REACTORS
330
47
102
}
330
47
100
AcDbScale
 70
     0
300
1/4" = 1'-0"
140
0.25
141
12.0
290
     0
  0
SCALE
  5
61
102
{ACAD_REACTORS
330
47
102
}
330
47
100
AcDbScale
 70
     0
300
3/8" = 1'-0"
140
0.375
141
12.0
290
     0
  0
SCALE
  5
62
102
{ACAD_REACTORS
330
47
102
}
330
47
100
AcDbScale
 70
     0
300
1/2" = 1'-0"
140
0.5
141
12.0
290
     0
  0
SCALE
  5
63
102
{ACAD_REACTORS
330
47
102
}
330
47
100
AcDbScale
 70
     0
300
3/4" = 1'-0"
140
0.75
141
12.0
290
     0
  0
SCALE
  5
64
102
{ACAD_REACTORS
330
47
102
}
330
47
100
AcDbScale
 70
     0
300
1" = 1'-0"
140
1.0
141
12.0
290
     0
  0
SCALE
  5
65
102
{ACAD_REACTORS
330
47
102
}
330
47
100
AcDbScale
 70
     0
300
1-1/2" = 1'-0"
140
1.5
141
12.0
290
     0
  0
SCALE
  5
66
102
{ACAD_REACTORS
330
47
102
}
330
47
100
AcDbScale
 70
     0
300
3" = 1'-0"
140
3.0
141
12.0
290
     0
  0
SCALE
  5
67
102
{ACAD_REACTORS
330
47
102
}
330
47
100
AcDbScale
 70
     0
300
6" = 1'-0"
140
6.0
141
12.0
290
     0
  0
SCALE
  5
68
102
{ACAD_REACTORS
330
47
102
}
330
47
100
AcDbScale
 70
     0
300
1'-0" = 1'-0"
140
12.0
141
12.0
290
     0
  0
TABLESTYLE
  5
6A
102
{ACAD_REACTORS
330
69
102
}
102
{ACAD_XDICTIONARY
360
1E2
102
}
330
69
100
AcDbTableStyle
  3
Standard
 70
     0
 71
     0
 40
0.06
 41
0.06
280
     0
281
     0
  7
Standard
140
0.18
170
     2
 62
     0
 63
   257
283
     0
 90
        4
 91
        0
  1

274
    -2
284
     1
 64
     0
275
    -2
285
     1
 65
     0
276
    -2
286
     1
 66
     0
277
    -2
287
     1
 67
     0
278
    -2
288
     1
 68
     0
279
    -2
289
     1
 69
     0
  7
Standard
140
0.25
170
     5
 62
     0
 63
   257
283
     0
 90
        4
 91
        0
  1

274
    -2
284
     1
 64
     0
275
    -2
285
     1
 65
     0
276
    -2
286
     1
 66
     0
277
    -2
287
     1
 67
     0
278
    -2
288
     1
 68
     0
279
    -2
289
     1
 69
     0
  7
Standard
140
0.18
170
     5
 62
     0
 63
   257
283
     0
 90
        4
 91
        0
  1

274
    -2
284
     1
 64
     0
275
    -2
285
     1
 65
     0
276
    -2
286
     1
 66
     0
277
    -2
287
     1
 67
     0
278
    -2
288
     1
 68
     0
279
    -2
289
     1
 69
     0
  0
VISUALSTYLE
  5
2F
102
{ACAD_REACTORS
330
2A
102
}
330
2A
100
AcDbVisualStyle
  2
2dWireframe
 70
     4
177
     3
291
     0
 70
    58
 90
        0
176
     1
 90
        2
176
     1
 90
        0
176
     1
 90
        0
176
     1
 40
0.6
176
     1
 40
30.0
176
     1
 62
     7
420
 16777215
176
     1
 90
        1
176
     1
 90
        4
176
     1
 62
     7
176
     1
 62
   257
176
     1
 90
        1
176
     1
 90
        1
176
     1
 40
1.0
176
     1
 90
        0
176
     1
 62
   257
176
     1
 40
1.0
176
     1
 90
        1
176
     1
 90
        6
176
     1
 90
        2
176
     1
 62
     7
176
     1
 90
        5
176
     1
 90
        0
176
     1
 90
        0
176
     1
290
     0
176
     1
 90
        1
176
     1
 40
0.0
176
     1
 90
        0
176
     1
290
     1
176
     1
290
     1
176
     1
290
     0
176
     1
290
     0
176
     1
290
     0
176
     1
290
     0
176
     1
290
     0
176
     1
290
     0
176
     1
290
     0
176
     1
 90
       50
176
     1
 40
0.0
176
     1
 40
1.0
176
     1
 90
        0
176
     1
 62
    18
420
        0
176
     1
 90
       50
176
     1
 90
        3
176
     1
 62
     5
420
      255
176
     1
290
     0
176
     1
 90
       50
176
     1
 90
       50
176
     1
 90
       50
176
     1
290
     0
176
     1
 90
       50
176
     1
 62
   256
176
     0
 40
1.0
176
     0
 90
        2
176
     1
  1
strokes_ogs.tif
176
     1
290
     0
176
     1
 40
1.0
176
     1
 40
1.0
176
     1
  0
VISUALSTYLE
  5
32
102
{ACAD_REACTORS
330
2A
102
}
330
2A
100
AcDbVisualStyle
  2
Basic
 70
     7
177
     3
291
     1
 70
    58
 90
        1
176
     1
 90
        0
176
     1
 90
        1
176
     1
 90
        0
176
     1
 40
0.6
176
     1
 40
30.0
176
     1
 62
     7
420
 16777215
176
     1
 90
        0
176
     1
 90
        4
176
     1
 62
     7
176
     1
 62
   257
176
     1
 90
        1
176
     1
 90
        1
176
     1
 40
1.0
176
     1
 90
        8
176
     1
 62
     7
176
     1
 40
1.0
176
     1
 90
        1
176
     1
 90
        6
176
     1
 90
        2
176
     1
 62
     7
176
     1
 90
        5
176
     1
 90
        0
176
     1
 90
        0
176
     1
290
     0
176
     1
 90
        1
176
     1
 40
0.0
176
     1
 90
        0
176
     1
290
     0
176
     1
290
     1
176
     1
290
     1
176
     1
290
     0
176
     1
290
     0
176
     1
290
     0
176
     1
290
     0
176
     1
290
     0
176
     1
290
     0
176
     1
 90
       50
176
     1
 40
0.0
176
     1
 40
1.0
176
     1
 90
        0
176
     1
 62
    18
420
        0
176
     1
 90
       50
176
     1
 90
        3
176
     1
 62
     5
420
      255
176
     1
290
     0
176
     1
 90
       50
176
     1
 90
       50
176
     1
 90
       50
176
     1
290
     0
176
     1
 90
       50
176
     1
 62
   256
176
     0
 40
1.0
176
     0
 90
        2
176
     1
  1
strokes_ogs.tif
176
     1
290
     0
176
     1
 40
1.0
176
     1
 40
1.0
176
     1
  0
VISUALSTYLE
  5
36
102
{ACAD_REACTORS
330
2A
102
}
330
2A
100
AcDbVisualStyle
  2
Brighten
 70
    12
177
     3
291
     1
 70
    58
 90
        2
176
     1
 90
        2
176
     1
 90
        0
176
     1
 90
        0
176
     1
 40
0.6
176
     1
 40
30.0
176
     1
 62
     7
420
 16777215
176
     1
 90
        1
176
     1
 90
        4
176
     1
 62
     7
176
     1
 62
   257
176
     1
 90
        1
176
     1
 90
        1
176
     1
 40
1.0
176
     1
 90
        8
176
     1
 62
     7
176
     1
 40
1.0
176
     1
 90
        1
176
     1
 90
        6
176
     1
 90
        2
176
     1
 62
     7
176
     1
 90
        5
176
     1
 90
        0
176
     1
 90
        0
176
     1
290
     0
176
     1
 90
        1
176
     1
 40
50.0
176
     1
 90
        0
176
     1
290
     0
176
     1
290
     1
176
     1
290
     1
176
     1
290
     0
176
     1
290
     0
176
     1
290
     0
176
     1
290
     0
176
     1
290
     0
176
     1
290
     0
176
     1
 90
       50
176
     1
 40
0.0
176
     1
 40
1.0
176
     1
 90
        0
176
     1
 62
    18
420
        0
176
     1
 90
       50
176
     1
 90
        3
176
     1
 62
     5
420
      255
176
     1
290
     0
176
     1
 90
       50
176
     1
 90
       50
176
     1
 90
       50
176
     1
290
     0
176
     1
 90
       50
176
     1
 62
   256
176
     0
 40
1.0
176
     0
 90
        2
176
     1
  1
strokes_ogs.tif
176
     1
290
     0
176
     1
 40
1.0
176
     1
 40
1.0
176
     1
  0
VISUALSTYLE
  5
3A
102
{ACAD_REACTORS
330
2A
102
}
330
2A
100
AcDbVisualStyle
  2
ColorChange
 70
    16
177
     3
291
     1
 70
    58
 90
        2
176
     1
 90
        2
176
     1
 90
        3
176
     1
 90
        0
176
     1
 40
0.6
176
     1
 40
30.0
176
     1
 62
     8
420
  8421504
176
     1
 90
        1
176
     1
 90
        4
176
     1
 62
     7
176
     1
 62
   257
176
     1
 90
        1
176
     1
 90
        1
176
     1
 40
1.0
176
     1
 90
        8
176
     1
 62
     8
420
  8421504
176
     1
 40
1.0
176
     1
 90
        1
176
     1
 90
        6
176
     1
 90
        2
176
     1
 62
     7
176
     1
 90
        5
176
     1
 90
        0
176
     1
 90
        0
176
     1
290
     0
176
     1
 90
        1
176
     1
 40
0.0
176
     1
 90
        0
176
     1
290
     0
176
     1
290
     1
176
     1
290
     1
176
     1
290
     0
176
     1
290
     0
176
     1
290
     0
176
     1
290
     0
176
     1
290
     0
176
     1
290
     0
176
     1
 90
       50
176
     1
 40
0.0
176
     1
 40
1.0
176
     1
 90
        0
176
     1
 62
    18
420
        0
176
     1
 90
       50
176
     1
 90
        3
176
     1
 62
     5
420
      255
176
     1
290
     0
176
     1
 90
       50
176
     1
 90
       50
176
     1
 90
       50
176
     1
290
     0
176
     1
 90
       50
176
     1
 62
   256
176
     0
 40
1.0
176
     0
 90
        2
176
     1
  1
strokes_ogs.tif
176
     1
290
     0
176
     1
 40
1.0
176
     1
 40
1.0
176
     1
  0
VISUALSTYLE
  5
34
102
{ACAD_REACTORS
330
2A
102
}
330
2A
100
AcDbVisualStyle
  2
Conceptual
 70
     9
177
     3
291
     0
 70
    58
 90
        3
176
     1
 90
        2
176
     1
 90
        0
176
     1
 90
        0
176
     1
 40
0.6
176
     1
 40
30.0
176
     1
 62
     7
420
 16777215
176
     1
 90
        2
176
     1
 90
        2
176
     1
 62
     7
176
     1
 62
   257
176
     1
 90
        1
176
     1
 90
        1
176
     1
 40
179.0
176
     1
 90
        8
176
     1
 62
     7
176
     1
 40
1.0
176
     1
 90
        1
176
     1
 90
        6
176
     1
 90
        2
176
     1
 62
     7
176
     1
 90
        3
176
     1
 90
        0
176
     1
 90
        0
176
     1
290
     0
176
     1
 90
        1
176
     1
 40
0.0
176
     1
 90
        0
176
     1
290
     0
176
     1
290
     1
176
     1
290
     1
176
     1
290
     0
176
     1
290
     0
176
     1
290
     0
176
     1
290
     0
176
     1
290
     0
176
     1
290
     0
176
     1
 90
       50
176
     1
 40
0.0
176
     1
 40
1.0
176
     1
 90
        0
176
     1
 62
    18
420
        0
176
     1
 90
       50
176
     1
 90
        3
176
     1
 62
     5
420
      255
176
     1
290
     0
176
     1
 90
       50
176
     1
 90
       50
176
     1
 90
       50
176
     1
290
     0
176
     1
 90
       50
176
     1
 62
   256
176
     0
 40
1.0
176
     0
 90
        2
176
     1
  1
strokes_ogs.tif
176
     1
290
     0
176
     1
 40
1.0
176
     1
 40
1.0
176
     1
  0
VISUALSTYLE
  5
35
102
{ACAD_REACTORS
330
2A
102
}
330
2A
100
AcDbVisualStyle
  2
Dim
 70
    11
177
     3
291
     1
 70
    58
 90
        2
176
     1
 90
        2
176
     1
 90
        0
176
     1
 90
        0
176
     1
 40
0.6
176
     1
 40
30.0
176
     1
 62
     7
420
 16777215
176
     1
 90
        1
176
     1
 90
        4
176
     1
 62
     7
176
     1
 62
   257
176
     1
 90
        1
176
     1
 90
        1
176
     1
 40
1.0
176
     1
 90
        8
176
     1
 62
     7
176
     1
 40
1.0
176
     1
 90
        1
176
     1
 90
        6
176
     1
 90
        2
176
     1
 62
     7
176
     1
 90
        5
176
     1
 90
        0
176
     1
 90
        0
176
     1
290
     0
176
     1
 90
        1
176
     1
 40
-50.0
176
     1
 90
        0
176
     1
290
     0
176
     1
290
     1
176
     1
290
     1
176
     1
290
     0
176
     1
290
     0
176
     1
290
     0
176
     1
290
     0
176
     1
290
     0
176
     1
290
     0
176
     1
 90
       50
176
     1
 40
0.0
176
     1
 40
1.0
176
     1
 90
        0
176
     1
 62
    18
420
        0
176
     1
 90
       50
176
     1
 90
        3
176
     1
 62
     5
420
      255
176
     1
290
     0
176
     1
 90
       50
176
     1
 90
       50
176
     1
 90
       50
176
     1
290
     0
176
     1
 90
       50
176
     1
 62
   256
176
     0
 40
1.0
176
     0
 90
        2
176
     1
  1
strokes_ogs.tif
176
     1
290
     0
176
     1
 40
1.0
176
     1
 40
1.0
176
     1
  0
VISUALSTYLE
  5
3D
102
{ACAD_REACTORS
330
2A
102
}
330
2A
100
AcDbVisualStyle
  2
EdgeColorOff
 70
    22
177
     3
291
     1
 70
    58
 90
        2
176
     0
 90
        2
176
     0
 90
        0
176
     0
 90
        0
176
     0
 40
0.6
176
     0
 40
30.0
176
     0
 62
     7
420
 16777215
176
     0
 90
        1
176
     0
 90
        4
176
     0
 62
     7
176
     0
 62
   257
176
     0
 90
        1
176
     0
 90
        1
176
     0
 40
1.0
176
     0
 90
        8
176
     2
 62
     7
176
     0
 40
1.0
176
     0
 90
        1
176
     0
 90
        6
176
     0
 90
        2
176
     0
 62
     7
176
     0
 90
        5
176
     0
 90
        0
176
     0
 90
        0
176
     0
290
     0
176
     0
 90
        1
176
     0
 40
0.0
176
     0
 90
        0
176
     0
290
     0
176
     0
290
     1
176
     0
290
     1
176
     0
290
     0
176
     0
290
     0
176
     0
290
     0
176
     0
290
     0
176
     0
290
     0
176
     0
290
     0
176
     0
 90
       50
176
     0
 40
0.0
176
     0
 40
1.0
176
     0
 90
        0
176
     0
 62
    18
420
        0
176
     0
 90
       50
176
     0
 90
        3
176
     0
 62
     5
420
      255
176
     0
290
     0
176
     0
 90
       50
176
     0
 90
       50
176
     0
 90
       50
176
     0
290
     0
176
     0
 90
       50
176
     0
 62
   256
176
     0
 40
1.0
176
     0
 90
        2
176
     0
  1
strokes_ogs.tif
176
     0
290
     0
176
     0
 40
1.0
176
     0
 40
1.0
176
     0
  0
VISUALSTYLE
  5
39
102
{ACAD_REACTORS
330
2A
102
}
330
2A
100
AcDbVisualStyle
  2
Facepattern
 70
    15
177
     3
291
     1
 70
    58
 90
        2
176
     1
 90
        2
176
     1
 90
        0
176
     1
 90
        0
176
     1
 40
0.6
176
     1
 40
30.0
176
     1
 62
     7
420
 16777215
176
     1
 90
        1
176
     1
 90
        4
176
     1
 62
     7
176
     1
 62
   257
176
     1
 90
        1
176
     1
 90
        1
176
     1
 40
1.0
176
     1
 90
        8
176
     1
 62
     7
176
     1
 40
1.0
176
     1
 90
        1
176
     1
 90
        6
176
     1
 90
        2
176
     1
 62
     7
176
     1
 90
        5
176
     1
 90
        0
176
     1
 90
        0
176
     1
290
     0
176
     1
 90
        1
176
     1
 40
0.0
176
     1
 90
        0
176
     1
290
     0
176
     1
290
     1
176
     1
290
     1
176
     1
290
     0
176
     1
290
     0
176
     1
290
     0
176
     1
290
     0
176
     1
290
     0
176
     1
290
     0
176
     1
 90
       50
176
     1
 40
0.0
176
     1
 40
1.0
176
     1
 90
        0
176
     1
 62
    18
420
        0
176
     1
 90
       50
176
     1
 90
        3
176
     1
 62
     5
420
      255
176
     1
290
     0
176
     1
 90
       50
176
     1
 90
       50
176
     1
 90
       50
176
     1
290
     0
176
     1
 90
       50
176
     1
 62
   256
176
     0
 40
1.0
176
     0
 90
        2
176
     1
  1
strokes_ogs.tif
176
     1
290
     0
176
     1
 40
1.0
176
     1
 40
1.0
176
     1
  0
VISUALSTYLE
  5
2B
102
{ACAD_REACTORS
330
2A
102
}
330
2A
100
AcDbVisualStyle
  2
Flat
 70
     0
177
     3
291
     1
 70
    58
 90
        2
176
     1
 90
        1
176
     1
 90
        1
176
     1
 90
        2
176
     1
 40
0.6
176
     1
 40
30.0
176
     1
 62
     7
420
 16777215
176
     1
 90
        0
176
     1
 90
        0
176
     1
 62
     7
176
     1
 62
   257
176
     1
 90
        1
176
     1
 90
        1
176
     1
 40
1.0
176
     1
 90
        8
176
     1
 62
     7
176
     1
 40
1.0
176
     1
 90
        1
176
     1
 90
        6
176
     1
 90
        2
176
     1
 62
     7
176
     1
 90
        5
176
     1
 90
        0
176
     1
 90
        0
176
     1
290
     0
176
     1
 90
       13
176
     1
 40
0.0
176
     1
 90
        0
176
     1
290
     0
176
     1
290
     1
176
     1
290
     1
176
     1
290
     0
176
     1
290
     0
176
     1
290
     0
176
     1
290
     0
176
     1
290
     0
176
     1
290
     0
176
     1
 90
       50
176
     1
 40
0.0
176
     1
 40
1.0
176
     1
 90
        0
176
     1
 62
    18
420
        0
176
     1
 90
       50
176
     1
 90
        3
176
     1
 62
     5
420
      255
176
     1
290
     0
176
     1
 90
       50
176
     1
 90
       50
176
     1
 90
       50
176
     1
290
     0
176
     1
 90
       50
176
     1
 62
   256
176
     0
 40
1.0
176
     0
 90
        2
176
     1
  1
strokes_ogs.tif
176
     1
290
     0
176
     1
 40
1.0
176
     1
 40
1.0
176
     1
  0
VISUALSTYLE
  5
2C
102
{ACAD_REACTORS
330
2A
102
}
330
2A
100
AcDbVisualStyle
  2
FlatWithEdges
 70
     1
177
     3
291
     1
 70
    58
 90
        2
176
     1
 90
        1
176
     1
 90
        1
176
     1
 90
        2
176
     1
 40
0.6
176
     1
 40
30.0
176
     1
 62
     7
420
 16777215
176
     1
 90
        1
176
     1
 90
        0
176
     1
 62
     7
176
     1
 62
   257
176
     1
 90
        1
176
     1
 90
        1
176
     1
 40
1.0
176
     1
 90
        0
176
     1
 62
   257
176
     1
 40
1.0
176
     1
 90
        1
176
     1
 90
        6
176
     1
 90
        2
176
     1
 62
     7
176
     1
 90
        5
176
     1
 90
        0
176
     1
 90
        0
176
     1
290
     0
176
     1
 90
       13
176
     1
 40
0.0
176
     1
 90
        0
176
     1
290
     0
176
     1
290
     1
176
     1
290
     1
176
     1
290
     0
176
     1
290
     0
176
     1
290
     0
176
     1
290
     0
176
     1
290
     0
176
     1
290
     0
176
     1
 90
       50
176
     1
 40
0.0
176
     1
 40
1.0
176
     1
 90
        0
176
     1
 62
    18
420
        0
176
     1
 90
       50
176
     1
 90
        3
176
     1
 62
     5
420
      255
176
     1
290
     0
176
     1
 90
       50
176
     1
 90
       50
176
     1
 90
       50
176
     1
290
     0
176
     1
 90
       50
176
     1
 62
   256
176
     0
 40
1.0
176
     0
 90
        2
176
     1
  1
strokes_ogs.tif
176
     1
290
     0
176
     1
 40
1.0
176
     1
 40
1.0
176
     1
  0
VISUALSTYLE
  5
2D
102
{ACAD_REACTORS
330
2A
102
}
330
2A
100
AcDbVisualStyle
  2
Gouraud
 70
     2
177
     3
291
     1
 70
    58
 90
        2
176
     1
 90
        2
176
     1
 90
        1
176
     1
 90
        2
176
     1
 40
0.6
176
     1
 40
30.0
176
     1
 62
     7
420
 16777215
176
     1
 90
        0
176
     1
 90
        0
176
     1
 62
     7
176
     1
 62
   257
176
     1
 90
        1
176
     1
 90
        1
176
     1
 40
1.0
176
     1
 90
        0
176
     1
 62
     7
176
     1
 40
1.0
176
     1
 90
        1
176
     1
 90
        6
176
     1
 90
        2
176
     1
 62
     7
176
     1
 90
        5
176
     1
 90
        0
176
     1
 90
        0
176
     1
290
     0
176
     1
 90
       13
176
     1
 40
0.0
176
     1
 90
        0
176
     1
290
     0
176
     1
290
     1
176
     1
290
     1
176
     1
290
     0
176
     1
290
     0
176
     1
290
     0
176
     1
290
     0
176
     1
290
     0
176
     1
290
     0
176
     1
 90
       50
176
     1
 40
0.0
176
     1
 40
1.0
176
     1
 90
        0
176
     1
 62
    18
420
        0
176
     1
 90
       50
176
     1
 90
        3
176
     1
 62
     5
420
      255
176
     1
290
     0
176
     1
 90
       50
176
     1
 90
       50
176
     1
 90
       50
176
     1
290
     0
176
     1
 90
       50
176
     1
 62
   256
176
     0
 40
1.0
176
     0
 90
        2
176
     1
  1
strokes_ogs.tif
176
     1
290
     0
176
     1
 40
1.0
176
     1
 40
1.0
176
     1
  0
VISUALSTYLE
  5
2E
102
{ACAD_REACTORS
330
2A
102
}
330
2A
100
AcDbVisualStyle
  2
GouraudWithEdges
 70
     3
177
     3
291
     1
 70
    58
 90
        2
176
     1
 90
        2
176
     1
 90
        1
176
     1
 90
        2
176
     1
 40
0.6
176
     1
 40
30.0
176
     1
 62
     7
420
 16777215
176
     1
 90
        1
176
     1
 90
        0
176
     1
 62
     7
176
     1
 62
   257
176
     1
 90
        1
176
     1
 90
        1
176
     1
 40
1.0
176
     1
 90
        0
176
     1
 62
   257
176
     1
 40
1.0
176
     1
 90
        1
176
     1
 90
        6
176
     1
 90
        2
176
     1
 62
     7
176
     1
 90
        5
176
     1
 90
        0
176
     1
 90
        0
176
     1
290
     0
176
     1
 90
       13
176
     1
 40
0.0
176
     1
 90
        0
176
     1
290
     0
176
     1
290
     1
176
     1
290
     1
176
     1
290
     0
176
     1
290
     0
176
     1
290
     0
176
     1
290
     0
176
     1
290
     0
176
     1
290
     0
176
     1
 90
       50
176
     1
 40
0.0
176
     1
 40
1.0
176
     1
 90
        0
176
     1
 62
    18
420
        0
176
     1
 90
       50
176
     1
 90
        3
176
     1
 62
     5
420
      255
176
     1
290
     0
176
     1
 90
       50
176
     1
 90
       50
176
     1
 90
       50
176
     1
290
     0
176
     1
 90
       50
176
     1
 62
   256
176
     0
 40
1.0
176
     0
 90
        2
176
     1
  1
strokes_ogs.tif
176
     1
290
     0
176
     1
 40
1.0
176
     1
 40
1.0
176
     1
  0
VISUALSTYLE
  5
31
102
{ACAD_REACTORS
330
2A
102
}
330
2A
100
AcDbVisualStyle
  2
Hidden
 70
     6
177
     3
291
     0
 70
    58
 90
        1
176
     1
 90
        2
176
     1
 90
        2
176
     1
 90
        0
176
     1
 40
0.6
176
     1
 40
30.0
176
     1
 62
     7
420
 16777215
176
     1
 90
        2
176
     1
 90
        2
176
     1
 62
     7
176
     1
 62
   257
176
     1
 90
        2
176
     1
 90
        1
176
     1
 40
40.0
176
     1
 90
        0
176
     1
 62
   257
176
     1
 40
1.0
176
     1
 90
        1
176
     1
 90
        6
176
     1
 90
        2
176
     1
 62
     7
176
     1
 90
        3
176
     1
 90
        0
176
     1
 90
        0
176
     1
290
     0
176
     1
 90
        1
176
     1
 40
0.0
176
     1
 90
        0
176
     1
290
     0
176
     1
290
     1
176
     1
290
     1
176
     1
290
     0
176
     1
290
     0
176
     1
290
     0
176
     1
290
     0
176
     1
290
     0
176
     1
290
     0
176
     1
 90
       50
176
     1
 40
0.0
176
     1
 40
1.0
176
     1
 90
        0
176
     1
 62
    18
420
        0
176
     1
 90
       50
176
     1
 90
        3
176
     1
 62
     5
420
      255
176
     1
290
     0
176
     1
 90
       50
176
     1
 90
       50
176
     1
 90
       50
176
     1
290
     0
176
     1
 90
       50
176
     1
 62
   256
176
     0
 40
1.0
176
     0
 90
        2
176
     1
  1
strokes_ogs.tif
176
     1
290
     0
176
     1
 40
1.0
176
     1
 40
1.0
176
     1
  0
VISUALSTYLE
  5
3B
102
{ACAD_REACTORS
330
2A
102
}
330
2A
100
AcDbVisualStyle
  2
JitterOff
 70
    20
177
     3
291
     1
 70
    58
 90
        2
176
     0
 90
        2
176
     0
 90
        0
176
     0
 90
        0
176
     0
 40
0.6
176
     0
 40
30.0
176
     0
 62
     7
420
 16777215
176
     0
 90
        1
176
     0
 90
        4
176
     0
 62
     7
176
     0
 62
   257
176
     0
 90
        1
176
     0
 90
        1
176
     0
 40
1.0
176
     0
 90
       10
176
     2
 62
     7
176
     0
 40
1.0
176
     0
 90
        1
176
     0
 90
        6
176
     0
 90
        2
176
     0
 62
     7
176
     0
 90
        5
176
     0
 90
        0
176
     0
 90
        0
176
     0
290
     0
176
     0
 90
        1
176
     0
 40
0.0
176
     0
 90
        0
176
     0
290
     0
176
     0
290
     1
176
     0
290
     1
176
     0
290
     0
176
     0
290
     0
176
     0
290
     0
176
     0
290
     0
176
     0
290
     0
176
     0
290
     0
176
     0
 90
       50
176
     0
 40
0.0
176
     0
 40
1.0
176
     0
 90
        0
176
     0
 62
    18
420
        0
176
     0
 90
       50
176
     0
 90
        3
176
     0
 62
     5
420
      255
176
     0
290
     0
176
     0
 90
       50
176
     0
 90
       50
176
     0
 90
       50
176
     0
290
     0
176
     0
 90
       50
176
     0
 62
   256
176
     0
 40
1.0
176
     0
 90
        2
176
     0
  1
strokes_ogs.tif
176
     0
290
     0
176
     0
 40
1.0
176
     0
 40
1.0
176
     0
  0
VISUALSTYLE
  5
38
102
{ACAD_REACTORS
330
2A
102
}
330
2A
100
AcDbVisualStyle
  2
Linepattern
 70
    14
177
     3
291
     1
 70
    58
 90
        2
176
     1
 90
        2
176
     1
 90
        0
176
     1
 90
        0
176
     1
 40
0.6
176
     1
 40
30.0
176
     1
 62
     7
420
 16777215
176
     1
 90
        1
176
     1
 90
        4
176
     1
 62
     7
176
     1
 62
   257
176
     1
 90
        7
176
     1
 90
        7
176
     1
 40
1.0
176
     1
 90
        8
176
     1
 62
     7
176
     1
 40
1.0
176
     1
 90
        1
176
     1
 90
        6
176
     1
 90
        2
176
     1
 62
     7
176
     1
 90
        5
176
     1
 90
        0
176
     1
 90
        0
176
     1
290
     0
176
     1
 90
        1
176
     1
 40
0.0
176
     1
 90
        0
176
     1
290
     0
176
     1
290
     1
176
     1
290
     1
176
     1
290
     0
176
     1
290
     0
176
     1
290
     0
176
     1
290
     0
176
     1
290
     0
176
     1
290
     0
176
     1
 90
       50
176
     1
 40
0.0
176
     1
 40
1.0
176
     1
 90
        0
176
     1
 62
    18
420
        0
176
     1
 90
       50
176
     1
 90
        3
176
     1
 62
     5
420
      255
176
     1
290
     0
176
     1
 90
       50
176
     1
 90
       50
176
     1
 90
       50
176
     1
290
     0
176
     1
 90
       50
176
     1
 62
   256
176
     0
 40
1.0
176
     0
 90
        2
176
     1
  1
strokes_ogs.tif
176
     1
290
     0
176
     1
 40
1.0
176
     1
 40
1.0
176
     1
  0
VISUALSTYLE
  5
3C
102
{ACAD_REACTORS
330
2A
102
}
330
2A
100
AcDbVisualStyle
  2
OverhangOff
 70
    21
177
     3
291
     1
 70
    58
 90
        2
176
     0
 90
        2
176
     0
 90
        0
176
     0
 90
        0
176
     0
 40
0.6
176
     0
 40
30.0
176
     0
 62
     7
420
 16777215
176
     0
 90
        1
176
     0
 90
        4
176
     0
 62
     7
176
     0
 62
   257
176
     0
 90
        1
176
     0
 90
        1
176
     0
 40
1.0
176
     0
 90
        9
176
     2
 62
     7
176
     0
 40
1.0
176
     0
 90
        1
176
     0
 90
        6
176
     0
 90
        2
176
     0
 62
     7
176
     0
 90
        5
176
     0
 90
        0
176
     0
 90
        0
176
     0
290
     0
176
     0
 90
        1
176
     0
 40
0.0
176
     0
 90
        0
176
     0
290
     0
176
     0
290
     1
176
     0
290
     1
176
     0
290
     0
176
     0
290
     0
176
     0
290
     0
176
     0
290
     0
176
     0
290
     0
176
     0
290
     0
176
     0
 90
       50
176
     0
 40
0.0
176
     0
 40
1.0
176
     0
 90
        0
176
     0
 62
    18
420
        0
176
     0
 90
       50
176
     0
 90
        3
176
     0
 62
     5
420
      255
176
     0
290
     0
176
     0
 90
       50
176
     0
 90
       50
176
     0
 90
       50
176
     0
290
     0
176
     0
 90
       50
176
     0
 62
   256
176
     0
 40
1.0
176
     0
 90
        2
176
     0
  1
strokes_ogs.tif
176
     0
290
     0
176
     0
 40
1.0
176
     0
 40
1.0
176
     0
  0
VISUALSTYLE
  5
33
102
{ACAD_REACTORS
330
2A
102
}
330
2A
100
AcDbVisualStyle
  2
Realistic
 70
     8
177
     3
291
     0
 70
    58
 90
        2
176
     1
 90
        3
176
     1
 90
        0
176
     1
 90
        2
176
     1
 40
0.6
176
     1
 40
30.0
176
     1
 62
     7
420
 16777215
176
     1
 90
        0
176
     1
 90
        0
176
     1
 62
     7
176
     1
 62
   257
176
     1
 90
        1
176
     1
 90
        1
176
     1
 40
1.0
176
     1
 90
        8
176
     1
 62
   257
176
     1
 40
1.0
176
     1
 90
        1
176
     1
 90
        6
176
     1
 90
        2
176
     1
 62
     7
176
     1
 90
        3
176
     1
 90
        0
176
     1
 90
        0
176
     1
290
     0
176
     1
 90
       13
176
     1
 40
0.0
176
     1
 90
        0
176
     1
290
     0
176
     1
290
     1
176
     1
290
     1
176
     1
290
     0
176
     1
290
     0
176
     1
290
     0
176
     1
290
     0
176
     1
290
     0
176
     1
290
     0
176
     1
 90
       50
176
     1
 40
0.0
176
     1
 40
1.0
176
     1
 90
        0
176
     1
 62
    18
420
        0
176
     1
 90
       50
176
     1
 90
        3
176
     1
 62
     5
420
      255
176
     1
290
     0
176
     1
 90
       50
176
     1
 90
       50
176
     1
 90
       50
176
     1
290
     0
176
     1
 90
       50
176
     1
 62
   256
176
     0
 40
1.0
176
     0
 90
        2
176
     1
  1
strokes_ogs.tif
176
     1
290
     0
176
     1
 40
1.0
176
     1
 40
1.0
176
     1
  0
VISUALSTYLE
  5
42
102
{ACAD_REACTORS
330
2A
102
}
330
2A
100
AcDbVisualStyle
  2
Shaded
 70
    27
177
     3
291
     0
 70
    58
 90
        2
176
     1
 90
        2
176
     1
 90
        1
176
     1
 90
        2
176
     1
 40
0.6
176
     1
 40
30.0
176
     1
 62
     7
420
 16777215
176
     1
 90
        0
176
     1
 90
        4
176
     1
 62
     7
176
     1
 62
   257
176
     1
 90
        1
176
     1
 90
        1
176
     1
 40
1.0
176
     1
 90
        8
176
     1
 62
   257
176
     1
 40
1.0
176
     1
 90
        1
176
     1
 90
        6
176
     1
 90
        2
176
     1
 62
     8
420
  7895160
176
     1
 90
        3
176
     1
 90
        0
176
     1
 90
        0
176
     1
290
     0
176
     1
 90
        5
176
     1
 40
0.0
176
     1
 90
        0
176
     1
290
     0
176
     1
290
     1
176
     1
290
     1
176
     1
290
     0
176
     1
290
     0
176
     1
290
     0
176
     1
290
     0
176
     1
290
     0
176
     1
290
     0
176
     1
 90
       50
176
     1
 40
0.0
176
     1
 40
1.0
176
     1
 90
        0
176
     1
 62
    18
420
        0
176
     1
 90
       50
176
     1
 90
        3
176
     1
 62
     5
420
      255
176
     1
290
     0
176
     1
 90
       50
176
     1
 90
       50
176
     1
 90
       50
176
     1
290
     0
176
     1
 90
       50
176
     1
 62
   256
176
     0
 40
1.0
176
     0
 90
        2
176
     1
  1
strokes_ogs.tif
176
     1
290
     0
176
     1
 40
1.0
176
     1
 40
1.0
176
     1
  0
VISUALSTYLE
  5
41
102
{ACAD_REACTORS
330
2A
102
}
330
2A
100
AcDbVisualStyle
  2
Shaded with edges
 70
    26
177
     3
291
     0
 70
    58
 90
        2
176
     1
 90
        2
176
     1
 90
        1
176
     1
 90
        2
176
     1
 40
0.6
176
     1
 40
30.0
176
     1
 62
     7
420
 16777215
176
     1
 90
        1
176
     1
 90
       10
176
     1
 62
     7
176
     1
 62
   257
176
     1
 90
        2
176
     1
 90
        1
176
     1
 40
1.0
176
     1
 90
        8
176
     1
 62
   257
176
     1
 40
1.0
176
     1
 90
        1
176
     1
 90
        6
176
     1
 90
        2
176
     1
 62
     7
176
     1
 90
        3
176
     1
 90
        0
176
     1
 90
        0
176
     1
290
     0
176
     1
 90
        5
176
     1
 40
0.0
176
     1
 90
        0
176
     1
290
     0
176
     1
290
     1
176
     1
290
     1
176
     1
290
     0
176
     1
290
     0
176
     1
290
     0
176
     1
290
     0
176
     1
290
     0
176
     1
290
     0
176
     1
 90
       50
176
     1
 40
0.0
176
     1
 40
1.0
176
     1
 90
        0
176
     1
 62
    18
420
        0
176
     1
 90
       50
176
     1
 90
        3
176
     1
 62
     5
420
      255
176
     1
290
     0
176
     1
 90
       50
176
     1
 90
       50
176
     1
 90
       50
176
     1
290
     0
176
     1
 90
       50
176
     1
 62
   256
176
     0
 40
1.0
176
     0
 90
        2
176
     1
  1
strokes_ogs.tif
176
     1
290
     0
176
     1
 40
1.0
176
     1
 40
1.0
176
     1
  0
VISUALSTYLE
  5
3E
102
{ACAD_REACTORS
330
2A
102
}
330
2A
100
AcDbVisualStyle
  2
Shades of Gray
 70
    23
177
     3
291
     0
 70
    58
 90
        2
176
     1
 90
        2
176
     1
 90
        3
176
     1
 90
        0
176
     1
 40
0.6
176
     1
 40
30.0
176
     1
 62
     7
420
 16777215
176
     1
 90
        2
176
     1
 90
        2
176
     1
 62
     7
176
     1
 62
     7
176
     1
 90
        1
176
     1
 90
        1
176
     1
 40
40.0
176
     1
 90
        8
176
     1
 62
     7
176
     1
 40
1.0
176
     1
 90
        1
176
     1
 90
        6
176
     1
 90
        2
176
     1
 62
     7
176
     1
 90
        3
176
     1
 90
        0
176
     1
 90
        0
176
     1
290
     0
176
     1
 90
        1
176
     1
 40
0.0
176
     1
 90
        0
176
     1
290
     0
176
     1
290
     1
176
     1
290
     1
176
     1
290
     0
176
     1
290
     0
176
     1
290
     0
176
     1
290
     0
176
     1
290
     0
176
     1
290
     0
176
     1
 90
       50
176
     1
 40
0.0
176
     1
 40
1.0
176
     1
 90
        0
176
     1
 62
    18
420
        0
176
     1
 90
       50
176
     1
 90
        3
176
     1
 62
     5
420
      255
176
     1
290
     0
176
     1
 90
       50
176
     1
 90
       50
176
     1
 90
       50
176
     1
290
     0
176
     1
 90
       50
176
     1
 62
   256
176
     0
 40
1.0
176
     0
 90
        2
176
     1
  1
strokes_ogs.tif
176
     1
290
     0
176
     1
 40
1.0
176
     1
 40
1.0
176
     1
  0
VISUALSTYLE
  5
3F
102
{ACAD_REACTORS
330
2A
102
}
330
2A
100
AcDbVisualStyle
  2
Sketchy
 70
    24
177
     3
291
     0
 70
    58
 90
        1
176
     1
 90
        2
176
     1
 90
        2
176
     1
 90
        0
176
     1
 40
0.6
176
     1
 40
30.0
176
     1
 62
     7
420
 16777215
176
     1
 90
        2
176
     1
 90
        2
176
     1
 62
     7
176
     1
 62
     7
176
     1
 90
        1
176
     1
 90
        1
176
     1
 40
40.0
176
     1
 90
       11
176
     1
 62
     7
176
     1
 40
1.0
176
     1
 90
        1
176
     1
 90
        6
176
     1
 90
        2
176
     1
 62
     7
176
     1
 90
        6
176
     1
 90
        0
176
     1
 90
        0
176
     1
290
     0
176
     1
 90
        1
176
     1
 40
0.0
176
     1
 90
        0
176
     1
290
     0
176
     1
290
     1
176
     1
290
     1
176
     1
290
     0
176
     1
290
     0
176
     1
290
     0
176
     1
290
     0
176
     1
290
     0
176
     1
290
     0
176
     1
 90
       50
176
     1
 40
0.0
176
     1
 40
1.0
176
     1
 90
        0
176
     1
 62
    18
420
        0
176
     1
 90
       50
176
     1
 90
        3
176
     1
 62
     5
420
      255
176
     1
290
     0
176
     1
 90
       50
176
     1
 90
       50
176
     1
 90
       50
176
     1
290
     0
176
     1
 90
       50
176
     1
 62
   256
176
     0
 40
1.0
176
     0
 90
        2
176
     1
  1
strokes_ogs.tif
176
     1
290
     0
176
     1
 40
1.0
176
     1
 40
1.0
176
     1
  0
VISUALSTYLE
  5
37
102
{ACAD_REACTORS
330
2A
102
}
330
2A
100
AcDbVisualStyle
  2
Thicken
 70
    13
177
     3
291
     1
 70
    58
 90
        2
176
     1
 90
        2
176
     1
 90
        0
176
     1
 90
        0
176
     1
 40
0.6
176
     1
 40
30.0
176
     1
 62
     7
420
 16777215
176
     1
 90
        1
176
     1
 90
        4
176
     1
 62
     7
176
     1
 62
   257
176
     1
 90
        1
176
     1
 90
        1
176
     1
 40
1.0
176
     1
 90
       12
176
     1
 62
     7
176
     1
 40
1.0
176
     1
 90
        1
176
     1
 90
        6
176
     1
 90
        2
176
     1
 62
     7
176
     1
 90
        5
176
     1
 90
        0
176
     1
 90
        0
176
     1
290
     0
176
     1
 90
        1
176
     1
 40
0.0
176
     1
 90
        0
176
     1
290
     0
176
     1
290
     1
176
     1
290
     1
176
     1
290
     0
176
     1
290
     0
176
     1
290
     0
176
     1
290
     0
176
     1
290
     0
176
     1
290
     0
176
     1
 90
       50
176
     1
 40
0.0
176
     1
 40
1.0
176
     1
 90
        0
176
     1
 62
    18
420
        0
176
     1
 90
       50
176
     1
 90
        3
176
     1
 62
     5
420
      255
176
     1
290
     0
176
     1
 90
       50
176
     1
 90
       50
176
     1
 90
       50
176
     1
290
     0
176
     1
 90
       50
176
     1
 62
   256
176
     0
 40
1.0
176
     0
 90
        2
176
     1
  1
strokes_ogs.tif
176
     1
290
     0
176
     1
 40
1.0
176
     1
 40
1.0
176
     1
  0
VISUALSTYLE
  5
30
102
{ACAD_REACTORS
330
2A
102
}
330
2A
100
AcDbVisualStyle
  2
Wireframe
 70
     5
177
     3
291
     0
 70
    58
 90
        0
176
     1
 90
        2
176
     1
 90
        0
176
     1
 90
        0
176
     1
 40
0.6
176
     1
 40
30.0
176
     1
 62
     7
420
 16777215
176
     1
 90
        1
176
     1
 90
        4
176
     1
 62
     7
176
     1
 62
   257
176
     1
 90
        1
176
     1
 90
        1
176
     1
 40
1.0
176
     1
 90
        0
176
     1
 62
   257
176
     1
 40
1.0
176
     1
 90
        1
176
     1
 90
        6
176
     1
 90
        2
176
     1
 62
     7
176
     1
 90
        3
176
     1
 90
        0
176
     1
 90
        0
176
     1
290
     0
176
     1
 90
        1
176
     1
 40
0.0
176
     1
 90
        0
176
     1
290
     0
176
     1
290
     1
176
     1
290
     1
176
     1
290
     0
176
     1
290
     0
176
     1
290
     0
176
     1
290
     0
176
     1
290
     0
176
     1
290
     0
176
     1
 90
       50
176
     1
 40
0.0
176
     1
 40
1.0
176
     1
 90
        0
176
     1
 62
    18
420
        0
176
     1
 90
       50
176
     1
 90
        3
176
     1
 62
     5
420
      255
176
     1
290
     0
176
     1
 90
       50
176
     1
 90
       50
176
     1
 90
       50
176
     1
290
     0
176
     1
 90
       50
176
     1
 62
   256
176
     0
 40
1.0
176
     0
 90
        2
176
     1
  1
strokes_ogs.tif
176
     1
290
     0
176
     1
 40
1.0
176
     1
 40
1.0
176
     1
  0
VISUALSTYLE
  5
40
102
{ACAD_REACTORS
330
2A
102
}
330
2A
100
AcDbVisualStyle
  2
X-Ray
 70
    25
177
     3
291
     0
 70
    58
 90
        2
176
     1
 90
        2
176
     1
 90
        1
176
     1
 90
        1
176
     1
 40
0.5
176
     1
 40
30.0
176
     1
 62
     7
420
 16777215
176
     1
 90
        1
176
     1
 90
        0
176
     1
 62
     7
176
     1
 62
   257
176
     1
 90
        1
176
     1
 90
        1
176
     1
 40
1.0
176
     1
 90
        8
176
     1
 62
     7
176
     1
 40
1.0
176
     1
 90
        1
176
     1
 90
        6
176
     1
 90
        2
176
     1
 62
     7
176
     1
 90
        3
176
     1
 90
        0
176
     1
 90
        0
176
     1
290
     0
176
     1
 90
       13
176
     1
 40
0.0
176
     1
 90
        0
176
     1
290
     0
176
     1
290
     1
176
     1
290
     1
176
     1
290
     0
176
     1
290
     0
176
     1
290
     0
176
     1
290
     0
176
     1
290
     0
176
     1
290
     0
176
     1
 90
       50
176
     1
 40
0.0
176
     1
 40
1.0
176
     1
 90
        0
176
     1
 62
    18
420
        0
176
     1
 90
       50
176
     1
 90
        3
176
     1
 62
     5
420
      255
176
     1
290
     0
176
     1
 90
       50
176
     1
 90
       50
176
     1
 90
       50
176
     1
290
     0
176
     1
 90
       50
176
     1
 62
   256
176
     0
 40
1.0
176
     0
 90
        2
176
     1
  1
strokes_ogs.tif
176
     1
290
     0
176
     1
 40
1.0
176
     1
 40
1.0
176
     1
  0
DICTIONARYVAR
  5
1E1
102
{ACAD_REACTORS
330
1E0
102
}
330
1E0
100
DictionaryVariables
280
     0
  1
1:1
  0
DICTIONARYVAR
  5
1E6
102
{ACAD_REACTORS
330
1E0
102
}
330
1E0
100
DictionaryVariables
280
     0
  1
Standard
  0
DICTIONARYVAR
  5
1E5
102
{ACAD_REACTORS
330
1E0
102
}
330
1E0
100
DictionaryVariables
280
     0
  1
Standard
  0
DICTIONARY
  5
1E2
330
6A
100
AcDbDictionary
280
     1
281
     1
  3
ACAD_ROUNDTRIP_2008_TABLESTYLE_CELLSTYLEMAP
360
1E3
  0
CELLSTYLEMAP
  5
1E3
102
{ACAD_REACTORS
330
1E2
102
}
330
1E2
100
AcDbCellStyleMap
 90
        3
300
CELLSTYLE
  1
TABLEFORMAT_BEGIN
 90
        5
170
     1
 91
        0
 92
    32768
 62
   257
 93
        1
300
CONTENTFORMAT
  1
CONTENTFORMAT_BEGIN
 90
        0
 91
        0
 92
        4
 93
        0
300

 40
0.0
140
1.0
 94
        5
 62
     0
340
11
144
0.25
309
CONTENTFORMAT_END
171
     1
301
MARGIN
  1
CELLMARGIN_BEGIN
 40
0.06
 40
0.06
 40
0.06
 40
0.06
 40
0.06
 40
0.06
309
CELLMARGIN_END
 94
        6
 95
        1
302
GRIDFORMAT
  1
GRIDFORMAT_BEGIN
 90
        0
 91
        1
 62
     0
 92
       -2
340
14
 93
        0
 40
0.045
309
GRIDFORMAT_END
 95
        2
302
GRIDFORMAT
  1
GRIDFORMAT_BEGIN
 90
        0
 91
        1
 62
     0
 92
       -2
340
14
 93
        0
 40
0.045
309
GRIDFORMAT_END
 95
        4
302
GRIDFORMAT
  1
GRIDFORMAT_BEGIN
 90
        0
 91
        1
 62
     0
 92
       -2
340
14
 93
        0
 40
0.045
309
GRIDFORMAT_END
 95
        8
302
GRIDFORMAT
  1
GRIDFORMAT_BEGIN
 90
        0
 91
        1
 62
     0
 92
       -2
340
14
 93
        0
 40
0.045
309
GRIDFORMAT_END
 95
       16
302
GRIDFORMAT
  1
GRIDFORMAT_BEGIN
 90
        0
 91
        1
 62
     0
 92
       -2
340
14
 93
        0
 40
0.045
309
GRIDFORMAT_END
 95
       32
302
GRIDFORMAT
  1
GRIDFORMAT_BEGIN
 90
        0
 91
        1
 62
     0
 92
       -2
340
14
 93
        0
 40
0.045
309
GRIDFORMAT_END
309
TABLEFORMAT_END
  1
CELLSTYLE_BEGIN
 90
        1
 91
        1
300
_TITLE
309
CELLSTYLE_END
300
CELLSTYLE
  1
TABLEFORMAT_BEGIN
 90
        5
170
     1
 91
        0
 92
        0
 62
   257
 93
        1
300
CONTENTFORMAT
  1
CONTENTFORMAT_BEGIN
 90
        0
 91
        0
 92
        4
 93
        0
300

 40
0.0
140
1.0
 94
        5
 62
     0
340
11
144
0.18
309
CONTENTFORMAT_END
171
     1
301
MARGIN
  1
CELLMARGIN_BEGIN
 40
0.06
 40
0.06
 40
0.06
 40
0.06
 40
0.06
 40
0.06
309
CELLMARGIN_END
 94
        6
 95
        1
302
GRIDFORMAT
  1
GRIDFORMAT_BEGIN
 90
        0
 91
        1
 62
     0
 92
       -2
340
14
 93
        0
 40
0.045
309
GRIDFORMAT_END
 95
        2
302
GRIDFORMAT
  1
GRIDFORMAT_BEGIN
 90
        0
 91
        1
 62
     0
 92
       -2
340
14
 93
        0
 40
0.045
309
GRIDFORMAT_END
 95
        4
302
GRIDFORMAT
  1
GRIDFORMAT_BEGIN
 90
        0
 91
        1
 62
     0
 92
       -2
340
14
 93
        0
 40
0.045
309
GRIDFORMAT_END
 95
        8
302
GRIDFORMAT
  1
GRIDFORMAT_BEGIN
 90
        0
 91
        1
 62
     0
 92
       -2
340
14
 93
        0
 40
0.045
309
GRIDFORMAT_END
 95
       16
302
GRIDFORMAT
  1
GRIDFORMAT_BEGIN
 90
        0
 91
        1
 62
     0
 92
       -2
340
14
 93
        0
 40
0.045
309
GRIDFORMAT_END
 95
       32
302
GRIDFORMAT
  1
GRIDFORMAT_BEGIN
 90
        0
 91
        1
 62
     0
 92
       -2
340
14
 93
        0
 40
0.045
309
GRIDFORMAT_END
309
TABLEFORMAT_END
  1
CELLSTYLE_BEGIN
 90
        2
 91
        1
300
_HEADER
309
CELLSTYLE_END
300
CELLSTYLE
  1
TABLEFORMAT_BEGIN
 90
        5
170
     1
 91
        0
 92
        0
 62
   257
 93
        1
300
CONTENTFORMAT
  1
CONTENTFORMAT_BEGIN
 90
        0
 91
        0
 92
        4
 93
        0
300

 40
0.0
140
1.0
 94
        2
 62
     0
340
11
144
0.18
309
CONTENTFORMAT_END
171
     1
301
MARGIN
  1
CELLMARGIN_BEGIN
 40
0.06
 40
0.06
 40
0.06
 40
0.06
 40
0.06
 40
0.06
309
CELLMARGIN_END
 94
        6
 95
        1
302
GRIDFORMAT
  1
GRIDFORMAT_BEGIN
 90
        0
 91
        1
 62
     0
 92
       -2
340
14
 93
        0
 40
0.045
309
GRIDFORMAT_END
 95
        2
302
GRIDFORMAT
  1
GRIDFORMAT_BEGIN
 90
        0
 91
        1
 62
     0
 92
       -2
340
14
 93
        0
 40
0.045
309
GRIDFORMAT_END
 95
        4
302
GRIDFORMAT
  1
GRIDFORMAT_BEGIN
 90
        0
 91
        1
 62
     0
 92
       -2
340
14
 93
        0
 40
0.045
309
GRIDFORMAT_END
 95
        8
302
GRIDFORMAT
  1
GRIDFORMAT_BEGIN
 90
        0
 91
        1
 62
     0
 92
       -2
340
14
 93
        0
 40
0.045
309
GRIDFORMAT_END
 95
       16
302
GRIDFORMAT
  1
GRIDFORMAT_BEGIN
 90
        0
 91
        1
 62
     0
 92
       -2
340
14
 93
        0
 40
0.045
309
GRIDFORMAT_END
 95
       32
302
GRIDFORMAT
  1
GRIDFORMAT_BEGIN
 90
        0
 91
        1
 62
     0
 92
       -2
340
14
 93
        0
 40
0.045
309
GRIDFORMAT_END
309
TABLEFORMAT_END
  1
CELLSTYLE_BEGIN
 90
        3
 91
        2
300
_DATA
309
CELLSTYLE_END
  0
ENDSEC
  0
EOF