0
SECTION
  2
HEADER
  9
$ACADVER
  1
AC1027
  9
$ACADMAINTVER
 70
     8
  9
$DWGCODEPAGE
  3
ANSI_1252
  9
$REQUIREDVERSIONS
160
                 0
  9
$COMMENTS
  1
File was created by Cadenas
  9
$CUSTOMPROPERTYTAG
  1
NN
  9
$CUSTOMPROPERTY
  1
Set Screw G Normal Duty Top Angle Take-up Inch Bore
  9
$CUSTOMPROPERTYTAG
  1
NT
  9
$CUSTOMPROPERTY
  1
SC Pillow Block Bearings -(Normal Duty) -Corrosion Resistant Insert -Polymer Housed -Tapped Base Housing -E-Z KLEEN
  9
$CUSTOMPROPERTYTAG
  1
NB
  9
$CUSTOMPROPERTY
  1
012302
  9
$CUSTOMPROPERTYTAG
  1
NBSYN
  9
$CUSTOMPROPERTY
  1
$PN.
  9
$CUSTOMPROPERTYTAG
  1
LINA
  9
$CUSTOMPROPERTY
  1
012302
  9
$CUSTOMPROPERTYTAG
  1
SERIES
  9
$CUSTOMPROPERTY
  1
210
  9
$CUSTOMPROPERTYTAG
  1
SS
  9
$CUSTOMPROPERTY
  1
2
  9
$CUSTOMPROPERTYTAG
  1
PN
  9
$CUSTOMPROPERTY
  1
012302
  9
$CUSTOMPROPERTYTAG
  1
DESCRIPTION
  9
$CUSTOMPROPERTY
  1
TP-G-200
  9
$CUSTOMPROPERTYTAG
  1
W
  9
$CUSTOMPROPERTY
  1
10.0
  9
$CUSTOMPROPERTYTAG
  1
FS
  9
$CUSTOMPROPERTY
  1
TP10
  9
$CUSTOMPROPERTYTAG
  1
A
  9
$CUSTOMPROPERTY
  1
1.94
  9
$CUSTOMPROPERTYTAG
  1
B
  9
$CUSTOMPROPERTY
  1
6.50
  9
$CUSTOMPROPERTYTAG
  1
C
  9
$CUSTOMPROPERTY
  1
2.38
  9
$CUSTOMPROPERTYTAG
  1
D
  9
$CUSTOMPROPERTY
  1
6.00
  9
$CUSTOMPROPERTYTAG
  1
E
  9
$CUSTOMPROPERTY
  1
3.25
  9
$CUSTOMPROPERTYTAG
  1
J
  9
$CUSTOMPROPERTY
  1
6.38
  9
$CUSTOMPROPERTYTAG
  1
L
  9
$CUSTOMPROPERTY
  1
2.43
  9
$CUSTOMPROPERTYTAG
  1
N
  9
$CUSTOMPROPERTY
  1
1.19
  9
$CUSTOMPROPERTYTAG
  1
R
  9
$CUSTOMPROPERTY
  1
0.75
  9
$CUSTOMPROPERTYTAG
  1
T
  9
$CUSTOMPROPERTY
  1
2.38
  9
$CUSTOMPROPERTYTAG
  1
COMPANY
  9
$CUSTOMPROPERTY
  1
baldor
  9
$INSBASE
 10
0.0
 20
0.0
 30
0.0
  9
$EXTMIN
 10
1.000000000000000E+20
 20
1.000000000000000E+20
 30
1.000000000000000E+20
  9
$EXTMAX
 10
-1.000000000000000E+20
 20
-1.000000000000000E+20
 30
-1.000000000000000E+20
  9
$LIMMIN
 10
0.0
 20
0.0
  9
$LIMMAX
 10
12.0
 20
9.0
  9
$ORTHOMODE
 70
     0
  9
$REGENMODE
 70
     1
  9
$FILLMODE
 70
     1
  9
$QTEXTMODE
 70
     0
  9
$MIRRTEXT
 70
     1
  9
$LTSCALE
 40
1.0
  9
$ATTMODE
 70
     1
  9
$TEXTSIZE
 40
0.2
  9
$TRACEWID
 40
0.05
  9
$TEXTSTYLE
  7
Standard
  9
$CLAYER
  8
0
  9
$CELTYPE
  6
ByLayer
  9
$CECOLOR
 62
   256
  9
$CELTSCALE
 40
1.0
  9
$DISPSILH
 70
     0
  9
$DIMSCALE
 40
1.0
  9
$DIMASZ
 40
0.18
  9
$DIMEXO
 40
0.0625
  9
$DIMDLI
 40
0.38
  9
$DIMRND
 40
0.0
  9
$DIMDLE
 40
0.0
  9
$DIMEXE
 40
0.18
  9
$DIMTP
 40
0.0
  9
$DIMTM
 40
0.0
  9
$DIMTXT
 40
0.18
  9
$DIMCEN
 40
0.09
  9
$DIMTSZ
 40
0.0
  9
$DIMTOL
 70
     0
  9
$DIMLIM
 70
     0
  9
$DIMTIH
 70
     1
  9
$DIMTOH
 70
     1
  9
$DIMSE1
 70
     0
  9
$DIMSE2
 70
     0
  9
$DIMTAD
 70
     0
  9
$DIMZIN
 70
     0
  9
$DIMBLK
  1

  9
$DIMASO
 70
     1
  9
$DIMSHO
 70
     1
  9
$DIMPOST
  1

  9
$DIMAPOST
  1

  9
$DIMALT
 70
     0
  9
$DIMALTD
 70
     2
  9
$DIMALTF
 40
25.4
  9
$DIMLFAC
 40
1.0
  9
$DIMTOFL
 70
     0
  9
$DIMTVP
 40
0.0
  9
$DIMTIX
 70
     0
  9
$DIMSOXD
 70
     0
  9
$DIMSAH
 70
     0
  9
$DIMBLK1
  1

  9
$DIMBLK2
  1

  9
$DIMSTYLE
  2
Standard
  9
$DIMCLRD
 70
     0
  9
$DIMCLRE
 70
     0
  9
$DIMCLRT
 70
     0
  9
$DIMTFAC
 40
1.0
  9
$DIMGAP
 40
0.09
  9
$DIMJUST
 70
     0
  9
$DIMSD1
 70
     0
  9
$DIMSD2
 70
     0
  9
$DIMTOLJ
 70
     1
  9
$DIMTZIN
 70
     0
  9
$DIMALTZ
 70
     0
  9
$DIMALTTZ
 70
     0
  9
$DIMUPT
 70
     0
  9
$DIMDEC
 70
     4
  9
$DIMTDEC
 70
     4
  9
$DIMALTU
 70
     2
  9
$DIMALTTD
 70
     2
  9
$DIMTXSTY
  7
Standard
  9
$DIMAUNIT
 70
     0
  9
$DIMADEC
 70
     0
  9
$DIMALTRND
 40
0.0
  9
$DIMAZIN
 70
     0
  9
$DIMDSEP
 70
    46
  9
$DIMATFIT
 70
     3
  9
$DIMFRAC
 70
     0
  9
$DIMLDRBLK
  1

  9
$DIMLUNIT
 70
     2
  9
$DIMLWD
 70
    -2
  9
$DIMLWE
 70
    -2
  9
$DIMTMOVE
 70
     0
  9
$DIMFXL
 40
1.0
  9
$DIMFXLON
 70
     0
  9
$DIMJOGANG
 40
0.7853981633974483
  9
$DIMTFILL
 70
     0
  9
$DIMTFILLCLR
 70
     0
  9
$DIMARCSYM
 70
     0
  9
$DIMLTYPE
  6

  9
$DIMLTEX1
  6

  9
$DIMLTEX2
  6

  9
$DIMTXTDIRECTION
 70
     0
  9
$LUNITS
 70
     2
  9
$LUPREC
 70
     4
  9
$SKETCHINC
 40
0.1
  9
$FILLETRAD
 40
0.5
  9
$AUNITS
 70
     0
  9
$AUPREC
 70
     0
  9
$MENU
  1
.
  9
$ELEVATION
 40
0.0
  9
$PELEVATION
 40
0.0
  9
$THICKNESS
 40
0.0
  9
$LIMCHECK
 70
     0
  9
$CHAMFERA
 40
0.0
  9
$CHAMFERB
 40
0.0
  9
$CHAMFERC
 40
0.0
  9
$CHAMFERD
 40
0.0
  9
$SKPOLY
 70
     0
  9
$TDCREATE
 40
2458168.99800331
  9
$TDUCREATE
 40
2458168.956336644
  9
$TDUPDATE
 40
2458168.998003495
  9
$TDUUPDATE
 40
2458168.956336829
  9
$TDINDWG
 40
0.0000000116
  9
$TDUSRTIMER
 40
0.0000000116
  9
$USRTIMER
 70
     1
  9
$ANGBASE
 50
0.0
  9
$ANGDIR
 70
     0
  9
$PDMODE
 70
     0
  9
$PDSIZE
 40
0.0
  9
$PLINEWID
 40
0.0
  9
$SPLFRAME
 70
     0
  9
$SPLINETYPE
 70
     6
  9
$SPLINESEGS
 70
     8
  9
$HANDSEED
  5
1A5
  9
$SURFTAB1
 70
     6
  9
$SURFTAB2
 70
     6
  9
$SURFTYPE
 70
     6
  9
$SURFU
 70
     6
  9
$SURFV
 70
     6
  9
$UCSBASE
  2

  9
$UCSNAME
  2

  9
$UCSORG
 10
0.0
 20
0.0
 30
0.0
  9
$UCSXDIR
 10
1.0
 20
0.0
 30
0.0
  9
$UCSYDIR
 10
0.0
 20
1.0
 30
0.0
  9
$UCSORTHOREF
  2

  9
$UCSORTHOVIEW
 70
     0
  9
$UCSORGTOP
 10
0.0
 20
0.0
 30
0.0
  9
$UCSORGBOTTOM
 10
0.0
 20
0.0
 30
0.0
  9
$UCSORGLEFT
 10
0.0
 20
0.0
 30
0.0
  9
$UCSORGRIGHT
 10
0.0
 20
0.0
 30
0.0
  9
$UCSORGFRONT
 10
0.0
 20
0.0
 30
0.0
  9
$UCSORGBACK
 10
0.0
 20
0.0
 30
0.0
  9
$PUCSBASE
  2

  9
$PUCSNAME
  2

  9
$PUCSORG
 10
0.0
 20
0.0
 30
0.0
  9
$PUCSXDIR
 10
1.0
 20
0.0
 30
0.0
  9
$PUCSYDIR
 10
0.0
 20
1.0
 30
0.0
  9
$PUCSORTHOREF
  2

  9
$PUCSORTHOVIEW
 70
     0
  9
$PUCSORGTOP
 10
0.0
 20
0.0
 30
0.0
  9
$PUCSORGBOTTOM
 10
0.0
 20
0.0
 30
0.0
  9
$PUCSORGLEFT
 10
0.0
 20
0.0
 30
0.0
  9
$PUCSORGRIGHT
 10
0.0
 20
0.0
 30
0.0
  9
$PUCSORGFRONT
 10
0.0
 20
0.0
 30
0.0
  9
$PUCSORGBACK
 10
0.0
 20
0.0
 30
0.0
  9
$USERI1
 70
     0
  9
$USERI2
 70
     0
  9
$USERI3
 70
     0
  9
$USERI4
 70
     0
  9
$USERI5
 70
     0
  9
$USERR1
 40
0.0
  9
$USERR2
 40
0.0
  9
$USERR3
 40
0.0
  9
$USERR4
 40
0.0
  9
$USERR5
 40
0.0
  9
$WORLDVIEW
 70
     1
  9
$SHADEDGE
 70
     3
  9
$SHADEDIF
 70
    70
  9
$TILEMODE
 70
     1
  9
$MAXACTVP
 70
    64
  9
$PINSBASE
 10
0.0
 20
0.0
 30
0.0
  9
$PLIMCHECK
 70
     0
  9
$PEXTMIN
 10
1.000000000000000E+20
 20
1.000000000000000E+20
 30
1.000000000000000E+20
  9
$PEXTMAX
 10
-1.000000000000000E+20
 20
-1.000000000000000E+20
 30
-1.000000000000000E+20
  9
$PLIMMIN
 10
0.0
 20
0.0
  9
$PLIMMAX
 10
12.0
 20
9.0
  9
$UNITMODE
 70
     0
  9
$VISRETAIN
 70
     1
  9
$PLINEGEN
 70
     0
  9
$PSLTSCALE
 70
     1
  9
$TREEDEPTH
 70
  3020
  9
$CMLSTYLE
  2
Standard
  9
$CMLJUST
 70
     0
  9
$CMLSCALE
 40
1.0
  9
$PROXYGRAPHICS
 70
     1
  9
$MEASUREMENT
 70
     0
  9
$CELWEIGHT
370
    -1
  9
$ENDCAPS
280
     0
  9
$JOINSTYLE
280
     0
  9
$LWDISPLAY
290
     0
  9
$INSUNITS
 70
     1
  9
$HYPERLINKBASE
  1

  9
$STYLESHEET
  1

  9
$XEDIT
290
     1
  9
$CEPSNTYPE
380
     0
  9
$PSTYLEMODE
290
     1
  9
$FINGERPRINTGUID
  2
{26A79508-AC03-4D30-89CE-85D629E8DE97}
  9
$VERSIONGUID
  2
{FAEB1C32-E019-11D5-929B-00C0DF256EC4}
  9
$EXTNAMES
290
     1
  9
$PSVPSCALE
 40
0.0
  9
$OLESTARTUP
290
     0
  9
$SORTENTS
280
   127
  9
$INDEXCTL
280
     0
  9
$HIDETEXT
280
     1
  9
$XCLIPFRAME
280
     2
  9
$HALOGAP
280
     0
  9
$OBSCOLOR
 70
   257
  9
$OBSLTYPE
280
     0
  9
$INTERSECTIONDISPLAY
280
     0
  9
$INTERSECTIONCOLOR
 70
   257
  9
$DIMASSOC
280
     2
  9
$PROJECTNAME
  1

  9
$CAMERADISPLAY
290
     0
  9
$LENSLENGTH
 40
50.0
  9
$CAMERAHEIGHT
 40
0.0
  9
$STEPSPERSEC
 40
2.0
  9
$STEPSIZE
 40
6.0
  9
$3DDWFPREC
 40
2.0
  9
$PSOLWIDTH
 40
0.25
  9
$PSOLHEIGHT
 40
4.0
  9
$LOFTANG1
 40
1.570796326794897
  9
$LOFTANG2
 40
1.570796326794897
  9
$LOFTMAG1
 40
0.0
  9
$LOFTMAG2
 40
0.0
  9
$LOFTPARAM
 70
     7
  9
$LOFTNORMALS
280
     1
  9
$LATITUDE
 40
37.795
  9
$LONGITUDE
 40
-122.394
  9
$NORTHDIRECTION
 40
0.0
  9
$TIMEZONE
 70
 -8000
  9
$LIGHTGLYPHDISPLAY
280
     1
  9
$TILEMODELIGHTSYNCH
280
     1
  9
$CMATERIAL
347
44
  9
$SOLIDHIST
280
     0
  9
$SHOWHIST
280
     1
  9
$DWFFRAME
280
     2
  9
$DGNFRAME
280
     2
  9
$REALWORLDSCALE
290
     1
  9
$INTERFERECOLOR
 62
   256
  9
$CSHADOW
280
     0
  9
$SHADOWPLANELOCATION
 40
0.0
  0
ENDSEC
  0
SECTION
  2
CLASSES
  0
CLASS
  1
ACDBDICTIONARYWDFLT
  2
AcDbDictionaryWithDefault
  3
ObjectDBX Classes
 90
        0
 91
        4
280
     0
281
     0
  0
CLASS
  1
VISUALSTYLE
  2
AcDbVisualStyle
  3
ObjectDBX Classes
 90
     4095
 91
        4
280
     0
281
     0
  0
CLASS
  1
MATERIAL
  2
AcDbMaterial
  3
ObjectDBX Classes
 90
     1153
 91
        4
280
     0
281
     0
  0
CLASS
  1
SCALE
  2
AcDbScale
  3
ObjectDBX Classes
 90
     1153
 91
        4
280
     0
281
     0
  0
CLASS
  1
TABLESTYLE
  2
AcDbTableStyle
  3
ObjectDBX Classes
 90
     4095
 91
        4
280
     0
281
     0
  0
CLASS
  1
MLEADERSTYLE
  2
AcDbMLeaderStyle
  3
ACDB_MLEADERSTYLE_CLASS
 90
     4095
 91
        4
280
     0
281
     0
  0
CLASS
  1
SUN
  2
AcDbSun
  3
SCENEOE
 90
     1153
 91
        4
280
     0
281
     0
  0
CLASS
  1
DICTIONARYVAR
  2
AcDbDictionaryVar
  3
ObjectDBX Classes
 90
        0
 91
        4
280
     0
281
     0
  0
CLASS
  1
CELLSTYLEMAP
  2
AcDbCellStyleMap
  3
ObjectDBX Classes
 90
     1152
 91
        4
280
     0
281
     0
  0
ENDSEC
  0
SECTION
  2
TABLES
  0
TABLE
  2
VPORT
  5
8
330
0
100
AcDbSymbolTable
 70
     1
  0
VPORT
  5
29
330
8
100
AcDbSymbolTableRecord
100
AcDbViewportTableRecord
  2
*Active
 70
     0
 10
0.0
 20
0.0
 11
1.0
 21
1.0
 12
0.0
 22
0.0
 13
0.0
 23
0.0
 14
0.5
 24
0.5
 15
0.5
 25
0.5
 16
0.0
 26
0.0
 36
1.0
 17
0.0
 27
0.0
 37
0.0
 40
5.283599922180174
 41
1.25482627330804
 42
50.0
 43
0.0
 44
0.0
 50
0.0
 51
0.0
 71
     0
 72
   100
 73
     1
 74
     3
 75
     0
 76
     0
 77
     0
 78
     0
281
     0
 65
     1
110
0.0
120
0.0
130
0.0
111
1.0
121
0.0
131
0.0
112
0.0
122
1.0
132
0.0
 79
     0
146
0.0
348
2F
 60
     3
 61
     5
292
     1
282
     1
141
0.0
142
0.0
 63
   250
361
6D
  0
ENDTAB
  0
TABLE
  2
LTYPE
  5
5
330
0
100
AcDbSymbolTable
 70
     3
  0
LTYPE
  5
14
330
5
100
AcDbSymbolTableRecord
100
AcDbLinetypeTableRecord
  2
ByBlock
 70
     0
  3

 72
    65
 73
     0
 40
0.0
  0
LTYPE
  5
15
330
5
100
AcDbSymbolTableRecord
100
AcDbLinetypeTableRecord
  2
ByLayer
 70
     0
  3

 72
    65
 73
     0
 40
0.0
  0
LTYPE
  5
16
330
5
100
AcDbSymbolTableRecord
100
AcDbLinetypeTableRecord
  2
Continuous
 70
     0
  3
Solid line
 72
    65
 73
     0
 40
0.0
  0
LTYPE
  5
95
330
5
100
AcDbSymbolTableRecord
100
AcDbLinetypeTableRecord
  2
Dashed
 70
     0
  3

 72
    65
 73
     2
 40
2.0
 49
1.0
 74
     0
 49
-1.0
 74
     0
  0
LTYPE
  5
C2
330
5
100
AcDbSymbolTableRecord
100
AcDbLinetypeTableRecord
  2
Center
 70
     0
  3

 72
    65
 73
     4
 40
1.5
 49
0.45
 74
     0
 49
-0.5
 74
     0
 49
0.05
 74
     0
 49
-0.5
 74
     0
  0
ENDTAB
  0
TABLE
  2
LAYER
  5
2
330
0
100
AcDbSymbolTable
 70
     7
  0
LAYER
  5
10
330
2
100
AcDbSymbolTableRecord
100
AcDbLayerTableRecord
  2
0
 70
     0
 62
     7
  6
Continuous
370
    -3
390
F
347
46
348
0
  0
LAYER
  5
72
330
2
100
AcDbSymbolTableRecord
100
AcDbLayerTableRecord
  2
AM_6
 70
     0
 62
    -2
  6
Continuous
370
    35
390
F
347
46
348
0
  0
LAYER
  5
96
330
2
100
AcDbSymbolTableRecord
100
AcDbLayerTableRecord
  2
AM_9
 70
     0
 62
     6
  6
Dashed
370
    25
390
F
347
46
348
0
  0
LAYER
  5
BC
330
2
100
AcDbSymbolTableRecord
100
AcDbLayerTableRecord
  2
AM_5
 70
     0
 62
     3
  6
Continuous
370
    25
390
F
347
46
348
0
  0
LAYER
  5
C3
330
2
100
AcDbSymbolTableRecord
100
AcDbLayerTableRecord
  2
AM_7
 70
     0
 62
     7
  6
Center
370
    25
390
F
347
46
348
0
  0
LAYER
  5
152
330
2
100
AcDbSymbolTableRecord
100
AcDbLayerTableRecord
  2
AM_4
 70
     0
 62
     7
  6
Continuous
370
    50
390
F
347
46
348
0
  0
LAYER
  5
197
330
2
100
AcDbSymbolTableRecord
100
AcDbLayerTableRecord
  2
ConnectionPoints
 70
     0
 62
     7
  6
Continuous
370
    50
390
F
347
46
348
0
  0
ENDTAB
  0
TABLE
  2
STYLE
  5
3
330
0
100
AcDbSymbolTable
 70
     1
  0
STYLE
  5
11
330
3
100
AcDbSymbolTableRecord
100
AcDbTextStyleTableRecord
  2
Standard
 70
     0
 40
0.0
 41
1.0
 50
0.0
 71
     0
 42
0.2
  3
txt
  4

  0
ENDTAB
  0
TABLE
  2
VIEW
  5
6
330
0
100
AcDbSymbolTable
 70
     0
  0
ENDTAB
  0
TABLE
  2
UCS
  5
7
330
0
100
AcDbSymbolTable
 70
     0
  0
ENDTAB
  0
TABLE
  2
APPID
  5
9
330
0
100
AcDbSymbolTable
 70
     1
  0
APPID
  5
12
330
9
100
AcDbSymbolTableRecord
100
AcDbRegAppTableRecord
  2
ACAD
 70
     0
  0
ENDTAB
  0
TABLE
  2
DIMSTYLE
  5
A
330
0
100
AcDbSymbolTable
 70
     1
100
AcDbDimStyleTable
  0
DIMSTYLE
105
27
330
A
100
AcDbSymbolTableRecord
100
AcDbDimStyleTableRecord
  2
Standard
 70
     0
178
     0
340
11
  0
ENDTAB
  0
TABLE
  2
BLOCK_RECORD
  5
1
330
0
100
AcDbSymbolTable
 70
     5
  0
BLOCK_RECORD
  5
1F
330
1
100
AcDbSymbolTableRecord
100
AcDbBlockTableRecord
  2
*Model_Space
340
22
 70
     0
280
     1
281
     0
  0
BLOCK_RECORD
  5
1B
330
1
100
AcDbSymbolTableRecord
100
AcDbBlockTableRecord
  2
*Paper_Space
340
1E
 70
     0
280
     1
281
     0
  0
BLOCK_RECORD
  5
23
330
1
100
AcDbSymbolTableRecord
100
AcDbBlockTableRecord
  2
*Paper_Space0
340
26
 70
     0
280
     1
281
     0
  0
BLOCK_RECORD
  5
6E
330
1
100
AcDbSymbolTableRecord
100
AcDbBlockTableRecord
  2
1_012302_4
340
0
102
{BLKREFS
331
6F
102
}
 70
     0
280
     1
281
     0
  0
BLOCK_RECORD
  5
89
330
1
100
AcDbSymbolTableRecord
100
AcDbBlockTableRecord
  2
2_405015E_Inch_0_in_012302_4
340
0
102
{BLKREFS
331
8A
102
}
 70
     0
280
     1
281
     0
  0
BLOCK_RECORD
  5
C5
330
1
100
AcDbSymbolTableRecord
100
AcDbBlockTableRecord
  2
3_123347_0_in_012302_4
340
0
102
{BLKREFS
331
C6
102
}
 70
     0
280
     1
281
     0
  0
BLOCK_RECORD
  5
122
330
1
100
AcDbSymbolTableRecord
100
AcDbBlockTableRecord
  2
4_012302H_0_in_012302_4
340
0
102
{BLKREFS
331
123
102
}
 70
     0
280
     1
281
     0
  0
ENDTAB
  0
ENDSEC
  0
SECTION
  2
BLOCKS
  0
BLOCK
  5
20
330
1F
100
AcDbEntity
  8
0
100
AcDbBlockBegin
  2
*Model_Space
 70
     0
 10
0.0
 20
0.0
 30
0.0
  3
*Model_Space
  1

  0
ENDBLK
  5
21
330
1F
100
AcDbEntity
  8
0
100
AcDbBlockEnd
  0
BLOCK
  5
1C
330
1B
100
AcDbEntity
 67
     1
  8
0
100
AcDbBlockBegin
  2
*Paper_Space
 70
     0
 10
0.0
 20
0.0
 30
0.0
  3
*Paper_Space
  1

  0
ENDBLK
  5
1D
330
1B
100
AcDbEntity
 67
     1
  8
0
100
AcDbBlockEnd
  0
BLOCK
  5
24
330
23
100
AcDbEntity
  8
0
100
AcDbBlockBegin
  2
*Paper_Space0
 70
     0
 10
0.0
 20
0.0
 30
0.0
  3
*Paper_Space0
  1

  0
ENDBLK
  5
25
330
23
100
AcDbEntity
  8
0
100
AcDbBlockEnd
  0
BLOCK
  5
70
330
6E
100
AcDbEntity
  8
0
100
AcDbBlockBegin
  2
1_012302_4
 70
     2
 10
0.0
 20
0.0
 30
0.0
  3
1_012302_4
  1

  0
ATTDEF
  5
73
330
6E
100
AcDbEntity
  8
AM_6
100
AcDbText
 10
8.25
 20
2.589999961853027
 30
0.0
 40
0.5
  1
Set Screw G Normal Duty Top Angle Take-up Inch Bore
100
AcDbAttributeDefinition
  3

  2
NN
 70
     8
280
     0
  0
ATTDEF
  5
74
330
6E
100
AcDbEntity
  8
AM_6
100
AcDbText
 10
8.25
 20
2.089999961853027
 30
0.0
 40
0.5
  1
SC Pillow Block Bearings -(Normal Duty) -Corrosion Resistant Insert -Polymer Housed -Tapped Base Housing -E-Z KLEEN
100
AcDbAttributeDefinition
  3

  2
NT
 70
     8
280
     0
  0
ATTDEF
  5
75
330
6E
100
AcDbEntity
  8
AM_6
100
AcDbText
 10
8.25
 20
1.589999961853027
 30
0.0
 40
0.5
  1
012302
100
AcDbAttributeDefinition
  3

  2
NB
 70
     8
280
     0
  0
ATTDEF
  5
76
330
6E
100
AcDbEntity
  8
AM_6
100
AcDbText
 10
8.25
 20
1.089999961853027
 30
0.0
 40
0.5
  1
$PN.
100
AcDbAttributeDefinition
  3

  2
NBSYN
 70
     8
280
     0
  0
ATTDEF
  5
77
330
6E
100
AcDbEntity
  8
AM_6
100
AcDbText
 10
8.25
 20
0.5899999618530272
 30
0.0
 40
0.5
  1
012302
100
AcDbAttributeDefinition
  3

  2
LINA
 70
     8
280
     0
  0
ATTDEF
  5
78
330
6E
100
AcDbEntity
  8
AM_6
100
AcDbText
 10
8.25
 20
0.0899999618530272
 30
0.0
 40
0.5
  1
210
100
AcDbAttributeDefinition
  3

  2
SERIES
 70
     8
280
     0
  0
ATTDEF
  5
79
330
6E
100
AcDbEntity
  8
AM_6
100
AcDbText
 10
8.25
 20
-0.4100000381469728
 30
0.0
 40
0.5
  1
2
100
AcDbAttributeDefinition
  3

  2
SS
 70
     8
280
     0
  0
ATTDEF
  5
7A
330
6E
100
AcDbEntity
  8
AM_6
100
AcDbText
 10
8.25
 20
-0.9100000381469728
 30
0.0
 40
0.5
  1
012302
100
AcDbAttributeDefinition
  3

  2
PN
 70
     8
280
     0
  0
ATTDEF
  5
7B
330
6E
100
AcDbEntity
  8
AM_6
100
AcDbText
 10
8.25
 20
-1.410000038146973
 30
0.0
 40
0.5
  1
TP-G-200
100
AcDbAttributeDefinition
  3

  2
DESCRIPTION
 70
     8
280
     0
  0
ATTDEF
  5
7C
330
6E
100
AcDbEntity
  8
AM_6
100
AcDbText
 10
8.25
 20
-1.910000038146973
 30
0.0
 40
0.5
  1
10.0
100
AcDbAttributeDefinition
  3

  2
W
 70
     8
280
     0
  0
ATTDEF
  5
7D
330
6E
100
AcDbEntity
  8
AM_6
100
AcDbText
 10
8.25
 20
-2.410000038146973
 30
0.0
 40
0.5
  1
TP10
100
AcDbAttributeDefinition
  3

  2
FS
 70
     8
280
     0
  0
ATTDEF
  5
7E
330
6E
100
AcDbEntity
  8
AM_6
100
AcDbText
 10
8.25
 20
-2.910000038146973
 30
0.0
 40
0.5
  1
1.94
100
AcDbAttributeDefinition
  3

  2
A
 70
     8
280
     0
  0
ATTDEF
  5
7F
330
6E
100
AcDbEntity
  8
AM_6
100
AcDbText
 10
8.25
 20
-3.410000038146973
 30
0.0
 40
0.5
  1
6.50
100
AcDbAttributeDefinition
  3

  2
B
 70
     8
280
     0
  0
ATTDEF
  5
80
330
6E
100
AcDbEntity
  8
AM_6
100
AcDbText
 10
8.25
 20
-3.910000038146973
 30
0.0
 40
0.5
  1
2.38
100
AcDbAttributeDefinition
  3

  2
C
 70
     8
280
     0
  0
ATTDEF
  5
81
330
6E
100
AcDbEntity
  8
AM_6
100
AcDbText
 10
8.25
 20
-4.410000038146973
 30
0.0
 40
0.5
  1
6.00
100
AcDbAttributeDefinition
  3

  2
D
 70
     8
280
     0
  0
ATTDEF
  5
82
330
6E
100
AcDbEntity
  8
AM_6
100
AcDbText
 10
8.25
 20
-4.910000038146973
 30
0.0
 40
0.5
  1
3.25
100
AcDbAttributeDefinition
  3

  2
E
 70
     8
280
     0
  0
ATTDEF
  5
83
330
6E
100
AcDbEntity
  8
AM_6
100
AcDbText
 10
8.25
 20
-5.410000038146973
 30
0.0
 40
0.5
  1
6.38
100
AcDbAttributeDefinition
  3

  2
J
 70
     8
280
     0
  0
ATTDEF
  5
84
330
6E
100
AcDbEntity
  8
AM_6
100
AcDbText
 10
8.25
 20
-5.910000038146973
 30
0.0
 40
0.5
  1
2.43
100
AcDbAttributeDefinition
  3

  2
L
 70
     8
280
     0
  0
ATTDEF
  5
85
330
6E
100
AcDbEntity
  8
AM_6
100
AcDbText
 10
8.25
 20
-6.410000038146973
 30
0.0
 40
0.5
  1
1.19
100
AcDbAttributeDefinition
  3

  2
N
 70
     8
280
     0
  0
ATTDEF
  5
86
330
6E
100
AcDbEntity
  8
AM_6
100
AcDbText
 10
8.25
 20
-6.910000038146973
 30
0.0
 40
0.5
  1
0.75
100
AcDbAttributeDefinition
  3

  2
R
 70
     8
280
     0
  0
ATTDEF
  5
87
330
6E
100
AcDbEntity
  8
AM_6
100
AcDbText
 10
8.25
 20
-7.410000038146973
 30
0.0
 40
0.5
  1
2.38
100
AcDbAttributeDefinition
  3

  2
T
 70
     8
280
     0
  0
ATTDEF
  5
88
330
6E
100
AcDbEntity
  8
AM_6
100
AcDbText
 10
8.25
 20
-7.910000038146973
 30
0.0
 40
0.5
  1
baldor
100
AcDbAttributeDefinition
  3

  2
COMPANY
 70
     8
280
     0
  0
INSERT
  5
8A
330
6E
100
AcDbEntity
  8
0
100
AcDbBlockReference
  2
2_405015E_Inch_0_in_012302_4
 10
0.0
 20
0.0
 30
0.0
  0
INSERT
  5
C6
330
6E
100
AcDbEntity
  8
0
100
AcDbBlockReference
  2
3_123347_0_in_012302_4
 10
0.0
 20
0.0
 30
0.0
  0
INSERT
  5
123
330
6E
100
AcDbEntity
  8
0
100
AcDbBlockReference
  2
4_012302H_0_in_012302_4
 10
0.0
 20
0.0
 30
0.0
  0
ENDBLK
  5
71
330
6E
100
AcDbEntity
  8
0
100
AcDbBlockEnd
  0
BLOCK
  5
8B
330
89
100
AcDbEntity
  8
0
100
AcDbBlockBegin
  2
2_405015E_Inch_0_in_012302_4
 70
     2
 10
0.0
 20
0.0
 30
0.0
  3
2_405015E_Inch_0_in_012302_4
  1

  0
ATTDEF
  5
8D
330
89
100
AcDbEntity
  8
AM_6
100
AcDbText
 10
7.575181818181818
 20
0.21875
 30
0.0
 40
0.5
  1
405015E -Inch
100
AcDbAttributeDefinition
  3

  2
NN
 70
     8
280
     0
  0
ATTDEF
  5
8E
330
89
100
AcDbEntity
  8
AM_6
100
AcDbText
 10
7.575181818181818
 20
-0.28125
 30
0.0
 40
0.5
  1
Grease Fitting
100
AcDbAttributeDefinition
  3

  2
NT
 70
     8
280
     0
  0
ATTDEF
  5
8F
330
89
100
AcDbEntity
  8
AM_6
100
AcDbText
 10
7.575181818181818
 20
-0.78125
 30
0.0
 40
0.5
  1
405015E-Inch
100
AcDbAttributeDefinition
  3

  2
NB
 70
     8
280
     0
  0
ATTDEF
  5
90
330
89
100
AcDbEntity
  8
AM_6
100
AcDbText
 10
7.575181818181818
 20
-1.28125
 30
0.0
 40
0.5
  1
$MN.-Inch
100
AcDbAttributeDefinition
  3

  2
NBSYN
 70
     8
280
     0
  0
ATTDEF
  5
91
330
89
100
AcDbEntity
  8
AM_6
100
AcDbText
 10
7.575181818181818
 20
-1.78125
 30
0.0
 40
0.5
  1
405015E
100
AcDbAttributeDefinition
  3

  2
LINA
 70
     8
280
     0
  0
ATTDEF
  5
92
330
89
100
AcDbEntity
  8
AM_6
100
AcDbText
 10
7.575181818181818
 20
-2.28125
 30
0.0
 40
0.5
  1
405015E
100
AcDbAttributeDefinition
  3

  2
MN
 70
     8
280
     0
  0
ATTDEF
  5
93
330
89
100
AcDbEntity
  8
AM_6
100
AcDbText
 10
7.575181818181818
 20
-2.78125
 30
0.0
 40
0.5
  1
1/8 x 27PTF
100
AcDbAttributeDefinition
  3

  2
T
 70
     8
280
     0
  0
ATTDEF
  5
94
330
89
100
AcDbEntity
  8
AM_6
100
AcDbText
 10
7.575181818181818
 20
-3.28125
 30
0.0
 40
0.5
  1
baldor
100
AcDbAttributeDefinition
  3

  2
COMPANY
 70
     8
280
     0
  0
LINE
  5
97
330
89
100
AcDbEntity
  8
AM_9
100
AcDbLine
 10
2.373181818181818
 20
-0.105
 30
0.0
 11
2.403181818181818
 21
-0.105
 31
0.0
  0
LINE
  5
98
330
89
100
AcDbEntity
  8
AM_9
100
AcDbLine
 10
2.403181818181818
 20
0.105
 30
0.0
 11
2.373181818181818
 21
0.105
 31
0.0
  0
LINE
  5
99
330
89
100
AcDbEntity
  8
AM_9
100
AcDbLine
 10
2.373181818181818
 20
0.105
 30
0.0
 11
2.34093493980039
 21
0.1188200907348975
 31
0.0
  0
LINE
  5
9A
330
89
100
AcDbEntity
  8
AM_9
100
AcDbLine
 10
2.34093493980039
 20
-0.1188200907348975
 30
0.0
 11
2.373181818181818
 21
-0.105
 31
0.0
  0
LINE
  5
9B
330
89
100
AcDbEntity
  8
AM_9
100
AcDbLine
 10
2.373181818181818
 20
0.105
 30
0.0
 11
2.373181818181818
 21
-0.105
 31
0.0
  0
LINE
  5
9C
330
89
100
AcDbEntity
  8
AM_9
100
AcDbLine
 10
2.543181818181818
 20
0.1026779019331875
 30
0.0
 11
2.463181818181817
 21
0.135
 31
0.0
  0
LINE
  5
9D
330
89
100
AcDbEntity
  8
AM_9
100
AcDbLine
 10
2.463181818181817
 20
-0.135
 30
0.0
 11
2.543181818181818
 21
-0.1026779019331875
 31
0.0
  0
LINE
  5
9E
330
89
100
AcDbEntity
  8
AM_9
100
AcDbLine
 10
2.543181818181818
 20
0.1026779019331875
 30
0.0
 11
2.543181818181818
 21
-0.1026779019331875
 31
0.0
  0
LINE
  5
9F
330
89
100
AcDbEntity
  8
AM_9
100
AcDbLine
 10
2.403181818181818
 20
-0.105
 30
0.0
 11
2.463181818181817
 21
-0.135
 31
0.0
  0
LINE
  5
A0
330
89
100
AcDbEntity
  8
AM_9
100
AcDbLine
 10
2.463181818181817
 20
0.135
 30
0.0
 11
2.403181818181818
 21
0.105
 31
0.0
  0
LINE
  5
A1
330
89
100
AcDbEntity
  8
AM_9
100
AcDbLine
 10
2.463181818181817
 20
0.135
 30
0.0
 11
2.463181818181817
 21
-0.135
 31
0.0
  0
LINE
  5
A2
330
89
100
AcDbEntity
  8
AM_9
100
AcDbLine
 10
2.403181818181818
 20
0.105
 30
0.0
 11
2.403181818181818
 21
-0.105
 31
0.0
  0
LINE
  5
A3
330
89
100
AcDbEntity
  8
AM_9
100
AcDbLine
 10
2.34093493980039
 20
0.1188200907348975
 30
0.0
 11
2.2865000167227
 21
0.1725340532830154
 31
0.0
  0
LINE
  5
A4
330
89
100
AcDbEntity
  8
AM_9
100
AcDbLine
 10
2.2865000167227
 20
-0.1725340532830154
 30
0.0
 11
2.34093493980039
 21
-0.1188200907348975
 31
0.0
  0
LINE
  5
A5
330
89
100
AcDbEntity
  8
AM_9
100
AcDbLine
 10
2.34093493980039
 20
0.1188200907348975
 30
0.0
 11
2.34093493980039
 21
-0.1188200907348975
 31
0.0
  0
LINE
  5
A6
330
89
100
AcDbEntity
  8
AM_9
100
AcDbLine
 10
2.168181818181818
 20
0.21875
 30
0.0
 11
2.168181818181818
 21
-0.21875
 31
0.0
  0
LINE
  5
A7
330
89
100
AcDbEntity
  8
AM_9
100
AcDbLine
 10
2.168181818181818
 20
-0.21875
 30
0.0
 11
2.268181818181818
 21
-0.21875
 31
0.0
  0
LINE
  5
A8
330
89
100
AcDbEntity
  8
AM_9
100
AcDbLine
 10
2.268181818181818
 20
0.21875
 30
0.0
 11
2.268181818181818
 21
-0.21875
 31
0.0
  0
LINE
  5
A9
330
89
100
AcDbEntity
  8
AM_9
100
AcDbLine
 10
2.268181818181818
 20
0.21875
 30
0.0
 11
2.168181818181818
 21
0.21875
 31
0.0
  0
LINE
  5
AA
330
89
100
AcDbEntity
  8
AM_9
100
AcDbLine
 10
1.903181818181818
 20
-0.161902872472269
 30
0.0
 11
1.939896572490764
 21
-0.1986176267812154
 31
0.0
  0
LINE
  5
AB
330
89
100
AcDbEntity
  8
AM_9
100
AcDbLine
 10
1.939896572490764
 20
0.1986176267812154
 30
0.0
 11
1.903181818181818
 21
0.161902872472269
 31
0.0
  0
LINE
  5
AC
330
89
100
AcDbEntity
  8
AM_9
100
AcDbLine
 10
1.903181818181818
 20
0.161902872472269
 30
0.0
 11
1.903181818181818
 21
-0.161902872472269
 31
0.0
  0
LINE
  5
AD
330
89
100
AcDbEntity
  8
AM_9
100
AcDbLine
 10
1.939896572490764
 20
-0.1986176267812154
 30
0.0
 11
2.168181818181818
 21
-0.2057518972230696
 31
0.0
  0
LINE
  5
AE
330
89
100
AcDbEntity
  8
AM_9
100
AcDbLine
 10
2.168181818181818
 20
0.2057518972230696
 30
0.0
 11
1.939896572490764
 21
0.1986176267812154
 31
0.0
  0
LINE
  5
AF
330
89
100
AcDbEntity
  8
AM_9
100
AcDbLine
 10
1.939896572490764
 20
0.1986176267812154
 30
0.0
 11
1.939896572490764
 21
-0.1986176267812154
 31
0.0
  0
LINE
  5
B0
330
89
100
AcDbEntity
  8
AM_9
100
AcDbLine
 10
2.2865000167227
 20
0.1725340532830154
 30
0.0
 11
2.268181818181818
 21
0.21375
 31
0.0
  0
LINE
  5
B1
330
89
100
AcDbEntity
  8
AM_9
100
AcDbLine
 10
2.268181818181818
 20
-0.21375
 30
0.0
 11
2.2865000167227
 21
-0.1725340532830154
 31
0.0
  0
LINE
  5
B2
330
89
100
AcDbEntity
  8
AM_9
100
AcDbLine
 10
2.2865000167227
 20
0.1725340532830154
 30
0.0
 11
2.2865000167227
 21
-0.1725340532830154
 31
0.0
  0
LWPOLYLINE
  5
B3
330
89
100
AcDbEntity
  8
AM_9
100
AcDbPolyline
 90
        3
 70
     0
 43
0.0
 10
2.259114218485204
 20
0.21875
 10
2.265767293232198
 20
0.1643083897258504
 10
2.268181818181818
 20
0.1093749999999999
  0
LWPOLYLINE
  5
B4
330
89
100
AcDbEntity
  8
AM_9
100
AcDbPolyline
 90
        3
 70
     0
 43
0.0
 10
2.168181818181818
 20
0.109375
 10
2.170575198966853
 20
0.1640625
 10
2.177249417878433
 20
0.21875
  0
LWPOLYLINE
  5
B5
330
89
100
AcDbEntity
  8
AM_9
100
AcDbPolyline
 90
        3
 70
     0
 43
0.0
 10
2.177249417878433
 20
0.0
 10
2.170596343131438
 20
0.0544416102741496
 10
2.168181818181818
 20
0.109375
  0
LWPOLYLINE
  5
B6
330
89
100
AcDbEntity
  8
AM_9
100
AcDbPolyline
 90
        3
 70
     0
 43
0.0
 10
2.268181818181818
 20
-0.109375
 10
2.265788437396783
 20
-0.1640625
 10
2.259114218485204
 20
-0.21875
  0
LINE
  5
B7
330
89
100
AcDbEntity
  8
AM_9
100
AcDbLine
 10
2.259114218485204
 20
0.0
 30
0.0
 11
2.177249417878433
 21
0.0
 31
0.0
  0
LWPOLYLINE
  5
B8
330
89
100
AcDbEntity
  8
AM_9
100
AcDbPolyline
 90
        3
 70
     0
 43
0.0
 10
2.168181818181818
 20
-0.109375
 10
2.170575198966853
 20
-0.0546875
 10
2.177249417878433
 20
0.0
  0
LWPOLYLINE
  5
B9
330
89
100
AcDbEntity
  8
AM_9
100
AcDbPolyline
 90
        3
 70
     0
 43
0.0
 10
2.177249417878433
 20
-0.21875
 10
2.170596343131438
 20
-0.1643083897258504
 10
2.168181818181818
 20
-0.109375
  0
LWPOLYLINE
  5
BA
330
89
100
AcDbEntity
  8
AM_9
100
AcDbPolyline
 90
        3
 70
     0
 43
0.0
 10
2.268181818181818
 20
0.1093749999999999
 10
2.265788437396783
 20
0.0546875
 10
2.259114218485204
 20
0.0
  0
LWPOLYLINE
  5
BB
330
89
100
AcDbEntity
  8
AM_9
100
AcDbPolyline
 90
        3
 70
     0
 43
0.0
 10
2.259114218485204
 20
0.0
 10
2.265767293232198
 20
-0.0544416102741496
 10
2.268181818181818
 20
-0.109375
  0
LINE
  5
BD
330
89
100
AcDbEntity
  8
AM_5
100
AcDbLine
 10
2.103051905930281
 20
-0.1681491248523479
 30
0.0
 11
1.903181818181818
 21
-0.161902872472269
 31
0.0
  0
LINE
  5
BE
330
89
100
AcDbEntity
  8
AM_5
100
AcDbLine
 10
2.168181818181818
 20
-0.2057518972230697
 30
0.0
 11
2.103051905930281
 21
-0.1681491248523479
 31
0.0
  0
LINE
  5
BF
330
89
100
AcDbEntity
  8
AM_5
100
AcDbLine
 10
2.103051905930281
 20
0.2037164857515568
 30
0.0
 11
2.103051905930281
 21
-0.2037164857515567
 31
0.0
  0
LINE
  5
C0
330
89
100
AcDbEntity
  8
AM_5
100
AcDbLine
 10
2.103051905930281
 20
0.1681491248523479
 30
0.0
 11
1.903181818181818
 21
0.161902872472269
 31
0.0
  0
LINE
  5
C1
330
89
100
AcDbEntity
  8
AM_5
100
AcDbLine
 10
2.168181818181818
 20
0.2057518972230697
 30
0.0
 11
2.103051905930281
 21
0.1681491248523479
 31
0.0
  0
LINE
  5
C4
330
89
100
AcDbEntity
  8
AM_7
100
AcDbLine
 10
2.575181818181818
 20
0.0
 30
0.0
 11
1.871181818181818
 21
0.0
 31
0.0
  0
ENDBLK
  5
8C
330
89
100
AcDbEntity
  8
0
100
AcDbBlockEnd
  0
BLOCK
  5
C7
330
C5
100
AcDbEntity
  8
0
100
AcDbBlockBegin
  2
3_123347_0_in_012302_4
 70
     2
 10
0.0
 20
0.0
 30
0.0
  3
3_123347_0_in_012302_4
  1

  0
ATTDEF
  5
C9
330
C5
100
AcDbEntity
  8
AM_6
100
AcDbText
 10
6.770932289135564
 20
1.19
 30
0.0
 40
0.5
  1
Set Screw Insert Inch Bore
100
AcDbAttributeDefinition
  3

  2
NN
 70
     8
280
     0
  0
ATTDEF
  5
CA
330
C5
100
AcDbEntity
  8
AM_6
100
AcDbText
 10
6.770932289135564
 20
0.69
 30
0.0
 40
0.5
  1
SC Normal Duty Bearing Inserts
100
AcDbAttributeDefinition
  3

  2
NT
 70
     8
280
     0
  0
ATTDEF
  5
CB
330
C5
100
AcDbEntity
  8
AM_6
100
AcDbText
 10
6.770932289135564
 20
0.1899999999999999
 30
0.0
 40
0.5
  1
123347
100
AcDbAttributeDefinition
  3

  2
NB
 70
     8
280
     0
  0
ATTDEF
  5
CC
330
C5
100
AcDbEntity
  8
AM_6
100
AcDbText
 10
6.770932289135564
 20
-0.3100000000000001
 30
0.0
 40
0.5
  1
$PN.
100
AcDbAttributeDefinition
  3

  2
NBSYN
 70
     8
280
     0
  0
ATTDEF
  5
CD
330
C5
100
AcDbEntity
  8
AM_6
100
AcDbText
 10
6.770932289135564
 20
-0.81
 30
0.0
 40
0.5
  1
123347
100
AcDbAttributeDefinition
  3

  2
LINA
 70
     8
280
     0
  0
ATTDEF
  5
CE
330
C5
100
AcDbEntity
  8
AM_6
100
AcDbText
 10
6.770932289135564
 20
-1.31
 30
0.0
 40
0.5
  1
210
100
AcDbAttributeDefinition
  3

  2
SERIES
 70
     8
280
     0
  0
ATTDEF
  5
CF
330
C5
100
AcDbEntity
  8
AM_6
100
AcDbText
 10
6.770932289135564
 20
-1.81
 30
0.0
 40
0.5
  1
2
100
AcDbAttributeDefinition
  3

  2
SS
 70
     8
280
     0
  0
ATTDEF
  5
D0
330
C5
100
AcDbEntity
  8
AM_6
100
AcDbText
 10
6.770932289135564
 20
-2.31
 30
0.0
 40
0.5
  1
123347
100
AcDbAttributeDefinition
  3

  2
PN
 70
     8
280
     0
  0
ATTDEF
  5
D1
330
C5
100
AcDbEntity
  8
AM_6
100
AcDbText
 10
6.770932289135564
 20
-2.81
 30
0.0
 40
0.5
  1
INS-SC-200
100
AcDbAttributeDefinition
  3

  2
DESCRIPTION
 70
     8
280
     0
  0
ATTDEF
  5
D2
330
C5
100
AcDbEntity
  8
AM_6
100
AcDbText
 10
6.770932289135564
 20
-3.31
 30
0.0
 40
0.5
  1
1.94
100
AcDbAttributeDefinition
  3

  2
A
 70
     8
280
     0
  0
ATTDEF
  5
D3
330
C5
100
AcDbEntity
  8
AM_6
100
AcDbText
 10
6.770932289135564
 20
-3.81
 30
0.0
 40
0.5
  1
0.87
100
AcDbAttributeDefinition
  3

  2
C
 70
     8
280
     0
  0
ATTDEF
  5
D4
330
C5
100
AcDbEntity
  8
AM_6
100
AcDbText
 10
6.770932289135564
 20
-4.31
 30
0.0
 40
0.5
  1
3.5433
100
AcDbAttributeDefinition
  3

  2
D
 70
     8
280
     0
  0
ATTDEF
  5
D5
330
C5
100
AcDbEntity
  8
AM_6
100
AcDbText
 10
6.770932289135564
 20
-4.81
 30
0.0
 40
0.5
  1
0.25
100
AcDbAttributeDefinition
  3

  2
J
 70
     8
280
     0
  0
ATTDEF
  5
D6
330
C5
100
AcDbEntity
  8
AM_6
100
AcDbText
 10
6.770932289135564
 20
-5.31
 30
0.0
 40
0.5
  1
2.43
100
AcDbAttributeDefinition
  3

  2
L
 70
     8
280
     0
  0
ATTDEF
  5
D7
330
C5
100
AcDbEntity
  8
AM_6
100
AcDbText
 10
6.770932289135564
 20
-5.81
 30
0.0
 40
0.5
  1
3/8 - 24
100
AcDbAttributeDefinition
  3

  2
N
 70
     8
280
     0
  0
ATTDEF
  5
D8
330
C5
100
AcDbEntity
  8
AM_6
100
AcDbText
 10
6.770932289135564
 20
-6.31
 30
0.0
 40
0.5
  1
0.75
100
AcDbAttributeDefinition
  3

  2
W
 70
     8
280
     0
  0
ATTDEF
  5
D9
330
C5
100
AcDbEntity
  8
AM_6
100
AcDbText
 10
6.770932289135564
 20
-6.81
 30
0.0
 40
0.5
  1
1.19
100
AcDbAttributeDefinition
  3

  2
Y
 70
     8
280
     0
  0
ATTDEF
  5
DA
330
C5
100
AcDbEntity
  8
AM_6
100
AcDbText
 10
6.770932289135564
 20
-7.31
 30
0.0
 40
0.5
  1
baldor
100
AcDbAttributeDefinition
  3

  2
COMPANY
 70
     8
280
     0
  0
ARC
  5
DB
330
C5
100
AcDbEntity
  8
AM_9
100
AcDbCircle
 10
-0.0000000000000012
 20
0.8125000000000157
 30
0.0
 40
0.1536499999999842
100
AcDbArc
 50
90.0
 51
93.09028458658703
  0
ARC
  5
DC
330
C5
100
AcDbEntity
  8
AM_9
100
AcDbCircle
 10
0.0000000000013368
 20
0.8124999999999595
 30
0.0
 40
0.1536500000009424
100
AcDbArc
 50
133.071675962411
 51
223.468368935744
  0
ARC
  5
DD
330
C5
100
AcDbEntity
  8
AM_9
100
AcDbCircle
 10
0.0000000000000053
 20
0.8125000000000002
 30
0.0
 40
0.1536499999999963
100
AcDbArc
 50
317.4912743339557
 51
48.55445984756079
  0
LINE
  5
DE
330
C5
100
AcDbEntity
  8
AM_9
100
AcDbLine
 10
1.047451756009353
 20
0.6765777354678205
 30
0.0
 11
1.063762085110681
 21
0.6562340807714253
 31
0.0
  0
LINE
  5
DF
330
C5
100
AcDbEntity
  8
AM_9
100
AcDbLine
 10
1.063615657208017
 20
0.9685832816698104
 30
0.0
 11
1.047451756009353
 21
0.9484222645321795
 31
0.0
  0
LWPOLYLINE
  5
E0
330
C5
100
AcDbEntity
  8
AM_9
100
AcDbPolyline
 90
       14
 70
     0
 43
0.0
 10
1.063790353164311
 20
0.9688011736451995
 10
1.059702757223979
 20
0.963382804506076
 10
1.049173210240681
 20
0.9461370851335582
 10
1.03984889376771
 20
0.925796428500364
 10
1.031589104135544
 20
0.9012918129506979
 10
1.025334532143306
 20
0.8745995012538864
 10
1.021177909575051
 20
0.8447361642544284
 10
1.019670027920984
 20
0.8140160032942565
 10
1.020990481078578
 20
0.7823472548050598
 10
1.025125740868013
 20
0.7515276662451312
 10
1.031961356314121
 20
0.722421463475518
 10
1.041163817903128
 20
0.6959589075038334
 10
1.052040372766059
 20
0.6736640853249347
 10
1.063803840623945
 20
0.6561819997022166
  0
LWPOLYLINE
  5
E1
330
C5
100
AcDbEntity
  8
AM_9
100
AcDbPolyline
 90
        5
 70
     0
 43
0.0
 10
1.063803840623945
 20
0.6561819997022166
 10
1.064334977185003
 20
0.6555247177511512
 10
1.076720546730878
 20
0.6430162447970542
 10
1.089410569637113
 20
0.6353689653107282
 10
1.104484606386856
 20
0.6331954979757435
  0
ELLIPSE
  5
E2
330
C5
100
AcDbEntity
  8
AM_9
100
AcDbEllipse
 10
0.9004753364813641
 20
0.8125
 30
0.0
 11
-2.822504710334861E-17
 21
-0.15365
 31
0.0
210
0.0
220
0.0
230
1.0
 40
0.4226182617406985
 41
0.8288791030954172
 42
2.312713550494378
  0
ELLIPSE
  5
E3
330
C5
100
AcDbEntity
  8
AM_9
100
AcDbEllipse
 10
0.9004753364813639
 20
0.8125
 30
0.0
 11
-2.822504710334861E-17
 21
-0.15365
 31
0.0
210
0.0
220
0.0
230
1.0
 40
0.4226182617406985
 41
3.970471756685207
 42
5.454306204084173
  0
LINE
  5
E4
330
C5
100
AcDbEntity
  8
AM_9
100
AcDbLine
 10
0.9062889412048262
 20
0.65885
 30
0.0
 11
1.077731581779758
 21
0.65885
 31
0.0
  0
LINE
  5
E5
330
C5
100
AcDbEntity
  8
AM_9
100
AcDbLine
 10
1.077731581779758
 20
0.9661500000000001
 30
0.0
 11
0.9062889412048264
 21
0.9661500000000001
 31
0.0
  0
LWPOLYLINE
  5
E6
330
C5
100
AcDbEntity
  8
AM_9
100
AcDbPolyline
 90
        7
 70
     0
 43
0.0
 10
0.906303684489086
 20
0.6588500003066473
 10
0.9055563033813971
 20
0.6588602504543171
 10
0.894215382823132
 20
0.6613831247310965
 10
0.8830443800853018
 20
0.667963562101196
 10
0.871724388197629
 20
0.6787812424754878
 10
0.861846173492225
 20
0.692070143704484
 10
0.8526066959775337
 20
0.7086783138054917
  0
LWPOLYLINE
  5
E7
330
C5
100
AcDbEntity
  8
AM_9
100
AcDbPolyline
 90
        7
 70
     0
 43
0.0
 10
0.9063118894988099
 20
0.9661499996933527
 10
0.9070564159474259
 20
0.9661397495456828
 10
0.9177003752088427
 20
0.9636168752689034
 10
0.9271065902085925
 20
0.9570364378988038
 10
0.9356927481903251
 20
0.9462187575245119
 10
0.9424986240168717
 20
0.9329298562955155
 10
0.9483439769851942
 20
0.9163216861945079
  0
LINE
  5
E8
330
C5
100
AcDbEntity
  8
AM_9
100
AcDbLine
 10
-1.767234767228184
 20
-0.1249999999999999
 30
0.0
 11
-1.79255909090909
 21
-0.1249999999999999
 31
0.0
  0
LINE
  5
E9
330
C5
100
AcDbEntity
  8
AM_9
100
AcDbLine
 10
-1.87165
 20
-0.2040909090909074
 30
0.0
 11
-1.87165
 21
-0.2959090909090927
 31
0.0
  0
ARC
  5
EA
330
C5
100
AcDbEntity
  8
AM_9
100
AcDbCircle
 10
-1.79255909090909
 20
-0.295909090909091
 30
0.0
 40
0.0790909090909093
100
AcDbArc
 50
180.0
 51
270.0
  0
ARC
  5
EB
330
C5
100
AcDbEntity
  8
AM_9
100
AcDbCircle
 10
-1.79255909090909
 20
-0.204090909090909
 30
0.0
 40
0.0790909090909092
100
AcDbArc
 50
90.0
 51
180.0
  0
LINE
  5
EC
330
C5
100
AcDbEntity
  8
AM_9
100
AcDbLine
 10
-1.79255909090909
 20
-0.1249999999999999
 30
0.0
 11
-1.79255909090909
 21
-0.3750000000000001
 31
0.0
  0
LWPOLYLINE
  5
ED
330
C5
100
AcDbEntity
  8
AM_9
100
AcDbPolyline
 90
       12
 70
     0
 43
0.0
 10
-0.1132668529435204
 20
0.7086783138054918
 10
-0.1141728390981037
 20
0.7095205676421894
 10
-0.1322300781568437
 20
0.7297697906017508
 10
-0.1463275685807092
 20
0.752956561167131
 10
-0.1551827801966106
 20
0.7764740855524245
 10
-0.1596417027227055
 20
0.8012219792429784
 10
-0.1595881248475561
 20
0.8241966434420008
 10
-0.1556645356197724
 20
0.846827639272991
 10
-0.1482249512172903
 20
0.8679306904519114
 10
-0.137564177176055
 20
0.8875853060939003
 10
-0.1263123667214197
 20
0.9027137154531821
 10
-0.1132668529435204
 20
0.9163216861945082
  0
LWPOLYLINE
  5
EE
330
C5
100
AcDbEntity
  8
AM_9
100
AcDbPolyline
 90
       11
 70
     0
 43
0.0
 10
-0.1132668529435204
 20
0.9163216861945082
 10
-0.0945366753076054
 20
0.9336244794489718
 10
-0.0725423781125295
 20
0.9479471331471391
 10
-0.0491080896730811
 20
0.9580909270135355
 10
-0.0235487554905405
 20
0.9643347082021985
 10
0.0017747843643198
 20
0.9661397495456829
 10
0.0277851130816945
 20
0.9636168752689039
 10
0.0521300356754624
 20
0.9570364378988047
 10
0.0756810173431914
 20
0.9462187575245133
 10
0.0954199780582736
 20
0.9329298562955158
 10
0.1132668529435204
 20
0.9163216861945082
  0
LWPOLYLINE
  5
EF
330
C5
100
AcDbEntity
  8
AM_9
100
AcDbPolyline
 90
       12
 70
     0
 43
0.0
 10
0.1132668529435204
 20
0.9163216861945082
 10
0.1141728390981037
 20
0.9154794323578106
 10
0.1322300781568437
 20
0.895230209398249
 10
0.1463275685807092
 20
0.872043438832869
 10
0.1551827801966106
 20
0.8485259144475756
 10
0.1596417027227055
 20
0.8237780207570216
 10
0.1595881248475561
 20
0.8008033565579994
 10
0.1556645356197724
 20
0.7781723607270091
 10
0.1482249512172903
 20
0.7570693095480887
 10
0.137564177176055
 20
0.7374146939060997
 10
0.1263123667214197
 20
0.722286284546818
 10
0.1132668529435204
 20
0.7086783138054918
  0
LWPOLYLINE
  5
F0
330
C5
100
AcDbEntity
  8
AM_9
100
AcDbPolyline
 90
       11
 70
     0
 43
0.0
 10
0.1132668529435204
 20
0.7086783138054918
 10
0.0945366753076054
 20
0.6913755205510282
 10
0.0725423781125295
 20
0.6770528668528609
 10
0.0491080896730811
 20
0.6669090729864645
 10
0.0235487554905405
 20
0.6606652917978016
 10
-0.0017747843643198
 20
0.6588602504543171
 10
-0.0277851130816945
 20
0.6613831247310961
 10
-0.0521300356754624
 20
0.6679635621011953
 10
-0.0756810173431914
 20
0.6787812424754868
 10
-0.0954199780582736
 20
0.6920701437044842
 10
-0.1132668529435204
 20
0.7086783138054918
  0
LWPOLYLINE
  5
F1
330
C5
100
AcDbEntity
  8
AM_9
100
AcDbPolyline
 90
       11
 70
     0
 43
0.0
 10
0.8526066959775347
 20
0.7086783138054902
 10
0.8451429990671083
 20
0.723440318702788
 10
0.836904821393095
 20
0.7454289711305213
 10
0.8308730263504233
 20
0.7698256477118256
 10
0.827732727602861
 20
0.7934622294471838
 10
0.8270044258404323
 20
0.8177193385264394
 10
0.8285836893851393
 20
0.8400940368266185
 10
0.8321932516375048
 20
0.8616986649845271
 10
0.8376793347040777
 20
0.8820401487558264
 10
0.8447142822664746
 20
0.9005932957460295
 10
0.8526066959775347
 20
0.9163216861945098
  0
LWPOLYLINE
  5
F2
330
C5
100
AcDbEntity
  8
AM_9
100
AcDbPolyline
 90
        6
 70
     0
 43
0.0
 10
0.8526066959775347
 20
0.9163216861945098
 10
0.8622958530040616
 20
0.9336244794489732
 10
0.8732622322184529
 20
0.9479471331471402
 10
0.8844603239229343
 20
0.9580909270135364
 10
0.8961043243563861
 20
0.9643347082021988
 10
0.9063118894988099
 20
0.9661499996933527
  0
LWPOLYLINE
  5
F3
330
C5
100
AcDbEntity
  8
AM_9
100
AcDbPolyline
 90
       13
 70
     0
 43
0.0
 10
0.9483439769851935
 20
0.9163216861945096
 10
0.9486670942842966
 20
0.9153786354822305
 10
0.9542915916760665
 20
0.8949609660623067
 10
0.958458560682226
 20
0.8715730675393194
 10
0.9609510870212029
 20
0.8480367054706951
 10
0.9621630842429615
 20
0.8232871486187936
 10
0.9621271367672886
 20
0.8003282017413303
 10
0.961013501216883
 20
0.7777263183810383
 10
0.9588850568192988
 20
0.7566447333526037
 10
0.9557526068543778
 20
0.737021701613794
 10
0.952522330675294
 20
0.7226397212325617
 10
0.9486696190682095
 20
0.7096288110529542
 10
0.9483439769851935
 20
0.7086783138054905
  0
LWPOLYLINE
  5
F4
330
C5
100
AcDbEntity
  8
AM_9
100
AcDbPolyline
 90
        6
 70
     0
 43
0.0
 10
0.9483439769851935
 20
0.7086783138054905
 10
0.9422017037825503
 20
0.691375520551027
 10
0.9345776996993587
 20
0.6770528668528601
 10
0.9259682749130204
 20
0.666909072986464
 10
0.9160085925795222
 20
0.6606652917978013
 10
0.906303684489086
 20
0.6588500003066473
  0
LINE
  5
F5
330
C5
100
AcDbEntity
  8
AM_9
100
AcDbLine
 10
-1.0
 20
1.1414
 30
0.0
 11
-1.0
 21
-0.7013999999999998
 31
0.0
  0
LINE
  5
F6
330
C5
100
AcDbEntity
  8
AM_9
100
AcDbLine
 10
1.0
 20
-0.7013999999999998
 30
0.0
 11
1.0
 21
1.1414
 31
0.0
  0
LINE
  5
F7
330
C5
100
AcDbEntity
  8
AM_9
100
AcDbLine
 10
1.0
 20
1.1414
 30
0.0
 11
1.0486
 21
1.19
 31
0.0
  0
LINE
  5
F8
330
C5
100
AcDbEntity
  8
AM_9
100
AcDbLine
 10
-1.0486
 20
1.19
 30
0.0
 11
-1.0
 21
1.1414
 31
0.0
  0
LINE
  5
F9
330
C5
100
AcDbEntity
  8
AM_9
100
AcDbLine
 10
-1.0
 20
-0.7013999999999998
 30
0.0
 11
-1.0486
 21
-0.7499999999999999
 31
0.0
  0
LINE
  5
FA
330
C5
100
AcDbEntity
  8
AM_9
100
AcDbLine
 10
1.0486
 20
-0.7499999999999999
 30
0.0
 11
1.0
 21
-0.7013999999999998
 31
0.0
  0
LINE
  5
FB
330
C5
100
AcDbEntity
  8
AM_9
100
AcDbLine
 10
-1.1664
 20
1.19
 30
0.0
 11
-1.215
 21
1.1414
 31
0.0
  0
LINE
  5
FC
330
C5
100
AcDbEntity
  8
AM_9
100
AcDbLine
 10
1.215
 20
1.1414
 30
0.0
 11
1.1664
 21
1.19
 31
0.0
  0
LINE
  5
FD
330
C5
100
AcDbEntity
  8
AM_9
100
AcDbLine
 10
1.1664
 20
-0.7499999999999999
 30
0.0
 11
1.215
 21
-0.7014
 31
0.0
  0
LINE
  5
FE
330
C5
100
AcDbEntity
  8
AM_9
100
AcDbLine
 10
-1.215
 20
-0.7014
 30
0.0
 11
-1.1664
 21
-0.7499999999999999
 31
0.0
  0
LINE
  5
FF
330
C5
100
AcDbEntity
  8
AM_9
100
AcDbLine
 10
1.1664
 20
-0.7499999999999999
 30
0.0
 11
-1.1664
 21
-0.7499999999999999
 31
0.0
  0
LWPOLYLINE
  5
100
330
C5
100
AcDbEntity
  8
AM_9
100
AcDbPolyline
 90
       39
 70
     0
 43
0.0
 10
-0.1216042494881212
 20
0.6888821935281586
 10
-0.1033820791976686
 20
0.6711789980098545
 10
-0.0822272577573799
 20
0.6560764325681082
 10
-0.0567429041073014
 20
0.6435976184015101
 10
-0.0285190960909559
 20
0.6356142854261919
 10
-0.0019937458984588
 20
0.6330079383520415
 10
0.025409550285207
 20
0.6350711707885632
 10
0.0504548534827932
 20
0.6413243462920758
 10
0.0747873804410941
 20
0.6518544319313062
 10
0.0970340328155544
 20
0.6661165005017581
 10
0.117249384440494
 20
0.6841610025675338
 10
0.1349731776114235
 20
0.7059124703591408
 10
0.1494139183618907
 20
0.7308195980424497
 10
0.1601171809823226
 20
0.7587185009169708
 10
0.166376686073604
 20
0.7887772808412375
 10
0.1677131463406062
 20
0.8198452100244414
 10
0.1638137397846358
 20
0.8515807158539039
 10
0.1548490379874522
 20
0.8816725846817561
 10
0.1404837576852969
 20
0.9106178403495624
 10
0.1222241196421028
 20
0.9354168165328223
 10
0.099141843703017
 20
0.9572573504399048
 10
0.0746447238000807
 20
0.9732215947807643
 10
0.0467421692773064
 20
0.9848804905527543
 10
0.0201489451016139
 20
0.9907022070088238
 10
-0.0079353592827976
 20
0.991803346094656
 10
-0.0336349744120958
 20
0.9883513440178336
 10
-0.0591061421077496
 20
0.9804703936052013
 10
-0.0824277418670604
 20
0.9688026216196125
 10
-0.1041395425516264
 20
0.9531829892084565
 10
-0.1236060847256023
 20
0.9338264869495613
 10
-0.1402009802219208
 20
0.9110786612037222
 10
-0.1535225247386706
 20
0.8849672234395312
 10
-0.1627602181627493
 20
0.8563121121766936
 10
-0.1673864092885866
 20
0.8258685251888167
 10
-0.1669778852091676
 20
0.7942140459855043
 10
-0.1614078158661213
 20
0.7633135455730979
 10
-0.1504145628537401
 20
0.7329430400003308
 10
-0.1377742059683369
 20
0.7100880891667156
 10
-0.1216042495533195
 20
0.68888219348585
  0
LWPOLYLINE
  5
101
330
C5
100
AcDbEntity
  8
AM_9
100
AcDbPolyline
 90
       23
 70
     0
 43
0.0
 10
1.104484606386856
 20
0.6331954979757435
 10
1.115267795455089
 20
0.6368435444524553
 10
1.125158057398252
 20
0.6448722314872549
 10
1.133845108163664
 20
0.6568631172546109
 10
1.141365504583433
 20
0.6724170625466561
 10
1.14796445261495
 20
0.6921746218698432
 10
1.153223264450843
 20
0.7147638998619943
 10
1.15738033328884
 20
0.7413381848395484
 10
1.160096085860106
 20
0.7697115203900915
 10
1.161431780103634
 20
0.8006291441840094
 10
1.161251562391281
 20
0.831869189310161
 10
1.159492158424565
 20
0.8631831288946017
 10
1.156117722846913
 20
0.8930482309452622
 10
1.151101364385646
 20
0.9203426907732947
 10
1.1443843487829
 20
0.9444389023377264
 10
1.136277024051474
 20
0.9637126640229118
 10
1.126612331154914
 20
0.9784843020504522
 10
1.116289292981162
 20
0.9875485055580274
 10
1.104944177763392
 20
0.991744679808811
 10
1.093626319462467
 20
0.9909980093244216
 10
1.082018892247721
 20
0.9858163155180784
 10
1.070638837812401
 20
0.9764914372825994
 10
1.063790353164311
 20
0.9688011736451995
  0
LINE
  5
102
330
C5
100
AcDbEntity
  8
AM_9
100
AcDbLine
 10
-1.215
 20
1.1414
 30
0.0
 11
-1.215
 21
0.435
 31
0.0
  0
LINE
  5
103
330
C5
100
AcDbEntity
  8
AM_9
100
AcDbLine
 10
1.215
 20
0.435
 30
0.0
 11
1.215
 21
1.1414
 31
0.0
  0
LINE
  5
104
330
C5
100
AcDbEntity
  8
AM_9
100
AcDbLine
 10
1.215
 20
1.1414
 30
0.0
 11
-1.215
 21
1.1414
 31
0.0
  0
LINE
  5
105
330
C5
100
AcDbEntity
  8
AM_9
100
AcDbLine
 10
-1.215000000000001
 20
-0.435
 30
0.0
 11
-1.215000000000001
 21
-0.7014
 31
0.0
  0
LINE
  5
106
330
C5
100
AcDbEntity
  8
AM_9
100
AcDbLine
 10
1.215000000000001
 20
-0.7014
 30
0.0
 11
1.215000000000001
 21
-0.435
 31
0.0
  0
LINE
  5
107
330
C5
100
AcDbEntity
  8
AM_9
100
AcDbLine
 10
1.215000000000001
 20
-0.7014
 30
0.0
 11
-1.215
 21
-0.7014
 31
0.0
  0
LINE
  5
108
330
C5
100
AcDbEntity
  8
AM_9
100
AcDbLine
 10
-1.688316666666667
 20
0.3000000000000001
 30
0.0
 11
-1.688316666666667
 21
0.2
 31
0.0
  0
LINE
  5
109
330
C5
100
AcDbEntity
  8
AM_9
100
AcDbLine
 10
1.688316666666667
 20
0.2
 30
0.0
 11
1.688316666666667
 21
0.3000000000000001
 31
0.0
  0
LINE
  5
10A
330
C5
100
AcDbEntity
  8
AM_9
100
AcDbLine
 10
1.678050572086082
 20
-0.435
 30
0.0
 11
-1.67805057209251
 21
-0.435
 31
0.0
  0
ARC
  5
10B
330
C5
100
AcDbEntity
  8
AM_9
100
AcDbCircle
 10
-1.67805057209251
 20
-0.385
 30
0.0
 40
0.0500000000000001
100
AcDbArc
 50
192.9219004522822
 51
270.0
  0
ARC
  5
10C
330
C5
100
AcDbEntity
  8
AM_9
100
AcDbCircle
 10
1.67805057209251
 20
-0.385
 30
0.0
 40
0.05
100
AcDbArc
 50
270.0
 51
347.0780995477177
  0
LINE
  5
10D
330
C5
100
AcDbEntity
  8
AM_9
100
AcDbLine
 10
1.678050572086087
 20
0.435
 30
0.0
 11
-1.678050572092514
 21
0.435
 31
0.0
  0
ARC
  5
10E
330
C5
100
AcDbEntity
  8
AM_9
100
AcDbCircle
 10
-1.678050572092514
 20
0.3849999999999991
 30
0.0
 40
0.0500000000000009
100
AcDbArc
 50
90.0
 51
167.0781236960814
  0
ARC
  5
10F
330
C5
100
AcDbEntity
  8
AM_9
100
AcDbCircle
 10
1.678050572092514
 20
0.3849999999999991
 30
0.0
 40
0.0500000000000009
100
AcDbArc
 50
12.92187630391856
 51
90.0
  0
ARC
  5
110
330
C5
100
AcDbEntity
  8
AM_9
100
AcDbCircle
 10
0.0000000000740148
 20
0.0000000000148313
 30
0.0
 40
1.771649999924572
100
AcDbArc
 50
9.749079609020121
 51
12.92189977082782
  0
ARC
  5
111
330
C5
100
AcDbEntity
  8
AM_9
100
AcDbCircle
 10
-0.0000000000735694
 20
0.000000000014742
 30
0.0
 40
1.771649999925026
100
AcDbArc
 50
167.0781002291726
 51
170.2509203909794
  0
LINE
  5
112
330
C5
100
AcDbEntity
  8
AM_9
100
AcDbLine
 10
1.726784366253893
 20
0.3961811138371493
 30
0.0
 11
-1.726784366253863
 21
0.3961811138371493
 31
0.0
  0
LINE
  5
113
330
C5
100
AcDbEntity
  8
AM_9
100
AcDbLine
 10
1.746065211411104
 20
0.2999999999999999
 30
0.0
 11
-1.746065211411074
 21
0.2999999999999999
 31
0.0
  0
LINE
  5
114
330
C5
100
AcDbEntity
  8
AM_9
100
AcDbLine
 10
-1.737194422548143
 20
-0.3355485215353455
 30
0.0
 11
-1.731507644367857
 21
-0.3749999999914581
 31
0.0
  0
ARC
  5
115
330
C5
100
AcDbEntity
  8
AM_9
100
AcDbCircle
 10
-0.0000000000026559
 20
0.0000000000001497
 30
0.0
 40
1.77165000000263
100
AcDbArc
 50
347.0780995477324
 51
6.481887340163956
  0
ARC
  5
116
330
C5
100
AcDbEntity
  8
AM_9
100
AcDbCircle
 10
0.0000000000066434
 20
-0.0000000000001819
 30
0.0
 40
1.771650000006629
100
AcDbArc
 50
173.5181126598399
 51
184.058521193193
  0
ARC
  5
117
330
C5
100
AcDbEntity
  8
AM_9
100
AcDbCircle
 10
-0.0000000001914093
 20
-0.0000000000420338
 30
0.0
 40
1.771649999804046
100
AcDbArc
 50
192.2080400833045
 51
192.9219004523414
  0
LINE
  5
118
330
C5
100
AcDbEntity
  8
AM_9
100
AcDbLine
 10
1.76032489117777
 20
0.1999999999999999
 30
0.0
 11
-1.760324891177762
 21
0.1999999999999999
 31
0.0
  0
LINE
  5
119
330
C5
100
AcDbEntity
  8
AM_9
100
AcDbLine
 10
1.726784361541375
 20
-0.3961811343769061
 30
0.0
 11
-1.726784361541367
 21
-0.3961811343769059
 31
0.0
  0
LINE
  5
11A
330
C5
100
AcDbEntity
  8
AM_9
100
AcDbLine
 10
-1.766747697271633
 20
-0.1284425933708773
 30
0.0
 11
-1.767234767228136
 21
-0.12500000000034
 31
0.0
  0
LINE
  5
11B
330
C5
100
AcDbEntity
  8
AM_9
100
AcDbLine
 10
-1.767234767228136
 20
-0.12500000000034
 30
0.0
 11
-1.736786448559382
 21
-0.3383831092010884
 31
0.0
  0
ARC
  5
11C
330
C5
100
AcDbEntity
  8
AM_5
100
AcDbCircle
 10
-0.0000000000000001
 20
0.8125000000000001
 30
0.0
 40
0.1875
100
AcDbArc
 50
75.0
 51
14.99999999999997
  0
ARC
  5
11D
330
C5
100
AcDbEntity
  8
AM_5
100
AcDbCircle
 10
0.0000000000000001
 20
0.815
 30
0.0
 40
0.1875
100
AcDbArc
 50
75.00000000000001
 51
15.0
  0
ELLIPSE
  5
11E
330
C5
100
AcDbEntity
  8
AM_9
100
AcDbEllipse
 10
1.077731581779758
 20
0.8124999999999998
 30
0.0
 11
-2.822504710334859E-17
 21
-0.1536499999999998
 31
0.0
210
0.0
220
0.0
230
1.0
 40
0.4226182617406952
 41
0.0
 42
6.283185307179586
  0
LINE
  5
11F
330
C5
100
AcDbEntity
  8
AM_7
100
AcDbLine
 10
-1.9044825
 20
-0.25
 30
0.0
 11
-1.1821675
 21
-0.25
 31
0.0
  0
ARC
  5
120
330
C5
100
AcDbEntity
  8
AM_5
100
AcDbCircle
 10
-0.0000000000000001
 20
0.8124999999999998
 30
0.0
 40
0.1875
100
AcDbArc
 50
345.0
 51
285.0
  0
ARC
  5
121
330
C5
100
AcDbEntity
  8
AM_5
100
AcDbCircle
 10
0.0
 20
0.815
 30
0.0
 40
0.1875
100
AcDbArc
 50
345.0
 51
285.0
  0
ENDBLK
  5
C8
330
C5
100
AcDbEntity
  8
0
100
AcDbBlockEnd
  0
BLOCK
  5
124
330
122
100
AcDbEntity
  8
0
100
AcDbBlockBegin
  2
4_012302H_0_in_012302_4
 70
     2
 10
0.0
 20
0.0
 30
0.0
  3
4_012302H_0_in_012302_4
  1

  0
ATTDEF
  5
126
330
122
100
AcDbEntity
  8
AM_6
100
AcDbText
 10
8.25
 20
2.589999961853027
 30
0.0
 40
0.5
  1
TP-G -I-Housing
100
AcDbAttributeDefinition
  3

  2
NN
 70
     8
280
     0
  0
ATTDEF
  5
127
330
122
100
AcDbEntity
  8
AM_6
100
AcDbText
 10
8.25
 20
2.089999961853027
 30
0.0
 40
0.5
  1
SC Pillow Block Bearings -(Normal Duty) -Corrosion Resistant Insert -Polymer Housed -Tapped Base Housing -E-Z KLEEN
100
AcDbAttributeDefinition
  3

  2
NT
 70
     8
280
     0
  0
ATTDEF
  5
128
330
122
100
AcDbEntity
  8
AM_6
100
AcDbText
 10
8.25
 20
1.589999961853027
 30
0.0
 40
0.5
  1
012302H
100
AcDbAttributeDefinition
  3

  2
NB
 70
     8
280
     0
  0
ATTDEF
  5
129
330
122
100
AcDbEntity
  8
AM_6
100
AcDbText
 10
8.25
 20
1.089999961853027
 30
0.0
 40
0.5
  1
$PN.H
100
AcDbAttributeDefinition
  3

  2
NBSYN
 70
     8
280
     0
  0
ATTDEF
  5
12A
330
122
100
AcDbEntity
  8
AM_6
100
AcDbText
 10
8.25
 20
0.5899999618530272
 30
0.0
 40
0.5
  1
012302
100
AcDbAttributeDefinition
  3

  2
LINA
 70
     8
280
     0
  0
ATTDEF
  5
12B
330
122
100
AcDbEntity
  8
AM_6
100
AcDbText
 10
8.25
 20
0.0899999618530272
 30
0.0
 40
0.5
  1
210
100
AcDbAttributeDefinition
  3

  2
SERIES
 70
     8
280
     0
  0
ATTDEF
  5
12C
330
122
100
AcDbEntity
  8
AM_6
100
AcDbText
 10
8.25
 20
-0.4100000381469728
 30
0.0
 40
0.5
  1
2
100
AcDbAttributeDefinition
  3

  2
SS
 70
     8
280
     0
  0
ATTDEF
  5
12D
330
122
100
AcDbEntity
  8
AM_6
100
AcDbText
 10
8.25
 20
-0.9100000381469728
 30
0.0
 40
0.5
  1
012302
100
AcDbAttributeDefinition
  3

  2
PN
 70
     8
280
     0
  0
ATTDEF
  5
12E
330
122
100
AcDbEntity
  8
AM_6
100
AcDbText
 10
8.25
 20
-1.410000038146973
 30
0.0
 40
0.5
  1
TP-G-200
100
AcDbAttributeDefinition
  3

  2
DESCRIPTION
 70
     8
280
     0
  0
ATTDEF
  5
12F
330
122
100
AcDbEntity
  8
AM_6
100
AcDbText
 10
8.25
 20
-1.910000038146973
 30
0.0
 40
0.5
  1
0.580
100
AcDbAttributeDefinition
  3

  2
BW
 70
     8
280
     0
  0
ATTDEF
  5
130
330
122
100
AcDbEntity
  8
AM_6
100
AcDbText
 10
8.25
 20
-2.410000038146973
 30
0.0
 40
0.5
  1
10.0
100
AcDbAttributeDefinition
  3

  2
W
 70
     8
280
     0
  0
ATTDEF
  5
131
330
122
100
AcDbEntity
  8
AM_6
100
AcDbText
 10
8.25
 20
-2.910000038146973
 30
0.0
 40
0.5
  1
1.94
100
AcDbAttributeDefinition
  3

  2
A
 70
     8
280
     0
  0
ATTDEF
  5
132
330
122
100
AcDbEntity
  8
AM_6
100
AcDbText
 10
8.25
 20
-3.410000038146973
 30
0.0
 40
0.5
  1
6.50
100
AcDbAttributeDefinition
  3

  2
B
 70
     8
280
     0
  0
ATTDEF
  5
133
330
122
100
AcDbEntity
  8
AM_6
100
AcDbText
 10
8.25
 20
-3.910000038146973
 30
0.0
 40
0.5
  1
2.38
100
AcDbAttributeDefinition
  3

  2
C
 70
     8
280
     0
  0
ATTDEF
  5
134
330
122
100
AcDbEntity
  8
AM_6
100
AcDbText
 10
8.25
 20
-4.410000038146973
 30
0.0
 40
0.5
  1
6.00
100
AcDbAttributeDefinition
  3

  2
D
 70
     8
280
     0
  0
ATTDEF
  5
135
330
122
100
AcDbEntity
  8
AM_6
100
AcDbText
 10
8.25
 20
-4.910000038146973
 30
0.0
 40
0.5
  1
3.25
100
AcDbAttributeDefinition
  3

  2
E
 70
     8
280
     0
  0
ATTDEF
  5
136
330
122
100
AcDbEntity
  8
AM_6
100
AcDbText
 10
8.25
 20
-5.410000038146973
 30
0.0
 40
0.5
  1
6.38
100
AcDbAttributeDefinition
  3

  2
J
 70
     8
280
     0
  0
ATTDEF
  5
137
330
122
100
AcDbEntity
  8
AM_6
100
AcDbText
 10
8.25
 20
-5.910000038146973
 30
0.0
 40
0.5
  1
2.43
100
AcDbAttributeDefinition
  3

  2
L
 70
     8
280
     0
  0
ATTDEF
  5
138
330
122
100
AcDbEntity
  8
AM_6
100
AcDbText
 10
8.25
 20
-6.410000038146973
 30
0.0
 40
0.5
  1
1.19
100
AcDbAttributeDefinition
  3

  2
N
 70
     8
280
     0
  0
ATTDEF
  5
139
330
122
100
AcDbEntity
  8
AM_6
100
AcDbText
 10
8.25
 20
-6.910000038146973
 30
0.0
 40
0.5
  1
0.75
100
AcDbAttributeDefinition
  3

  2
R
 70
     8
280
     0
  0
ATTDEF
  5
13A
330
122
100
AcDbEntity
  8
AM_6
100
AcDbText
 10
8.25
 20
-7.410000038146973
 30
0.0
 40
0.5
  1
2.38
100
AcDbAttributeDefinition
  3

  2
T
 70
     8
280
     0
  0
ATTDEF
  5
13B
330
122
100
AcDbEntity
  8
AM_6
100
AcDbText
 10
8.25
 20
-7.910000038146973
 30
0.0
 40
0.5
  1
4450
100
AcDbAttributeDefinition
  3

  2
CAPS
 70
     8
280
     0
  0
ATTDEF
  5
13C
330
122
100
AcDbEntity
  8
AM_6
100
AcDbText
 10
8.25
 20
-8.410000038146972
 30
0.0
 40
0.5
  1
7891
100
AcDbAttributeDefinition
  3

  2
CAPD
 70
     8
280
     0
  0
ATTDEF
  5
13D
330
122
100
AcDbEntity
  8
AM_6
100
AcDbText
 10
8.25
 20
-8.910000038146972
 30
0.0
 40
0.5
  1
baldor
100
AcDbAttributeDefinition
  3

  2
COMPANY
 70
     8
280
     0
  0
LINE
  5
13E
330
122
100
AcDbEntity
  8
AM_9
100
AcDbLine
 10
-3.149999999999999
 20
0.9519999999999994
 30
0.0
 11
-3.149999999999999
 21
1.19
 31
0.0
  0
LINE
  5
13F
330
122
100
AcDbEntity
  8
AM_9
100
AcDbLine
 10
-3.149999999999999
 20
-1.19
 30
0.0
 11
-3.149999999999999
 21
-0.952
 31
0.0
  0
LINE
  5
140
330
122
100
AcDbEntity
  8
AM_9
100
AcDbLine
 10
3.149999999999999
 20
-1.19
 30
0.0
 11
3.149999999999999
 21
-0.952
 31
0.0
  0
LINE
  5
141
330
122
100
AcDbEntity
  8
AM_9
100
AcDbLine
 10
3.149999999999999
 20
0.9519999999999994
 30
0.0
 11
3.149999999999999
 21
1.19
 31
0.0
  0
LWPOLYLINE
  5
142
330
122
100
AcDbEntity
  8
AM_9
100
AcDbPolyline
 90
       10
 70
     0
 43
0.0
 10
-3.149999999999999
 20
0.9519999999999997
 10
-3.166548695588093
 20
0.9519990015250834
 10
-3.183097391176188
 20
0.9519833167637819
 10
-3.198256969562973
 20
0.9519190546360263
 10
-3.212463708909787
 20
0.9517478754294044
 10
-3.224517572367476
 20
0.951416959992784
 10
-3.23477420522394
 20
0.9508411225439358
 10
-3.242359314844162
 20
0.9500009078541637
 10
-3.247519639864858
 20
0.9488102585584048
 10
-3.25
 20
0.9467333309860804
  0
LWPOLYLINE
  5
143
330
122
100
AcDbEntity
  8
AM_9
100
AcDbPolyline
 90
       10
 70
     0
 43
0.0
 10
3.25
 20
0.9467333309860804
 10
3.248634736080954
 20
0.9483281993061502
 10
3.244410027604337
 20
0.9496369946234627
 10
3.237667967521888
 20
0.950584643278348
 10
3.228206826394462
 20
0.9512539950644042
 10
3.216856672429158
 20
0.9516547997302426
 10
3.203266016588935
 20
0.9518759650878963
 10
3.188553216152831
 20
0.9519686121082286
 10
3.172312305918897
 20
0.951996662128016
 10
3.149999999999998
 20
0.9519999999999997
  0
LWPOLYLINE
  5
144
330
122
100
AcDbEntity
  8
AM_9
100
AcDbPolyline
 90
       10
 70
     0
 43
0.0
 10
3.149999999999998
 20
-0.952
 10
3.172312305918897
 20
-0.9519966621280161
 10
3.188109121832366
 20
-0.9519700909297273
 10
3.203266016588935
 20
-0.9518759650878968
 10
3.216498626838709
 20
-0.951663374857308
 10
3.228206826394462
 20
-0.9512539950644046
 10
3.237433361575349
 20
-0.9506077531750645
 10
3.244410027604337
 20
-0.9496369946234633
 10
3.248554546353226
 20
-0.9483697705533253
 10
3.25
 20
-0.9467333309860806
  0
LWPOLYLINE
  5
145
330
122
100
AcDbEntity
  8
AM_9
100
AcDbPolyline
 90
       10
 70
     0
 43
0.0
 10
-3.25
 20
-0.9467333309860807
 10
-3.248634736080954
 20
-0.9483281993061508
 10
-3.244410027604337
 20
-0.9496369946234635
 10
-3.237667967521889
 20
-0.9505846432783486
 10
-3.228206826394463
 20
-0.9512539950644046
 10
-3.216856672429158
 20
-0.9516547997302431
 10
-3.203266016588935
 20
-0.9518759650878968
 10
-3.188553216152832
 20
-0.9519686121082293
 10
-3.172312305918898
 20
-0.9519966621280161
 10
-3.149999999999999
 20
-0.952
  0
LINE
  5
146
330
122
100
AcDbEntity
  8
AM_9
100
AcDbLine
 10
-2.111533325639396
 20
1.19
 30
0.0
 11
-2.111533325639396
 21
-1.19
 31
0.0
  0
LINE
  5
147
330
122
100
AcDbEntity
  8
AM_9
100
AcDbLine
 10
2.111533325639396
 20
-1.19
 30
0.0
 11
2.111533325639396
 21
1.19
 31
0.0
  0
LINE
  5
148
330
122
100
AcDbEntity
  8
AM_9
100
AcDbLine
 10
-3.0
 20
-0.9520000000000003
 30
0.0
 11
3.0
 21
-0.9520000000000003
 31
0.0
  0
LINE
  5
149
330
122
100
AcDbEntity
  8
AM_9
100
AcDbLine
 10
3.0
 20
0.952
 30
0.0
 11
-3.0
 21
0.952
 31
0.0
  0
LINE
  5
14A
330
122
100
AcDbEntity
  8
AM_9
100
AcDbLine
 10
2.168181818181818
 20
0.2187499999999999
 30
0.0
 11
2.168181818181818
 21
1.19
 31
0.0
  0
LINE
  5
14B
330
122
100
AcDbEntity
  8
AM_9
100
AcDbLine
 10
2.168181818181818
 20
-1.19
 30
0.0
 11
2.168181818181818
 21
-0.2187499999999999
 31
0.0
  0
LINE
  5
14C
330
122
100
AcDbEntity
  8
AM_9
100
AcDbLine
 10
-2.168181818181818
 20
1.19
 30
0.0
 11
-2.168181818181818
 21
-1.19
 31
0.0
  0
LINE
  5
14D
330
122
100
AcDbEntity
  8
AM_9
100
AcDbLine
 10
1.77165
 20
-1.29
 30
0.0
 11
1.77165
 21
1.29
 31
0.0
  0
LINE
  5
14E
330
122
100
AcDbEntity
  8
AM_9
100
AcDbLine
 10
-1.77165
 20
1.29
 30
0.0
 11
-1.77165
 21
-1.29
 31
0.0
  0
LINE
  5
14F
330
122
100
AcDbEntity
  8
AM_9
100
AcDbLine
 10
-2.836693577820927
 20
-1.19
 30
0.0
 11
-2.836693577820927
 21
1.19
 31
0.0
  0
LINE
  5
150
330
122
100
AcDbEntity
  8
AM_9
100
AcDbLine
 10
2.836693577820926
 20
-1.19
 30
0.0
 11
2.836693577820926
 21
1.19
 31
0.0
  0
LINE
  5
151
330
122
100
AcDbEntity
  8
AM_7
100
AcDbLine
 10
0.0
 20
2.589999961853027
 30
0.0
 11
0.0
 21
-2.589999961853027
 31
0.0
  0
LINE
  5
153
330
122
100
AcDbEntity
  8
AM_4
100
AcDbLine
 10
-3.25
 20
1.185790875323301
 30
0.0
 11
-3.25
 21
-1.185790875323301
 31
0.0
  0
LINE
  5
154
330
122
100
AcDbEntity
  8
AM_4
100
AcDbLine
 10
3.149999999999999
 20
-1.19
 30
0.0
 11
-3.149999999999999
 21
-1.19
 31
0.0
  0
LWPOLYLINE
  5
155
330
122
100
AcDbEntity
  8
AM_4
100
AcDbPolyline
 90
       10
 70
     0
 43
0.0
 10
3.149999999999999
 20
-1.19
 10
3.166549265807947
 20
-1.189999201109348
 10
3.183098531615895
 20
-1.189986651558546
 10
3.198258564581941
 20
-1.189935235531125
 10
3.212465714920973
 20
-1.189798280412608
 10
3.224522553727545
 20
-1.189533463522845
 10
3.234781712484192
 20
-1.189072627345079
 10
3.242373437814864
 20
-1.188399564783452
 10
3.247534482772482
 20
-1.187445452396969
 10
3.25
 20
-1.185790875323301
  0
LWPOLYLINE
  5
156
330
122
100
AcDbEntity
  8
AM_4
100
AcDbPolyline
 90
       10
 70
     0
 43
0.0
 10
-3.25
 20
-1.185790875323301
 10
-3.248629766647979
 20
-1.187066695985222
 10
-3.244393044446198
 20
-1.188113182559749
 10
-3.237637457100157
 20
-1.188870441676804
 10
-3.228163639890162
 20
-1.189404994780824
 10
-3.216789906035794
 20
-1.189725148484799
 10
-3.203172947012993
 20
-1.189901528520064
 10
-3.188441356734838
 20
-1.189975192036334
 10
-3.172182376892615
 20
-1.189997392144778
 10
-3.149999999999999
 20
-1.19
  0
LINE
  5
157
330
122
100
AcDbEntity
  8
AM_4
100
AcDbLine
 10
3.25
 20
1.1857908753233
 30
0.0
 11
3.25
 21
-1.185790875323301
 31
0.0
  0
LWPOLYLINE
  5
158
330
122
100
AcDbEntity
  8
AM_4
100
AcDbPolyline
 90
       10
 70
     0
 43
0.0
 10
3.25
 20
1.185790875323301
 10
3.248629766647979
 20
1.187066695985221
 10
3.244393044446198
 20
1.188113182559749
 10
3.237637457100157
 20
1.188870441676804
 10
3.228163639890163
 20
1.189404994780824
 10
3.216789906035795
 20
1.189725148484799
 10
3.203172947012993
 20
1.189901528520064
 10
3.188441356734839
 20
1.189975192036334
 10
3.172182376892615
 20
1.189997392144778
 10
3.149999999999999
 20
1.19
  0
LINE
  5
159
330
122
100
AcDbEntity
  8
AM_4
100
AcDbLine
 10
3.149999999999999
 20
1.19
 30
0.0
 11
-3.149999999999999
 21
1.19
 31
0.0
  0
LWPOLYLINE
  5
15A
330
122
100
AcDbEntity
  8
AM_4
100
AcDbPolyline
 90
       10
 70
     0
 43
0.0
 10
-3.149999999999999
 20
1.19
 10
-3.166549265807947
 20
1.189999201109348
 10
-3.183098531615895
 20
1.189986651558545
 10
-3.19825856458194
 20
1.189935235531124
 10
-3.212465714920973
 20
1.189798280412608
 10
-3.224522553727545
 20
1.189533463522845
 10
-3.234781712484192
 20
1.189072627345079
 10
-3.242373437814864
 20
1.188399564783452
 10
-3.247534482772482
 20
1.187445452396969
 10
-3.25
 20
1.1857908753233
  0
LINE
  5
15B
330
122
100
AcDbEntity
  8
AM_4
100
AcDbLine
 10
3.25
 20
-0.9520000000000001
 30
0.0
 11
3.0
 21
-0.9520000000000003
 31
0.0
  0
LINE
  5
15C
330
122
100
AcDbEntity
  8
AM_4
100
AcDbLine
 10
3.0
 20
0.952
 30
0.0
 11
3.25
 21
0.952
 31
0.0
  0
LINE
  5
15D
330
122
100
AcDbEntity
  8
AM_4
100
AcDbLine
 10
-3.0
 20
-0.9520000000000003
 30
0.0
 11
-3.25
 21
-0.9520000000000003
 31
0.0
  0
LINE
  5
15E
330
122
100
AcDbEntity
  8
AM_4
100
AcDbLine
 10
-3.25
 20
0.952
 30
0.0
 11
-3.0
 21
0.952
 31
0.0
  0
LINE
  5
15F
330
122
100
AcDbEntity
  8
AM_4
100
AcDbLine
 10
-3.043261018730748
 20
-0.9520000000000003
 30
0.0
 11
-3.043261018730748
 21
0.952
 31
0.0
  0
LINE
  5
160
330
122
100
AcDbEntity
  8
AM_4
100
AcDbLine
 10
3.04326102476522
 20
-0.9520000000000003
 30
0.0
 11
3.04326102476522
 21
0.952
 31
0.0
  0
LINE
  5
161
330
122
100
AcDbEntity
  8
AM_4
100
AcDbLine
 10
-2.068181818181818
 20
1.29
 30
0.0
 11
2.068181818178203
 21
1.29
 31
0.0
  0
ARC
  5
162
330
122
100
AcDbEntity
  8
AM_4
100
AcDbCircle
 10
2.068181818181819
 20
1.19
 30
0.0
 40
0.0999999999999992
100
AcDbArc
 50
0.0
 51
90.0
  0
ARC
  5
163
330
122
100
AcDbEntity
  8
AM_4
100
AcDbCircle
 10
-2.068181818181819
 20
1.19
 30
0.0
 40
0.0999999999999994
100
AcDbArc
 50
90.0
 51
180.0
  0
LINE
  5
164
330
122
100
AcDbEntity
  8
AM_4
100
AcDbLine
 10
-2.068181818181817
 20
-1.29
 30
0.0
 11
2.068181818178202
 21
-1.29
 31
0.0
  0
ARC
  5
165
330
122
100
AcDbEntity
  8
AM_4
100
AcDbCircle
 10
2.068181818181819
 20
-1.190000000000001
 30
0.0
 40
0.099999999999999
100
AcDbArc
 50
270.0
 51
0.0
  0
ARC
  5
166
330
122
100
AcDbEntity
  8
AM_4
100
AcDbCircle
 10
-2.068181818181819
 20
-1.190000000000001
 30
0.0
 40
0.0999999999999992
100
AcDbArc
 50
180.0
 51
270.0
  0
LINE
  5
167
330
122
100
AcDbEntity
  8
AM_4
100
AcDbLine
 10
1.412289851910868
 20
0.2750000000000002
 30
0.0
 11
3.0
 21
0.2750000000000004
 31
0.0
  0
LINE
  5
168
330
122
100
AcDbEntity
  8
AM_4
100
AcDbLine
 10
1.113333333333334
 20
-1.19
 30
0.0
 11
1.113333333333334
 21
1.19
 31
0.0
  0
LWPOLYLINE
  5
169
330
122
100
AcDbEntity
  8
AM_4
100
AcDbPolyline
 90
       16
 70
     0
 43
0.0
 10
1.412289851910868
 20
0.2750000000000002
 10
1.406674445022407
 20
0.2723818160742126
 10
1.396070966648147
 20
0.264490840974966
 10
1.381838609842827
 20
0.2525580056524496
 10
1.3639379749802
 20
0.2367456239015905
 10
1.349571208743499
 20
0.2237271286999433
 10
1.333952491862022
 20
0.2093737273982964
 10
1.317021935244871
 20
0.1936534215493249
 10
1.299163581014204
 20
0.1769423921188407
 10
1.274216140259932
 20
0.153440273720076
 10
1.248124411742358
 20
0.1287218779056335
 10
1.220736904283996
 20
0.1026707474555895
 10
1.192625477869241
 20
0.0758539553896585
 10
1.153591241385138
 20
0.0385360524164932
 10
1.113829811867636
 20
0.0004753419925258
 10
1.113333333333334
 20
0.0000000000000001
  0
LINE
  5
16A
330
122
100
AcDbEntity
  8
AM_4
100
AcDbLine
 10
3.0
 20
-0.2749999999999999
 30
0.0
 11
1.412289851910868
 21
-0.2749999999999997
 31
0.0
  0
LWPOLYLINE
  5
16B
330
122
100
AcDbEntity
  8
AM_4
100
AcDbPolyline
 90
       16
 70
     0
 43
0.0
 10
1.113333333333334
 20
0.0000000000000002
 10
1.113829811867636
 20
-0.0004753419925256
 10
1.153218208907369
 20
-0.038179121559255
 10
1.192625477869241
 20
-0.0758539553896584
 10
1.2199238480907
 20
-0.1018962043305078
 10
1.246697196148242
 20
-0.1273666310333899
 10
1.273430100027944
 20
-0.1526976613045193
 10
1.299163581014204
 20
-0.1769423921188404
 10
1.316516784833088
 20
-0.1931824421779804
 10
1.333088748631724
 20
-0.2085753021424547
 10
1.349109911856318
 20
-0.223305896422661
 10
1.3639379749802
 20
-0.2367456239015903
 10
1.381475563849436
 20
-0.2522439697563303
 10
1.396070966648147
 20
-0.2644908409749658
 10
1.406397860222673
 20
-0.2722012528192689
 10
1.412289851910868
 20
-0.275
  0
LINE
  5
16C
330
122
100
AcDbEntity
  8
AM_4
100
AcDbLine
 10
-1.412289851910868
 20
-0.2749999999999997
 30
0.0
 11
-3.0
 21
-0.275
 31
0.0
  0
LINE
  5
16D
330
122
100
AcDbEntity
  8
AM_4
100
AcDbLine
 10
-1.11333333333333
 20
-1.19
 30
0.0
 11
-1.11333333333333
 21
1.19
 31
0.0
  0
LWPOLYLINE
  5
16E
330
122
100
AcDbEntity
  8
AM_4
100
AcDbPolyline
 90
       16
 70
     0
 43
0.0
 10
-1.412289851910869
 20
-0.275
 10
-1.406674445022408
 20
-0.2723818160742124
 10
-1.396070966648148
 20
-0.2644908409749658
 10
-1.381838609842827
 20
-0.2525580056524494
 10
-1.3639379749802
 20
-0.2367456239015903
 10
-1.349513637476224
 20
-0.2236746401401126
 10
-1.333952491862022
 20
-0.2093737273982962
 10
-1.31697205253608
 20
-0.1936070109109296
 10
-1.299163581014204
 20
-0.1769423921188402
 10
-1.274121000814268
 20
-0.1533505909175977
 10
-1.248124411742358
 20
-0.1287218779056329
 10
-1.220654388215352
 20
-0.1025922609455661
 10
-1.192625477869241
 20
-0.0758539553896573
 10
-1.153591241385139
 20
-0.0385360524164916
 10
-1.113829811867748
 20
-0.000475341992409
 10
-1.113333333333333
 20
0.0000000000000001
  0
LINE
  5
16F
330
122
100
AcDbEntity
  8
AM_4
100
AcDbLine
 10
-3.0
 20
0.2750000000000004
 30
0.0
 11
-1.412289851910869
 21
0.2750000000000002
 31
0.0
  0
LWPOLYLINE
  5
170
330
122
100
AcDbEntity
  8
AM_4
100
AcDbPolyline
 90
       16
 70
     0
 43
0.0
 10
-1.11333333333333
 20
0.0000000000000002
 10
-1.113829811867748
 20
0.0004753419924091
 10
-1.153218208907367
 20
0.0381791215592509
 10
-1.192625477869241
 20
0.0758539553896575
 10
-1.219847992352706
 20
0.1018238122794299
 10
-1.246697196148242
 20
0.1273666310333896
 10
-1.273327735457879
 20
0.1526006642091774
 10
-1.299163581014204
 20
0.1769423921188404
 10
-1.316471222160033
 20
0.1931398565835187
 10
-1.333088748631725
 20
0.2085753021424549
 10
-1.349049149295706
 20
0.2232502907549121
 10
-1.3639379749802
 20
0.2367456239015905
 10
-1.381475563849436
 20
0.2522439697563305
 10
-1.396070966648148
 20
0.264490840974966
 10
-1.406397860222673
 20
0.2722012528192691
 10
-1.412289851910869
 20
0.2750000000000002
  0
LINE
  5
171
330
122
100
AcDbEntity
  8
AM_4
100
AcDbLine
 10
1.413333333333333
 20
1.19
 30
0.0
 11
1.413333333333334
 21
0.2750000000000004
 31
0.0
  0
LWPOLYLINE
  5
172
330
122
100
AcDbEntity
  8
AM_4
100
AcDbPolyline
 90
       19
 70
     0
 43
0.0
 10
2.899999993335999
 20
0.99
 10
2.908715567636123
 20
0.9903805296100193
 10
2.917364811203932
 20
0.9915192235415874
 10
2.925881898073321
 20
0.9934074156463225
 10
2.934202008070453
 20
0.9960307356421861
 10
2.942261820134433
 20
0.999369218480006
 10
2.949999994228805
 20
1.003397456289555
 10
2.957357638176274
 20
1.008084791748786
 10
2.964278755863732
 20
1.013395551404564
 10
2.970710673406493
 20
1.019289317169184
 10
2.97660444002836
 20
1.025721233926424
 10
2.981915200606584
 20
1.032642350906064
 10
2.986602537046443
 20
1.039999994228805
 10
2.990630775887336
 20
1.047738167786293
 10
2.993969259799368
 20
1.055797979405319
 10
2.996592580904136
 20
1.064118089052816
 10
2.998480774144029
 20
1.072635175670545
 10
2.999619469228368
 20
1.08128441908659
 10
3.0
 20
1.089999993335997
  0
LINE
  5
173
330
122
100
AcDbEntity
  8
AM_4
100
AcDbLine
 10
-2.899999999999991
 20
-0.3749999999999995
 30
0.0
 11
-2.899999999999991
 21
-0.9899999999999997
 31
0.0
  0
LINE
  5
174
330
122
100
AcDbEntity
  8
AM_4
100
AcDbLine
 10
-3.0
 20
-0.275
 30
0.0
 11
-2.899999999999996
 21
-0.3750000000000038
 31
0.0
  0
LINE
  5
175
330
122
100
AcDbEntity
  8
AM_4
100
AcDbLine
 10
-1.513333333333333
 20
-0.3749999999999995
 30
0.0
 11
-2.899999999999991
 21
-0.3749999999999995
 31
0.0
  0
LINE
  5
176
330
122
100
AcDbEntity
  8
AM_4
100
AcDbLine
 10
2.9
 20
-0.3749999999999995
 30
0.0
 11
3.0
 21
-0.2749999999999999
 31
0.0
  0
LINE
  5
177
330
122
100
AcDbEntity
  8
AM_4
100
AcDbLine
 10
-2.899999999999996
 20
0.3750000000000043
 30
0.0
 11
-3.0
 21
0.2750000000000006
 31
0.0
  0
LINE
  5
178
330
122
100
AcDbEntity
  8
AM_4
100
AcDbLine
 10
1.413333333333334
 20
-0.275
 30
0.0
 11
1.513333333333333
 21
-0.3749999999999996
 31
0.0
  0
LINE
  5
179
330
122
100
AcDbEntity
  8
AM_4
100
AcDbLine
 10
1.413333333333333
 20
-1.19
 30
0.0
 11
1.413333333333334
 21
-0.275
 31
0.0
  0
LWPOLYLINE
  5
17A
330
122
100
AcDbEntity
  8
AM_4
100
AcDbPolyline
 90
       19
 70
     0
 43
0.0
 10
-2.9
 20
-0.9900000000000001
 10
-2.908715574274766
 20
-0.9903805301908254
 10
-2.917364817766693
 20
-0.9915192246987792
 10
-2.925881904510252
 20
-0.9934074173710932
 10
-2.934202014332567
 20
-0.9960307379214092
 10
-2.94226182617407
 20
-0.999369221296335
 10
-2.95
 20
-1.003397459621556
 10
-2.957357643635104
 20
-1.008084795571101
 10
-2.964278760968654
 20
-1.013395555688102
 10
-2.970710678118655
 20
-1.019289321881345
 10
-2.976604444311898
 20
-1.025721239031346
 10
-2.981915204428899
 20
-1.032642356364895
 10
-2.986602540378444
 20
-1.04
 10
-2.990630778703665
 20
-1.04773817382593
 10
-2.993969262078591
 20
-1.055797985667433
 10
-2.996592582628907
 20
-1.064118095489747
 10
-2.998480775301221
 20
-1.072635182233306
 10
-2.999619469809174
 20
-1.081284425725233
 10
-3.0
 20
-1.089999999999999
  0
LINE
  5
17B
330
122
100
AcDbEntity
  8
AM_4
100
AcDbLine
 10
-3.0
 20
1.19
 30
0.0
 11
-3.0
 21
-1.19
 31
0.0
  0
LINE
  5
17C
330
122
100
AcDbEntity
  8
AM_4
100
AcDbLine
 10
-1.413333333333333
 20
-1.19
 30
0.0
 11
-1.413333333333333
 21
-0.2749999999999999
 31
0.0
  0
LINE
  5
17D
330
122
100
AcDbEntity
  8
AM_4
100
AcDbLine
 10
-1.513333333333333
 20
-0.9899999999999997
 30
0.0
 11
-2.899999999999991
 21
-0.9899999999999997
 31
0.0
  0
LWPOLYLINE
  5
17E
330
122
100
AcDbEntity
  8
AM_4
100
AcDbPolyline
 90
       19
 70
     0
 43
0.0
 10
1.513333333333333
 20
-0.9900000000000001
 10
1.504617759058567
 20
-0.9903805301908254
 10
1.49596851556664
 20
-0.9915192246987792
 10
1.487451428823081
 20
-0.9934074173710932
 10
1.479131319000766
 20
-0.9960307379214092
 10
1.471071507159263
 20
-0.999369221296335
 10
1.463333333333333
 20
-1.003397459621556
 10
1.455975689698229
 20
-1.008084795571101
 10
1.449054572364679
 20
-1.013395555688102
 10
1.442622655214679
 20
-1.019289321881345
 10
1.436728889021436
 20
-1.025721239031346
 10
1.431418128904435
 20
-1.032642356364895
 10
1.42673079295489
 20
-1.04
 10
1.422702554629669
 20
-1.04773817382593
 10
1.419364071254743
 20
-1.055797985667433
 10
1.416740750704427
 20
-1.064118095489748
 10
1.414852558032113
 20
-1.072635182233306
 10
1.413713863524159
 20
-1.081284425725234
 10
1.413333333333334
 20
-1.089999999999999
  0
LINE
  5
17F
330
122
100
AcDbEntity
  8
AM_4
100
AcDbLine
 10
3.0
 20
-1.19
 30
0.0
 11
3.0
 21
1.19
 31
0.0
  0
LWPOLYLINE
  5
180
330
122
100
AcDbEntity
  8
AM_4
100
AcDbPolyline
 90
       19
 70
     0
 43
0.0
 10
3.0
 20
-1.09
 10
2.999619469809174
 20
-1.081284425725234
 10
2.998480775301221
 20
-1.072635182233307
 10
2.996592582628907
 20
-1.064118095489748
 10
2.993969262078591
 20
-1.055797985667434
 10
2.990630778703665
 20
-1.04773817382593
 10
2.986602540378444
 20
-1.04
 10
2.981915204428899
 20
-1.032642356364896
 10
2.976604444311898
 20
-1.025721239031346
 10
2.970710678118655
 20
-1.019289321881346
 10
2.964278760968654
 20
-1.013395555688102
 10
2.957357643635105
 20
-1.008084795571101
 10
2.950000000000001
 20
-1.003397459621556
 10
2.942261826174071
 20
-0.9993692212963353
 10
2.934202014332568
 20
-0.9960307379214094
 10
2.925881904510253
 20
-0.9934074173710934
 10
2.917364817766694
 20
-0.9915192246987793
 10
2.908715574274767
 20
-0.9903805301908255
 10
2.900000000000001
 20
-0.9900000000000001
  0
LINE
  5
181
330
122
100
AcDbEntity
  8
AM_4
100
AcDbLine
 10
2.9
 20
0.9900000000000002
 30
0.0
 11
1.513333333333333
 21
0.9900000000000002
 31
0.0
  0
LINE
  5
182
330
122
100
AcDbEntity
  8
AM_4
100
AcDbLine
 10
2.9
 20
0.3750000000000001
 30
0.0
 11
2.9
 21
0.9900000000000002
 31
0.0
  0
LINE
  5
183
330
122
100
AcDbEntity
  8
AM_4
100
AcDbLine
 10
-2.899999999999991
 20
0.3749999999999999
 30
0.0
 11
-2.899999999999991
 21
0.9900000000000002
 31
0.0
  0
LINE
  5
184
330
122
100
AcDbEntity
  8
AM_4
100
AcDbLine
 10
-1.513333333333333
 20
0.3750000000000001
 30
0.0
 11
-2.899999999999991
 21
0.3749999999999999
 31
0.0
  0
LWPOLYLINE
  5
185
330
122
100
AcDbEntity
  8
AM_4
100
AcDbPolyline
 90
       19
 70
     0
 43
0.0
 10
-3.0
 20
1.089999999999999
 10
-2.999619469809174
 20
1.081284425725233
 10
-2.998480775301221
 20
1.072635182233306
 10
-2.996592582628907
 20
1.064118095489747
 10
-2.993969262078591
 20
1.055797985667432
 10
-2.990630778703665
 20
1.047738173825929
 10
-2.986602540378444
 20
1.04
 10
-2.981915204428899
 20
1.032642356364895
 10
-2.976604444311898
 20
1.025721239031346
 10
-2.970710678118655
 20
1.019289321881345
 10
-2.964278760968654
 20
1.013395555688102
 10
-2.957357643635105
 20
1.008084795571101
 10
-2.95
 20
1.003397459621556
 10
-2.94226182617407
 20
0.9993692212963348
 10
-2.934202014332567
 20
0.996030737921409
 10
-2.925881904510252
 20
0.993407417371093
 10
-2.917364817766693
 20
0.991519224698779
 10
-2.908715574274766
 20
0.9903805301908253
 10
-2.9
 20
0.9899999999999998
  0
LINE
  5
186
330
122
100
AcDbEntity
  8
AM_4
100
AcDbLine
 10
-1.513333333333333
 20
0.9900000000000002
 30
0.0
 11
-2.899999999999991
 21
0.9900000000000002
 31
0.0
  0
LINE
  5
187
330
122
100
AcDbEntity
  8
AM_4
100
AcDbLine
 10
-1.413333333333333
 20
0.2750000000000004
 30
0.0
 11
-1.413333333333333
 21
1.19
 31
0.0
  0
LINE
  5
188
330
122
100
AcDbEntity
  8
AM_4
100
AcDbLine
 10
1.513333333333333
 20
0.3749999999999999
 30
0.0
 11
1.513333333333333
 21
0.9900000000000002
 31
0.0
  0
LWPOLYLINE
  5
189
330
122
100
AcDbEntity
  8
AM_4
100
AcDbPolyline
 90
       19
 70
     0
 43
0.0
 10
1.413333333333334
 20
1.089999999999999
 10
1.413713863524159
 20
1.081284425725233
 10
1.414852558032113
 20
1.072635182233306
 10
1.416740750704427
 20
1.064118095489747
 10
1.419364071254743
 20
1.055797985667432
 10
1.422702554629669
 20
1.047738173825929
 10
1.42673079295489
 20
1.04
 10
1.431418128904435
 20
1.032642356364895
 10
1.436728889021436
 20
1.025721239031346
 10
1.442622655214679
 20
1.019289321881345
 10
1.449054572364679
 20
1.013395555688102
 10
1.455975689698229
 20
1.008084795571101
 10
1.463333333333333
 20
1.003397459621556
 10
1.471071507159263
 20
0.9993692212963348
 10
1.479131319000766
 20
0.996030737921409
 10
1.487451428823081
 20
0.993407417371093
 10
1.49596851556664
 20
0.991519224698779
 10
1.504617759058567
 20
0.9903805301908253
 10
1.513333333333333
 20
0.9899999999999998
  0
LINE
  5
18A
330
122
100
AcDbEntity
  8
AM_4
100
AcDbLine
 10
2.9
 20
0.3750000000000001
 30
0.0
 11
1.513333333333333
 21
0.3749999999999999
 31
0.0
  0
LINE
  5
18B
330
122
100
AcDbEntity
  8
AM_4
100
AcDbLine
 10
1.513333333333333
 20
0.3750000000000002
 30
0.0
 11
1.413333333333334
 21
0.2750000000000006
 31
0.0
  0
LINE
  5
18C
330
122
100
AcDbEntity
  8
AM_4
100
AcDbLine
 10
3.0
 20
0.2750000000000006
 30
0.0
 11
2.9
 21
0.3749999999999998
 31
0.0
  0
LINE
  5
18D
330
122
100
AcDbEntity
  8
AM_4
100
AcDbLine
 10
2.9
 20
-0.3749999999999995
 30
0.0
 11
1.513333333333333
 21
-0.3749999999999995
 31
0.0
  0
LINE
  5
18E
330
122
100
AcDbEntity
  8
AM_4
100
AcDbLine
 10
1.513333333333333
 20
-0.3749999999999995
 30
0.0
 11
1.513333333333333
 21
-0.9899999999999997
 31
0.0
  0
LINE
  5
18F
330
122
100
AcDbEntity
  8
AM_4
100
AcDbLine
 10
2.9
 20
-0.9899999999999997
 30
0.0
 11
1.513333333333333
 21
-0.9899999999999997
 31
0.0
  0
LINE
  5
190
330
122
100
AcDbEntity
  8
AM_4
100
AcDbLine
 10
2.9
 20
-0.3749999999999995
 30
0.0
 11
2.9
 21
-0.9899999999999997
 31
0.0
  0
LINE
  5
191
330
122
100
AcDbEntity
  8
AM_4
100
AcDbLine
 10
-1.513333333333333
 20
0.3750000000000001
 30
0.0
 11
-1.513333333333333
 21
0.9900000000000002
 31
0.0
  0
LINE
  5
192
330
122
100
AcDbEntity
  8
AM_4
100
AcDbLine
 10
-1.413333333333334
 20
0.2750000000000003
 30
0.0
 11
-1.513333333333333
 21
0.3749999999999998
 31
0.0
  0
LWPOLYLINE
  5
193
330
122
100
AcDbEntity
  8
AM_4
100
AcDbPolyline
 90
       19
 70
     0
 43
0.0
 10
-1.513333343329336
 20
0.9899999999999997
 10
-1.504617769016533
 20
0.9903805293196162
 10
-1.495968525410781
 20
0.9915192229629912
 10
-1.487451438478479
 20
0.9934074147839369
 10
-1.479131328393937
 20
0.9960307345025744
 10
-1.471071516218719
 20
0.9993692170718412
 10
-1.463333341990126
 20
1.003397454623554
 10
-1.455975697886475
 20
1.008084789837629
 10
-1.449054580022062
 20
1.013395549262795
 10
-1.44262266228292
 20
1.019289314813103
 10
-1.436728895446743
 20
1.025721231373963
 10
-1.431418134637906
 20
1.032642348176649
 10
-1.426730797952891
 20
1.039999991343207
 10
-1.422702558854162
 20
1.047738164766474
 10
-1.419364074673577
 20
1.055797976274262
 10
-1.416740753291583
 20
1.06411808583435
 10
-1.4148525597679
 20
1.072635172389165
 10
-1.413713864395368
 20
1.081284415767268
 10
-1.413333333333334
 20
1.089999990003996
  0
LINE
  5
194
330
122
100
AcDbEntity
  8
AM_4
100
AcDbLine
 10
-1.513333333333333
 20
-0.3749999999999995
 30
0.0
 11
-1.413333333333334
 21
-0.2749999999999997
 31
0.0
  0
LINE
  5
195
330
122
100
AcDbEntity
  8
AM_4
100
AcDbLine
 10
-1.513333333333333
 20
-0.3749999999999995
 30
0.0
 11
-1.513333333333333
 21
-0.9899999999999997
 31
0.0
  0
LWPOLYLINE
  5
196
330
122
100
AcDbEntity
  8
AM_4
100
AcDbPolyline
 90
       19
 70
     0
 43
0.0
 10
-1.413333333333333
 20
-1.09
 10
-1.413713863524158
 20
-1.081284425725234
 10
-1.414852558032112
 20
-1.072635182233307
 10
-1.416740750704426
 20
-1.064118095489748
 10
-1.419364071254742
 20
-1.055797985667433
 10
-1.422702554629668
 20
-1.04773817382593
 10
-1.426730792954889
 20
-1.04
 10
-1.431418128904434
 20
-1.032642356364895
 10
-1.436728889021435
 20
-1.025721239031346
 10
-1.442622655214678
 20
-1.019289321881345
 10
-1.449054572364679
 20
-1.013395555688102
 10
-1.455975689698228
 20
-1.008084795571101
 10
-1.463333333333333
 20
-1.003397459621556
 10
-1.471071507159263
 20
-0.9993692212963348
 10
-1.479131319000766
 20
-0.9960307379214088
 10
-1.48745142882308
 20
-0.9934074173710928
 10
-1.495968515566639
 20
-0.9915192246987787
 10
-1.504617759058567
 20
-0.990380530190825
 10
-1.513333333333332
 20
-0.9899999999999995
  0
ENDBLK
  5
125
330
122
100
AcDbEntity
  8
0
100
AcDbBlockEnd
  0
ENDSEC
  0
SECTION
  2
ENTITIES
  0
INSERT
  5
6F
330
1F
100
AcDbEntity
  8
0
100
AcDbBlockReference
  2
1_012302_4
 10
0.0
 20
0.0
 30
0.0
  0
POINT
  5
198
330
1F
100
AcDbEntity
  8
ConnectionPoints
100
AcDbPoint
 10
0.0
 20
-0.75
 30
0.0000000000000001
  0
POINT
  5
199
330
1F
100
AcDbEntity
  8
ConnectionPoints
100
AcDbPoint
 10
0.0
 20
1.19
 30
0.0
  0
POINT
  5
19A
330
1F
100
AcDbEntity
  8
ConnectionPoints
100
AcDbPoint
 10
2.168181818181818
 20
0.0
 30
0.0
  0
POINT
  5
19B
330
1F
100
AcDbEntity
  8
ConnectionPoints
100
AcDbPoint
 10
0.0
 20
-0.75
 30
0.0
  0
ENDSEC
  0
SECTION
  2
OBJECTS
  0
DICTIONARY
  5
C
330
0
100
AcDbDictionary
281
     1
  3
ACAD_DETAILVIEWSTYLE
350
1A3
  3
ACAD_GROUP
350
D
  3
ACAD_LAYOUT
350
1A
  3
ACAD_MATERIAL
350
43
  3
ACAD_MLEADERSTYLE
350
6B
  3
ACAD_MLINESTYLE
350
17
  3
ACAD_PLOTSETTINGS
350
19
  3
ACAD_PLOTSTYLENAME
350
E
  3
ACAD_SCALELIST
350
47
  3
ACAD_SECTIONVIEWSTYLE
350
1A4
  3
ACAD_TABLESTYLE
350
69
  3
ACAD_VISUALSTYLE
350
2A
  3
ACDB_RECOMPOSE_DATA
350
1A0
  3
AcDbVariableDictionary
350
19C
  0
SUN
  5
6D
330
29
100
AcDbSun
 90
        1
290
     0
 63
     7
421
 16777215
 40
1.0
291
     1
 91
  2455826
 92
 54000000
292
     0
 70
     2
 71
   256
280
     1
  0
DICTIONARY
  5
1A3
102
{ACAD_REACTORS
330
C
102
}
330
C
100
AcDbDictionary
281
     1
  0
DICTIONARY
  5
D
102
{ACAD_REACTORS
330
C
102
}
330
C
100
AcDbDictionary
281
     1
  0
DICTIONARY
  5
1A
102
{ACAD_REACTORS
330
C
102
}
330
C
100
AcDbDictionary
281
     1
  3
Layout1
350
1E
  3
Layout2
350
26
  3
Model
350
22
  0
DICTIONARY
  5
43
102
{ACAD_REACTORS
330
C
102
}
330
C
100
AcDbDictionary
281
     1
  3
ByBlock
350
45
  3
ByLayer
350
44
  3
Global
350
46
  0
DICTIONARY
  5
6B
102
{ACAD_REACTORS
330
C
102
}
330
C
100
AcDbDictionary
281
     1
  3
Standard
350
6C
  0
DICTIONARY
  5
17
102
{ACAD_REACTORS
330
C
102
}
330
C
100
AcDbDictionary
281
     1
  3
Standard
350
18
  0
DICTIONARY
  5
19
102
{ACAD_REACTORS
330
C
102
}
330
C
100
AcDbDictionary
281
     1
  0
ACDBDICTIONARYWDFLT
  5
E
102
{ACAD_REACTORS
330
C
102
}
330
C
100
AcDbDictionary
281
     1
  3
Normal
350
F
100
AcDbDictionaryWithDefault
340
F
  0
DICTIONARY
  5
47
102
{ACAD_REACTORS
330
C
102
}
330
C
100
AcDbDictionary
281
     1
  3
A0
350
48
  3
A1
350
49
  3
A2
350
4A
  3
A3
350
4B
  3
A4
350
4C
  3
A5
350
4D
  3
A6
350
4E
  3
A7
350
4F
  3
A8
350
50
  3
A9
350
51
  3
B0
350
52
  3
B1
350
53
  3
B2
350
54
  3
B3
350
55
  3
B4
350
56
  3
B5
350
57
  3
B6
350
58
  3
B7
350
59
  3
B8
350
5A
  3
B9
350
5B
  3
C0
350
5C
  3
C1
350
5D
  3
C2
350
5E
  3
C3
350
5F
  3
C4
350
60
  3
C5
350
61
  3
C6
350
62
  3
C7
350
63
  3
C8
350
64
  3
C9
350
65
  3
D0
350
66
  3
D1
350
67
  3
D2
350
68
  0
DICTIONARY
  5
1A4
102
{ACAD_REACTORS
330
C
102
}
330
C
100
AcDbDictionary
281
     1
  0
DICTIONARY
  5
69
102
{ACAD_REACTORS
330
C
102
}
330
C
100
AcDbDictionary
281
     1
  3
Standard
350
6A
  0
DICTIONARY
  5
2A
102
{ACAD_REACTORS
330
C
102
}
330
C
100
AcDbDictionary
281
     1
  3
2dWireframe
350
2F
  3
Basic
350
32
  3
Brighten
350
36
  3
ColorChange
350
3A
  3
Conceptual
350
34
  3
Dim
350
35
  3
EdgeColorOff
350
3D
  3
Facepattern
350
39
  3
Flat
350
2B
  3
FlatWithEdges
350
2C
  3
Gouraud
350
2D
  3
GouraudWithEdges
350
2E
  3
Hidden
350
31
  3
JitterOff
350
3B
  3
Linepattern
350
38
  3
OverhangOff
350
3C
  3
Realistic
350
33
  3
Shaded
350
42
  3
Shaded with edges
350
41
  3
Shades of Gray
350
3E
  3
Sketchy
350
3F
  3
Thicken
350
37
  3
Wireframe
350
30
  3
X-Ray
350
40
  0
XRECORD
  5
1A0
102
{ACAD_REACTORS
330
C
102
}
330
C
100
AcDbXrecord
280
     1
 90
        1
330
6A
  0
DICTIONARY
  5
19C
102
{ACAD_REACTORS
330
C
102
}
330
C
100
AcDbDictionary
281
     1
  3
CANNOSCALE
350
19D
  3
CMLEADERSTYLE
350
1A2
  3
CTABLESTYLE
350
1A1
  0
LAYOUT
  5
1E
102
{ACAD_REACTORS
330
1A
102
}
330
1A
100
AcDbPlotSettings
  1

  2
none_device
  4

  6

 40
0.0
 41
0.0
 42
0.0
 43
0.0
 44
0.0
 45
0.0
 46
0.0
 47
0.0
 48
0.0
 49
0.0
140
0.0
141
0.0
142
1.0
143
1.0
 70
   688
 72
     0
 73
     0
 74
     5
  7

 75
    16
 76
     0
 77
     2
 78
   300
147
1.0
148
0.0
149
0.0
100
AcDbLayout
  1
Layout1
 70
     1
 71
     1
 10
0.0
 20
0.0
 11
12.0
 21
9.0
 12
0.0
 22
0.0
 32
0.0
 14
1.000000000000000E+20
 24
1.000000000000000E+20
 34
1.000000000000000E+20
 15
-1.000000000000000E+20
 25
-1.000000000000000E+20
 35
-1.000000000000000E+20
146
0.0
 13
0.0
 23
0.0
 33
0.0
 16
1.0
 26
0.0
 36
0.0
 17
0.0
 27
1.0
 37
0.0
 76
     0
330
1B
  0
LAYOUT
  5
26
102
{ACAD_REACTORS
330
1A
102
}
330
1A
100
AcDbPlotSettings
  1

  2
none_device
  4

  6

 40
0.0
 41
0.0
 42
0.0
 43
0.0
 44
0.0
 45
0.0
 46
0.0
 47
0.0
 48
0.0
 49
0.0
140
0.0
141
0.0
142
1.0
143
1.0
 70
   688
 72
     0
 73
     0
 74
     5
  7

 75
    16
 76
     0
 77
     2
 78
   300
147
1.0
148
0.0
149
0.0
100
AcDbLayout
  1
Layout2
 70
     1
 71
     2
 10
0.0
 20
0.0
 11
0.0
 21
0.0
 12
0.0
 22
0.0
 32
0.0
 14
0.0
 24
0.0
 34
0.0
 15
0.0
 25
0.0
 35
0.0
146
0.0
 13
0.0
 23
0.0
 33
0.0
 16
1.0
 26
0.0
 36
0.0
 17
0.0
 27
1.0
 37
0.0
 76
     0
330
23
  0
LAYOUT
  5
22
102
{ACAD_REACTORS
330
1A
102
}
330
1A
100
AcDbPlotSettings
  1

  2
none_device
  4
Letter_(8.50_x_11.00_Inches)
  6

 40
6.35
 41
6.35
 42
6.35000508
 43
6.35000508
 44
215.9
 45
279.4
 46
0.0
 47
0.0
 48
0.0
 49
0.0
140
0.0
141
0.0
142
1.0
143
1.0
 70
  1712
 72
     0
 73
     0
 74
     0
  7

 75
     0
 76
     0
 77
     2
 78
   300
147
1.0
148
0.0
149
0.0
100
AcDbLayout
  1
Model
 70
     1
 71
     0
 10
0.0
 20
0.0
 11
12.0
 21
9.0
 12
0.0
 22
0.0
 32
0.0
 14
1.000000000000000E+20
 24
1.000000000000000E+20
 34
1.000000000000000E+20
 15
-1.000000000000000E+20
 25
-1.000000000000000E+20
 35
-1.000000000000000E+20
146
0.0
 13
0.0
 23
0.0
 33
0.0
 16
1.0
 26
0.0
 36
0.0
 17
0.0
 27
1.0
 37
0.0
 76
     0
330
1F
331
29
  0
MATERIAL
  5
45
102
{ACAD_REACTORS
330
43
102
}
330
43
100
AcDbMaterial
  1
ByBlock
 72
     1
 94
      127
  0
MATERIAL
  5
44
102
{ACAD_REACTORS
330
43
102
}
330
43
100
AcDbMaterial
  1
ByLayer
 72
     1
 94
      127
  0
MATERIAL
  5
46
102
{ACAD_REACTORS
330
43
102
}
330
43
100
AcDbMaterial
  1
Global
 72
     1
 94
      127
  0
MLEADERSTYLE
  5
6C
102
{ACAD_REACTORS
330
6B
102
}
330
6B
100
AcDbMLeaderStyle
179
     2
170
     2
171
     1
172
     0
 90
        2
 40
0.0
 41
0.0
173
     1
 91
-1056964608
340
14
 92
       -2
290
     1
 42
0.09
291
     1
 43
0.36
  3
Standard
341
0
 44
0.18
300

342
11
174
     1
178
     6
175
     1
176
     0
 93
-1056964608
 45
0.18
292
     0
297
     0
 46
0.18
343
0
 94
-1056964608
 47
1.0
 49
1.0
140
1.0
293
     1
141
0.0
294
     1
177
     0
142
1.0
295
     0
296
     0
143
0.125
271
     0
272
     9
273
     9
298
     0
  0
MLINESTYLE
  5
18
102
{ACAD_REACTORS
330
17
102
}
330
17
100
AcDbMlineStyle
  2
Standard
 70
     0
  3

 62
   256
 51
90.0
 52
90.0
 71
     2
 49
0.5
 62
   256
  6
BYLAYER
 49
-0.5
 62
   256
  6
BYLAYER
  0
ACDBPLACEHOLDER
  5
F
102
{ACAD_REACTORS
330
E
102
}
330
E
  0
SCALE
  5
48
102
{ACAD_REACTORS
330
47
102
}
330
47
100
AcDbScale
 70
     0
300
1:1
140
1.0
141
1.0
290
     1
  0
SCALE
  5
49
102
{ACAD_REACTORS
330
47
102
}
330
47
100
AcDbScale
 70
     0
300
1:2
140
1.0
141
2.0
290
     0
  0
SCALE
  5
4A
102
{ACAD_REACTORS
330
47
102
}
330
47
100
AcDbScale
 70
     0
300
1:4
140
1.0
141
4.0
290
     0
  0
SCALE
  5
4B
102
{ACAD_REACTORS
330
47
102
}
330
47
100
AcDbScale
 70
     0
300
1:5
140
1.0
141
5.0
290
     0
  0
SCALE
  5
4C
102
{ACAD_REACTORS
330
47
102
}
330
47
100
AcDbScale
 70
     0
300
1:8
140
1.0
141
8.0
290
     0
  0
SCALE
  5
4D
102
{ACAD_REACTORS
330
47
102
}
330
47
100
AcDbScale
 70
     0
300
1:10
140
1.0
141
10.0
290
     0
  0
SCALE
  5
4E
102
{ACAD_REACTORS
330
47
102
}
330
47
100
AcDbScale
 70
     0
300
1:16
140
1.0
141
16.0
290
     0
  0
SCALE
  5
4F
102
{ACAD_REACTORS
330
47
102
}
330
47
100
AcDbScale
 70
     0
300
1:20
140
1.0
141
20.0
290
     0
  0
SCALE
  5
50
102
{ACAD_REACTORS
330
47
102
}
330
47
100
AcDbScale
 70
     0
300
1:30
140
1.0
141
30.0
290
     0
  0
SCALE
  5
51
102
{ACAD_REACTORS
330
47
102
}
330
47
100
AcDbScale
 70
     0
300
1:40
140
1.0
141
40.0
290
     0
  0
SCALE
  5
52
102
{ACAD_REACTORS
330
47
102
}
330
47
100
AcDbScale
 70
     0
300
1:50
140
1.0
141
50.0
290
     0
  0
SCALE
  5
53
102
{ACAD_REACTORS
330
47
102
}
330
47
100
AcDbScale
 70
     0
300
1:100
140
1.0
141
100.0
290
     0
  0
SCALE
  5
54
102
{ACAD_REACTORS
330
47
102
}
330
47
100
AcDbScale
 70
     0
300
2:1
140
2.0
141
1.0
290
     0
  0
SCALE
  5
55
102
{ACAD_REACTORS
330
47
102
}
330
47
100
AcDbScale
 70
     0
300
4:1
140
4.0
141
1.0
290
     0
  0
SCALE
  5
56
102
{ACAD_REACTORS
330
47
102
}
330
47
100
AcDbScale
 70
     0
300
8:1
140
8.0
141
1.0
290
     0
  0
SCALE
  5
57
102
{ACAD_REACTORS
330
47
102
}
330
47
100
AcDbScale
 70
     0
300
10:1
140
10.0
141
1.0
290
     0
  0
SCALE
  5
58
102
{ACAD_REACTORS
330
47
102
}
330
47
100
AcDbScale
 70
     0
300
100:1
140
100.0
141
1.0
290
     0
  0
SCALE
  5
59
102
{ACAD_REACTORS
330
47
102
}
330
47
100
AcDbScale
 70
     0
300
1/128" = 1'-0"
140
0.0078125
141
12.0
290
     0
  0
SCALE
  5
5A
102
{ACAD_REACTORS
330
47
102
}
330
47
100
AcDbScale
 70
     0
300
1/64" = 1'-0"
140
0.015625
141
12.0
290
     0
  0
SCALE
  5
5B
102
{ACAD_REACTORS
330
47
102
}
330
47
100
AcDbScale
 70
     0
300
1/32" = 1'-0"
140
0.03125
141
12.0
290
     0
  0
SCALE
  5
5C
102
{ACAD_REACTORS
330
47
102
}
330
47
100
AcDbScale
 70
     0
300
1/16" = 1'-0"
140
0.0625
141
12.0
290
     0
  0
SCALE
  5
5D
102
{ACAD_REACTORS
330
47
102
}
330
47
100
AcDbScale
 70
     0
300
3/32" = 1'-0"
140
0.09375
141
12.0
290
     0
  0
SCALE
  5
5E
102
{ACAD_REACTORS
330
47
102
}
330
47
100
AcDbScale
 70
     0
300
1/8" = 1'-0"
140
0.125
141
12.0
290
     0
  0
SCALE
  5
5F
102
{ACAD_REACTORS
330
47
102
}
330
47
100
AcDbScale
 70
     0
300
3/16" = 1'-0"
140
0.1875
141
12.0
290
     0
  0
SCALE
  5
60
102
{ACAD_REACTORS
330
47
102
}
330
47
100
AcDbScale
 70
     0
300
1/4" = 1'-0"
140
0.25
141
12.0
290
     0
  0
SCALE
  5
61
102
{ACAD_REACTORS
330
47
102
}
330
47
100
AcDbScale
 70
     0
300
3/8" = 1'-0"
140
0.375
141
12.0
290
     0
  0
SCALE
  5
62
102
{ACAD_REACTORS
330
47
102
}
330
47
100
AcDbScale
 70
     0
300
1/2" = 1'-0"
140
0.5
141
12.0
290
     0
  0
SCALE
  5
63
102
{ACAD_REACTORS
330
47
102
}
330
47
100
AcDbScale
 70
     0
300
3/4" = 1'-0"
140
0.75
141
12.0
290
     0
  0
SCALE
  5
64
102
{ACAD_REACTORS
330
47
102
}
330
47
100
AcDbScale
 70
     0
300
1" = 1'-0"
140
1.0
141
12.0
290
     0
  0
SCALE
  5
65
102
{ACAD_REACTORS
330
47
102
}
330
47
100
AcDbScale
 70
     0
300
1-1/2" = 1'-0"
140
1.5
141
12.0
290
     0
  0
SCALE
  5
66
102
{ACAD_REACTORS
330
47
102
}
330
47
100
AcDbScale
 70
     0
300
3" = 1'-0"
140
3.0
141
12.0
290
     0
  0
SCALE
  5
67
102
{ACAD_REACTORS
330
47
102
}
330
47
100
AcDbScale
 70
     0
300
6" = 1'-0"
140
6.0
141
12.0
290
     0
  0
SCALE
  5
68
102
{ACAD_REACTORS
330
47
102
}
330
47
100
AcDbScale
 70
     0
300
1'-0" = 1'-0"
140
12.0
141
12.0
290
     0
  0
TABLESTYLE
  5
6A
102
{ACAD_REACTORS
330
69
102
}
102
{ACAD_XDICTIONARY
360
19E
102
}
330
69
100
AcDbTableStyle
  3
Standard
 70
     0
 71
     0
 40
0.06
 41
0.06
280
     0
281
     0
  7
Standard
140
0.18
170
     2
 62
     0
 63
   257
283
     0
 90
        4
 91
        0
  1

274
    -2
284
     1
 64
     0
275
    -2
285
     1
 65
     0
276
    -2
286
     1
 66
     0
277
    -2
287
     1
 67
     0
278
    -2
288
     1
 68
     0
279
    -2
289
     1
 69
     0
  7
Standard
140
0.25
170
     5
 62
     0
 63
   257
283
     0
 90
        4
 91
        0
  1

274
    -2
284
     1
 64
     0
275
    -2
285
     1
 65
     0
276
    -2
286
     1
 66
     0
277
    -2
287
     1
 67
     0
278
    -2
288
     1
 68
     0
279
    -2
289
     1
 69
     0
  7
Standard
140
0.18
170
     5
 62
     0
 63
   257
283
     0
 90
        4
 91
        0
  1

274
    -2
284
     1
 64
     0
275
    -2
285
     1
 65
     0
276
    -2
286
     1
 66
     0
277
    -2
287
     1
 67
     0
278
    -2
288
     1
 68
     0
279
    -2
289
     1
 69
     0
  0
VISUALSTYLE
  5
2F
102
{ACAD_REACTORS
330
2A
102
}
330
2A
100
AcDbVisualStyle
  2
2dWireframe
 70
     4
177
     3
291
     0
 70
    58
 90
        0
176
     1
 90
        2
176
     1
 90
        0
176
     1
 90
        0
176
     1
 40
0.6
176
     1
 40
30.0
176
     1
 62
     7
420
 16777215
176
     1
 90
        1
176
     1
 90
        4
176
     1
 62
     7
176
     1
 62
   257
176
     1
 90
        1
176
     1
 90
        1
176
     1
 40
1.0
176
     1
 90
        0
176
     1
 62
   257
176
     1
 40
1.0
176
     1
 90
        1
176
     1
 90
        6
176
     1
 90
        2
176
     1
 62
     7
176
     1
 90
        5
176
     1
 90
        0
176
     1
 90
        0
176
     1
290
     0
176
     1
 90
        1
176
     1
 40
0.0
176
     1
 90
        0
176
     1
290
     1
176
     1
290
     1
176
     1
290
     0
176
     1
290
     0
176
     1
290
     0
176
     1
290
     0
176
     1
290
     0
176
     1
290
     0
176
     1
290
     0
176
     1
 90
       50
176
     1
 40
0.0
176
     1
 40
1.0
176
     1
 90
        0
176
     1
 62
    18
420
        0
176
     1
 90
       50
176
     1
 90
        3
176
     1
 62
     5
420
      255
176
     1
290
     0
176
     1
 90
       50
176
     1
 90
       50
176
     1
 90
       50
176
     1
290
     0
176
     1
 90
       50
176
     1
 62
   256
176
     0
 40
1.0
176
     0
 90
        2
176
     1
  1
strokes_ogs.tif
176
     1
290
     0
176
     1
 40
1.0
176
     1
 40
1.0
176
     1
  0
VISUALSTYLE
  5
32
102
{ACAD_REACTORS
330
2A
102
}
330
2A
100
AcDbVisualStyle
  2
Basic
 70
     7
177
     3
291
     1
 70
    58
 90
        1
176
     1
 90
        0
176
     1
 90
        1
176
     1
 90
        0
176
     1
 40
0.6
176
     1
 40
30.0
176
     1
 62
     7
420
 16777215
176
     1
 90
        0
176
     1
 90
        4
176
     1
 62
     7
176
     1
 62
   257
176
     1
 90
        1
176
     1
 90
        1
176
     1
 40
1.0
176
     1
 90
        8
176
     1
 62
     7
176
     1
 40
1.0
176
     1
 90
        1
176
     1
 90
        6
176
     1
 90
        2
176
     1
 62
     7
176
     1
 90
        5
176
     1
 90
        0
176
     1
 90
        0
176
     1
290
     0
176
     1
 90
        1
176
     1
 40
0.0
176
     1
 90
        0
176
     1
290
     0
176
     1
290
     1
176
     1
290
     1
176
     1
290
     0
176
     1
290
     0
176
     1
290
     0
176
     1
290
     0
176
     1
290
     0
176
     1
290
     0
176
     1
 90
       50
176
     1
 40
0.0
176
     1
 40
1.0
176
     1
 90
        0
176
     1
 62
    18
420
        0
176
     1
 90
       50
176
     1
 90
        3
176
     1
 62
     5
420
      255
176
     1
290
     0
176
     1
 90
       50
176
     1
 90
       50
176
     1
 90
       50
176
     1
290
     0
176
     1
 90
       50
176
     1
 62
   256
176
     0
 40
1.0
176
     0
 90
        2
176
     1
  1
strokes_ogs.tif
176
     1
290
     0
176
     1
 40
1.0
176
     1
 40
1.0
176
     1
  0
VISUALSTYLE
  5
36
102
{ACAD_REACTORS
330
2A
102
}
330
2A
100
AcDbVisualStyle
  2
Brighten
 70
    12
177
     3
291
     1
 70
    58
 90
        2
176
     1
 90
        2
176
     1
 90
        0
176
     1
 90
        0
176
     1
 40
0.6
176
     1
 40
30.0
176
     1
 62
     7
420
 16777215
176
     1
 90
        1
176
     1
 90
        4
176
     1
 62
     7
176
     1
 62
   257
176
     1
 90
        1
176
     1
 90
        1
176
     1
 40
1.0
176
     1
 90
        8
176
     1
 62
     7
176
     1
 40
1.0
176
     1
 90
        1
176
     1
 90
        6
176
     1
 90
        2
176
     1
 62
     7
176
     1
 90
        5
176
     1
 90
        0
176
     1
 90
        0
176
     1
290
     0
176
     1
 90
        1
176
     1
 40
50.0
176
     1
 90
        0
176
     1
290
     0
176
     1
290
     1
176
     1
290
     1
176
     1
290
     0
176
     1
290
     0
176
     1
290
     0
176
     1
290
     0
176
     1
290
     0
176
     1
290
     0
176
     1
 90
       50
176
     1
 40
0.0
176
     1
 40
1.0
176
     1
 90
        0
176
     1
 62
    18
420
        0
176
     1
 90
       50
176
     1
 90
        3
176
     1
 62
     5
420
      255
176
     1
290
     0
176
     1
 90
       50
176
     1
 90
       50
176
     1
 90
       50
176
     1
290
     0
176
     1
 90
       50
176
     1
 62
   256
176
     0
 40
1.0
176
     0
 90
        2
176
     1
  1
strokes_ogs.tif
176
     1
290
     0
176
     1
 40
1.0
176
     1
 40
1.0
176
     1
  0
VISUALSTYLE
  5
3A
102
{ACAD_REACTORS
330
2A
102
}
330
2A
100
AcDbVisualStyle
  2
ColorChange
 70
    16
177
     3
291
     1
 70
    58
 90
        2
176
     1
 90
        2
176
     1
 90
        3
176
     1
 90
        0
176
     1
 40
0.6
176
     1
 40
30.0
176
     1
 62
     8
420
  8421504
176
     1
 90
        1
176
     1
 90
        4
176
     1
 62
     7
176
     1
 62
   257
176
     1
 90
        1
176
     1
 90
        1
176
     1
 40
1.0
176
     1
 90
        8
176
     1
 62
     8
420
  8421504
176
     1
 40
1.0
176
     1
 90
        1
176
     1
 90
        6
176
     1
 90
        2
176
     1
 62
     7
176
     1
 90
        5
176
     1
 90
        0
176
     1
 90
        0
176
     1
290
     0
176
     1
 90
        1
176
     1
 40
0.0
176
     1
 90
        0
176
     1
290
     0
176
     1
290
     1
176
     1
290
     1
176
     1
290
     0
176
     1
290
     0
176
     1
290
     0
176
     1
290
     0
176
     1
290
     0
176
     1
290
     0
176
     1
 90
       50
176
     1
 40
0.0
176
     1
 40
1.0
176
     1
 90
        0
176
     1
 62
    18
420
        0
176
     1
 90
       50
176
     1
 90
        3
176
     1
 62
     5
420
      255
176
     1
290
     0
176
     1
 90
       50
176
     1
 90
       50
176
     1
 90
       50
176
     1
290
     0
176
     1
 90
       50
176
     1
 62
   256
176
     0
 40
1.0
176
     0
 90
        2
176
     1
  1
strokes_ogs.tif
176
     1
290
     0
176
     1
 40
1.0
176
     1
 40
1.0
176
     1
  0
VISUALSTYLE
  5
34
102
{ACAD_REACTORS
330
2A
102
}
330
2A
100
AcDbVisualStyle
  2
Conceptual
 70
     9
177
     3
291
     0
 70
    58
 90
        3
176
     1
 90
        2
176
     1
 90
        0
176
     1
 90
        0
176
     1
 40
0.6
176
     1
 40
30.0
176
     1
 62
     7
420
 16777215
176
     1
 90
        2
176
     1
 90
        2
176
     1
 62
     7
176
     1
 62
   257
176
     1
 90
        1
176
     1
 90
        1
176
     1
 40
179.0
176
     1
 90
        8
176
     1
 62
     7
176
     1
 40
1.0
176
     1
 90
        1
176
     1
 90
        6
176
     1
 90
        2
176
     1
 62
     7
176
     1
 90
        3
176
     1
 90
        0
176
     1
 90
        0
176
     1
290
     0
176
     1
 90
        1
176
     1
 40
0.0
176
     1
 90
        0
176
     1
290
     0
176
     1
290
     1
176
     1
290
     1
176
     1
290
     0
176
     1
290
     0
176
     1
290
     0
176
     1
290
     0
176
     1
290
     0
176
     1
290
     0
176
     1
 90
       50
176
     1
 40
0.0
176
     1
 40
1.0
176
     1
 90
        0
176
     1
 62
    18
420
        0
176
     1
 90
       50
176
     1
 90
        3
176
     1
 62
     5
420
      255
176
     1
290
     0
176
     1
 90
       50
176
     1
 90
       50
176
     1
 90
       50
176
     1
290
     0
176
     1
 90
       50
176
     1
 62
   256
176
     0
 40
1.0
176
     0
 90
        2
176
     1
  1
strokes_ogs.tif
176
     1
290
     0
176
     1
 40
1.0
176
     1
 40
1.0
176
     1
  0
VISUALSTYLE
  5
35
102
{ACAD_REACTORS
330
2A
102
}
330
2A
100
AcDbVisualStyle
  2
Dim
 70
    11
177
     3
291
     1
 70
    58
 90
        2
176
     1
 90
        2
176
     1
 90
        0
176
     1
 90
        0
176
     1
 40
0.6
176
     1
 40
30.0
176
     1
 62
     7
420
 16777215
176
     1
 90
        1
176
     1
 90
        4
176
     1
 62
     7
176
     1
 62
   257
176
     1
 90
        1
176
     1
 90
        1
176
     1
 40
1.0
176
     1
 90
        8
176
     1
 62
     7
176
     1
 40
1.0
176
     1
 90
        1
176
     1
 90
        6
176
     1
 90
        2
176
     1
 62
     7
176
     1
 90
        5
176
     1
 90
        0
176
     1
 90
        0
176
     1
290
     0
176
     1
 90
        1
176
     1
 40
-50.0
176
     1
 90
        0
176
     1
290
     0
176
     1
290
     1
176
     1
290
     1
176
     1
290
     0
176
     1
290
     0
176
     1
290
     0
176
     1
290
     0
176
     1
290
     0
176
     1
290
     0
176
     1
 90
       50
176
     1
 40
0.0
176
     1
 40
1.0
176
     1
 90
        0
176
     1
 62
    18
420
        0
176
     1
 90
       50
176
     1
 90
        3
176
     1
 62
     5
420
      255
176
     1
290
     0
176
     1
 90
       50
176
     1
 90
       50
176
     1
 90
       50
176
     1
290
     0
176
     1
 90
       50
176
     1
 62
   256
176
     0
 40
1.0
176
     0
 90
        2
176
     1
  1
strokes_ogs.tif
176
     1
290
     0
176
     1
 40
1.0
176
     1
 40
1.0
176
     1
  0
VISUALSTYLE
  5
3D
102
{ACAD_REACTORS
330
2A
102
}
330
2A
100
AcDbVisualStyle
  2
EdgeColorOff
 70
    22
177
     3
291
     1
 70
    58
 90
        2
176
     0
 90
        2
176
     0
 90
        0
176
     0
 90
        0
176
     0
 40
0.6
176
     0
 40
30.0
176
     0
 62
     7
420
 16777215
176
     0
 90
        1
176
     0
 90
        4
176
     0
 62
     7
176
     0
 62
   257
176
     0
 90
        1
176
     0
 90
        1
176
     0
 40
1.0
176
     0
 90
        8
176
     2
 62
     7
176
     0
 40
1.0
176
     0
 90
        1
176
     0
 90
        6
176
     0
 90
        2
176
     0
 62
     7
176
     0
 90
        5
176
     0
 90
        0
176
     0
 90
        0
176
     0
290
     0
176
     0
 90
        1
176
     0
 40
0.0
176
     0
 90
        0
176
     0
290
     0
176
     0
290
     1
176
     0
290
     1
176
     0
290
     0
176
     0
290
     0
176
     0
290
     0
176
     0
290
     0
176
     0
290
     0
176
     0
290
     0
176
     0
 90
       50
176
     0
 40
0.0
176
     0
 40
1.0
176
     0
 90
        0
176
     0
 62
    18
420
        0
176
     0
 90
       50
176
     0
 90
        3
176
     0
 62
     5
420
      255
176
     0
290
     0
176
     0
 90
       50
176
     0
 90
       50
176
     0
 90
       50
176
     0
290
     0
176
     0
 90
       50
176
     0
 62
   256
176
     0
 40
1.0
176
     0
 90
        2
176
     0
  1
strokes_ogs.tif
176
     0
290
     0
176
     0
 40
1.0
176
     0
 40
1.0
176
     0
  0
VISUALSTYLE
  5
39
102
{ACAD_REACTORS
330
2A
102
}
330
2A
100
AcDbVisualStyle
  2
Facepattern
 70
    15
177
     3
291
     1
 70
    58
 90
        2
176
     1
 90
        2
176
     1
 90
        0
176
     1
 90
        0
176
     1
 40
0.6
176
     1
 40
30.0
176
     1
 62
     7
420
 16777215
176
     1
 90
        1
176
     1
 90
        4
176
     1
 62
     7
176
     1
 62
   257
176
     1
 90
        1
176
     1
 90
        1
176
     1
 40
1.0
176
     1
 90
        8
176
     1
 62
     7
176
     1
 40
1.0
176
     1
 90
        1
176
     1
 90
        6
176
     1
 90
        2
176
     1
 62
     7
176
     1
 90
        5
176
     1
 90
        0
176
     1
 90
        0
176
     1
290
     0
176
     1
 90
        1
176
     1
 40
0.0
176
     1
 90
        0
176
     1
290
     0
176
     1
290
     1
176
     1
290
     1
176
     1
290
     0
176
     1
290
     0
176
     1
290
     0
176
     1
290
     0
176
     1
290
     0
176
     1
290
     0
176
     1
 90
       50
176
     1
 40
0.0
176
     1
 40
1.0
176
     1
 90
        0
176
     1
 62
    18
420
        0
176
     1
 90
       50
176
     1
 90
        3
176
     1
 62
     5
420
      255
176
     1
290
     0
176
     1
 90
       50
176
     1
 90
       50
176
     1
 90
       50
176
     1
290
     0
176
     1
 90
       50
176
     1
 62
   256
176
     0
 40
1.0
176
     0
 90
        2
176
     1
  1
strokes_ogs.tif
176
     1
290
     0
176
     1
 40
1.0
176
     1
 40
1.0
176
     1
  0
VISUALSTYLE
  5
2B
102
{ACAD_REACTORS
330
2A
102
}
330
2A
100
AcDbVisualStyle
  2
Flat
 70
     0
177
     3
291
     1
 70
    58
 90
        2
176
     1
 90
        1
176
     1
 90
        1
176
     1
 90
        2
176
     1
 40
0.6
176
     1
 40
30.0
176
     1
 62
     7
420
 16777215
176
     1
 90
        0
176
     1
 90
        0
176
     1
 62
     7
176
     1
 62
   257
176
     1
 90
        1
176
     1
 90
        1
176
     1
 40
1.0
176
     1
 90
        8
176
     1
 62
     7
176
     1
 40
1.0
176
     1
 90
        1
176
     1
 90
        6
176
     1
 90
        2
176
     1
 62
     7
176
     1
 90
        5
176
     1
 90
        0
176
     1
 90
        0
176
     1
290
     0
176
     1
 90
       13
176
     1
 40
0.0
176
     1
 90
        0
176
     1
290
     0
176
     1
290
     1
176
     1
290
     1
176
     1
290
     0
176
     1
290
     0
176
     1
290
     0
176
     1
290
     0
176
     1
290
     0
176
     1
290
     0
176
     1
 90
       50
176
     1
 40
0.0
176
     1
 40
1.0
176
     1
 90
        0
176
     1
 62
    18
420
        0
176
     1
 90
       50
176
     1
 90
        3
176
     1
 62
     5
420
      255
176
     1
290
     0
176
     1
 90
       50
176
     1
 90
       50
176
     1
 90
       50
176
     1
290
     0
176
     1
 90
       50
176
     1
 62
   256
176
     0
 40
1.0
176
     0
 90
        2
176
     1
  1
strokes_ogs.tif
176
     1
290
     0
176
     1
 40
1.0
176
     1
 40
1.0
176
     1
  0
VISUALSTYLE
  5
2C
102
{ACAD_REACTORS
330
2A
102
}
330
2A
100
AcDbVisualStyle
  2
FlatWithEdges
 70
     1
177
     3
291
     1
 70
    58
 90
        2
176
     1
 90
        1
176
     1
 90
        1
176
     1
 90
        2
176
     1
 40
0.6
176
     1
 40
30.0
176
     1
 62
     7
420
 16777215
176
     1
 90
        1
176
     1
 90
        0
176
     1
 62
     7
176
     1
 62
   257
176
     1
 90
        1
176
     1
 90
        1
176
     1
 40
1.0
176
     1
 90
        0
176
     1
 62
   257
176
     1
 40
1.0
176
     1
 90
        1
176
     1
 90
        6
176
     1
 90
        2
176
     1
 62
     7
176
     1
 90
        5
176
     1
 90
        0
176
     1
 90
        0
176
     1
290
     0
176
     1
 90
       13
176
     1
 40
0.0
176
     1
 90
        0
176
     1
290
     0
176
     1
290
     1
176
     1
290
     1
176
     1
290
     0
176
     1
290
     0
176
     1
290
     0
176
     1
290
     0
176
     1
290
     0
176
     1
290
     0
176
     1
 90
       50
176
     1
 40
0.0
176
     1
 40
1.0
176
     1
 90
        0
176
     1
 62
    18
420
        0
176
     1
 90
       50
176
     1
 90
        3
176
     1
 62
     5
420
      255
176
     1
290
     0
176
     1
 90
       50
176
     1
 90
       50
176
     1
 90
       50
176
     1
290
     0
176
     1
 90
       50
176
     1
 62
   256
176
     0
 40
1.0
176
     0
 90
        2
176
     1
  1
strokes_ogs.tif
176
     1
290
     0
176
     1
 40
1.0
176
     1
 40
1.0
176
     1
  0
VISUALSTYLE
  5
2D
102
{ACAD_REACTORS
330
2A
102
}
330
2A
100
AcDbVisualStyle
  2
Gouraud
 70
     2
177
     3
291
     1
 70
    58
 90
        2
176
     1
 90
        2
176
     1
 90
        1
176
     1
 90
        2
176
     1
 40
0.6
176
     1
 40
30.0
176
     1
 62
     7
420
 16777215
176
     1
 90
        0
176
     1
 90
        0
176
     1
 62
     7
176
     1
 62
   257
176
     1
 90
        1
176
     1
 90
        1
176
     1
 40
1.0
176
     1
 90
        0
176
     1
 62
     7
176
     1
 40
1.0
176
     1
 90
        1
176
     1
 90
        6
176
     1
 90
        2
176
     1
 62
     7
176
     1
 90
        5
176
     1
 90
        0
176
     1
 90
        0
176
     1
290
     0
176
     1
 90
       13
176
     1
 40
0.0
176
     1
 90
        0
176
     1
290
     0
176
     1
290
     1
176
     1
290
     1
176
     1
290
     0
176
     1
290
     0
176
     1
290
     0
176
     1
290
     0
176
     1
290
     0
176
     1
290
     0
176
     1
 90
       50
176
     1
 40
0.0
176
     1
 40
1.0
176
     1
 90
        0
176
     1
 62
    18
420
        0
176
     1
 90
       50
176
     1
 90
        3
176
     1
 62
     5
420
      255
176
     1
290
     0
176
     1
 90
       50
176
     1
 90
       50
176
     1
 90
       50
176
     1
290
     0
176
     1
 90
       50
176
     1
 62
   256
176
     0
 40
1.0
176
     0
 90
        2
176
     1
  1
strokes_ogs.tif
176
     1
290
     0
176
     1
 40
1.0
176
     1
 40
1.0
176
     1
  0
VISUALSTYLE
  5
2E
102
{ACAD_REACTORS
330
2A
102
}
330
2A
100
AcDbVisualStyle
  2
GouraudWithEdges
 70
     3
177
     3
291
     1
 70
    58
 90
        2
176
     1
 90
        2
176
     1
 90
        1
176
     1
 90
        2
176
     1
 40
0.6
176
     1
 40
30.0
176
     1
 62
     7
420
 16777215
176
     1
 90
        1
176
     1
 90
        0
176
     1
 62
     7
176
     1
 62
   257
176
     1
 90
        1
176
     1
 90
        1
176
     1
 40
1.0
176
     1
 90
        0
176
     1
 62
   257
176
     1
 40
1.0
176
     1
 90
        1
176
     1
 90
        6
176
     1
 90
        2
176
     1
 62
     7
176
     1
 90
        5
176
     1
 90
        0
176
     1
 90
        0
176
     1
290
     0
176
     1
 90
       13
176
     1
 40
0.0
176
     1
 90
        0
176
     1
290
     0
176
     1
290
     1
176
     1
290
     1
176
     1
290
     0
176
     1
290
     0
176
     1
290
     0
176
     1
290
     0
176
     1
290
     0
176
     1
290
     0
176
     1
 90
       50
176
     1
 40
0.0
176
     1
 40
1.0
176
     1
 90
        0
176
     1
 62
    18
420
        0
176
     1
 90
       50
176
     1
 90
        3
176
     1
 62
     5
420
      255
176
     1
290
     0
176
     1
 90
       50
176
     1
 90
       50
176
     1
 90
       50
176
     1
290
     0
176
     1
 90
       50
176
     1
 62
   256
176
     0
 40
1.0
176
     0
 90
        2
176
     1
  1
strokes_ogs.tif
176
     1
290
     0
176
     1
 40
1.0
176
     1
 40
1.0
176
     1
  0
VISUALSTYLE
  5
31
102
{ACAD_REACTORS
330
2A
102
}
330
2A
100
AcDbVisualStyle
  2
Hidden
 70
     6
177
     3
291
     0
 70
    58
 90
        1
176
     1
 90
        2
176
     1
 90
        2
176
     1
 90
        0
176
     1
 40
0.6
176
     1
 40
30.0
176
     1
 62
     7
420
 16777215
176
     1
 90
        2
176
     1
 90
        2
176
     1
 62
     7
176
     1
 62
   257
176
     1
 90
        2
176
     1
 90
        1
176
     1
 40
40.0
176
     1
 90
        0
176
     1
 62
   257
176
     1
 40
1.0
176
     1
 90
        1
176
     1
 90
        6
176
     1
 90
        2
176
     1
 62
     7
176
     1
 90
        3
176
     1
 90
        0
176
     1
 90
        0
176
     1
290
     0
176
     1
 90
        1
176
     1
 40
0.0
176
     1
 90
        0
176
     1
290
     0
176
     1
290
     1
176
     1
290
     1
176
     1
290
     0
176
     1
290
     0
176
     1
290
     0
176
     1
290
     0
176
     1
290
     0
176
     1
290
     0
176
     1
 90
       50
176
     1
 40
0.0
176
     1
 40
1.0
176
     1
 90
        0
176
     1
 62
    18
420
        0
176
     1
 90
       50
176
     1
 90
        3
176
     1
 62
     5
420
      255
176
     1
290
     0
176
     1
 90
       50
176
     1
 90
       50
176
     1
 90
       50
176
     1
290
     0
176
     1
 90
       50
176
     1
 62
   256
176
     0
 40
1.0
176
     0
 90
        2
176
     1
  1
strokes_ogs.tif
176
     1
290
     0
176
     1
 40
1.0
176
     1
 40
1.0
176
     1
  0
VISUALSTYLE
  5
3B
102
{ACAD_REACTORS
330
2A
102
}
330
2A
100
AcDbVisualStyle
  2
JitterOff
 70
    20
177
     3
291
     1
 70
    58
 90
        2
176
     0
 90
        2
176
     0
 90
        0
176
     0
 90
        0
176
     0
 40
0.6
176
     0
 40
30.0
176
     0
 62
     7
420
 16777215
176
     0
 90
        1
176
     0
 90
        4
176
     0
 62
     7
176
     0
 62
   257
176
     0
 90
        1
176
     0
 90
        1
176
     0
 40
1.0
176
     0
 90
       10
176
     2
 62
     7
176
     0
 40
1.0
176
     0
 90
        1
176
     0
 90
        6
176
     0
 90
        2
176
     0
 62
     7
176
     0
 90
        5
176
     0
 90
        0
176
     0
 90
        0
176
     0
290
     0
176
     0
 90
        1
176
     0
 40
0.0
176
     0
 90
        0
176
     0
290
     0
176
     0
290
     1
176
     0
290
     1
176
     0
290
     0
176
     0
290
     0
176
     0
290
     0
176
     0
290
     0
176
     0
290
     0
176
     0
290
     0
176
     0
 90
       50
176
     0
 40
0.0
176
     0
 40
1.0
176
     0
 90
        0
176
     0
 62
    18
420
        0
176
     0
 90
       50
176
     0
 90
        3
176
     0
 62
     5
420
      255
176
     0
290
     0
176
     0
 90
       50
176
     0
 90
       50
176
     0
 90
       50
176
     0
290
     0
176
     0
 90
       50
176
     0
 62
   256
176
     0
 40
1.0
176
     0
 90
        2
176
     0
  1
strokes_ogs.tif
176
     0
290
     0
176
     0
 40
1.0
176
     0
 40
1.0
176
     0
  0
VISUALSTYLE
  5
38
102
{ACAD_REACTORS
330
2A
102
}
330
2A
100
AcDbVisualStyle
  2
Linepattern
 70
    14
177
     3
291
     1
 70
    58
 90
        2
176
     1
 90
        2
176
     1
 90
        0
176
     1
 90
        0
176
     1
 40
0.6
176
     1
 40
30.0
176
     1
 62
     7
420
 16777215
176
     1
 90
        1
176
     1
 90
        4
176
     1
 62
     7
176
     1
 62
   257
176
     1
 90
        7
176
     1
 90
        7
176
     1
 40
1.0
176
     1
 90
        8
176
     1
 62
     7
176
     1
 40
1.0
176
     1
 90
        1
176
     1
 90
        6
176
     1
 90
        2
176
     1
 62
     7
176
     1
 90
        5
176
     1
 90
        0
176
     1
 90
        0
176
     1
290
     0
176
     1
 90
        1
176
     1
 40
0.0
176
     1
 90
        0
176
     1
290
     0
176
     1
290
     1
176
     1
290
     1
176
     1
290
     0
176
     1
290
     0
176
     1
290
     0
176
     1
290
     0
176
     1
290
     0
176
     1
290
     0
176
     1
 90
       50
176
     1
 40
0.0
176
     1
 40
1.0
176
     1
 90
        0
176
     1
 62
    18
420
        0
176
     1
 90
       50
176
     1
 90
        3
176
     1
 62
     5
420
      255
176
     1
290
     0
176
     1
 90
       50
176
     1
 90
       50
176
     1
 90
       50
176
     1
290
     0
176
     1
 90
       50
176
     1
 62
   256
176
     0
 40
1.0
176
     0
 90
        2
176
     1
  1
strokes_ogs.tif
176
     1
290
     0
176
     1
 40
1.0
176
     1
 40
1.0
176
     1
  0
VISUALSTYLE
  5
3C
102
{ACAD_REACTORS
330
2A
102
}
330
2A
100
AcDbVisualStyle
  2
OverhangOff
 70
    21
177
     3
291
     1
 70
    58
 90
        2
176
     0
 90
        2
176
     0
 90
        0
176
     0
 90
        0
176
     0
 40
0.6
176
     0
 40
30.0
176
     0
 62
     7
420
 16777215
176
     0
 90
        1
176
     0
 90
        4
176
     0
 62
     7
176
     0
 62
   257
176
     0
 90
        1
176
     0
 90
        1
176
     0
 40
1.0
176
     0
 90
        9
176
     2
 62
     7
176
     0
 40
1.0
176
     0
 90
        1
176
     0
 90
        6
176
     0
 90
        2
176
     0
 62
     7
176
     0
 90
        5
176
     0
 90
        0
176
     0
 90
        0
176
     0
290
     0
176
     0
 90
        1
176
     0
 40
0.0
176
     0
 90
        0
176
     0
290
     0
176
     0
290
     1
176
     0
290
     1
176
     0
290
     0
176
     0
290
     0
176
     0
290
     0
176
     0
290
     0
176
     0
290
     0
176
     0
290
     0
176
     0
 90
       50
176
     0
 40
0.0
176
     0
 40
1.0
176
     0
 90
        0
176
     0
 62
    18
420
        0
176
     0
 90
       50
176
     0
 90
        3
176
     0
 62
     5
420
      255
176
     0
290
     0
176
     0
 90
       50
176
     0
 90
       50
176
     0
 90
       50
176
     0
290
     0
176
     0
 90
       50
176
     0
 62
   256
176
     0
 40
1.0
176
     0
 90
        2
176
     0
  1
strokes_ogs.tif
176
     0
290
     0
176
     0
 40
1.0
176
     0
 40
1.0
176
     0
  0
VISUALSTYLE
  5
33
102
{ACAD_REACTORS
330
2A
102
}
330
2A
100
AcDbVisualStyle
  2
Realistic
 70
     8
177
     3
291
     0
 70
    58
 90
        2
176
     1
 90
        3
176
     1
 90
        0
176
     1
 90
        2
176
     1
 40
0.6
176
     1
 40
30.0
176
     1
 62
     7
420
 16777215
176
     1
 90
        0
176
     1
 90
        0
176
     1
 62
     7
176
     1
 62
   257
176
     1
 90
        1
176
     1
 90
        1
176
     1
 40
1.0
176
     1
 90
        8
176
     1
 62
   257
176
     1
 40
1.0
176
     1
 90
        1
176
     1
 90
        6
176
     1
 90
        2
176
     1
 62
     7
176
     1
 90
        3
176
     1
 90
        0
176
     1
 90
        0
176
     1
290
     0
176
     1
 90
       13
176
     1
 40
0.0
176
     1
 90
        0
176
     1
290
     0
176
     1
290
     1
176
     1
290
     1
176
     1
290
     0
176
     1
290
     0
176
     1
290
     0
176
     1
290
     0
176
     1
290
     0
176
     1
290
     0
176
     1
 90
       50
176
     1
 40
0.0
176
     1
 40
1.0
176
     1
 90
        0
176
     1
 62
    18
420
        0
176
     1
 90
       50
176
     1
 90
        3
176
     1
 62
     5
420
      255
176
     1
290
     0
176
     1
 90
       50
176
     1
 90
       50
176
     1
 90
       50
176
     1
290
     0
176
     1
 90
       50
176
     1
 62
   256
176
     0
 40
1.0
176
     0
 90
        2
176
     1
  1
strokes_ogs.tif
176
     1
290
     0
176
     1
 40
1.0
176
     1
 40
1.0
176
     1
  0
VISUALSTYLE
  5
42
102
{ACAD_REACTORS
330
2A
102
}
330
2A
100
AcDbVisualStyle
  2
Shaded
 70
    27
177
     3
291
     0
 70
    58
 90
        2
176
     1
 90
        2
176
     1
 90
        1
176
     1
 90
        2
176
     1
 40
0.6
176
     1
 40
30.0
176
     1
 62
     7
420
 16777215
176
     1
 90
        0
176
     1
 90
        4
176
     1
 62
     7
176
     1
 62
   257
176
     1
 90
        1
176
     1
 90
        1
176
     1
 40
1.0
176
     1
 90
        8
176
     1
 62
   257
176
     1
 40
1.0
176
     1
 90
        1
176
     1
 90
        6
176
     1
 90
        2
176
     1
 62
     8
420
  7895160
176
     1
 90
        3
176
     1
 90
        0
176
     1
 90
        0
176
     1
290
     0
176
     1
 90
        5
176
     1
 40
0.0
176
     1
 90
        0
176
     1
290
     0
176
     1
290
     1
176
     1
290
     1
176
     1
290
     0
176
     1
290
     0
176
     1
290
     0
176
     1
290
     0
176
     1
290
     0
176
     1
290
     0
176
     1
 90
       50
176
     1
 40
0.0
176
     1
 40
1.0
176
     1
 90
        0
176
     1
 62
    18
420
        0
176
     1
 90
       50
176
     1
 90
        3
176
     1
 62
     5
420
      255
176
     1
290
     0
176
     1
 90
       50
176
     1
 90
       50
176
     1
 90
       50
176
     1
290
     0
176
     1
 90
       50
176
     1
 62
   256
176
     0
 40
1.0
176
     0
 90
        2
176
     1
  1
strokes_ogs.tif
176
     1
290
     0
176
     1
 40
1.0
176
     1
 40
1.0
176
     1
  0
VISUALSTYLE
  5
41
102
{ACAD_REACTORS
330
2A
102
}
330
2A
100
AcDbVisualStyle
  2
Shaded with edges
 70
    26
177
     3
291
     0
 70
    58
 90
        2
176
     1
 90
        2
176
     1
 90
        1
176
     1
 90
        2
176
     1
 40
0.6
176
     1
 40
30.0
176
     1
 62
     7
420
 16777215
176
     1
 90
        1
176
     1
 90
       10
176
     1
 62
     7
176
     1
 62
   257
176
     1
 90
        2
176
     1
 90
        1
176
     1
 40
1.0
176
     1
 90
        8
176
     1
 62
   257
176
     1
 40
1.0
176
     1
 90
        1
176
     1
 90
        6
176
     1
 90
        2
176
     1
 62
     7
176
     1
 90
        3
176
     1
 90
        0
176
     1
 90
        0
176
     1
290
     0
176
     1
 90
        5
176
     1
 40
0.0
176
     1
 90
        0
176
     1
290
     0
176
     1
290
     1
176
     1
290
     1
176
     1
290
     0
176
     1
290
     0
176
     1
290
     0
176
     1
290
     0
176
     1
290
     0
176
     1
290
     0
176
     1
 90
       50
176
     1
 40
0.0
176
     1
 40
1.0
176
     1
 90
        0
176
     1
 62
    18
420
        0
176
     1
 90
       50
176
     1
 90
        3
176
     1
 62
     5
420
      255
176
     1
290
     0
176
     1
 90
       50
176
     1
 90
       50
176
     1
 90
       50
176
     1
290
     0
176
     1
 90
       50
176
     1
 62
   256
176
     0
 40
1.0
176
     0
 90
        2
176
     1
  1
strokes_ogs.tif
176
     1
290
     0
176
     1
 40
1.0
176
     1
 40
1.0
176
     1
  0
VISUALSTYLE
  5
3E
102
{ACAD_REACTORS
330
2A
102
}
330
2A
100
AcDbVisualStyle
  2
Shades of Gray
 70
    23
177
     3
291
     0
 70
    58
 90
        2
176
     1
 90
        2
176
     1
 90
        3
176
     1
 90
        0
176
     1
 40
0.6
176
     1
 40
30.0
176
     1
 62
     7
420
 16777215
176
     1
 90
        2
176
     1
 90
        2
176
     1
 62
     7
176
     1
 62
     7
176
     1
 90
        1
176
     1
 90
        1
176
     1
 40
40.0
176
     1
 90
        8
176
     1
 62
     7
176
     1
 40
1.0
176
     1
 90
        1
176
     1
 90
        6
176
     1
 90
        2
176
     1
 62
     7
176
     1
 90
        3
176
     1
 90
        0
176
     1
 90
        0
176
     1
290
     0
176
     1
 90
        1
176
     1
 40
0.0
176
     1
 90
        0
176
     1
290
     0
176
     1
290
     1
176
     1
290
     1
176
     1
290
     0
176
     1
290
     0
176
     1
290
     0
176
     1
290
     0
176
     1
290
     0
176
     1
290
     0
176
     1
 90
       50
176
     1
 40
0.0
176
     1
 40
1.0
176
     1
 90
        0
176
     1
 62
    18
420
        0
176
     1
 90
       50
176
     1
 90
        3
176
     1
 62
     5
420
      255
176
     1
290
     0
176
     1
 90
       50
176
     1
 90
       50
176
     1
 90
       50
176
     1
290
     0
176
     1
 90
       50
176
     1
 62
   256
176
     0
 40
1.0
176
     0
 90
        2
176
     1
  1
strokes_ogs.tif
176
     1
290
     0
176
     1
 40
1.0
176
     1
 40
1.0
176
     1
  0
VISUALSTYLE
  5
3F
102
{ACAD_REACTORS
330
2A
102
}
330
2A
100
AcDbVisualStyle
  2
Sketchy
 70
    24
177
     3
291
     0
 70
    58
 90
        1
176
     1
 90
        2
176
     1
 90
        2
176
     1
 90
        0
176
     1
 40
0.6
176
     1
 40
30.0
176
     1
 62
     7
420
 16777215
176
     1
 90
        2
176
     1
 90
        2
176
     1
 62
     7
176
     1
 62
     7
176
     1
 90
        1
176
     1
 90
        1
176
     1
 40
40.0
176
     1
 90
       11
176
     1
 62
     7
176
     1
 40
1.0
176
     1
 90
        1
176
     1
 90
        6
176
     1
 90
        2
176
     1
 62
     7
176
     1
 90
        6
176
     1
 90
        0
176
     1
 90
        0
176
     1
290
     0
176
     1
 90
        1
176
     1
 40
0.0
176
     1
 90
        0
176
     1
290
     0
176
     1
290
     1
176
     1
290
     1
176
     1
290
     0
176
     1
290
     0
176
     1
290
     0
176
     1
290
     0
176
     1
290
     0
176
     1
290
     0
176
     1
 90
       50
176
     1
 40
0.0
176
     1
 40
1.0
176
     1
 90
        0
176
     1
 62
    18
420
        0
176
     1
 90
       50
176
     1
 90
        3
176
     1
 62
     5
420
      255
176
     1
290
     0
176
     1
 90
       50
176
     1
 90
       50
176
     1
 90
       50
176
     1
290
     0
176
     1
 90
       50
176
     1
 62
   256
176
     0
 40
1.0
176
     0
 90
        2
176
     1
  1
strokes_ogs.tif
176
     1
290
     0
176
     1
 40
1.0
176
     1
 40
1.0
176
     1
  0
VISUALSTYLE
  5
37
102
{ACAD_REACTORS
330
2A
102
}
330
2A
100
AcDbVisualStyle
  2
Thicken
 70
    13
177
     3
291
     1
 70
    58
 90
        2
176
     1
 90
        2
176
     1
 90
        0
176
     1
 90
        0
176
     1
 40
0.6
176
     1
 40
30.0
176
     1
 62
     7
420
 16777215
176
     1
 90
        1
176
     1
 90
        4
176
     1
 62
     7
176
     1
 62
   257
176
     1
 90
        1
176
     1
 90
        1
176
     1
 40
1.0
176
     1
 90
       12
176
     1
 62
     7
176
     1
 40
1.0
176
     1
 90
        1
176
     1
 90
        6
176
     1
 90
        2
176
     1
 62
     7
176
     1
 90
        5
176
     1
 90
        0
176
     1
 90
        0
176
     1
290
     0
176
     1
 90
        1
176
     1
 40
0.0
176
     1
 90
        0
176
     1
290
     0
176
     1
290
     1
176
     1
290
     1
176
     1
290
     0
176
     1
290
     0
176
     1
290
     0
176
     1
290
     0
176
     1
290
     0
176
     1
290
     0
176
     1
 90
       50
176
     1
 40
0.0
176
     1
 40
1.0
176
     1
 90
        0
176
     1
 62
    18
420
        0
176
     1
 90
       50
176
     1
 90
        3
176
     1
 62
     5
420
      255
176
     1
290
     0
176
     1
 90
       50
176
     1
 90
       50
176
     1
 90
       50
176
     1
290
     0
176
     1
 90
       50
176
     1
 62
   256
176
     0
 40
1.0
176
     0
 90
        2
176
     1
  1
strokes_ogs.tif
176
     1
290
     0
176
     1
 40
1.0
176
     1
 40
1.0
176
     1
  0
VISUALSTYLE
  5
30
102
{ACAD_REACTORS
330
2A
102
}
330
2A
100
AcDbVisualStyle
  2
Wireframe
 70
     5
177
     3
291
     0
 70
    58
 90
        0
176
     1
 90
        2
176
     1
 90
        0
176
     1
 90
        0
176
     1
 40
0.6
176
     1
 40
30.0
176
     1
 62
     7
420
 16777215
176
     1
 90
        1
176
     1
 90
        4
176
     1
 62
     7
176
     1
 62
   257
176
     1
 90
        1
176
     1
 90
        1
176
     1
 40
1.0
176
     1
 90
        0
176
     1
 62
   257
176
     1
 40
1.0
176
     1
 90
        1
176
     1
 90
        6
176
     1
 90
        2
176
     1
 62
     7
176
     1
 90
        3
176
     1
 90
        0
176
     1
 90
        0
176
     1
290
     0
176
     1
 90
        1
176
     1
 40
0.0
176
     1
 90
        0
176
     1
290
     0
176
     1
290
     1
176
     1
290
     1
176
     1
290
     0
176
     1
290
     0
176
     1
290
     0
176
     1
290
     0
176
     1
290
     0
176
     1
290
     0
176
     1
 90
       50
176
     1
 40
0.0
176
     1
 40
1.0
176
     1
 90
        0
176
     1
 62
    18
420
        0
176
     1
 90
       50
176
     1
 90
        3
176
     1
 62
     5
420
      255
176
     1
290
     0
176
     1
 90
       50
176
     1
 90
       50
176
     1
 90
       50
176
     1
290
     0
176
     1
 90
       50
176
     1
 62
   256
176
     0
 40
1.0
176
     0
 90
        2
176
     1
  1
strokes_ogs.tif
176
     1
290
     0
176
     1
 40
1.0
176
     1
 40
1.0
176
     1
  0
VISUALSTYLE
  5
40
102
{ACAD_REACTORS
330
2A
102
}
330
2A
100
AcDbVisualStyle
  2
X-Ray
 70
    25
177
     3
291
     0
 70
    58
 90
        2
176
     1
 90
        2
176
     1
 90
        1
176
     1
 90
        1
176
     1
 40
0.5
176
     1
 40
30.0
176
     1
 62
     7
420
 16777215
176
     1
 90
        1
176
     1
 90
        0
176
     1
 62
     7
176
     1
 62
   257
176
     1
 90
        1
176
     1
 90
        1
176
     1
 40
1.0
176
     1
 90
        8
176
     1
 62
     7
176
     1
 40
1.0
176
     1
 90
        1
176
     1
 90
        6
176
     1
 90
        2
176
     1
 62
     7
176
     1
 90
        3
176
     1
 90
        0
176
     1
 90
        0
176
     1
290
     0
176
     1
 90
       13
176
     1
 40
0.0
176
     1
 90
        0
176
     1
290
     0
176
     1
290
     1
176
     1
290
     1
176
     1
290
     0
176
     1
290
     0
176
     1
290
     0
176
     1
290
     0
176
     1
290
     0
176
     1
290
     0
176
     1
 90
       50
176
     1
 40
0.0
176
     1
 40
1.0
176
     1
 90
        0
176
     1
 62
    18
420
        0
176
     1
 90
       50
176
     1
 90
        3
176
     1
 62
     5
420
      255
176
     1
290
     0
176
     1
 90
       50
176
     1
 90
       50
176
     1
 90
       50
176
     1
290
     0
176
     1
 90
       50
176
     1
 62
   256
176
     0
 40
1.0
176
     0
 90
        2
176
     1
  1
strokes_ogs.tif
176
     1
290
     0
176
     1
 40
1.0
176
     1
 40
1.0
176
     1
  0
DICTIONARYVAR
  5
19D
102
{ACAD_REACTORS
330
19C
102
}
330
19C
100
DictionaryVariables
280
     0
  1
1:1
  0
DICTIONARYVAR
  5
1A2
102
{ACAD_REACTORS
330
19C
102
}
330
19C
100
DictionaryVariables
280
     0
  1
Standard
  0
DICTIONARYVAR
  5
1A1
102
{ACAD_REACTORS
330
19C
102
}
330
19C
100
DictionaryVariables
280
     0
  1
Standard
  0
DICTIONARY
  5
19E
330
6A
100
AcDbDictionary
280
     1
281
     1
  3
ACAD_ROUNDTRIP_2008_TABLESTYLE_CELLSTYLEMAP
360
19F
  0
CELLSTYLEMAP
  5
19F
102
{ACAD_REACTORS
330
19E
102
}
330
19E
100
AcDbCellStyleMap
 90
        3
300
CELLSTYLE
  1
TABLEFORMAT_BEGIN
 90
        5
170
     1
 91
        0
 92
    32768
 62
   257
 93
        1
300
CONTENTFORMAT
  1
CONTENTFORMAT_BEGIN
 90
        0
 91
        0
 92
        4
 93
        0
300

 40
0.0
140
1.0
 94
        5
 62
     0
340
11
144
0.25
309
CONTENTFORMAT_END
171
     1
301
MARGIN
  1
CELLMARGIN_BEGIN
 40
0.06
 40
0.06
 40
0.06
 40
0.06
 40
0.06
 40
0.06
309
CELLMARGIN_END
 94
        6
 95
        1
302
GRIDFORMAT
  1
GRIDFORMAT_BEGIN
 90
        0
 91
        1
 62
     0
 92
       -2
340
14
 93
        0
 40
0.045
309
GRIDFORMAT_END
 95
        2
302
GRIDFORMAT
  1
GRIDFORMAT_BEGIN
 90
        0
 91
        1
 62
     0
 92
       -2
340
14
 93
        0
 40
0.045
309
GRIDFORMAT_END
 95
        4
302
GRIDFORMAT
  1
GRIDFORMAT_BEGIN
 90
        0
 91
        1
 62
     0
 92
       -2
340
14
 93
        0
 40
0.045
309
GRIDFORMAT_END
 95
        8
302
GRIDFORMAT
  1
GRIDFORMAT_BEGIN
 90
        0
 91
        1
 62
     0
 92
       -2
340
14
 93
        0
 40
0.045
309
GRIDFORMAT_END
 95
       16
302
GRIDFORMAT
  1
GRIDFORMAT_BEGIN
 90
        0
 91
        1
 62
     0
 92
       -2
340
14
 93
        0
 40
0.045
309
GRIDFORMAT_END
 95
       32
302
GRIDFORMAT
  1
GRIDFORMAT_BEGIN
 90
        0
 91
        1
 62
     0
 92
       -2
340
14
 93
        0
 40
0.045
309
GRIDFORMAT_END
309
TABLEFORMAT_END
  1
CELLSTYLE_BEGIN
 90
        1
 91
        1
300
_TITLE
309
CELLSTYLE_END
300
CELLSTYLE
  1
TABLEFORMAT_BEGIN
 90
        5
170
     1
 91
        0
 92
        0
 62
   257
 93
        1
300
CONTENTFORMAT
  1
CONTENTFORMAT_BEGIN
 90
        0
 91
        0
 92
        4
 93
        0
300

 40
0.0
140
1.0
 94
        5
 62
     0
340
11
144
0.18
309
CONTENTFORMAT_END
171
     1
301
MARGIN
  1
CELLMARGIN_BEGIN
 40
0.06
 40
0.06
 40
0.06
 40
0.06
 40
0.06
 40
0.06
309
CELLMARGIN_END
 94
        6
 95
        1
302
GRIDFORMAT
  1
GRIDFORMAT_BEGIN
 90
        0
 91
        1
 62
     0
 92
       -2
340
14
 93
        0
 40
0.045
309
GRIDFORMAT_END
 95
        2
302
GRIDFORMAT
  1
GRIDFORMAT_BEGIN
 90
        0
 91
        1
 62
     0
 92
       -2
340
14
 93
        0
 40
0.045
309
GRIDFORMAT_END
 95
        4
302
GRIDFORMAT
  1
GRIDFORMAT_BEGIN
 90
        0
 91
        1
 62
     0
 92
       -2
340
14
 93
        0
 40
0.045
309
GRIDFORMAT_END
 95
        8
302
GRIDFORMAT
  1
GRIDFORMAT_BEGIN
 90
        0
 91
        1
 62
     0
 92
       -2
340
14
 93
        0
 40
0.045
309
GRIDFORMAT_END
 95
       16
302
GRIDFORMAT
  1
GRIDFORMAT_BEGIN
 90
        0
 91
        1
 62
     0
 92
       -2
340
14
 93
        0
 40
0.045
309
GRIDFORMAT_END
 95
       32
302
GRIDFORMAT
  1
GRIDFORMAT_BEGIN
 90
        0
 91
        1
 62
     0
 92
       -2
340
14
 93
        0
 40
0.045
309
GRIDFORMAT_END
309
TABLEFORMAT_END
  1
CELLSTYLE_BEGIN
 90
        2
 91
        1
300
_HEADER
309
CELLSTYLE_END
300
CELLSTYLE
  1
TABLEFORMAT_BEGIN
 90
        5
170
     1
 91
        0
 92
        0
 62
   257
 93
        1
300
CONTENTFORMAT
  1
CONTENTFORMAT_BEGIN
 90
        0
 91
        0
 92
        4
 93
        0
300

 40
0.0
140
1.0
 94
        2
 62
     0
340
11
144
0.18
309
CONTENTFORMAT_END
171
     1
301
MARGIN
  1
CELLMARGIN_BEGIN
 40
0.06
 40
0.06
 40
0.06
 40
0.06
 40
0.06
 40
0.06
309
CELLMARGIN_END
 94
        6
 95
        1
302
GRIDFORMAT
  1
GRIDFORMAT_BEGIN
 90
        0
 91
        1
 62
     0
 92
       -2
340
14
 93
        0
 40
0.045
309
GRIDFORMAT_END
 95
        2
302
GRIDFORMAT
  1
GRIDFORMAT_BEGIN
 90
        0
 91
        1
 62
     0
 92
       -2
340
14
 93
        0
 40
0.045
309
GRIDFORMAT_END
 95
        4
302
GRIDFORMAT
  1
GRIDFORMAT_BEGIN
 90
        0
 91
        1
 62
     0
 92
       -2
340
14
 93
        0
 40
0.045
309
GRIDFORMAT_END
 95
        8
302
GRIDFORMAT
  1
GRIDFORMAT_BEGIN
 90
        0
 91
        1
 62
     0
 92
       -2
340
14
 93
        0
 40
0.045
309
GRIDFORMAT_END
 95
       16
302
GRIDFORMAT
  1
GRIDFORMAT_BEGIN
 90
        0
 91
        1
 62
     0
 92
       -2
340
14
 93
        0
 40
0.045
309
GRIDFORMAT_END
 95
       32
302
GRIDFORMAT
  1
GRIDFORMAT_BEGIN
 90
        0
 91
        1
 62
     0
 92
       -2
340
14
 93
        0
 40
0.045
309
GRIDFORMAT_END
309
TABLEFORMAT_END
  1
CELLSTYLE_BEGIN
 90
        3
 91
        2
300
_DATA
309
CELLSTYLE_END
  0
ENDSEC
  0
EOF